  0
SECTION
  2
HEADER
  9
$ACADVER
  1
AC1009
  9
$DWGCODEPAGE
  3
ansi_1252
  9
$INSBASE
 10
0.0
 20
0.0
 30
0.0
  9
$EXTMIN
 10
-0.000000000007276
 20
0.0
 30
0.0
  9
$EXTMAX
 10
40100.0
 20
25069.69256525888
 30
0.0
  9
$LIMMIN
 10
0.0
 20
0.0
  9
$LIMMAX
 10
12.0
 20
9.0
  9
$ORTHOMODE
 70
     0
  9
$REGENMODE
 70
     1
  9
$FILLMODE
 70
     1
  9
$QTEXTMODE
 70
     0
  9
$MIRRTEXT
 70
     0
  9
$DRAGMODE
 70
     2
  9
$LTSCALE
 40
1.0
  9
$OSMODE
 70
 16383
  9
$ATTMODE
 70
     1
  9
$TEXTSIZE
 40
0.2
  9
$TRACEWID
 40
0.05
  9
$TEXTSTYLE
  7
STANDARD
  9
$CLAYER
  8
0
  9
$CELTYPE
  6
BYLAYER
  9
$CECOLOR
 62
   256
  9
$DIMSCALE
 40
1.0
  9
$DIMASZ
 40
0.18
  9
$DIMEXO
 40
0.0625
  9
$DIMDLI
 40
0.38
  9
$DIMRND
 40
0.0
  9
$DIMDLE
 40
0.0
  9
$DIMEXE
 40
0.18
  9
$DIMTP
 40
0.0
  9
$DIMTM
 40
0.0
  9
$DIMTXT
 40
0.18
  9
$DIMCEN
 40
0.09
  9
$DIMTSZ
 40
0.0
  9
$DIMTOL
 70
     0
  9
$DIMLIM
 70
     0
  9
$DIMTIH
 70
     1
  9
$DIMTOH
 70
     1
  9
$DIMSE1
 70
     0
  9
$DIMSE2
 70
     0
  9
$DIMTAD
 70
     0
  9
$DIMZIN
 70
     0
  9
$DIMBLK
  1

  9
$DIMASO
 70
     1
  9
$DIMSHO
 70
     1
  9
$DIMPOST
  1

  9
$DIMAPOST
  1

  9
$DIMALT
 70
     0
  9
$DIMALTD
 70
     2
  9
$DIMALTF
 40
25.4
  9
$DIMLFAC
 40
1.0
  9
$DIMTOFL
 70
     0
  9
$DIMTVP
 40
0.0
  9
$DIMTIX
 70
     0
  9
$DIMSOXD
 70
     0
  9
$DIMSAH
 70
     0
  9
$DIMBLK1
  1

  9
$DIMBLK2
  1

  9
$DIMSTYLE
  2
STANDARD
  9
$DIMCLRD
 70
     0
  9
$DIMCLRE
 70
     0
  9
$DIMCLRT
 70
     0
  9
$DIMTFAC
 40
1.0
  9
$DIMGAP
 40
0.09
  9
$LUNITS
 70
     2
  9
$LUPREC
 70
     4
  9
$SKETCHINC
 40
0.1
  9
$FILLETRAD
 40
0.0
  9
$AUNITS
 70
     0
  9
$AUPREC
 70
     0
  9
$MENU
  1
.
  9
$ELEVATION
 40
0.0
  9
$PELEVATION
 40
0.0
  9
$THICKNESS
 40
0.0
  9
$LIMCHECK
 70
     0
  9
$CHAMFERA
 40
0.0
  9
$CHAMFERB
 40
0.0
  9
$SKPOLY
 70
     0
  9
$TDCREATE
 40
2458132.306602465
  9
$TDUPDATE
 40
2459760.48278581
  9
$TDINDWG
 40
0.0734062269
  9
$TDUSRTIMER
 40
0.000317419
  9
$USRTIMER
 70
     1
  9
$ANGBASE
 50
0.0
  9
$ANGDIR
 70
     0
  9
$PDMODE
 70
     0
  9
$PDSIZE
 40
0.0
  9
$PLINEWID
 40
0.0
  9
$COORDS
 70
     1
  9
$SPLFRAME
 70
     0
  9
$SPLINETYPE
 70
     6
  9
$SPLINESEGS
 70
     8
  9
$ATTDIA
 70
     0
  9
$ATTREQ
 70
     1
  9
$HANDLING
 70
     1
  9
$HANDSEED
  5
59B2
  9
$SURFTAB1
 70
     6
  9
$SURFTAB2
 70
     6
  9
$SURFTYPE
 70
     6
  9
$SURFU
 70
     6
  9
$SURFV
 70
     6
  9
$UCSNAME
  2

  9
$UCSORG
 10
0.0
 20
0.0
 30
0.0
  9
$UCSXDIR
 10
1.0
 20
0.0
 30
0.0
  9
$UCSYDIR
 10
0.0
 20
1.0
 30
0.0
  9
$PUCSNAME
  2

  9
$PUCSORG
 10
0.0
 20
0.0
 30
0.0
  9
$PUCSXDIR
 10
1.0
 20
0.0
 30
0.0
  9
$PUCSYDIR
 10
0.0
 20
1.0
 30
0.0
  9
$USERI1
 70
     0
  9
$USERI2
 70
     0
  9
$USERI3
 70
     0
  9
$USERI4
 70
     0
  9
$USERI5
 70
     0
  9
$USERR1
 40
0.0
  9
$USERR2
 40
0.0
  9
$USERR3
 40
0.0
  9
$USERR4
 40
0.0
  9
$USERR5
 40
0.0
  9
$WORLDVIEW
 70
     1
  9
$SHADEDGE
 70
     3
  9
$SHADEDIF
 70
    70
  9
$TILEMODE
 70
     1
  9
$MAXACTVP
 70
    64
  9
$PLIMCHECK
 70
     0
  9
$PEXTMIN
 10
0.0
 20
0.0
 30
0.0
  9
$PEXTMAX
 10
0.0
 20
0.0
 30
0.0
  9
$PLIMMIN
 10
0.0
 20
0.0
  9
$PLIMMAX
 10
0.0
 20
0.0
  9
$UNITMODE
 70
     0
  9
$VISRETAIN
 70
     1
  9
$PLINEGEN
 70
     0
  9
$PSLTSCALE
 70
     1
  0
ENDSEC
  0
SECTION
  2
TABLES
  0
TABLE
  2
VPORT
 70
     1
  0
VPORT
  2
*ACTIVE
 70
     0
 10
0.0
 20
0.0
 11
1.0
 21
1.0
 12
20050.0
 22
12534.84628262944
 13
0.0
 23
0.0
 14
0.5
 24
0.5
 15
0.5
 25
0.5
 16
0.0
 26
0.0
 36
1.0
 17
0.0
 27
0.0
 37
0.0
 40
25571.08641656406
 41
2.03629417382999
 42
50.0
 43
0.0
 44
0.0
 50
0.0
 51
0.0
 71
    16
 72
  1000
 73
     1
 74
     3
 75
     0
 76
     0
 77
     0
 78
     0
  0
ENDTAB
  0
TABLE
  2
LTYPE
 70
     1
  0
LTYPE
  2
CONTINUOUS
 70
     0
  3
Solid line
 72
    65
 73
     0
 40
0.0
  0
ENDTAB
  0
TABLE
  2
LAYER
 70
     2
  0
LAYER
  2
0
 70
     0
 62
     7
  6
CONTINUOUS
  0
LAYER
  2
CLOTHES_RAIL
 70
     0
 62
     3
  6
CONTINUOUS
  0
ENDTAB
  0
TABLE
  2
STYLE
 70
     2
  0
STYLE
  2
STANDARD
 70
     0
 40
0.0
 41
1.0
 50
0.0
 71
     0
 42
0.2
  3
txt
  4

  0
STYLE
  2
STILE1
 70
     0
 40
0.0
 41
1.0
 50
0.0
 71
     0
 42
19.0
  3
ROMANS.SHX
  4

  0
ENDTAB
  0
TABLE
  2
VIEW
 70
     0
  0
ENDTAB
  0
TABLE
  2
UCS
 70
     0
  0
ENDTAB
  0
TABLE
  2
APPID
 70
     1
  0
APPID
  2
ACAD
 70
     0
  0
ENDTAB
  0
TABLE
  2
DIMSTYLE
 70
     1
  0
DIMSTYLE
  2
STANDARD
 70
     0
  3

  4

  5

  6

  7

 40
1.0
 41
0.18
 42
0.0625
 43
0.38
 44
0.18
 45
0.0
 46
0.0
 47
0.0
 48
0.0
140
0.18
141
0.09
142
0.0
143
25.4
144
1.0
145
0.0
146
1.0
147
0.09
 71
     0
 72
     0
 73
     1
 74
     1
 75
     0
 76
     0
 77
     0
 78
     0
170
     0
171
     2
172
     0
173
     0
174
     0
175
     0
176
     0
177
     0
178
     0
  0
ENDTAB
  0
ENDSEC
  0
SECTION
  2
BLOCKS
  0
BLOCK
  8
0
  2
$MODEL_SPACE
 70
     0
 10
0.0
 20
0.0
 30
0.0
  3
$MODEL_SPACE
  1

  0
ENDBLK
  5
442A
  8
0
  0
BLOCK
 67
     1
  8
0
  2
$PAPER_SPACE
 70
     0
 10
0.0
 20
0.0
 30
0.0
  3
$PAPER_SPACE
  1

  0
ENDBLK
  5
4426
 67
     1
  8
0
  0
ENDSEC
  0
SECTION
  2
ENTITIES
  0
POLYLINE
  5
288
  8
0
 66
     1
 10
0.0
 20
0.0
 30
0.0
 70
     1
  0
VERTEX
  5
4F30
  8
0
 10
21902.18639094055
 20
4038.036426392781
 30
0.0
  0
VERTEX
  5
4F31
  8
0
 10
21902.18639094055
 20
4008.036426392783
 30
0.0
  0
VERTEX
  5
4F32
  8
0
 10
21166.18639094054
 20
4008.036426392783
 30
0.0
  0
VERTEX
  5
4F33
  8
0
 10
21166.18639094054
 20
4038.036426392781
 30
0.0
  0
SEQEND
  5
57D1
  8
0
  0
POLYLINE
  5
289
  8
0
 66
     1
 10
0.0
 20
0.0
 30
0.0
 70
     1
  0
VERTEX
  5
4F34
  8
0
 10
21166.1863909405
 20
2258.036426392791
 30
0.0
  0
VERTEX
  5
4F35
  8
0
 10
21166.1863909405
 20
2288.036426392791
 30
0.0
  0
VERTEX
  5
4F36
  8
0
 10
21902.1863909405
 20
2288.036426392791
 30
0.0
  0
VERTEX
  5
4F37
  8
0
 10
21902.1863909405
 20
2258.036426392791
 30
0.0
  0
SEQEND
  5
57D2
  8
0
  0
POLYLINE
  5
28A
  8
0
 66
     1
 10
0.0
 20
0.0
 30
0.0
 70
     1
  0
VERTEX
  5
4F38
  8
0
 10
21902.18639094049
 20
2508.036426392792
 30
0.0
  0
VERTEX
  5
4F39
  8
0
 10
21902.18639094049
 20
2538.036426392791
 30
0.0
  0
VERTEX
  5
4F3A
  8
0
 10
21166.18639094049
 20
2538.036426392791
 30
0.0
  0
VERTEX
  5
4F3B
  8
0
 10
21166.18639094049
 20
2508.036426392792
 30
0.0
  0
SEQEND
  5
57D3
  8
0
  0
POLYLINE
  5
28B
  8
0
 66
     1
 10
0.0
 20
0.0
 30
0.0
 70
     1
  0
VERTEX
  5
4F3C
  8
0
 10
21902.18639094055
 20
3008.036426392783
 30
0.0
  0
VERTEX
  5
4F3D
  8
0
 10
21902.18639094055
 20
3038.036426392781
 30
0.0
  0
VERTEX
  5
4F3E
  8
0
 10
21166.18639094054
 20
3038.036426392781
 30
0.0
  0
VERTEX
  5
4F3F
  8
0
 10
21166.18639094054
 20
3008.036426392783
 30
0.0
  0
SEQEND
  5
57D4
  8
0
  0
POLYLINE
  5
28C
  8
CLOTHES_RAIL
 66
     1
 10
0.0
 20
0.0
 30
0.0
 70
     1
  0
VERTEX
  5
4F40
  8
CLOTHES_RAIL
 10
21902.18639094055
 20
3960.536426392783
 30
0.0
  0
VERTEX
  5
4F41
  8
CLOTHES_RAIL
 10
21902.18639094055
 20
3935.536426392783
 30
0.0
  0
VERTEX
  5
4F42
  8
CLOTHES_RAIL
 10
21166.18639094054
 20
3935.536426392783
 30
0.0
  0
VERTEX
  5
4F43
  8
CLOTHES_RAIL
 10
21166.18639094054
 20
3960.536426392783
 30
0.0
  0
SEQEND
  5
57D5
  8
CLOTHES_RAIL
  0
POLYLINE
  5
28D
  8
0
 66
     1
 10
0.0
 20
0.0
 30
0.0
 70
     1
  0
VERTEX
  5
4F44
  8
0
 10
21902.18639094055
 20
2758.036426392792
 30
0.0
  0
VERTEX
  5
4F45
  8
0
 10
21902.18639094055
 20
2788.036426392791
 30
0.0
  0
VERTEX
  5
4F46
  8
0
 10
21166.18639094054
 20
2788.036426392791
 30
0.0
  0
VERTEX
  5
4F47
  8
0
 10
21166.18639094054
 20
2758.036426392792
 30
0.0
  0
SEQEND
  5
57D6
  8
0
  0
POLYLINE
  5
28E
  8
0
 66
     1
 10
0.0
 20
0.0
 30
0.0
 70
     1
  0
VERTEX
  5
4F48
  8
0
 10
19166.1863909405
 20
2258.036426392791
 30
0.0
  0
VERTEX
  5
4F49
  8
0
 10
19166.1863909405
 20
2288.036426392791
 30
0.0
  0
VERTEX
  5
4F4A
  8
0
 10
19902.18639094052
 20
2288.036426392791
 30
0.0
  0
VERTEX
  5
4F4B
  8
0
 10
19902.18639094052
 20
2258.036426392791
 30
0.0
  0
SEQEND
  5
57D7
  8
0
  0
POLYLINE
  5
28F
  8
0
 66
     1
 10
0.0
 20
0.0
 30
0.0
 70
     1
  0
VERTEX
  5
4F4C
  8
0
 10
19902.18639094051
 20
2508.036426392792
 30
0.0
  0
VERTEX
  5
4F4D
  8
0
 10
19902.18639094051
 20
2538.036426392791
 30
0.0
  0
VERTEX
  5
4F4E
  8
0
 10
19166.18639094049
 20
2538.036426392791
 30
0.0
  0
VERTEX
  5
4F4F
  8
0
 10
19166.18639094049
 20
2508.036426392792
 30
0.0
  0
SEQEND
  5
57D8
  8
0
  0
POLYLINE
  5
290
  8
0
 66
     1
 10
0.0
 20
0.0
 30
0.0
 70
     1
  0
VERTEX
  5
4F50
  8
0
 10
19902.18639094056
 20
3008.036426392783
 30
0.0
  0
VERTEX
  5
4F51
  8
0
 10
19902.18639094056
 20
3038.036426392781
 30
0.0
  0
VERTEX
  5
4F52
  8
0
 10
19166.18639094054
 20
3038.036426392781
 30
0.0
  0
VERTEX
  5
4F53
  8
0
 10
19166.18639094054
 20
3008.036426392783
 30
0.0
  0
SEQEND
  5
57D9
  8
0
  0
POLYLINE
  5
291
  8
CLOTHES_RAIL
 66
     1
 10
0.0
 20
0.0
 30
0.0
 70
     1
  0
VERTEX
  5
4F54
  8
CLOTHES_RAIL
 10
19902.18639094056
 20
3960.536426392783
 30
0.0
  0
VERTEX
  5
4F55
  8
CLOTHES_RAIL
 10
19902.18639094056
 20
3935.536426392783
 30
0.0
  0
VERTEX
  5
4F56
  8
CLOTHES_RAIL
 10
19166.18639094054
 20
3935.536426392783
 30
0.0
  0
VERTEX
  5
4F57
  8
CLOTHES_RAIL
 10
19166.18639094054
 20
3960.536426392783
 30
0.0
  0
SEQEND
  5
57DA
  8
CLOTHES_RAIL
  0
POLYLINE
  5
292
  8
0
 66
     1
 10
0.0
 20
0.0
 30
0.0
 70
     1
  0
VERTEX
  5
4F58
  8
0
 10
19902.18639094056
 20
4038.036426392781
 30
0.0
  0
VERTEX
  5
4F59
  8
0
 10
19902.18639094056
 20
4008.036426392783
 30
0.0
  0
VERTEX
  5
4F5A
  8
0
 10
19166.18639094054
 20
4008.036426392783
 30
0.0
  0
VERTEX
  5
4F5B
  8
0
 10
19166.18639094054
 20
4038.036426392781
 30
0.0
  0
SEQEND
  5
57DB
  8
0
  0
POLYLINE
  5
293
  8
0
 66
     1
 10
0.0
 20
0.0
 30
0.0
 70
     1
  0
VERTEX
  5
4F5C
  8
0
 10
19902.18639094056
 20
2758.036426392792
 30
0.0
  0
VERTEX
  5
4F5D
  8
0
 10
19902.18639094056
 20
2788.036426392791
 30
0.0
  0
VERTEX
  5
4F5E
  8
0
 10
19166.18639094054
 20
2788.036426392791
 30
0.0
  0
VERTEX
  5
4F5F
  8
0
 10
19166.18639094054
 20
2758.036426392792
 30
0.0
  0
SEQEND
  5
57DC
  8
0
  0
POLYLINE
  5
294
  8
0
 66
     1
 10
0.0
 20
0.0
 30
0.0
 70
     1
  0
VERTEX
  5
4F60
  8
0
 10
19166.1863909405
 20
10285.38139913677
 30
0.0
  0
VERTEX
  5
4F61
  8
0
 10
19166.1863909405
 20
10315.38139913677
 30
0.0
  0
VERTEX
  5
4F62
  8
0
 10
20102.1863909405
 20
10315.38139913677
 30
0.0
  0
VERTEX
  5
4F63
  8
0
 10
20102.1863909405
 20
10285.38139913677
 30
0.0
  0
SEQEND
  5
57DD
  8
0
  0
POLYLINE
  5
295
  8
0
 66
     1
 10
0.0
 20
0.0
 30
0.0
 70
     1
  0
VERTEX
  5
4F64
  8
0
 10
20102.18639094049
 20
10535.38139913677
 30
0.0
  0
VERTEX
  5
4F65
  8
0
 10
20102.18639094049
 20
10565.38139913677
 30
0.0
  0
VERTEX
  5
4F66
  8
0
 10
19166.18639094049
 20
10565.38139913677
 30
0.0
  0
VERTEX
  5
4F67
  8
0
 10
19166.18639094049
 20
10535.38139913677
 30
0.0
  0
SEQEND
  5
57DE
  8
0
  0
POLYLINE
  5
296
  8
0
 66
     1
 10
0.0
 20
0.0
 30
0.0
 70
     1
  0
VERTEX
  5
4F68
  8
0
 10
20102.18639094054
 20
11035.38139913676
 30
0.0
  0
VERTEX
  5
4F69
  8
0
 10
20102.18639094054
 20
11065.38139913676
 30
0.0
  0
VERTEX
  5
4F6A
  8
0
 10
19166.18639094054
 20
11065.38139913676
 30
0.0
  0
VERTEX
  5
4F6B
  8
0
 10
19166.18639094054
 20
11035.38139913676
 30
0.0
  0
SEQEND
  5
57DF
  8
0
  0
POLYLINE
  5
297
  8
0
 66
     1
 10
0.0
 20
0.0
 30
0.0
 70
     1
  0
VERTEX
  5
4F6C
  8
0
 10
20102.18639094054
 20
10785.38139913677
 30
0.0
  0
VERTEX
  5
4F6D
  8
0
 10
20102.18639094054
 20
10815.38139913677
 30
0.0
  0
VERTEX
  5
4F6E
  8
0
 10
19166.18639094054
 20
10815.38139913677
 30
0.0
  0
VERTEX
  5
4F6F
  8
0
 10
19166.18639094054
 20
10785.38139913677
 30
0.0
  0
SEQEND
  5
57E0
  8
0
  0
POLYLINE
  5
298
  8
CLOTHES_RAIL
 66
     1
 10
0.0
 20
0.0
 30
0.0
 70
     1
  0
VERTEX
  5
4F70
  8
CLOTHES_RAIL
 10
20102.18639094054
 20
11987.88139913676
 30
0.0
  0
VERTEX
  5
4F71
  8
CLOTHES_RAIL
 10
20102.18639094054
 20
11962.88139913676
 30
0.0
  0
VERTEX
  5
4F72
  8
CLOTHES_RAIL
 10
19166.18639094054
 20
11962.88139913676
 30
0.0
  0
VERTEX
  5
4F73
  8
CLOTHES_RAIL
 10
19166.18639094054
 20
11987.88139913676
 30
0.0
  0
SEQEND
  5
57E1
  8
CLOTHES_RAIL
  0
POLYLINE
  5
299
  8
0
 66
     1
 10
0.0
 20
0.0
 30
0.0
 70
     1
  0
VERTEX
  5
4F74
  8
0
 10
20102.18639094054
 20
12065.38139913676
 30
0.0
  0
VERTEX
  5
4F75
  8
0
 10
20102.18639094054
 20
12035.38139913676
 30
0.0
  0
VERTEX
  5
4F76
  8
0
 10
19166.18639094054
 20
12035.38139913676
 30
0.0
  0
VERTEX
  5
4F77
  8
0
 10
19166.18639094054
 20
12065.38139913676
 30
0.0
  0
SEQEND
  5
57E2
  8
0
  0
POLYLINE
  5
29A
  8
0
 66
     1
 10
0.0
 20
0.0
 30
0.0
 70
     1
  0
VERTEX
  5
4F78
  8
0
 10
22102.18639094054
 20
12065.38139913676
 30
0.0
  0
VERTEX
  5
4F79
  8
0
 10
22102.18639094054
 20
12035.38139913676
 30
0.0
  0
VERTEX
  5
4F7A
  8
0
 10
21166.18639094054
 20
12035.38139913676
 30
0.0
  0
VERTEX
  5
4F7B
  8
0
 10
21166.18639094054
 20
12065.38139913676
 30
0.0
  0
SEQEND
  5
57E3
  8
0
  0
POLYLINE
  5
29B
  8
CLOTHES_RAIL
 66
     1
 10
0.0
 20
0.0
 30
0.0
 70
     1
  0
VERTEX
  5
4F7C
  8
CLOTHES_RAIL
 10
22102.18639094054
 20
11987.88139913676
 30
0.0
  0
VERTEX
  5
4F7D
  8
CLOTHES_RAIL
 10
22102.18639094054
 20
11962.88139913676
 30
0.0
  0
VERTEX
  5
4F7E
  8
CLOTHES_RAIL
 10
21166.18639094054
 20
11962.88139913676
 30
0.0
  0
VERTEX
  5
4F7F
  8
CLOTHES_RAIL
 10
21166.18639094054
 20
11987.88139913676
 30
0.0
  0
SEQEND
  5
57E4
  8
CLOTHES_RAIL
  0
POLYLINE
  5
29C
  8
0
 66
     1
 10
0.0
 20
0.0
 30
0.0
 70
     1
  0
VERTEX
  5
4F80
  8
0
 10
22102.18639094054
 20
12285.38139913675
 30
0.0
  0
VERTEX
  5
4F81
  8
0
 10
22102.18639094054
 20
12315.38139913676
 30
0.0
  0
VERTEX
  5
4F82
  8
0
 10
21166.18639094054
 20
12315.38139913676
 30
0.0
  0
VERTEX
  5
4F83
  8
0
 10
21166.18639094054
 20
12285.38139913675
 30
0.0
  0
SEQEND
  5
57E5
  8
0
  0
POLYLINE
  5
29D
  8
0
 66
     1
 10
0.0
 20
0.0
 30
0.0
 70
     1
  0
VERTEX
  5
4F84
  8
0
 10
21166.1863909405
 20
10285.38139913677
 30
0.0
  0
VERTEX
  5
4F85
  8
0
 10
21166.1863909405
 20
10315.38139913677
 30
0.0
  0
VERTEX
  5
4F86
  8
0
 10
22102.1863909405
 20
10315.38139913677
 30
0.0
  0
VERTEX
  5
4F87
  8
0
 10
22102.1863909405
 20
10285.38139913677
 30
0.0
  0
SEQEND
  5
57E6
  8
0
  0
POLYLINE
  5
29E
  8
0
 66
     1
 10
0.0
 20
0.0
 30
0.0
 70
     1
  0
VERTEX
  5
4F88
  8
0
 10
22102.18639094049
 20
10535.38139913677
 30
0.0
  0
VERTEX
  5
4F89
  8
0
 10
22102.18639094049
 20
10565.38139913677
 30
0.0
  0
VERTEX
  5
4F8A
  8
0
 10
21166.18639094049
 20
10565.38139913677
 30
0.0
  0
VERTEX
  5
4F8B
  8
0
 10
21166.18639094049
 20
10535.38139913677
 30
0.0
  0
SEQEND
  5
57E7
  8
0
  0
POLYLINE
  5
29F
  8
0
 66
     1
 10
0.0
 20
0.0
 30
0.0
 70
     1
  0
VERTEX
  5
4F8C
  8
0
 10
22102.18639094054
 20
11035.38139913676
 30
0.0
  0
VERTEX
  5
4F8D
  8
0
 10
22102.18639094054
 20
11065.38139913676
 30
0.0
  0
VERTEX
  5
4F8E
  8
0
 10
21166.18639094054
 20
11065.38139913676
 30
0.0
  0
VERTEX
  5
4F8F
  8
0
 10
21166.18639094054
 20
11035.38139913676
 30
0.0
  0
SEQEND
  5
57E8
  8
0
  0
POLYLINE
  5
2A0
  8
0
 66
     1
 10
0.0
 20
0.0
 30
0.0
 70
     1
  0
VERTEX
  5
4F90
  8
0
 10
22102.18639094054
 20
10785.38139913677
 30
0.0
  0
VERTEX
  5
4F91
  8
0
 10
22102.18639094054
 20
10815.38139913677
 30
0.0
  0
VERTEX
  5
4F92
  8
0
 10
21166.18639094054
 20
10815.38139913677
 30
0.0
  0
VERTEX
  5
4F93
  8
0
 10
21166.18639094054
 20
10785.38139913677
 30
0.0
  0
SEQEND
  5
57E9
  8
0
  0
POLYLINE
  5
2A1
  8
0
 66
     1
 10
0.0
 20
0.0
 30
0.0
 70
     1
  0
VERTEX
  5
4F94
  8
0
 10
22302.18639094054
 20
20092.72637188074
 30
0.0
  0
VERTEX
  5
4F95
  8
0
 10
22302.18639094054
 20
20062.72637188074
 30
0.0
  0
VERTEX
  5
4F96
  8
0
 10
21166.18639094054
 20
20062.72637188074
 30
0.0
  0
VERTEX
  5
4F97
  8
0
 10
21166.18639094054
 20
20092.72637188074
 30
0.0
  0
SEQEND
  5
57EA
  8
0
  0
POLYLINE
  5
2A2
  8
0
 66
     1
 10
0.0
 20
0.0
 30
0.0
 70
     1
  0
VERTEX
  5
4F98
  8
0
 10
21166.1863909405
 20
18312.72637188075
 30
0.0
  0
VERTEX
  5
4F99
  8
0
 10
21166.1863909405
 20
18342.72637188075
 30
0.0
  0
VERTEX
  5
4F9A
  8
0
 10
22302.1863909405
 20
18342.72637188075
 30
0.0
  0
VERTEX
  5
4F9B
  8
0
 10
22302.1863909405
 20
18312.72637188075
 30
0.0
  0
SEQEND
  5
57EB
  8
0
  0
POLYLINE
  5
2A3
  8
0
 66
     1
 10
0.0
 20
0.0
 30
0.0
 70
     1
  0
VERTEX
  5
4F9C
  8
0
 10
22302.18639094049
 20
18562.72637188075
 30
0.0
  0
VERTEX
  5
4F9D
  8
0
 10
22302.18639094049
 20
18592.72637188075
 30
0.0
  0
VERTEX
  5
4F9E
  8
0
 10
21166.18639094049
 20
18592.72637188075
 30
0.0
  0
VERTEX
  5
4F9F
  8
0
 10
21166.18639094049
 20
18562.72637188075
 30
0.0
  0
SEQEND
  5
57EC
  8
0
  0
POLYLINE
  5
2A4
  8
0
 66
     1
 10
0.0
 20
0.0
 30
0.0
 70
     1
  0
VERTEX
  5
4FA0
  8
0
 10
22302.18639094054
 20
19062.72637188074
 30
0.0
  0
VERTEX
  5
4FA1
  8
0
 10
22302.18639094054
 20
19092.72637188074
 30
0.0
  0
VERTEX
  5
4FA2
  8
0
 10
21166.18639094054
 20
19092.72637188074
 30
0.0
  0
VERTEX
  5
4FA3
  8
0
 10
21166.18639094054
 20
19062.72637188074
 30
0.0
  0
SEQEND
  5
57ED
  8
0
  0
POLYLINE
  5
2A5
  8
CLOTHES_RAIL
 66
     1
 10
0.0
 20
0.0
 30
0.0
 70
     1
  0
VERTEX
  5
4FA4
  8
CLOTHES_RAIL
 10
22302.18639094054
 20
20015.22637188074
 30
0.0
  0
VERTEX
  5
4FA5
  8
CLOTHES_RAIL
 10
22302.18639094054
 20
19990.22637188074
 30
0.0
  0
VERTEX
  5
4FA6
  8
CLOTHES_RAIL
 10
21166.18639094054
 20
19990.22637188074
 30
0.0
  0
VERTEX
  5
4FA7
  8
CLOTHES_RAIL
 10
21166.18639094054
 20
20015.22637188074
 30
0.0
  0
SEQEND
  5
57EE
  8
CLOTHES_RAIL
  0
POLYLINE
  5
2A6
  8
0
 66
     1
 10
0.0
 20
0.0
 30
0.0
 70
     1
  0
VERTEX
  5
4FA8
  8
0
 10
22302.18639094054
 20
18812.72637188075
 30
0.0
  0
VERTEX
  5
4FA9
  8
0
 10
22302.18639094054
 20
18842.72637188075
 30
0.0
  0
VERTEX
  5
4FAA
  8
0
 10
21166.18639094054
 20
18842.72637188075
 30
0.0
  0
VERTEX
  5
4FAB
  8
0
 10
21166.18639094054
 20
18812.72637188075
 30
0.0
  0
SEQEND
  5
57EF
  8
0
  0
POLYLINE
  5
2A7
  8
0
 66
     1
 10
0.0
 20
0.0
 30
0.0
 70
     1
  0
VERTEX
  5
4FAC
  8
0
 10
22302.18639094054
 20
20312.72637188073
 30
0.0
  0
VERTEX
  5
4FAD
  8
0
 10
22302.18639094054
 20
20342.72637188074
 30
0.0
  0
VERTEX
  5
4FAE
  8
0
 10
21166.18639094054
 20
20342.72637188074
 30
0.0
  0
VERTEX
  5
4FAF
  8
0
 10
21166.18639094054
 20
20312.72637188073
 30
0.0
  0
SEQEND
  5
57F0
  8
0
  0
POLYLINE
  5
2A8
  8
0
 66
     1
 10
0.0
 20
0.0
 30
0.0
 70
     1
  0
VERTEX
  5
4FB0
  8
0
 10
19166.1863909405
 20
18312.72637188075
 30
0.0
  0
VERTEX
  5
4FB1
  8
0
 10
19166.1863909405
 20
18342.72637188075
 30
0.0
  0
VERTEX
  5
4FB2
  8
0
 10
20302.1863909405
 20
18342.72637188075
 30
0.0
  0
VERTEX
  5
4FB3
  8
0
 10
20302.1863909405
 20
18312.72637188075
 30
0.0
  0
SEQEND
  5
57F1
  8
0
  0
POLYLINE
  5
2A9
  8
0
 66
     1
 10
0.0
 20
0.0
 30
0.0
 70
     1
  0
VERTEX
  5
4FB4
  8
0
 10
20302.18639094049
 20
18562.72637188075
 30
0.0
  0
VERTEX
  5
4FB5
  8
0
 10
20302.18639094049
 20
18592.72637188075
 30
0.0
  0
VERTEX
  5
4FB6
  8
0
 10
19166.18639094049
 20
18592.72637188075
 30
0.0
  0
VERTEX
  5
4FB7
  8
0
 10
19166.18639094049
 20
18562.72637188075
 30
0.0
  0
SEQEND
  5
57F2
  8
0
  0
POLYLINE
  5
2AA
  8
0
 66
     1
 10
0.0
 20
0.0
 30
0.0
 70
     1
  0
VERTEX
  5
4FB8
  8
0
 10
20302.18639094054
 20
19062.72637188074
 30
0.0
  0
VERTEX
  5
4FB9
  8
0
 10
20302.18639094054
 20
19092.72637188074
 30
0.0
  0
VERTEX
  5
4FBA
  8
0
 10
19166.18639094054
 20
19092.72637188074
 30
0.0
  0
VERTEX
  5
4FBB
  8
0
 10
19166.18639094054
 20
19062.72637188074
 30
0.0
  0
SEQEND
  5
57F3
  8
0
  0
POLYLINE
  5
2AB
  8
CLOTHES_RAIL
 66
     1
 10
0.0
 20
0.0
 30
0.0
 70
     1
  0
VERTEX
  5
4FBC
  8
CLOTHES_RAIL
 10
20302.18639094054
 20
20015.22637188074
 30
0.0
  0
VERTEX
  5
4FBD
  8
CLOTHES_RAIL
 10
20302.18639094054
 20
19990.22637188074
 30
0.0
  0
VERTEX
  5
4FBE
  8
CLOTHES_RAIL
 10
19166.18639094054
 20
19990.22637188074
 30
0.0
  0
VERTEX
  5
4FBF
  8
CLOTHES_RAIL
 10
19166.18639094054
 20
20015.22637188074
 30
0.0
  0
SEQEND
  5
57F4
  8
CLOTHES_RAIL
  0
POLYLINE
  5
2AC
  8
0
 66
     1
 10
0.0
 20
0.0
 30
0.0
 70
     1
  0
VERTEX
  5
4FC0
  8
0
 10
20302.18639094054
 20
20092.72637188074
 30
0.0
  0
VERTEX
  5
4FC1
  8
0
 10
20302.18639094054
 20
20062.72637188074
 30
0.0
  0
VERTEX
  5
4FC2
  8
0
 10
19166.18639094054
 20
20062.72637188074
 30
0.0
  0
VERTEX
  5
4FC3
  8
0
 10
19166.18639094054
 20
20092.72637188074
 30
0.0
  0
SEQEND
  5
57F5
  8
0
  0
POLYLINE
  5
2AD
  8
0
 66
     1
 10
0.0
 20
0.0
 30
0.0
 70
     1
  0
VERTEX
  5
4FC4
  8
0
 10
20302.18639094054
 20
18812.72637188075
 30
0.0
  0
VERTEX
  5
4FC5
  8
0
 10
20302.18639094054
 20
18842.72637188075
 30
0.0
  0
VERTEX
  5
4FC6
  8
0
 10
19166.18639094054
 20
18842.72637188075
 30
0.0
  0
VERTEX
  5
4FC7
  8
0
 10
19166.18639094054
 20
18812.72637188075
 30
0.0
  0
SEQEND
  5
57F6
  8
0
  0
POLYLINE
  5
2AE
  8
0
 66
     1
 10
0.0
 20
0.0
 30
0.0
 70
     1
  0
VERTEX
  5
4FC8
  8
0
 10
22302.41366368955
 20
24195.86185235748
 30
0.0
  0
VERTEX
  5
4FC9
  8
0
 10
22302.41366368955
 20
24225.86185235747
 30
0.0
  0
VERTEX
  5
4FCA
  8
0
 10
21166.41366368955
 20
24225.86185235747
 30
0.0
  0
VERTEX
  5
4FCB
  8
0
 10
21166.41366368955
 20
24195.86185235748
 30
0.0
  0
SEQEND
  5
57F7
  8
0
  0
POLYLINE
  5
2AF
  8
0
 66
     1
 10
0.0
 20
0.0
 30
0.0
 70
     1
  0
VERTEX
  5
4FCC
  8
0
 10
17666.12986539054
 20
20342.72637188072
 30
0.0
  0
VERTEX
  5
4FCD
  8
0
 10
17666.12986539054
 20
20312.72637188072
 30
0.0
  0
VERTEX
  5
4FCE
  8
0
 10
16530.12986539054
 20
20312.72637188072
 30
0.0
  0
VERTEX
  5
4FCF
  8
0
 10
16530.12986539054
 20
20342.72637188072
 30
0.0
  0
SEQEND
  5
57F8
  8
0
  0
POLYLINE
  5
2B0
  8
0
 66
     1
 10
0.0
 20
0.0
 30
0.0
 70
     1
  0
VERTEX
  5
4FD0
  8
0
 10
17666.1298653905
 20
24045.8618618942
 30
0.0
  0
VERTEX
  5
4FD1
  8
0
 10
17666.1298653905
 20
24075.8618618942
 30
0.0
  0
VERTEX
  5
4FD2
  8
0
 10
16530.1298653905
 20
24075.8618618942
 30
0.0
  0
VERTEX
  5
4FD3
  8
0
 10
16530.1298653905
 20
24045.8618618942
 30
0.0
  0
SEQEND
  5
57F9
  8
0
  0
POLYLINE
  5
2B1
  8
0
 66
     1
 10
0.0
 20
0.0
 30
0.0
 70
     1
  0
VERTEX
  5
4FD4
  8
0
 10
22302.41366368955
 20
23945.86185235748
 30
0.0
  0
VERTEX
  5
4FD5
  8
0
 10
22302.41366368955
 20
23975.86185235747
 30
0.0
  0
VERTEX
  5
4FD6
  8
0
 10
21166.41366368955
 20
23975.86185235747
 30
0.0
  0
VERTEX
  5
4FD7
  8
0
 10
21166.41366368955
 20
23945.86185235748
 30
0.0
  0
SEQEND
  5
57FA
  8
0
  0
POLYLINE
  5
2B2
  8
0
 66
     1
 10
0.0
 20
0.0
 30
0.0
  0
VERTEX
  5
4FD8
  8
0
 10
25109.50129716488
 20
18212.72637188079
 30
0.0
  0
VERTEX
  5
4FD9
  8
0
 10
26105.91472428031
 20
18212.72637188079
 30
0.0
  0
SEQEND
  5
57FB
  8
0
  0
POLYLINE
  5
2B3
  8
0
 66
     1
 10
0.0
 20
0.0
 30
0.0
 70
     1
  0
VERTEX
  5
4FDA
  8
0
 10
25342.70801072259
 20
24485.86186189427
 30
0.0
  0
VERTEX
  5
4FDB
  8
0
 10
25872.70801072259
 20
24485.86186189427
 30
0.0
  0
VERTEX
  5
4FDC
  8
0
 10
25872.70801072259
 20
21962.86186189421
 30
0.0
  0
VERTEX
  5
4FDD
  8
0
 10
25342.70801072259
 20
21962.86186189421
 30
0.0
  0
SEQEND
  5
57FC
  8
0
  0
POLYLINE
  5
2B4
  8
0
 66
     1
 10
0.0
 20
0.0
 30
0.0
 70
     1
  0
VERTEX
  5
4FDE
  8
0
 10
25342.70801072259
 20
20752.7263718808
 30
0.0
  0
VERTEX
  5
4FDF
  8
0
 10
25872.70801072259
 20
20752.7263718808
 30
0.0
  0
VERTEX
  5
4FE0
  8
0
 10
25872.70801072259
 20
18229.72637188075
 30
0.0
  0
VERTEX
  5
4FE1
  8
0
 10
25342.70801072259
 20
18229.72637188075
 30
0.0
  0
SEQEND
  5
57FD
  8
0
  0
POLYLINE
  5
2B5
  8
0
 66
     1
 10
0.0
 20
0.0
 30
0.0
  0
VERTEX
  5
4FE2
  8
0
 10
25109.50129716488
 20
21945.86186189426
 30
0.0
  0
VERTEX
  5
4FE3
  8
0
 10
26105.91472428031
 20
21945.86186189426
 30
0.0
  0
SEQEND
  5
57FE
  8
0
  0
POLYLINE
  5
2B6
  8
0
 66
     1
 10
0.0
 20
0.0
 30
0.0
 70
     1
  0
VERTEX
  5
4FE4
  8
0
 10
25307.7080107226
 20
21962.86186189421
 30
0.0
  0
VERTEX
  5
4FE5
  8
0
 10
25907.70801072259
 20
21962.86186189421
 30
0.0
  0
VERTEX
  5
4FE6
  8
0
 10
25907.70801072259
 20
24485.86186189427
 30
0.0
  0
VERTEX
  5
4FE7
  8
0
 10
25307.7080107226
 20
24485.86186189427
 30
0.0
  0
SEQEND
  5
57FF
  8
0
  0
POLYLINE
  5
2B7
  8
0
 66
     1
 10
0.0
 20
0.0
 30
0.0
 70
     1
  0
VERTEX
  5
4FE8
  8
0
 10
25307.7080107226
 20
18229.72637188075
 30
0.0
  0
VERTEX
  5
4FE9
  8
0
 10
25907.70801072259
 20
18229.72637188075
 30
0.0
  0
VERTEX
  5
4FEA
  8
0
 10
25907.70801072259
 20
20752.7263718808
 30
0.0
  0
VERTEX
  5
4FEB
  8
0
 10
25307.7080107226
 20
20752.7263718808
 30
0.0
  0
SEQEND
  5
5800
  8
0
  0
POLYLINE
  5
2B8
  8
0
 66
     1
 10
0.0
 20
0.0
 30
0.0
 70
     1
  0
VERTEX
  5
4FEC
  8
0
 10
21129.58639094052
 20
20752.7263718808
 30
0.0
  0
VERTEX
  5
4FED
  8
0
 10
21129.58639094052
 20
18229.72637188075
 30
0.0
  0
VERTEX
  5
4FEE
  8
0
 10
21099.58639094052
 20
18229.72637188075
 30
0.0
  0
VERTEX
  5
4FEF
  8
0
 10
21099.58639094052
 20
20752.7263718808
 30
0.0
  0
SEQEND
  5
5801
  8
0
  0
POLYLINE
  5
2B9
  8
0
 66
     1
 10
0.0
 20
0.0
 30
0.0
 70
     1
  0
VERTEX
  5
4FF0
  8
0
 10
21129.58639094058
 20
24485.86186189427
 30
0.0
  0
VERTEX
  5
4FF1
  8
0
 10
21129.58639094058
 20
21962.86186189421
 30
0.0
  0
VERTEX
  5
4FF2
  8
0
 10
21099.58639094059
 20
21962.86186189421
 30
0.0
  0
VERTEX
  5
4FF3
  8
0
 10
21099.58639094059
 20
24485.86186189427
 30
0.0
  0
SEQEND
  5
5802
  8
0
  0
POLYLINE
  5
2BA
  8
0
 66
     1
 10
0.0
 20
0.0
 30
0.0
 70
     1
  0
VERTEX
  5
4FF4
  8
0
 10
22302.41366368955
 20
23695.86185235748
 30
0.0
  0
VERTEX
  5
4FF5
  8
0
 10
22302.41366368955
 20
23725.86185235748
 30
0.0
  0
VERTEX
  5
4FF6
  8
0
 10
21166.41366368955
 20
23725.86185235748
 30
0.0
  0
VERTEX
  5
4FF7
  8
0
 10
21166.41366368955
 20
23695.86185235748
 30
0.0
  0
SEQEND
  5
5803
  8
0
  0
POLYLINE
  5
2BB
  8
0
 66
     1
 10
0.0
 20
0.0
 30
0.0
 70
     1
  0
VERTEX
  5
4FF8
  8
0
 10
22302.41366368955
 20
23445.86185235748
 30
0.0
  0
VERTEX
  5
4FF9
  8
0
 10
22302.41366368955
 20
23475.86185235748
 30
0.0
  0
VERTEX
  5
4FFA
  8
0
 10
21166.41366368955
 20
23475.86185235748
 30
0.0
  0
VERTEX
  5
4FFB
  8
0
 10
21166.41366368955
 20
23445.86185235748
 30
0.0
  0
SEQEND
  5
5804
  8
0
  0
POLYLINE
  5
2BC
  8
0
 66
     1
 10
0.0
 20
0.0
 30
0.0
 70
     1
  0
VERTEX
  5
4FFC
  8
0
 10
22302.41366368955
 20
23195.86185235749
 30
0.0
  0
VERTEX
  5
4FFD
  8
0
 10
22302.41366368955
 20
23225.86185235748
 30
0.0
  0
VERTEX
  5
4FFE
  8
0
 10
21166.41366368955
 20
23225.86185235748
 30
0.0
  0
VERTEX
  5
4FFF
  8
0
 10
21166.41366368955
 20
23195.86185235749
 30
0.0
  0
SEQEND
  5
5805
  8
0
  0
POLYLINE
  5
2BD
  8
0
 66
     1
 10
0.0
 20
0.0
 30
0.0
 70
     1
  0
VERTEX
  5
5000
  8
0
 10
22302.41366368955
 20
22945.86185235748
 30
0.0
  0
VERTEX
  5
5001
  8
0
 10
22302.41366368955
 20
22975.86185235747
 30
0.0
  0
VERTEX
  5
5002
  8
0
 10
21166.41366368955
 20
22975.86185235747
 30
0.0
  0
VERTEX
  5
5003
  8
0
 10
21166.41366368955
 20
22945.86185235748
 30
0.0
  0
SEQEND
  5
5806
  8
0
  0
POLYLINE
  5
2BE
  8
0
 66
     1
 10
0.0
 20
0.0
 30
0.0
 70
     1
  0
VERTEX
  5
5004
  8
0
 10
22302.41366368955
 20
22695.86185235748
 30
0.0
  0
VERTEX
  5
5005
  8
0
 10
22302.41366368955
 20
22725.86185235748
 30
0.0
  0
VERTEX
  5
5006
  8
0
 10
21166.41366368955
 20
22725.86185235748
 30
0.0
  0
VERTEX
  5
5007
  8
0
 10
21166.41366368955
 20
22695.86185235748
 30
0.0
  0
SEQEND
  5
5807
  8
0
  0
POLYLINE
  5
2BF
  8
0
 66
     1
 10
0.0
 20
0.0
 30
0.0
 70
     1
  0
VERTEX
  5
5008
  8
0
 10
22302.41366368955
 20
22445.86185235748
 30
0.0
  0
VERTEX
  5
5009
  8
0
 10
22302.41366368955
 20
22475.86185235748
 30
0.0
  0
VERTEX
  5
500A
  8
0
 10
21166.41366368955
 20
22475.86185235748
 30
0.0
  0
VERTEX
  5
500B
  8
0
 10
21166.41366368955
 20
22445.86185235748
 30
0.0
  0
SEQEND
  5
5808
  8
0
  0
POLYLINE
  5
2C0
  8
0
 66
     1
 10
0.0
 20
0.0
 30
0.0
 70
     1
  0
VERTEX
  5
500C
  8
0
 10
22221.6863909406
 20
21945.86186189426
 30
0.0
  0
VERTEX
  5
500D
  8
0
 10
22221.6863909406
 20
21965.86186189426
 30
0.0
  0
VERTEX
  5
500E
  8
0
 10
22241.6863909406
 20
21965.86186189426
 30
0.0
  0
VERTEX
  5
500F
  8
0
 10
22241.6863909406
 20
21945.86186189426
 30
0.0
  0
SEQEND
  5
5809
  8
0
  0
POLYLINE
  5
2C1
  8
0
 66
     1
 10
0.0
 20
0.0
 30
0.0
 70
     1
  0
VERTEX
  5
5010
  8
0
 10
21246.6863909406
 20
21945.86186189426
 30
0.0
  0
VERTEX
  5
5011
  8
0
 10
21246.6863909406
 20
21965.86186189426
 30
0.0
  0
VERTEX
  5
5012
  8
0
 10
21226.6863909406
 20
21965.86186189426
 30
0.0
  0
VERTEX
  5
5013
  8
0
 10
21226.6863909406
 20
21945.86186189426
 30
0.0
  0
SEQEND
  5
580A
  8
0
  0
POLYLINE
  5
2C2
  8
0
 66
     1
 10
0.0
 20
0.0
 30
0.0
 70
     1
  0
VERTEX
  5
5014
  8
0
 10
22241.6863909406
 20
21965.86186189426
 30
0.0
  0
VERTEX
  5
5015
  8
0
 10
22241.6863909406
 20
21945.86186189426
 30
0.0
  0
VERTEX
  5
5016
  8
0
 10
21226.6863909406
 20
21945.86186189426
 30
0.0
  0
VERTEX
  5
5017
  8
0
 10
21226.6863909406
 20
21965.86186189426
 30
0.0
  0
SEQEND
  5
580B
  8
0
  0
POLYLINE
  5
2C3
  8
0
 66
     1
 10
0.0
 20
0.0
 30
0.0
 70
     1
  0
VERTEX
  5
5018
  8
0
 10
21220.1863909406
 20
21986.36186189421
 30
0.0
  0
VERTEX
  5
5019
  8
0
 10
21220.1863909406
 20
21959.46186189442
 30
0.0
  0
VERTEX
  5
501A
  8
0
 10
21221.1863909406
 20
21958.46186189429
 30
0.0
  0
VERTEX
  5
501B
  8
0
 10
21225.1863909406
 20
21958.46186189429
 30
0.0
  0
VERTEX
  5
501C
  8
0
 10
21226.1863909406
 20
21959.46186189442
 30
0.0
  0
VERTEX
  5
501D
  8
0
 10
21226.1863909406
 20
21965.96186189429
 30
0.0
  0
VERTEX
  5
501E
  8
0
 10
21253.16862578373
 20
21966.43283855542
 30
0.0
  0
VERTEX
  5
501F
  8
0
 10
21254.1863909406
 20
21967.45060371236
 30
0.0
  0
VERTEX
  5
5020
  8
0
 10
21254.1863909406
 20
21986.36186189421
 30
0.0
  0
SEQEND
  5
580C
  8
0
  0
POLYLINE
  5
2C4
  8
0
 66
     1
 10
0.0
 20
0.0
 30
0.0
 70
     1
  0
VERTEX
  5
5021
  8
0
 10
22248.18639094054
 20
21986.36186189421
 30
0.0
  0
VERTEX
  5
5022
  8
0
 10
22248.18639094054
 20
21959.46186189442
 30
0.0
  0
VERTEX
  5
5023
  8
0
 10
22247.1863909406
 20
21958.46186189429
 30
0.0
  0
VERTEX
  5
5024
  8
0
 10
22243.18639094054
 20
21958.46186189429
 30
0.0
  0
VERTEX
  5
5025
  8
0
 10
22242.1863909406
 20
21959.46186189442
 30
0.0
  0
VERTEX
  5
5026
  8
0
 10
22242.1863909406
 20
21965.96186189429
 30
0.0
  0
VERTEX
  5
5027
  8
0
 10
22215.20415609748
 20
21966.43283855542
 30
0.0
  0
VERTEX
  5
5028
  8
0
 10
22214.1863909406
 20
21967.45060371236
 30
0.0
  0
VERTEX
  5
5029
  8
0
 10
22214.1863909406
 20
21986.36186189421
 30
0.0
  0
SEQEND
  5
580D
  8
0
  0
POLYLINE
  5
2C5
  8
0
 66
     1
 10
0.0
 20
0.0
 30
0.0
 70
     1
  0
VERTEX
  5
502A
  8
0
 10
21165.1863909406
 20
24445.86185235746
 30
0.0
  0
VERTEX
  5
502B
  8
0
 10
21165.1863909406
 20
24485.86186189427
 30
0.0
  0
VERTEX
  5
502C
  8
0
 10
22302.1863909406
 20
24485.86186189427
 30
0.0
  0
VERTEX
  5
502D
  8
0
 10
22302.1863909406
 20
24445.86185235746
 30
0.0
  0
SEQEND
  5
580E
  8
0
  0
POLYLINE
  5
2C6
  8
0
 66
     1
 10
0.0
 20
0.0
 30
0.0
 70
     1
  0
VERTEX
  5
502E
  8
0
 10
21166.1863909406
 20
22045.86186189422
 30
0.0
  0
VERTEX
  5
502F
  8
0
 10
21166.1863909406
 20
22075.86186189421
 30
0.0
  0
VERTEX
  5
5030
  8
0
 10
22302.1863909406
 20
22075.86186189421
 30
0.0
  0
VERTEX
  5
5031
  8
0
 10
22302.1863909406
 20
22045.86186189422
 30
0.0
  0
SEQEND
  5
580F
  8
0
  0
POLYLINE
  5
2C7
  8
0
 66
     1
 10
0.0
 20
0.0
 30
0.0
 70
     1
  0
VERTEX
  5
5032
  8
0
 10
22302.1863909406
 20
21986.36186189421
 30
0.0
  0
VERTEX
  5
5033
  8
0
 10
22302.1863909406
 20
22045.86186189422
 30
0.0
  0
VERTEX
  5
5034
  8
0
 10
21166.1863909406
 20
22045.86186189422
 30
0.0
  0
VERTEX
  5
5035
  8
0
 10
21166.1863909406
 20
21986.36186189421
 30
0.0
  0
SEQEND
  5
5810
  8
0
  0
POLYLINE
  5
2C8
  8
0
 66
     1
 10
0.0
 20
0.0
 30
0.0
 70
     1
  0
VERTEX
  5
5036
  8
0
 10
21166.1863909406
 20
21962.86186189421
 30
0.0
  0
VERTEX
  5
5037
  8
0
 10
21129.58639094039
 20
21962.86186189421
 30
0.0
  0
VERTEX
  5
5038
  8
0
 10
21129.58639094039
 20
24485.86186189427
 30
0.0
  0
VERTEX
  5
5039
  8
0
 10
21165.1863909406
 20
24485.86186189427
 30
0.0
  0
VERTEX
  5
503A
  8
0
 10
21165.1863909406
 20
24445.86185235746
 30
0.0
  0
VERTEX
  5
503B
  8
0
 10
21166.1863909406
 20
24445.86185235746
 30
0.0
  0
SEQEND
  5
5811
  8
0
  0
POLYLINE
  5
2C9
  8
0
 66
     1
 10
0.0
 20
0.0
 30
0.0
 70
     1
  0
VERTEX
  5
503C
  8
0
 10
22337.1863909406
 20
21967.86186189422
 30
0.0
  0
VERTEX
  5
503D
  8
0
 10
22337.1863909406
 20
24485.86186189427
 30
0.0
  0
VERTEX
  5
503E
  8
0
 10
22302.1863909406
 20
24485.86186189427
 30
0.0
  0
VERTEX
  5
503F
  8
0
 10
22302.1863909406
 20
21967.86186189422
 30
0.0
  0
SEQEND
  5
5812
  8
0
  0
POLYLINE
  5
2CA
  8
0
 66
     1
 10
0.0
 20
0.0
 30
0.0
 70
     1
  0
VERTEX
  5
5040
  8
0
 10
22337.18639094055
 20
18234.72637188075
 30
0.0
  0
VERTEX
  5
5041
  8
0
 10
22337.18639094055
 20
20752.7263718808
 30
0.0
  0
VERTEX
  5
5042
  8
0
 10
22302.18639094054
 20
20752.7263718808
 30
0.0
  0
VERTEX
  5
5043
  8
0
 10
22302.18639094054
 20
18234.72637188075
 30
0.0
  0
SEQEND
  5
5813
  8
0
  0
POLYLINE
  5
2CB
  8
0
 66
     1
 10
0.0
 20
0.0
 30
0.0
 70
     1
  0
VERTEX
  5
5044
  8
0
 10
21166.18639094054
 20
18229.72637188075
 30
0.0
  0
VERTEX
  5
5045
  8
0
 10
21129.58639094035
 20
18229.72637188075
 30
0.0
  0
VERTEX
  5
5046
  8
0
 10
21129.58639094035
 20
20752.7263718808
 30
0.0
  0
VERTEX
  5
5047
  8
0
 10
21165.18639094054
 20
20752.7263718808
 30
0.0
  0
VERTEX
  5
5048
  8
0
 10
21165.18639094054
 20
20712.72636234399
 30
0.0
  0
VERTEX
  5
5049
  8
0
 10
21166.18639094054
 20
20712.72636234399
 30
0.0
  0
SEQEND
  5
5814
  8
0
  0
POLYLINE
  5
2CC
  8
0
 66
     1
 10
0.0
 20
0.0
 30
0.0
 70
     1
  0
VERTEX
  5
504A
  8
0
 10
21165.18639094054
 20
20712.72636234399
 30
0.0
  0
VERTEX
  5
504B
  8
0
 10
21165.18639094054
 20
20752.7263718808
 30
0.0
  0
VERTEX
  5
504C
  8
0
 10
22302.18639094054
 20
20752.7263718808
 30
0.0
  0
VERTEX
  5
504D
  8
0
 10
22302.18639094054
 20
20712.72636234399
 30
0.0
  0
SEQEND
  5
5815
  8
0
  0
POLYLINE
  5
2CD
  8
0
 66
     1
 10
0.0
 20
0.0
 30
0.0
 70
     1
  0
VERTEX
  5
504E
  8
0
 10
22248.1863909405
 20
18253.22637188075
 30
0.0
  0
VERTEX
  5
504F
  8
0
 10
22248.1863909405
 20
18226.32637188095
 30
0.0
  0
VERTEX
  5
5050
  8
0
 10
22247.18639094054
 20
18225.32637188083
 30
0.0
  0
VERTEX
  5
5051
  8
0
 10
22243.1863909405
 20
18225.32637188083
 30
0.0
  0
VERTEX
  5
5052
  8
0
 10
22242.18639094055
 20
18226.32637188095
 30
0.0
  0
VERTEX
  5
5053
  8
0
 10
22242.18639094055
 20
18232.82637188083
 30
0.0
  0
VERTEX
  5
5054
  8
0
 10
22215.2041560974
 20
18233.29734854196
 30
0.0
  0
VERTEX
  5
5055
  8
0
 10
22214.18639094054
 20
18234.3151136989
 30
0.0
  0
VERTEX
  5
5056
  8
0
 10
22214.18639094054
 20
18253.22637188075
 30
0.0
  0
SEQEND
  5
5816
  8
0
  0
POLYLINE
  5
2CE
  8
0
 66
     1
 10
0.0
 20
0.0
 30
0.0
 70
     1
  0
VERTEX
  5
5057
  8
0
 10
21220.18639094054
 20
18253.22637188075
 30
0.0
  0
VERTEX
  5
5058
  8
0
 10
21220.18639094054
 20
18226.32637188095
 30
0.0
  0
VERTEX
  5
5059
  8
0
 10
21221.18639094054
 20
18225.32637188083
 30
0.0
  0
VERTEX
  5
505A
  8
0
 10
21225.18639094054
 20
18225.32637188083
 30
0.0
  0
VERTEX
  5
505B
  8
0
 10
21226.18639094054
 20
18226.32637188095
 30
0.0
  0
VERTEX
  5
505C
  8
0
 10
21226.18639094054
 20
18232.82637188083
 30
0.0
  0
VERTEX
  5
505D
  8
0
 10
21253.16862578368
 20
18233.29734854196
 30
0.0
  0
VERTEX
  5
505E
  8
0
 10
21254.18639094054
 20
18234.3151136989
 30
0.0
  0
VERTEX
  5
505F
  8
0
 10
21254.18639094054
 20
18253.22637188075
 30
0.0
  0
SEQEND
  5
5817
  8
0
  0
POLYLINE
  5
2CF
  8
0
 66
     1
 10
0.0
 20
0.0
 30
0.0
 70
     1
  0
VERTEX
  5
5060
  8
0
 10
22241.68639094054
 20
18232.72637188079
 30
0.0
  0
VERTEX
  5
5061
  8
0
 10
22241.68639094054
 20
18212.72637188079
 30
0.0
  0
VERTEX
  5
5062
  8
0
 10
21226.68639094054
 20
18212.72637188079
 30
0.0
  0
VERTEX
  5
5063
  8
0
 10
21226.68639094054
 20
18232.72637188079
 30
0.0
  0
SEQEND
  5
5818
  8
0
  0
POLYLINE
  5
2D0
  8
0
 66
     1
 10
0.0
 20
0.0
 30
0.0
 70
     1
  0
VERTEX
  5
5064
  8
0
 10
21246.68639094054
 20
18212.72637188079
 30
0.0
  0
VERTEX
  5
5065
  8
0
 10
21246.68639094054
 20
18232.72637188079
 30
0.0
  0
VERTEX
  5
5066
  8
0
 10
21226.68639094054
 20
18232.72637188079
 30
0.0
  0
VERTEX
  5
5067
  8
0
 10
21226.68639094054
 20
18212.72637188079
 30
0.0
  0
SEQEND
  5
5819
  8
0
  0
POLYLINE
  5
2D1
  8
0
 66
     1
 10
0.0
 20
0.0
 30
0.0
 70
     1
  0
VERTEX
  5
5068
  8
0
 10
22221.68639094054
 20
18212.72637188079
 30
0.0
  0
VERTEX
  5
5069
  8
0
 10
22221.68639094054
 20
18232.72637188079
 30
0.0
  0
VERTEX
  5
506A
  8
0
 10
22241.68639094054
 20
18232.72637188079
 30
0.0
  0
VERTEX
  5
506B
  8
0
 10
22241.68639094054
 20
18212.72637188079
 30
0.0
  0
SEQEND
  5
581A
  8
0
  0
POLYLINE
  5
2D2
  8
0
 66
     1
 10
0.0
 20
0.0
 30
0.0
 70
     1
  0
VERTEX
  5
506C
  8
0
 10
22302.1863909405
 20
18253.22637188075
 30
0.0
  0
VERTEX
  5
506D
  8
0
 10
22302.1863909405
 20
18312.72637188075
 30
0.0
  0
VERTEX
  5
506E
  8
0
 10
21166.1863909405
 20
18312.72637188075
 30
0.0
  0
VERTEX
  5
506F
  8
0
 10
21166.1863909405
 20
18253.22637188075
 30
0.0
  0
SEQEND
  5
581B
  8
0
  0
POLYLINE
  5
2D3
  8
0
 66
     1
 10
0.0
 20
0.0
 30
0.0
 70
     1
  0
VERTEX
  5
5070
  8
0
 10
16493.52986539044
 20
20752.72637188079
 30
0.0
  0
VERTEX
  5
5071
  8
0
 10
16493.52986539044
 20
18229.72637188075
 30
0.0
  0
VERTEX
  5
5072
  8
0
 10
16463.52986539044
 20
18229.72637188075
 30
0.0
  0
VERTEX
  5
5073
  8
0
 10
16463.52986539044
 20
20752.72637188079
 30
0.0
  0
SEQEND
  5
581C
  8
0
  0
POLYLINE
  5
2D4
  8
0
 66
     1
 10
0.0
 20
0.0
 30
0.0
 70
     1
  0
VERTEX
  5
5074
  8
0
 10
16493.52986539045
 20
24485.86186189427
 30
0.0
  0
VERTEX
  5
5075
  8
0
 10
16493.52986539045
 20
21962.86186189421
 30
0.0
  0
VERTEX
  5
5076
  8
0
 10
16463.52986539044
 20
21962.86186189421
 30
0.0
  0
VERTEX
  5
5077
  8
0
 10
16463.52986539044
 20
24485.86186189427
 30
0.0
  0
SEQEND
  5
581D
  8
0
  0
POLYLINE
  5
2D5
  8
0
 66
     1
 10
0.0
 20
0.0
 30
0.0
 70
     1
  0
VERTEX
  5
5078
  8
0
 10
17701.12986539054
 20
18234.72637188075
 30
0.0
  0
VERTEX
  5
5079
  8
0
 10
17701.12986539054
 20
20752.7263718808
 30
0.0
  0
VERTEX
  5
507A
  8
0
 10
17666.12986539054
 20
20752.7263718808
 30
0.0
  0
VERTEX
  5
507B
  8
0
 10
17666.12986539054
 20
18234.72637188075
 30
0.0
  0
SEQEND
  5
581E
  8
0
  0
POLYLINE
  5
2D6
  8
0
 66
     1
 10
0.0
 20
0.0
 30
0.0
 70
     1
  0
VERTEX
  5
507C
  8
0
 10
16530.12986539054
 20
18229.72637188075
 30
0.0
  0
VERTEX
  5
507D
  8
0
 10
16493.52986539044
 20
18229.72637188075
 30
0.0
  0
VERTEX
  5
507E
  8
0
 10
16493.52986539044
 20
20752.7263718808
 30
0.0
  0
VERTEX
  5
507F
  8
0
 10
16529.12986539054
 20
20752.7263718808
 30
0.0
  0
VERTEX
  5
5080
  8
0
 10
16529.12986539054
 20
20712.72636234399
 30
0.0
  0
VERTEX
  5
5081
  8
0
 10
16530.12986539054
 20
20712.72636234399
 30
0.0
  0
SEQEND
  5
581F
  8
0
  0
POLYLINE
  5
2D7
  8
0
 66
     1
 10
0.0
 20
0.0
 30
0.0
 70
     1
  0
VERTEX
  5
5082
  8
0
 10
17666.12986539054
 20
18253.22637188075
 30
0.0
  0
VERTEX
  5
5083
  8
0
 10
17666.12986539054
 20
18312.72637188075
 30
0.0
  0
VERTEX
  5
5084
  8
0
 10
16530.12986539054
 20
18312.72637188075
 30
0.0
  0
VERTEX
  5
5085
  8
0
 10
16530.12986539054
 20
18253.22637188075
 30
0.0
  0
SEQEND
  5
5820
  8
0
  0
POLYLINE
  5
2D8
  8
0
 66
     1
 10
0.0
 20
0.0
 30
0.0
 70
     1
  0
VERTEX
  5
5086
  8
0
 10
16530.12986539054
 20
18312.72637188075
 30
0.0
  0
VERTEX
  5
5087
  8
0
 10
16530.12986539054
 20
18342.72637188075
 30
0.0
  0
VERTEX
  5
5088
  8
0
 10
17666.12986539054
 20
18342.72637188075
 30
0.0
  0
VERTEX
  5
5089
  8
0
 10
17666.12986539054
 20
18312.72637188075
 30
0.0
  0
SEQEND
  5
5821
  8
0
  0
POLYLINE
  5
2D9
  8
CLOTHES_RAIL
 66
     1
 10
0.0
 20
0.0
 30
0.0
 70
     1
  0
VERTEX
  5
508A
  8
CLOTHES_RAIL
 10
17666.12986539054
 20
20240.22637188072
 30
0.0
  0
VERTEX
  5
508B
  8
CLOTHES_RAIL
 10
17666.12986539054
 20
20265.22637188072
 30
0.0
  0
VERTEX
  5
508C
  8
CLOTHES_RAIL
 10
16530.12986539054
 20
20265.22637188072
 30
0.0
  0
VERTEX
  5
508D
  8
CLOTHES_RAIL
 10
16530.12986539054
 20
20240.22637188072
 30
0.0
  0
SEQEND
  5
5822
  8
CLOTHES_RAIL
  0
POLYLINE
  5
2DA
  8
0
 66
     1
 10
0.0
 20
0.0
 30
0.0
 70
     1
  0
VERTEX
  5
508E
  8
0
 10
16529.12986539054
 20
20712.72636234399
 30
0.0
  0
VERTEX
  5
508F
  8
0
 10
16529.12986539054
 20
20752.7263718808
 30
0.0
  0
VERTEX
  5
5090
  8
0
 10
17666.12986539054
 20
20752.7263718808
 30
0.0
  0
VERTEX
  5
5091
  8
0
 10
17666.12986539054
 20
20712.72636234399
 30
0.0
  0
SEQEND
  5
5823
  8
0
  0
POLYLINE
  5
2DB
  8
0
 66
     1
 10
0.0
 20
0.0
 30
0.0
 70
     1
  0
VERTEX
  5
5092
  8
0
 10
17612.12986539054
 20
18253.22637188075
 30
0.0
  0
VERTEX
  5
5093
  8
0
 10
17612.12986539054
 20
18226.32637188096
 30
0.0
  0
VERTEX
  5
5094
  8
0
 10
17611.12986539054
 20
18225.32637188083
 30
0.0
  0
VERTEX
  5
5095
  8
0
 10
17607.12986539054
 20
18225.32637188083
 30
0.0
  0
VERTEX
  5
5096
  8
0
 10
17606.12986539054
 20
18226.32637188096
 30
0.0
  0
VERTEX
  5
5097
  8
0
 10
17606.12986539054
 20
18232.82637188083
 30
0.0
  0
VERTEX
  5
5098
  8
0
 10
17579.1476305474
 20
18233.29734854196
 30
0.0
  0
VERTEX
  5
5099
  8
0
 10
17578.12986539054
 20
18234.3151136989
 30
0.0
  0
VERTEX
  5
509A
  8
0
 10
17578.12986539054
 20
18253.22637188075
 30
0.0
  0
SEQEND
  5
5824
  8
0
  0
POLYLINE
  5
2DC
  8
0
 66
     1
 10
0.0
 20
0.0
 30
0.0
 70
     1
  0
VERTEX
  5
509B
  8
0
 10
16584.1298653906
 20
18253.22637188075
 30
0.0
  0
VERTEX
  5
509C
  8
0
 10
16584.1298653906
 20
18226.32637188096
 30
0.0
  0
VERTEX
  5
509D
  8
0
 10
16585.12986539054
 20
18225.32637188083
 30
0.0
  0
VERTEX
  5
509E
  8
0
 10
16589.12986539059
 20
18225.32637188083
 30
0.0
  0
VERTEX
  5
509F
  8
0
 10
16590.12986539054
 20
18226.32637188096
 30
0.0
  0
VERTEX
  5
50A0
  8
0
 10
16590.12986539054
 20
18232.82637188083
 30
0.0
  0
VERTEX
  5
50A1
  8
0
 10
16617.11210023366
 20
18233.29734854196
 30
0.0
  0
VERTEX
  5
50A2
  8
0
 10
16618.12986539054
 20
18234.3151136989
 30
0.0
  0
VERTEX
  5
50A3
  8
0
 10
16618.12986539054
 20
18253.22637188075
 30
0.0
  0
SEQEND
  5
5825
  8
0
  0
POLYLINE
  5
2DD
  8
0
 66
     1
 10
0.0
 20
0.0
 30
0.0
 70
     1
  0
VERTEX
  5
50A4
  8
0
 10
17605.62986539054
 20
18232.7263718808
 30
0.0
  0
VERTEX
  5
50A5
  8
0
 10
17605.62986539054
 20
18212.7263718808
 30
0.0
  0
VERTEX
  5
50A6
  8
0
 10
16590.62986539054
 20
18212.7263718808
 30
0.0
  0
VERTEX
  5
50A7
  8
0
 10
16590.62986539054
 20
18232.7263718808
 30
0.0
  0
SEQEND
  5
5826
  8
0
  0
POLYLINE
  5
2DE
  8
0
 66
     1
 10
0.0
 20
0.0
 30
0.0
 70
     1
  0
VERTEX
  5
50A8
  8
0
 10
16610.62986539054
 20
18212.7263718808
 30
0.0
  0
VERTEX
  5
50A9
  8
0
 10
16610.62986539054
 20
18232.7263718808
 30
0.0
  0
VERTEX
  5
50AA
  8
0
 10
16590.62986539054
 20
18232.7263718808
 30
0.0
  0
VERTEX
  5
50AB
  8
0
 10
16590.62986539054
 20
18212.7263718808
 30
0.0
  0
SEQEND
  5
5827
  8
0
  0
POLYLINE
  5
2DF
  8
0
 66
     1
 10
0.0
 20
0.0
 30
0.0
 70
     1
  0
VERTEX
  5
50AC
  8
0
 10
17585.62986539054
 20
18212.7263718808
 30
0.0
  0
VERTEX
  5
50AD
  8
0
 10
17585.62986539054
 20
18232.7263718808
 30
0.0
  0
VERTEX
  5
50AE
  8
0
 10
17605.62986539054
 20
18232.7263718808
 30
0.0
  0
VERTEX
  5
50AF
  8
0
 10
17605.62986539054
 20
18212.7263718808
 30
0.0
  0
SEQEND
  5
5828
  8
0
  0
POLYLINE
  5
2E0
  8
0
 66
     1
 10
0.0
 20
0.0
 30
0.0
 70
     1
  0
VERTEX
  5
50B0
  8
0
 10
17666.12986539054
 20
19342.72637188074
 30
0.0
  0
VERTEX
  5
50B1
  8
0
 10
17666.12986539054
 20
19312.72637188074
 30
0.0
  0
VERTEX
  5
50B2
  8
0
 10
16530.12986539054
 20
19312.72637188074
 30
0.0
  0
VERTEX
  5
50B3
  8
0
 10
16530.12986539054
 20
19342.72637188074
 30
0.0
  0
SEQEND
  5
5829
  8
0
  0
POLYLINE
  5
2E1
  8
CLOTHES_RAIL
 66
     1
 10
0.0
 20
0.0
 30
0.0
 70
     1
  0
VERTEX
  5
50B4
  8
CLOTHES_RAIL
 10
17666.12986539054
 20
19265.22637188075
 30
0.0
  0
VERTEX
  5
50B5
  8
CLOTHES_RAIL
 10
17666.12986539054
 20
19240.22637188074
 30
0.0
  0
VERTEX
  5
50B6
  8
CLOTHES_RAIL
 10
16530.12986539054
 20
19240.22637188074
 30
0.0
  0
VERTEX
  5
50B7
  8
CLOTHES_RAIL
 10
16530.12986539054
 20
19265.22637188075
 30
0.0
  0
SEQEND
  5
582A
  8
CLOTHES_RAIL
  0
POLYLINE
  5
2E2
  8
0
 66
     1
 10
0.0
 20
0.0
 30
0.0
 70
     1
  0
VERTEX
  5
50B8
  8
0
 10
16530.1298653905
 20
23645.86186189421
 30
0.0
  0
VERTEX
  5
50B9
  8
0
 10
16530.1298653905
 20
23675.8618618942
 30
0.0
  0
VERTEX
  5
50BA
  8
0
 10
17666.1298653905
 20
23675.8618618942
 30
0.0
  0
VERTEX
  5
50BB
  8
0
 10
17666.1298653905
 20
23645.86186189421
 30
0.0
  0
SEQEND
  5
582B
  8
0
  0
POLYLINE
  5
2E3
  8
0
 66
     1
 10
0.0
 20
0.0
 30
0.0
 70
     1
  0
VERTEX
  5
50BC
  8
0
 10
17666.1298653905
 20
22445.86186189421
 30
0.0
  0
VERTEX
  5
50BD
  8
0
 10
17666.1298653905
 20
22475.86186189421
 30
0.0
  0
VERTEX
  5
50BE
  8
0
 10
16530.1298653905
 20
22475.86186189421
 30
0.0
  0
VERTEX
  5
50BF
  8
0
 10
16530.1298653905
 20
22445.86186189421
 30
0.0
  0
SEQEND
  5
582C
  8
0
  0
POLYLINE
  5
2E4
  8
0
 66
     1
 10
0.0
 20
0.0
 30
0.0
 70
     1
  0
VERTEX
  5
50C0
  8
0
 10
17666.1298653905
 20
23245.86186189421
 30
0.0
  0
VERTEX
  5
50C1
  8
0
 10
17666.1298653905
 20
23275.8618618942
 30
0.0
  0
VERTEX
  5
50C2
  8
0
 10
16530.1298653905
 20
23275.8618618942
 30
0.0
  0
VERTEX
  5
50C3
  8
0
 10
16530.1298653905
 20
23245.86186189421
 30
0.0
  0
SEQEND
  5
582D
  8
0
  0
POLYLINE
  5
2E5
  8
0
 66
     1
 10
0.0
 20
0.0
 30
0.0
 70
     1
  0
VERTEX
  5
50C4
  8
0
 10
16530.1298653905
 20
22845.86186189421
 30
0.0
  0
VERTEX
  5
50C5
  8
0
 10
16530.1298653905
 20
22875.86186189421
 30
0.0
  0
VERTEX
  5
50C6
  8
0
 10
17666.1298653905
 20
22875.86186189421
 30
0.0
  0
VERTEX
  5
50C7
  8
0
 10
17666.1298653905
 20
22845.86186189421
 30
0.0
  0
SEQEND
  5
582E
  8
0
  0
POLYLINE
  5
2E6
  8
0
 66
     1
 10
0.0
 20
0.0
 30
0.0
 70
     1
  0
VERTEX
  5
50C8
  8
0
 10
17585.6298653905
 20
21945.86186189426
 30
0.0
  0
VERTEX
  5
50C9
  8
0
 10
17585.6298653905
 20
21965.86186189426
 30
0.0
  0
VERTEX
  5
50CA
  8
0
 10
17605.6298653905
 20
21965.86186189426
 30
0.0
  0
VERTEX
  5
50CB
  8
0
 10
17605.6298653905
 20
21945.86186189426
 30
0.0
  0
SEQEND
  5
582F
  8
0
  0
POLYLINE
  5
2E7
  8
0
 66
     1
 10
0.0
 20
0.0
 30
0.0
 70
     1
  0
VERTEX
  5
50CC
  8
0
 10
16610.6298653905
 20
21945.86186189426
 30
0.0
  0
VERTEX
  5
50CD
  8
0
 10
16610.6298653905
 20
21965.86186189426
 30
0.0
  0
VERTEX
  5
50CE
  8
0
 10
16590.6298653905
 20
21965.86186189426
 30
0.0
  0
VERTEX
  5
50CF
  8
0
 10
16590.6298653905
 20
21945.86186189426
 30
0.0
  0
SEQEND
  5
5830
  8
0
  0
POLYLINE
  5
2E8
  8
0
 66
     1
 10
0.0
 20
0.0
 30
0.0
 70
     1
  0
VERTEX
  5
50D0
  8
0
 10
17605.6298653905
 20
21965.86186189426
 30
0.0
  0
VERTEX
  5
50D1
  8
0
 10
17605.6298653905
 20
21945.86186189426
 30
0.0
  0
VERTEX
  5
50D2
  8
0
 10
16590.6298653905
 20
21945.86186189426
 30
0.0
  0
VERTEX
  5
50D3
  8
0
 10
16590.6298653905
 20
21965.86186189426
 30
0.0
  0
SEQEND
  5
5831
  8
0
  0
POLYLINE
  5
2E9
  8
0
 66
     1
 10
0.0
 20
0.0
 30
0.0
 70
     1
  0
VERTEX
  5
50D4
  8
0
 10
16584.12986539058
 20
21986.36186189421
 30
0.0
  0
VERTEX
  5
50D5
  8
0
 10
16584.12986539058
 20
21959.46186189442
 30
0.0
  0
VERTEX
  5
50D6
  8
0
 10
16585.1298653905
 20
21958.46186189429
 30
0.0
  0
VERTEX
  5
50D7
  8
0
 10
16589.12986539061
 20
21958.46186189429
 30
0.0
  0
VERTEX
  5
50D8
  8
0
 10
16590.1298653905
 20
21959.46186189442
 30
0.0
  0
VERTEX
  5
50D9
  8
0
 10
16590.1298653905
 20
21965.96186189429
 30
0.0
  0
VERTEX
  5
50DA
  8
0
 10
16617.11210023374
 20
21966.43283855542
 30
0.0
  0
VERTEX
  5
50DB
  8
0
 10
16618.1298653905
 20
21967.45060371236
 30
0.0
  0
VERTEX
  5
50DC
  8
0
 10
16618.1298653905
 20
21986.36186189421
 30
0.0
  0
SEQEND
  5
5832
  8
0
  0
POLYLINE
  5
2EA
  8
0
 66
     1
 10
0.0
 20
0.0
 30
0.0
 70
     1
  0
VERTEX
  5
50DD
  8
0
 10
17612.1298653905
 20
21986.36186189421
 30
0.0
  0
VERTEX
  5
50DE
  8
0
 10
17612.1298653905
 20
21959.46186189442
 30
0.0
  0
VERTEX
  5
50DF
  8
0
 10
17611.1298653905
 20
21958.46186189429
 30
0.0
  0
VERTEX
  5
50E0
  8
0
 10
17607.1298653905
 20
21958.46186189429
 30
0.0
  0
VERTEX
  5
50E1
  8
0
 10
17606.1298653905
 20
21959.46186189442
 30
0.0
  0
VERTEX
  5
50E2
  8
0
 10
17606.1298653905
 20
21965.96186189429
 30
0.0
  0
VERTEX
  5
50E3
  8
0
 10
17579.14763054741
 20
21966.43283855542
 30
0.0
  0
VERTEX
  5
50E4
  8
0
 10
17578.1298653905
 20
21967.45060371236
 30
0.0
  0
VERTEX
  5
50E5
  8
0
 10
17578.1298653905
 20
21986.36186189421
 30
0.0
  0
SEQEND
  5
5833
  8
0
  0
POLYLINE
  5
2EB
  8
0
 66
     1
 10
0.0
 20
0.0
 30
0.0
 70
     1
  0
VERTEX
  5
50E6
  8
0
 10
16529.1298653905
 20
24445.86185235746
 30
0.0
  0
VERTEX
  5
50E7
  8
0
 10
16529.1298653905
 20
24485.86186189427
 30
0.0
  0
VERTEX
  5
50E8
  8
0
 10
17666.1298653905
 20
24485.86186189427
 30
0.0
  0
VERTEX
  5
50E9
  8
0
 10
17666.1298653905
 20
24445.86185235746
 30
0.0
  0
SEQEND
  5
5834
  8
0
  0
POLYLINE
  5
2EC
  8
0
 66
     1
 10
0.0
 20
0.0
 30
0.0
 70
     1
  0
VERTEX
  5
50EA
  8
0
 10
16530.1298653905
 20
22045.86186189422
 30
0.0
  0
VERTEX
  5
50EB
  8
0
 10
16530.1298653905
 20
22075.86186189421
 30
0.0
  0
VERTEX
  5
50EC
  8
0
 10
17666.1298653905
 20
22075.86186189421
 30
0.0
  0
VERTEX
  5
50ED
  8
0
 10
17666.1298653905
 20
22045.86186189422
 30
0.0
  0
SEQEND
  5
5835
  8
0
  0
POLYLINE
  5
2ED
  8
0
 66
     1
 10
0.0
 20
0.0
 30
0.0
 70
     1
  0
VERTEX
  5
50EE
  8
0
 10
17666.1298653905
 20
21986.36186189421
 30
0.0
  0
VERTEX
  5
50EF
  8
0
 10
17666.1298653905
 20
22045.86186189422
 30
0.0
  0
VERTEX
  5
50F0
  8
0
 10
16530.1298653905
 20
22045.86186189422
 30
0.0
  0
VERTEX
  5
50F1
  8
0
 10
16530.1298653905
 20
21986.36186189421
 30
0.0
  0
SEQEND
  5
5836
  8
0
  0
POLYLINE
  5
2EE
  8
0
 66
     1
 10
0.0
 20
0.0
 30
0.0
 70
     1
  0
VERTEX
  5
50F2
  8
0
 10
16530.1298653905
 20
21962.86186189421
 30
0.0
  0
VERTEX
  5
50F3
  8
0
 10
16493.52986539045
 20
21962.86186189421
 30
0.0
  0
VERTEX
  5
50F4
  8
0
 10
16493.52986539045
 20
24485.86186189427
 30
0.0
  0
VERTEX
  5
50F5
  8
0
 10
16529.1298653905
 20
24485.86186189427
 30
0.0
  0
VERTEX
  5
50F6
  8
0
 10
16529.1298653905
 20
24445.86185235746
 30
0.0
  0
VERTEX
  5
50F7
  8
0
 10
16530.1298653905
 20
24445.86185235746
 30
0.0
  0
SEQEND
  5
5837
  8
0
  0
POLYLINE
  5
2EF
  8
0
 66
     1
 10
0.0
 20
0.0
 30
0.0
 70
     1
  0
VERTEX
  5
50F8
  8
0
 10
17701.12986539051
 20
21967.86186189422
 30
0.0
  0
VERTEX
  5
50F9
  8
0
 10
17701.12986539051
 20
24485.86186189427
 30
0.0
  0
VERTEX
  5
50FA
  8
0
 10
17666.1298653905
 20
24485.86186189427
 30
0.0
  0
VERTEX
  5
50FB
  8
0
 10
17666.1298653905
 20
21967.86186189422
 30
0.0
  0
SEQEND
  5
5838
  8
0
  0
POLYLINE
  5
2F0
  8
0
 66
     1
 10
0.0
 20
0.0
 30
0.0
 70
     1
  0
VERTEX
  5
50FC
  8
0
 10
13550.0
 20
25069.69256525888
 30
0.0
  0
VERTEX
  5
50FD
  8
0
 10
26550.0
 20
25069.69256525888
 30
0.0
  0
VERTEX
  5
50FE
  8
0
 10
26550.0
 20
17592.34759251489
 30
0.0
  0
VERTEX
  5
50FF
  8
0
 10
13550.0
 20
17592.34759251489
 30
0.0
  0
SEQEND
  5
5839
  8
0
  0
POLYLINE
  5
2F1
  8
0
 66
     1
 10
0.0
 20
0.0
 30
0.0
 70
     1
  0
VERTEX
  5
5100
  8
0
 10
24911.29458360715
 20
18229.72637188075
 30
0.0
  0
VERTEX
  5
5101
  8
0
 10
24311.29458360716
 20
18229.72637188075
 30
0.0
  0
VERTEX
  5
5102
  8
0
 10
24311.29458360716
 20
20352.72638141752
 30
0.0
  0
VERTEX
  5
5103
  8
0
 10
24911.29458360715
 20
20352.72638141752
 30
0.0
  0
SEQEND
  5
583A
  8
0
  0
POLYLINE
  5
2F2
  8
0
 66
     1
 10
0.0
 20
0.0
 30
0.0
 70
     1
  0
VERTEX
  5
5104
  8
0
 10
24911.29458360715
 20
21962.86186189421
 30
0.0
  0
VERTEX
  5
5105
  8
0
 10
24311.29458360716
 20
21962.86186189421
 30
0.0
  0
VERTEX
  5
5106
  8
0
 10
24311.29458360716
 20
24085.86187143098
 30
0.0
  0
VERTEX
  5
5107
  8
0
 10
24911.29458360715
 20
24085.86187143098
 30
0.0
  0
SEQEND
  5
583B
  8
0
  0
POLYLINE
  5
2F3
  8
0
 66
     1
 10
0.0
 20
0.0
 30
0.0
  0
VERTEX
  5
5108
  8
0
 10
25109.50129716488
 20
21945.86186189426
 30
0.0
  0
VERTEX
  5
5109
  8
0
 10
24113.08787004944
 20
21945.86186189426
 30
0.0
  0
SEQEND
  5
583C
  8
0
  0
POLYLINE
  5
2F4
  8
0
 66
     1
 10
0.0
 20
0.0
 30
0.0
 70
     1
  0
VERTEX
  5
510A
  8
0
 10
24876.29458360717
 20
20352.72638141752
 30
0.0
  0
VERTEX
  5
510B
  8
0
 10
24346.29458360716
 20
20352.72638141752
 30
0.0
  0
VERTEX
  5
510C
  8
0
 10
24346.29458360716
 20
18229.72637188075
 30
0.0
  0
VERTEX
  5
510D
  8
0
 10
24876.29458360717
 20
18229.72637188075
 30
0.0
  0
SEQEND
  5
583D
  8
0
  0
POLYLINE
  5
2F5
  8
0
 66
     1
 10
0.0
 20
0.0
 30
0.0
 70
     1
  0
VERTEX
  5
510E
  8
0
 10
24876.29458360717
 20
24085.86187143098
 30
0.0
  0
VERTEX
  5
510F
  8
0
 10
24346.29458360716
 20
24085.86187143098
 30
0.0
  0
VERTEX
  5
5110
  8
0
 10
24346.29458360716
 20
21962.86186189421
 30
0.0
  0
VERTEX
  5
5111
  8
0
 10
24876.29458360717
 20
21962.86186189421
 30
0.0
  0
SEQEND
  5
583E
  8
0
  0
POLYLINE
  5
2F6
  8
0
 66
     1
 10
0.0
 20
0.0
 30
0.0
  0
VERTEX
  5
5112
  8
0
 10
25109.50129716488
 20
18212.72637188079
 30
0.0
  0
VERTEX
  5
5113
  8
0
 10
24113.08787004944
 20
18212.72637188079
 30
0.0
  0
SEQEND
  5
583F
  8
0
  0
POLYLINE
  5
2F7
  8
0
 66
     1
 10
0.0
 20
0.0
 30
0.0
  0
VERTEX
  5
5114
  8
0
 10
14197.12986539054
 20
18212.72637188079
 30
0.0
  0
VERTEX
  5
5115
  8
0
 10
22554.48951026663
 20
18212.72637188079
 30
0.0
  0
SEQEND
  5
5840
  8
0
  0
POLYLINE
  5
2F8
  8
0
 66
     1
 10
0.0
 20
0.0
 30
0.0
  0
VERTEX
  5
5116
  8
0
 10
14197.12986539054
 20
21945.86186189426
 30
0.0
  0
VERTEX
  5
5117
  8
0
 10
22554.48951026663
 20
21945.86186189427
 30
0.0
  0
SEQEND
  5
5841
  8
0
  0
POLYLINE
  5
2F9
  8
0
 66
     1
 10
0.0
 20
0.0
 30
0.0
 70
     1
  0
VERTEX
  5
5118
  8
0
 10
20302.1863909405
 20
18253.22637188075
 30
0.0
  0
VERTEX
  5
5119
  8
0
 10
20302.1863909405
 20
18312.72637188075
 30
0.0
  0
VERTEX
  5
511A
  8
0
 10
19166.1863909405
 20
18312.72637188075
 30
0.0
  0
VERTEX
  5
511B
  8
0
 10
19166.1863909405
 20
18253.22637188075
 30
0.0
  0
SEQEND
  5
5842
  8
0
  0
POLYLINE
  5
2FA
  8
0
 66
     1
 10
0.0
 20
0.0
 30
0.0
 70
     1
  0
VERTEX
  5
511C
  8
0
 10
20221.68639094054
 20
18212.72637188079
 30
0.0
  0
VERTEX
  5
511D
  8
0
 10
20221.68639094054
 20
18232.72637188079
 30
0.0
  0
VERTEX
  5
511E
  8
0
 10
20241.68639094054
 20
18232.72637188079
 30
0.0
  0
VERTEX
  5
511F
  8
0
 10
20241.68639094054
 20
18212.72637188079
 30
0.0
  0
SEQEND
  5
5843
  8
0
  0
POLYLINE
  5
2FB
  8
0
 66
     1
 10
0.0
 20
0.0
 30
0.0
 70
     1
  0
VERTEX
  5
5120
  8
0
 10
19246.68639094052
 20
18212.72637188079
 30
0.0
  0
VERTEX
  5
5121
  8
0
 10
19246.68639094052
 20
18232.72637188079
 30
0.0
  0
VERTEX
  5
5122
  8
0
 10
19226.68639094052
 20
18232.72637188079
 30
0.0
  0
VERTEX
  5
5123
  8
0
 10
19226.68639094052
 20
18212.72637188079
 30
0.0
  0
SEQEND
  5
5844
  8
0
  0
POLYLINE
  5
2FC
  8
0
 66
     1
 10
0.0
 20
0.0
 30
0.0
 70
     1
  0
VERTEX
  5
5124
  8
0
 10
20241.68639094054
 20
18232.72637188079
 30
0.0
  0
VERTEX
  5
5125
  8
0
 10
20241.68639094054
 20
18212.72637188079
 30
0.0
  0
VERTEX
  5
5126
  8
0
 10
19226.68639094052
 20
18212.72637188079
 30
0.0
  0
VERTEX
  5
5127
  8
0
 10
19226.68639094052
 20
18232.72637188079
 30
0.0
  0
SEQEND
  5
5845
  8
0
  0
POLYLINE
  5
2FD
  8
0
 66
     1
 10
0.0
 20
0.0
 30
0.0
 70
     1
  0
VERTEX
  5
5128
  8
0
 10
19220.18639094052
 20
18253.22637188075
 30
0.0
  0
VERTEX
  5
5129
  8
0
 10
19220.18639094052
 20
18226.32637188095
 30
0.0
  0
VERTEX
  5
512A
  8
0
 10
19221.18639094052
 20
18225.32637188083
 30
0.0
  0
VERTEX
  5
512B
  8
0
 10
19225.18639094054
 20
18225.32637188083
 30
0.0
  0
VERTEX
  5
512C
  8
0
 10
19226.18639094054
 20
18226.32637188095
 30
0.0
  0
VERTEX
  5
512D
  8
0
 10
19226.18639094054
 20
18232.82637188083
 30
0.0
  0
VERTEX
  5
512E
  8
0
 10
19253.16862578368
 20
18233.29734854196
 30
0.0
  0
VERTEX
  5
512F
  8
0
 10
19254.18639094052
 20
18234.3151136989
 30
0.0
  0
VERTEX
  5
5130
  8
0
 10
19254.18639094052
 20
18253.22637188075
 30
0.0
  0
SEQEND
  5
5846
  8
0
  0
POLYLINE
  5
2FE
  8
0
 66
     1
 10
0.0
 20
0.0
 30
0.0
 70
     1
  0
VERTEX
  5
5131
  8
0
 10
20248.1863909405
 20
18253.22637188075
 30
0.0
  0
VERTEX
  5
5132
  8
0
 10
20248.1863909405
 20
18226.32637188095
 30
0.0
  0
VERTEX
  5
5133
  8
0
 10
20247.18639094054
 20
18225.32637188083
 30
0.0
  0
VERTEX
  5
5134
  8
0
 10
20243.1863909405
 20
18225.32637188083
 30
0.0
  0
VERTEX
  5
5135
  8
0
 10
20242.18639094053
 20
18226.32637188095
 30
0.0
  0
VERTEX
  5
5136
  8
0
 10
20242.18639094053
 20
18232.82637188083
 30
0.0
  0
VERTEX
  5
5137
  8
0
 10
20215.2041560974
 20
18233.29734854196
 30
0.0
  0
VERTEX
  5
5138
  8
0
 10
20214.18639094054
 20
18234.3151136989
 30
0.0
  0
VERTEX
  5
5139
  8
0
 10
20214.18639094054
 20
18253.22637188075
 30
0.0
  0
SEQEND
  5
5847
  8
0
  0
POLYLINE
  5
2FF
  8
0
 66
     1
 10
0.0
 20
0.0
 30
0.0
 70
     1
  0
VERTEX
  5
513A
  8
0
 10
19165.18639094054
 20
20312.72637188072
 30
0.0
  0
VERTEX
  5
513B
  8
0
 10
19165.18639094054
 20
20352.72638141752
 30
0.0
  0
VERTEX
  5
513C
  8
0
 10
20302.18639094054
 20
20352.72638141752
 30
0.0
  0
VERTEX
  5
513D
  8
0
 10
20302.18639094054
 20
20312.72637188072
 30
0.0
  0
SEQEND
  5
5848
  8
0
  0
POLYLINE
  5
300
  8
0
 66
     1
 10
0.0
 20
0.0
 30
0.0
 70
     1
  0
VERTEX
  5
513E
  8
0
 10
19166.18639094054
 20
18229.72637188075
 30
0.0
  0
VERTEX
  5
513F
  8
0
 10
19129.58639094035
 20
18229.72637188075
 30
0.0
  0
VERTEX
  5
5140
  8
0
 10
19129.58639094035
 20
20352.72638141752
 30
0.0
  0
VERTEX
  5
5141
  8
0
 10
19165.18639094054
 20
20352.72638141752
 30
0.0
  0
VERTEX
  5
5142
  8
0
 10
19165.18639094054
 20
20312.72637188072
 30
0.0
  0
VERTEX
  5
5143
  8
0
 10
19166.18639094054
 20
20312.72637188072
 30
0.0
  0
SEQEND
  5
5849
  8
0
  0
POLYLINE
  5
301
  8
0
 66
     1
 10
0.0
 20
0.0
 30
0.0
 70
     1
  0
VERTEX
  5
5144
  8
0
 10
20337.18639094054
 20
18234.72637188075
 30
0.0
  0
VERTEX
  5
5145
  8
0
 10
20337.18639094054
 20
20352.72638141752
 30
0.0
  0
VERTEX
  5
5146
  8
0
 10
20302.18639094054
 20
20352.72638141752
 30
0.0
  0
VERTEX
  5
5147
  8
0
 10
20302.18639094054
 20
18234.72637188075
 30
0.0
  0
SEQEND
  5
584A
  8
0
  0
POLYLINE
  5
302
  8
0
 66
     1
 10
0.0
 20
0.0
 30
0.0
 70
     1
  0
VERTEX
  5
5148
  8
0
 10
15701.12986539051
 20
21967.86186189422
 30
0.0
  0
VERTEX
  5
5149
  8
0
 10
15701.12986539051
 20
24085.86187143098
 30
0.0
  0
VERTEX
  5
514A
  8
0
 10
15666.1298653905
 20
24085.86187143098
 30
0.0
  0
VERTEX
  5
514B
  8
0
 10
15666.1298653905
 20
21967.86186189422
 30
0.0
  0
SEQEND
  5
584B
  8
0
  0
POLYLINE
  5
303
  8
0
 66
     1
 10
0.0
 20
0.0
 30
0.0
 70
     1
  0
VERTEX
  5
514C
  8
0
 10
14530.1298653905
 20
21962.86186189421
 30
0.0
  0
VERTEX
  5
514D
  8
0
 10
14493.52986539045
 20
21962.86186189421
 30
0.0
  0
VERTEX
  5
514E
  8
0
 10
14493.52986539045
 20
24085.86187143098
 30
0.0
  0
VERTEX
  5
514F
  8
0
 10
14529.1298653905
 20
24085.86187143098
 30
0.0
  0
VERTEX
  5
5150
  8
0
 10
14529.1298653905
 20
24045.86186189418
 30
0.0
  0
VERTEX
  5
5151
  8
0
 10
14530.1298653905
 20
24045.86186189418
 30
0.0
  0
SEQEND
  5
584C
  8
0
  0
POLYLINE
  5
304
  8
0
 66
     1
 10
0.0
 20
0.0
 30
0.0
 70
     1
  0
VERTEX
  5
5152
  8
0
 10
15666.1298653905
 20
21986.36186189421
 30
0.0
  0
VERTEX
  5
5153
  8
0
 10
15666.1298653905
 20
22045.86186189422
 30
0.0
  0
VERTEX
  5
5154
  8
0
 10
14530.1298653905
 20
22045.86186189422
 30
0.0
  0
VERTEX
  5
5155
  8
0
 10
14530.1298653905
 20
21986.36186189421
 30
0.0
  0
SEQEND
  5
584D
  8
0
  0
POLYLINE
  5
305
  8
0
 66
     1
 10
0.0
 20
0.0
 30
0.0
 70
     1
  0
VERTEX
  5
5156
  8
0
 10
14530.1298653905
 20
22045.86186189422
 30
0.0
  0
VERTEX
  5
5157
  8
0
 10
14530.1298653905
 20
22075.86186189421
 30
0.0
  0
VERTEX
  5
5158
  8
0
 10
15666.1298653905
 20
22075.86186189421
 30
0.0
  0
VERTEX
  5
5159
  8
0
 10
15666.1298653905
 20
22045.86186189422
 30
0.0
  0
SEQEND
  5
584E
  8
0
  0
POLYLINE
  5
306
  8
0
 66
     1
 10
0.0
 20
0.0
 30
0.0
 70
     1
  0
VERTEX
  5
515A
  8
0
 10
14529.1298653905
 20
24045.86186189418
 30
0.0
  0
VERTEX
  5
515B
  8
0
 10
14529.1298653905
 20
24085.86187143098
 30
0.0
  0
VERTEX
  5
515C
  8
0
 10
15666.1298653905
 20
24085.86187143098
 30
0.0
  0
VERTEX
  5
515D
  8
0
 10
15666.1298653905
 20
24045.86186189418
 30
0.0
  0
SEQEND
  5
584F
  8
0
  0
POLYLINE
  5
307
  8
0
 66
     1
 10
0.0
 20
0.0
 30
0.0
 70
     1
  0
VERTEX
  5
515E
  8
0
 10
15612.1298653905
 20
21986.36186189421
 30
0.0
  0
VERTEX
  5
515F
  8
0
 10
15612.1298653905
 20
21959.46186189442
 30
0.0
  0
VERTEX
  5
5160
  8
0
 10
15611.1298653905
 20
21958.46186189429
 30
0.0
  0
VERTEX
  5
5161
  8
0
 10
15607.1298653905
 20
21958.46186189429
 30
0.0
  0
VERTEX
  5
5162
  8
0
 10
15606.1298653905
 20
21959.46186189442
 30
0.0
  0
VERTEX
  5
5163
  8
0
 10
15606.1298653905
 20
21965.96186189429
 30
0.0
  0
VERTEX
  5
5164
  8
0
 10
15579.14763054741
 20
21966.43283855542
 30
0.0
  0
VERTEX
  5
5165
  8
0
 10
15578.1298653905
 20
21967.45060371236
 30
0.0
  0
VERTEX
  5
5166
  8
0
 10
15578.1298653905
 20
21986.36186189421
 30
0.0
  0
SEQEND
  5
5850
  8
0
  0
POLYLINE
  5
308
  8
0
 66
     1
 10
0.0
 20
0.0
 30
0.0
 70
     1
  0
VERTEX
  5
5167
  8
0
 10
14584.12986539058
 20
21986.36186189421
 30
0.0
  0
VERTEX
  5
5168
  8
0
 10
14584.12986539058
 20
21959.46186189442
 30
0.0
  0
VERTEX
  5
5169
  8
0
 10
14585.1298653905
 20
21958.46186189429
 30
0.0
  0
VERTEX
  5
516A
  8
0
 10
14589.12986539061
 20
21958.46186189429
 30
0.0
  0
VERTEX
  5
516B
  8
0
 10
14590.1298653905
 20
21959.46186189442
 30
0.0
  0
VERTEX
  5
516C
  8
0
 10
14590.1298653905
 20
21965.96186189429
 30
0.0
  0
VERTEX
  5
516D
  8
0
 10
14617.11210023374
 20
21966.43283855542
 30
0.0
  0
VERTEX
  5
516E
  8
0
 10
14618.1298653905
 20
21967.45060371236
 30
0.0
  0
VERTEX
  5
516F
  8
0
 10
14618.1298653905
 20
21986.36186189421
 30
0.0
  0
SEQEND
  5
5851
  8
0
  0
POLYLINE
  5
309
  8
0
 66
     1
 10
0.0
 20
0.0
 30
0.0
 70
     1
  0
VERTEX
  5
5170
  8
0
 10
15605.6298653905
 20
21965.86186189426
 30
0.0
  0
VERTEX
  5
5171
  8
0
 10
15605.6298653905
 20
21945.86186189426
 30
0.0
  0
VERTEX
  5
5172
  8
0
 10
14590.6298653905
 20
21945.86186189426
 30
0.0
  0
VERTEX
  5
5173
  8
0
 10
14590.6298653905
 20
21965.86186189426
 30
0.0
  0
SEQEND
  5
5852
  8
0
  0
POLYLINE
  5
30A
  8
0
 66
     1
 10
0.0
 20
0.0
 30
0.0
 70
     1
  0
VERTEX
  5
5174
  8
0
 10
14610.6298653905
 20
21945.86186189426
 30
0.0
  0
VERTEX
  5
5175
  8
0
 10
14610.6298653905
 20
21965.86186189426
 30
0.0
  0
VERTEX
  5
5176
  8
0
 10
14590.6298653905
 20
21965.86186189426
 30
0.0
  0
VERTEX
  5
5177
  8
0
 10
14590.6298653905
 20
21945.86186189426
 30
0.0
  0
SEQEND
  5
5853
  8
0
  0
POLYLINE
  5
30B
  8
0
 66
     1
 10
0.0
 20
0.0
 30
0.0
 70
     1
  0
VERTEX
  5
5178
  8
0
 10
15585.6298653905
 20
21945.86186189426
 30
0.0
  0
VERTEX
  5
5179
  8
0
 10
15585.6298653905
 20
21965.86186189426
 30
0.0
  0
VERTEX
  5
517A
  8
0
 10
15605.6298653905
 20
21965.86186189426
 30
0.0
  0
VERTEX
  5
517B
  8
0
 10
15605.6298653905
 20
21945.86186189426
 30
0.0
  0
SEQEND
  5
5854
  8
0
  0
POLYLINE
  5
30C
  8
0
 66
     1
 10
0.0
 20
0.0
 30
0.0
 70
     1
  0
VERTEX
  5
517C
  8
0
 10
14530.1298653905
 20
22845.86186189421
 30
0.0
  0
VERTEX
  5
517D
  8
0
 10
14530.1298653905
 20
22875.86186189421
 30
0.0
  0
VERTEX
  5
517E
  8
0
 10
15666.1298653905
 20
22875.86186189421
 30
0.0
  0
VERTEX
  5
517F
  8
0
 10
15666.1298653905
 20
22845.86186189421
 30
0.0
  0
SEQEND
  5
5855
  8
0
  0
POLYLINE
  5
30D
  8
0
 66
     1
 10
0.0
 20
0.0
 30
0.0
 70
     1
  0
VERTEX
  5
5180
  8
0
 10
15666.1298653905
 20
23245.86186189421
 30
0.0
  0
VERTEX
  5
5181
  8
0
 10
15666.1298653905
 20
23275.8618618942
 30
0.0
  0
VERTEX
  5
5182
  8
0
 10
14530.1298653905
 20
23275.8618618942
 30
0.0
  0
VERTEX
  5
5183
  8
0
 10
14530.1298653905
 20
23245.86186189421
 30
0.0
  0
SEQEND
  5
5856
  8
0
  0
POLYLINE
  5
30E
  8
0
 66
     1
 10
0.0
 20
0.0
 30
0.0
 70
     1
  0
VERTEX
  5
5184
  8
0
 10
15666.1298653905
 20
22445.86186189421
 30
0.0
  0
VERTEX
  5
5185
  8
0
 10
15666.1298653905
 20
22475.86186189421
 30
0.0
  0
VERTEX
  5
5186
  8
0
 10
14530.1298653905
 20
22475.86186189421
 30
0.0
  0
VERTEX
  5
5187
  8
0
 10
14530.1298653905
 20
22445.86186189421
 30
0.0
  0
SEQEND
  5
5857
  8
0
  0
POLYLINE
  5
30F
  8
0
 66
     1
 10
0.0
 20
0.0
 30
0.0
 70
     1
  0
VERTEX
  5
5188
  8
0
 10
14530.1298653905
 20
23645.86186189421
 30
0.0
  0
VERTEX
  5
5189
  8
0
 10
14530.1298653905
 20
23675.8618618942
 30
0.0
  0
VERTEX
  5
518A
  8
0
 10
15666.1298653905
 20
23675.8618618942
 30
0.0
  0
VERTEX
  5
518B
  8
0
 10
15666.1298653905
 20
23645.86186189421
 30
0.0
  0
SEQEND
  5
5858
  8
0
  0
POLYLINE
  5
310
  8
0
 66
     1
 10
0.0
 20
0.0
 30
0.0
 70
     1
  0
VERTEX
  5
518C
  8
0
 10
20337.1863909406
 20
21967.86186189422
 30
0.0
  0
VERTEX
  5
518D
  8
0
 10
20337.1863909406
 20
24085.86187143098
 30
0.0
  0
VERTEX
  5
518E
  8
0
 10
20302.1863909406
 20
24085.86187143098
 30
0.0
  0
VERTEX
  5
518F
  8
0
 10
20302.1863909406
 20
21967.86186189422
 30
0.0
  0
SEQEND
  5
5859
  8
0
  0
POLYLINE
  5
311
  8
0
 66
     1
 10
0.0
 20
0.0
 30
0.0
 70
     1
  0
VERTEX
  5
5190
  8
0
 10
19166.1863909406
 20
21962.86186189421
 30
0.0
  0
VERTEX
  5
5191
  8
0
 10
19129.58639094039
 20
21962.86186189421
 30
0.0
  0
VERTEX
  5
5192
  8
0
 10
19129.58639094039
 20
24085.86187143098
 30
0.0
  0
VERTEX
  5
5193
  8
0
 10
19165.1863909406
 20
24085.86187143098
 30
0.0
  0
VERTEX
  5
5194
  8
0
 10
19165.1863909406
 20
24045.86186189419
 30
0.0
  0
VERTEX
  5
5195
  8
0
 10
19166.1863909406
 20
24045.86186189419
 30
0.0
  0
SEQEND
  5
585A
  8
0
  0
POLYLINE
  5
312
  8
0
 66
     1
 10
0.0
 20
0.0
 30
0.0
 70
     1
  0
VERTEX
  5
5196
  8
0
 10
20302.1863909406
 20
21986.36186189421
 30
0.0
  0
VERTEX
  5
5197
  8
0
 10
20302.1863909406
 20
22045.86186189422
 30
0.0
  0
VERTEX
  5
5198
  8
0
 10
19166.1863909406
 20
22045.86186189422
 30
0.0
  0
VERTEX
  5
5199
  8
0
 10
19166.1863909406
 20
21986.36186189421
 30
0.0
  0
SEQEND
  5
585B
  8
0
  0
POLYLINE
  5
313
  8
0
 66
     1
 10
0.0
 20
0.0
 30
0.0
 70
     1
  0
VERTEX
  5
519A
  8
0
 10
19166.1863909406
 20
22045.86186189422
 30
0.0
  0
VERTEX
  5
519B
  8
0
 10
19166.1863909406
 20
22075.86186189421
 30
0.0
  0
VERTEX
  5
519C
  8
0
 10
20302.1863909406
 20
22075.86186189421
 30
0.0
  0
VERTEX
  5
519D
  8
0
 10
20302.1863909406
 20
22045.86186189422
 30
0.0
  0
SEQEND
  5
585C
  8
0
  0
POLYLINE
  5
314
  8
0
 66
     1
 10
0.0
 20
0.0
 30
0.0
 70
     1
  0
VERTEX
  5
519E
  8
0
 10
19165.1863909406
 20
24045.86186189419
 30
0.0
  0
VERTEX
  5
519F
  8
0
 10
19165.1863909406
 20
24085.86187143098
 30
0.0
  0
VERTEX
  5
51A0
  8
0
 10
20302.1863909406
 20
24085.86187143098
 30
0.0
  0
VERTEX
  5
51A1
  8
0
 10
20302.1863909406
 20
24045.86186189419
 30
0.0
  0
SEQEND
  5
585D
  8
0
  0
POLYLINE
  5
315
  8
0
 66
     1
 10
0.0
 20
0.0
 30
0.0
 70
     1
  0
VERTEX
  5
51A2
  8
0
 10
20248.18639094054
 20
21986.36186189421
 30
0.0
  0
VERTEX
  5
51A3
  8
0
 10
20248.18639094054
 20
21959.46186189442
 30
0.0
  0
VERTEX
  5
51A4
  8
0
 10
20247.1863909406
 20
21958.46186189429
 30
0.0
  0
VERTEX
  5
51A5
  8
0
 10
20243.18639094054
 20
21958.46186189429
 30
0.0
  0
VERTEX
  5
51A6
  8
0
 10
20242.1863909406
 20
21959.46186189442
 30
0.0
  0
VERTEX
  5
51A7
  8
0
 10
20242.1863909406
 20
21965.96186189429
 30
0.0
  0
VERTEX
  5
51A8
  8
0
 10
20215.20415609748
 20
21966.43283855542
 30
0.0
  0
VERTEX
  5
51A9
  8
0
 10
20214.1863909406
 20
21967.45060371236
 30
0.0
  0
VERTEX
  5
51AA
  8
0
 10
20214.1863909406
 20
21986.36186189421
 30
0.0
  0
SEQEND
  5
585E
  8
0
  0
POLYLINE
  5
316
  8
0
 66
     1
 10
0.0
 20
0.0
 30
0.0
 70
     1
  0
VERTEX
  5
51AB
  8
0
 10
19220.1863909406
 20
21986.36186189421
 30
0.0
  0
VERTEX
  5
51AC
  8
0
 10
19220.1863909406
 20
21959.46186189442
 30
0.0
  0
VERTEX
  5
51AD
  8
0
 10
19221.1863909406
 20
21958.46186189429
 30
0.0
  0
VERTEX
  5
51AE
  8
0
 10
19225.18639094059
 20
21958.46186189429
 30
0.0
  0
VERTEX
  5
51AF
  8
0
 10
19226.1863909406
 20
21959.46186189442
 30
0.0
  0
VERTEX
  5
51B0
  8
0
 10
19226.1863909406
 20
21965.96186189429
 30
0.0
  0
VERTEX
  5
51B1
  8
0
 10
19253.16862578373
 20
21966.43283855542
 30
0.0
  0
VERTEX
  5
51B2
  8
0
 10
19254.1863909406
 20
21967.45060371236
 30
0.0
  0
VERTEX
  5
51B3
  8
0
 10
19254.1863909406
 20
21986.36186189421
 30
0.0
  0
SEQEND
  5
585F
  8
0
  0
POLYLINE
  5
317
  8
0
 66
     1
 10
0.0
 20
0.0
 30
0.0
 70
     1
  0
VERTEX
  5
51B4
  8
0
 10
20241.6863909406
 20
21965.86186189426
 30
0.0
  0
VERTEX
  5
51B5
  8
0
 10
20241.6863909406
 20
21945.86186189426
 30
0.0
  0
VERTEX
  5
51B6
  8
0
 10
19226.6863909406
 20
21945.86186189426
 30
0.0
  0
VERTEX
  5
51B7
  8
0
 10
19226.6863909406
 20
21965.86186189426
 30
0.0
  0
SEQEND
  5
5860
  8
0
  0
POLYLINE
  5
318
  8
0
 66
     1
 10
0.0
 20
0.0
 30
0.0
 70
     1
  0
VERTEX
  5
51B8
  8
0
 10
19246.6863909406
 20
21945.86186189426
 30
0.0
  0
VERTEX
  5
51B9
  8
0
 10
19246.6863909406
 20
21965.86186189426
 30
0.0
  0
VERTEX
  5
51BA
  8
0
 10
19226.6863909406
 20
21965.86186189426
 30
0.0
  0
VERTEX
  5
51BB
  8
0
 10
19226.6863909406
 20
21945.86186189426
 30
0.0
  0
SEQEND
  5
5861
  8
0
  0
POLYLINE
  5
319
  8
0
 66
     1
 10
0.0
 20
0.0
 30
0.0
 70
     1
  0
VERTEX
  5
51BC
  8
0
 10
20221.6863909406
 20
21945.86186189426
 30
0.0
  0
VERTEX
  5
51BD
  8
0
 10
20221.6863909406
 20
21965.86186189426
 30
0.0
  0
VERTEX
  5
51BE
  8
0
 10
20241.6863909406
 20
21965.86186189426
 30
0.0
  0
VERTEX
  5
51BF
  8
0
 10
20241.6863909406
 20
21945.86186189426
 30
0.0
  0
SEQEND
  5
5862
  8
0
  0
POLYLINE
  5
31A
  8
0
 66
     1
 10
0.0
 20
0.0
 30
0.0
 70
     1
  0
VERTEX
  5
51C0
  8
0
 10
20302.1863909406
 20
22295.86186189421
 30
0.0
  0
VERTEX
  5
51C1
  8
0
 10
20302.1863909406
 20
22325.86186189421
 30
0.0
  0
VERTEX
  5
51C2
  8
0
 10
19166.1863909406
 20
22325.86186189421
 30
0.0
  0
VERTEX
  5
51C3
  8
0
 10
19166.1863909406
 20
22295.86186189421
 30
0.0
  0
SEQEND
  5
5863
  8
0
  0
POLYLINE
  5
31B
  8
0
 66
     1
 10
0.0
 20
0.0
 30
0.0
 70
     1
  0
VERTEX
  5
51C4
  8
0
 10
20302.1863909406
 20
22545.86186189421
 30
0.0
  0
VERTEX
  5
51C5
  8
0
 10
20302.1863909406
 20
22575.86186189421
 30
0.0
  0
VERTEX
  5
51C6
  8
0
 10
19166.1863909406
 20
22575.86186189421
 30
0.0
  0
VERTEX
  5
51C7
  8
0
 10
19166.1863909406
 20
22545.86186189421
 30
0.0
  0
SEQEND
  5
5864
  8
0
  0
POLYLINE
  5
31C
  8
0
 66
     1
 10
0.0
 20
0.0
 30
0.0
 70
     1
  0
VERTEX
  5
51C8
  8
0
 10
20302.1863909406
 20
22795.86186189421
 30
0.0
  0
VERTEX
  5
51C9
  8
0
 10
20302.1863909406
 20
22825.86186189421
 30
0.0
  0
VERTEX
  5
51CA
  8
0
 10
19166.1863909406
 20
22825.86186189421
 30
0.0
  0
VERTEX
  5
51CB
  8
0
 10
19166.1863909406
 20
22795.86186189421
 30
0.0
  0
SEQEND
  5
5865
  8
0
  0
POLYLINE
  5
31D
  8
0
 66
     1
 10
0.0
 20
0.0
 30
0.0
 70
     1
  0
VERTEX
  5
51CC
  8
0
 10
20302.1863909406
 20
23045.86186189421
 30
0.0
  0
VERTEX
  5
51CD
  8
0
 10
20302.1863909406
 20
23075.8618618942
 30
0.0
  0
VERTEX
  5
51CE
  8
0
 10
19166.1863909406
 20
23075.8618618942
 30
0.0
  0
VERTEX
  5
51CF
  8
0
 10
19166.1863909406
 20
23045.86186189421
 30
0.0
  0
SEQEND
  5
5866
  8
0
  0
POLYLINE
  5
31E
  8
0
 66
     1
 10
0.0
 20
0.0
 30
0.0
 70
     1
  0
VERTEX
  5
51D0
  8
0
 10
20302.1863909406
 20
23295.86186189422
 30
0.0
  0
VERTEX
  5
51D1
  8
0
 10
20302.1863909406
 20
23325.86186189421
 30
0.0
  0
VERTEX
  5
51D2
  8
0
 10
19166.1863909406
 20
23325.86186189421
 30
0.0
  0
VERTEX
  5
51D3
  8
0
 10
19166.1863909406
 20
23295.86186189422
 30
0.0
  0
SEQEND
  5
5867
  8
0
  0
POLYLINE
  5
31F
  8
0
 66
     1
 10
0.0
 20
0.0
 30
0.0
 70
     1
  0
VERTEX
  5
51D4
  8
0
 10
20302.1863909406
 20
23545.86186189421
 30
0.0
  0
VERTEX
  5
51D5
  8
0
 10
20302.1863909406
 20
23575.86186189421
 30
0.0
  0
VERTEX
  5
51D6
  8
0
 10
19166.1863909406
 20
23575.86186189421
 30
0.0
  0
VERTEX
  5
51D7
  8
0
 10
19166.1863909406
 20
23545.86186189421
 30
0.0
  0
SEQEND
  5
5868
  8
0
  0
POLYLINE
  5
320
  8
0
 66
     1
 10
0.0
 20
0.0
 30
0.0
 70
     1
  0
VERTEX
  5
51D8
  8
0
 10
20302.1863909406
 20
23795.86186189421
 30
0.0
  0
VERTEX
  5
51D9
  8
0
 10
20302.1863909406
 20
23825.86186189421
 30
0.0
  0
VERTEX
  5
51DA
  8
0
 10
19166.1863909406
 20
23825.86186189421
 30
0.0
  0
VERTEX
  5
51DB
  8
0
 10
19166.1863909406
 20
23795.86186189421
 30
0.0
  0
SEQEND
  5
5869
  8
0
  0
POLYLINE
  5
321
  8
CLOTHES_RAIL
 66
     1
 10
0.0
 20
0.0
 30
0.0
 70
     1
  0
VERTEX
  5
51DC
  8
CLOTHES_RAIL
 10
15666.12986539054
 20
19265.22637188075
 30
0.0
  0
VERTEX
  5
51DD
  8
CLOTHES_RAIL
 10
15666.12986539054
 20
19240.22637188074
 30
0.0
  0
VERTEX
  5
51DE
  8
CLOTHES_RAIL
 10
14530.12986539054
 20
19240.22637188074
 30
0.0
  0
VERTEX
  5
51DF
  8
CLOTHES_RAIL
 10
14530.12986539054
 20
19265.22637188075
 30
0.0
  0
SEQEND
  5
586A
  8
CLOTHES_RAIL
  0
POLYLINE
  5
322
  8
0
 66
     1
 10
0.0
 20
0.0
 30
0.0
 70
     1
  0
VERTEX
  5
51E0
  8
0
 10
15666.12986539054
 20
19342.72637188074
 30
0.0
  0
VERTEX
  5
51E1
  8
0
 10
15666.12986539054
 20
19312.72637188074
 30
0.0
  0
VERTEX
  5
51E2
  8
0
 10
14530.12986539054
 20
19312.72637188074
 30
0.0
  0
VERTEX
  5
51E3
  8
0
 10
14530.12986539054
 20
19342.72637188074
 30
0.0
  0
SEQEND
  5
586B
  8
0
  0
POLYLINE
  5
323
  8
0
 66
     1
 10
0.0
 20
0.0
 30
0.0
 70
     1
  0
VERTEX
  5
51E4
  8
0
 10
15585.62986539054
 20
18212.7263718808
 30
0.0
  0
VERTEX
  5
51E5
  8
0
 10
15585.62986539054
 20
18232.7263718808
 30
0.0
  0
VERTEX
  5
51E6
  8
0
 10
15605.62986539054
 20
18232.7263718808
 30
0.0
  0
VERTEX
  5
51E7
  8
0
 10
15605.62986539054
 20
18212.7263718808
 30
0.0
  0
SEQEND
  5
586C
  8
0
  0
POLYLINE
  5
324
  8
0
 66
     1
 10
0.0
 20
0.0
 30
0.0
 70
     1
  0
VERTEX
  5
51E8
  8
0
 10
14610.62986539054
 20
18212.7263718808
 30
0.0
  0
VERTEX
  5
51E9
  8
0
 10
14610.62986539054
 20
18232.7263718808
 30
0.0
  0
VERTEX
  5
51EA
  8
0
 10
14590.62986539054
 20
18232.7263718808
 30
0.0
  0
VERTEX
  5
51EB
  8
0
 10
14590.62986539054
 20
18212.7263718808
 30
0.0
  0
SEQEND
  5
586D
  8
0
  0
POLYLINE
  5
325
  8
0
 66
     1
 10
0.0
 20
0.0
 30
0.0
 70
     1
  0
VERTEX
  5
51EC
  8
0
 10
15605.62986539054
 20
18232.7263718808
 30
0.0
  0
VERTEX
  5
51ED
  8
0
 10
15605.62986539054
 20
18212.7263718808
 30
0.0
  0
VERTEX
  5
51EE
  8
0
 10
14590.62986539054
 20
18212.7263718808
 30
0.0
  0
VERTEX
  5
51EF
  8
0
 10
14590.62986539054
 20
18232.7263718808
 30
0.0
  0
SEQEND
  5
586E
  8
0
  0
POLYLINE
  5
326
  8
0
 66
     1
 10
0.0
 20
0.0
 30
0.0
 70
     1
  0
VERTEX
  5
51F0
  8
0
 10
14584.1298653906
 20
18253.22637188075
 30
0.0
  0
VERTEX
  5
51F1
  8
0
 10
14584.1298653906
 20
18226.32637188096
 30
0.0
  0
VERTEX
  5
51F2
  8
0
 10
14585.12986539054
 20
18225.32637188083
 30
0.0
  0
VERTEX
  5
51F3
  8
0
 10
14589.12986539059
 20
18225.32637188083
 30
0.0
  0
VERTEX
  5
51F4
  8
0
 10
14590.12986539054
 20
18226.32637188096
 30
0.0
  0
VERTEX
  5
51F5
  8
0
 10
14590.12986539054
 20
18232.82637188083
 30
0.0
  0
VERTEX
  5
51F6
  8
0
 10
14617.11210023366
 20
18233.29734854196
 30
0.0
  0
VERTEX
  5
51F7
  8
0
 10
14618.12986539054
 20
18234.3151136989
 30
0.0
  0
VERTEX
  5
51F8
  8
0
 10
14618.12986539054
 20
18253.22637188075
 30
0.0
  0
SEQEND
  5
586F
  8
0
  0
POLYLINE
  5
327
  8
0
 66
     1
 10
0.0
 20
0.0
 30
0.0
 70
     1
  0
VERTEX
  5
51F9
  8
0
 10
15612.12986539054
 20
18253.22637188075
 30
0.0
  0
VERTEX
  5
51FA
  8
0
 10
15612.12986539054
 20
18226.32637188096
 30
0.0
  0
VERTEX
  5
51FB
  8
0
 10
15611.12986539054
 20
18225.32637188083
 30
0.0
  0
VERTEX
  5
51FC
  8
0
 10
15607.12986539054
 20
18225.32637188083
 30
0.0
  0
VERTEX
  5
51FD
  8
0
 10
15606.12986539054
 20
18226.32637188096
 30
0.0
  0
VERTEX
  5
51FE
  8
0
 10
15606.12986539054
 20
18232.82637188083
 30
0.0
  0
VERTEX
  5
51FF
  8
0
 10
15579.1476305474
 20
18233.29734854196
 30
0.0
  0
VERTEX
  5
5200
  8
0
 10
15578.12986539054
 20
18234.3151136989
 30
0.0
  0
VERTEX
  5
5201
  8
0
 10
15578.12986539054
 20
18253.22637188075
 30
0.0
  0
SEQEND
  5
5870
  8
0
  0
POLYLINE
  5
328
  8
0
 66
     1
 10
0.0
 20
0.0
 30
0.0
 70
     1
  0
VERTEX
  5
5202
  8
0
 10
14529.12986539054
 20
20312.72637188072
 30
0.0
  0
VERTEX
  5
5203
  8
0
 10
14529.12986539054
 20
20352.72638141753
 30
0.0
  0
VERTEX
  5
5204
  8
0
 10
15666.12986539054
 20
20352.72638141753
 30
0.0
  0
VERTEX
  5
5205
  8
0
 10
15666.12986539054
 20
20312.72637188072
 30
0.0
  0
SEQEND
  5
5871
  8
0
  0
POLYLINE
  5
329
  8
CLOTHES_RAIL
 66
     1
 10
0.0
 20
0.0
 30
0.0
 70
     1
  0
VERTEX
  5
5206
  8
CLOTHES_RAIL
 10
15666.12986539054
 20
20240.22637188072
 30
0.0
  0
VERTEX
  5
5207
  8
CLOTHES_RAIL
 10
15666.12986539054
 20
20265.22637188072
 30
0.0
  0
VERTEX
  5
5208
  8
CLOTHES_RAIL
 10
14530.12986539054
 20
20265.22637188072
 30
0.0
  0
VERTEX
  5
5209
  8
CLOTHES_RAIL
 10
14530.12986539054
 20
20240.22637188072
 30
0.0
  0
SEQEND
  5
5872
  8
CLOTHES_RAIL
  0
POLYLINE
  5
32A
  8
0
 66
     1
 10
0.0
 20
0.0
 30
0.0
 70
     1
  0
VERTEX
  5
520A
  8
0
 10
14530.12986539054
 20
18312.72637188075
 30
0.0
  0
VERTEX
  5
520B
  8
0
 10
14530.12986539054
 20
18342.72637188075
 30
0.0
  0
VERTEX
  5
520C
  8
0
 10
15666.12986539054
 20
18342.72637188075
 30
0.0
  0
VERTEX
  5
520D
  8
0
 10
15666.12986539054
 20
18312.72637188075
 30
0.0
  0
SEQEND
  5
5873
  8
0
  0
POLYLINE
  5
32B
  8
0
 66
     1
 10
0.0
 20
0.0
 30
0.0
 70
     1
  0
VERTEX
  5
520E
  8
0
 10
15666.12986539054
 20
18253.22637188075
 30
0.0
  0
VERTEX
  5
520F
  8
0
 10
15666.12986539054
 20
18312.72637188075
 30
0.0
  0
VERTEX
  5
5210
  8
0
 10
14530.12986539054
 20
18312.72637188075
 30
0.0
  0
VERTEX
  5
5211
  8
0
 10
14530.12986539054
 20
18253.22637188075
 30
0.0
  0
SEQEND
  5
5874
  8
0
  0
POLYLINE
  5
32C
  8
0
 66
     1
 10
0.0
 20
0.0
 30
0.0
 70
     1
  0
VERTEX
  5
5212
  8
0
 10
14530.12986539054
 20
18229.72637188075
 30
0.0
  0
VERTEX
  5
5213
  8
0
 10
14493.52986539044
 20
18229.72637188075
 30
0.0
  0
VERTEX
  5
5214
  8
0
 10
14493.52986539044
 20
20352.72638141753
 30
0.0
  0
VERTEX
  5
5215
  8
0
 10
14529.12986539054
 20
20352.72638141753
 30
0.0
  0
VERTEX
  5
5216
  8
0
 10
14529.12986539054
 20
20312.72637188072
 30
0.0
  0
VERTEX
  5
5217
  8
0
 10
14530.12986539054
 20
20312.72637188072
 30
0.0
  0
SEQEND
  5
5875
  8
0
  0
POLYLINE
  5
32D
  8
0
 66
     1
 10
0.0
 20
0.0
 30
0.0
 70
     1
  0
VERTEX
  5
5218
  8
0
 10
15701.12986539054
 20
18234.72637188075
 30
0.0
  0
VERTEX
  5
5219
  8
0
 10
15701.12986539054
 20
20352.72638141753
 30
0.0
  0
VERTEX
  5
521A
  8
0
 10
15666.12986539054
 20
20352.72638141753
 30
0.0
  0
VERTEX
  5
521B
  8
0
 10
15666.12986539054
 20
18234.72637188075
 30
0.0
  0
SEQEND
  5
5876
  8
0
  0
POLYLINE
  5
32E
  8
0
 66
     1
 10
0.0
 20
0.0
 30
0.0
 70
     1
  0
VERTEX
  5
521C
  8
0
 10
14493.52986539045
 20
24085.86187143098
 30
0.0
  0
VERTEX
  5
521D
  8
0
 10
14493.52986539045
 20
21962.86186189421
 30
0.0
  0
VERTEX
  5
521E
  8
0
 10
14463.52986539045
 20
21962.86186189421
 30
0.0
  0
VERTEX
  5
521F
  8
0
 10
14463.52986539045
 20
24085.86187143098
 30
0.0
  0
SEQEND
  5
5877
  8
0
  0
POLYLINE
  5
32F
  8
0
 66
     1
 10
0.0
 20
0.0
 30
0.0
 70
     1
  0
VERTEX
  5
5220
  8
0
 10
19129.58639094058
 20
24085.86187143098
 30
0.0
  0
VERTEX
  5
5221
  8
0
 10
19129.58639094058
 20
21962.86186189421
 30
0.0
  0
VERTEX
  5
5222
  8
0
 10
19099.58639094058
 20
21962.86186189421
 30
0.0
  0
VERTEX
  5
5223
  8
0
 10
19099.58639094058
 20
24085.86187143098
 30
0.0
  0
SEQEND
  5
5878
  8
0
  0
POLYLINE
  5
330
  8
0
 66
     1
 10
0.0
 20
0.0
 30
0.0
 70
     1
  0
VERTEX
  5
5224
  8
0
 10
14493.52986539044
 20
20352.72638141752
 30
0.0
  0
VERTEX
  5
5225
  8
0
 10
14493.52986539044
 20
18229.72637188075
 30
0.0
  0
VERTEX
  5
5226
  8
0
 10
14463.52986539045
 20
18229.72637188075
 30
0.0
  0
VERTEX
  5
5227
  8
0
 10
14463.52986539045
 20
20352.72638141752
 30
0.0
  0
SEQEND
  5
5879
  8
0
  0
POLYLINE
  5
331
  8
0
 66
     1
 10
0.0
 20
0.0
 30
0.0
 70
     1
  0
VERTEX
  5
5228
  8
0
 10
19129.58639094051
 20
20352.72638141752
 30
0.0
  0
VERTEX
  5
5229
  8
0
 10
19129.58639094051
 20
18229.72637188075
 30
0.0
  0
VERTEX
  5
522A
  8
0
 10
19099.58639094051
 20
18229.72637188075
 30
0.0
  0
VERTEX
  5
522B
  8
0
 10
19099.58639094051
 20
20352.72638141752
 30
0.0
  0
SEQEND
  5
587A
  8
0
  0
TEXT
  5
332
  8
0
 10
14179.85348037868
 20
17690.15737075776
 30
0.0
 40
125.0
  1
Modular Combinations (L=120 cm) / Componibilità moduli (L=120 cm) / Zusammensetzbarkeit Module (L=120 cm)
  7
STILE1
 72
     1
 11
19971.52014704535
 21
17690.15737075776
 31
0.0
  0
POLYLINE
  5
333
  8
0
 66
     1
 10
0.0
 20
0.0
 30
0.0
 70
     1
  0
VERTEX
  5
522C
  8
0
 10
13550.0
 20
17592.34759251489
 30
0.0
  0
VERTEX
  5
522D
  8
0
 10
26550.0
 20
17592.34759251489
 30
0.0
  0
VERTEX
  5
522E
  8
0
 10
26550.0
 20
17892.34759251489
 30
0.0
  0
VERTEX
  5
522F
  8
0
 10
13550.0
 20
17892.34759251489
 30
0.0
  0
SEQEND
  5
587B
  8
0
  0
POLYLINE
  5
334
  8
0
 66
     1
 10
0.0
 20
0.0
 30
0.0
 70
     1
  0
VERTEX
  5
5230
  8
0
 10
13550.0
 20
9565.002619770918
 30
0.0
  0
VERTEX
  5
5231
  8
0
 10
26550.0
 20
9565.002619770918
 30
0.0
  0
VERTEX
  5
5232
  8
0
 10
26550.0
 20
9865.002619770918
 30
0.0
  0
VERTEX
  5
5233
  8
0
 10
13550.0
 20
9865.002619770918
 30
0.0
  0
SEQEND
  5
587C
  8
0
  0
TEXT
  5
335
  8
0
 10
14147.61208006504
 20
9662.812398013786
 30
0.0
 40
125.0
  1
Modular Combinations (L=100 cm) / Componibilità moduli (L=100 cm) / Zusammensetzbarkeit Module (L=100 cm)
  7
STILE1
 72
     1
 11
19939.27874673171
 21
9662.812398013786
 31
0.0
  0
POLYLINE
  5
336
  8
0
 66
     1
 10
0.0
 20
0.0
 30
0.0
 70
     1
  0
VERTEX
  5
5234
  8
0
 10
19129.58639094051
 20
12325.38140867354
 30
0.0
  0
VERTEX
  5
5235
  8
0
 10
19129.58639094051
 20
10202.38139913677
 30
0.0
  0
VERTEX
  5
5236
  8
0
 10
19099.58639094051
 20
10202.38139913677
 30
0.0
  0
VERTEX
  5
5237
  8
0
 10
19099.58639094051
 20
12325.38140867354
 30
0.0
  0
SEQEND
  5
587D
  8
0
  0
POLYLINE
  5
337
  8
0
 66
     1
 10
0.0
 20
0.0
 30
0.0
 70
     1
  0
VERTEX
  5
5238
  8
0
 10
14493.52986539044
 20
12325.38140867354
 30
0.0
  0
VERTEX
  5
5239
  8
0
 10
14493.52986539044
 20
10202.38139913677
 30
0.0
  0
VERTEX
  5
523A
  8
0
 10
14463.52986539045
 20
10202.38139913677
 30
0.0
  0
VERTEX
  5
523B
  8
0
 10
14463.52986539045
 20
12325.38140867354
 30
0.0
  0
SEQEND
  5
587E
  8
0
  0
POLYLINE
  5
338
  8
0
 66
     1
 10
0.0
 20
0.0
 30
0.0
 70
     1
  0
VERTEX
  5
523C
  8
0
 10
19129.58639094058
 20
16058.51689868701
 30
0.0
  0
VERTEX
  5
523D
  8
0
 10
19129.58639094058
 20
13935.51688915023
 30
0.0
  0
VERTEX
  5
523E
  8
0
 10
19099.58639094058
 20
13935.51688915023
 30
0.0
  0
VERTEX
  5
523F
  8
0
 10
19099.58639094058
 20
16058.51689868701
 30
0.0
  0
SEQEND
  5
587F
  8
0
  0
POLYLINE
  5
339
  8
0
 66
     1
 10
0.0
 20
0.0
 30
0.0
 70
     1
  0
VERTEX
  5
5240
  8
0
 10
14493.52986539045
 20
16058.516898687
 30
0.0
  0
VERTEX
  5
5241
  8
0
 10
14493.52986539045
 20
13935.51688915023
 30
0.0
  0
VERTEX
  5
5242
  8
0
 10
14463.52986539045
 20
13935.51688915023
 30
0.0
  0
VERTEX
  5
5243
  8
0
 10
14463.52986539045
 20
16058.516898687
 30
0.0
  0
SEQEND
  5
5880
  8
0
  0
POLYLINE
  5
33A
  8
0
 66
     1
 10
0.0
 20
0.0
 30
0.0
 70
     1
  0
VERTEX
  5
5244
  8
0
 10
15501.12986539054
 20
10207.38139913677
 30
0.0
  0
VERTEX
  5
5245
  8
0
 10
15501.12986539054
 20
12325.38140867355
 30
0.0
  0
VERTEX
  5
5246
  8
0
 10
15466.12986539054
 20
12325.38140867355
 30
0.0
  0
VERTEX
  5
5247
  8
0
 10
15466.12986539054
 20
10207.38139913677
 30
0.0
  0
SEQEND
  5
5881
  8
0
  0
POLYLINE
  5
33B
  8
0
 66
     1
 10
0.0
 20
0.0
 30
0.0
 70
     1
  0
VERTEX
  5
5248
  8
0
 10
14530.12986539054
 20
10202.38139913677
 30
0.0
  0
VERTEX
  5
5249
  8
0
 10
14493.52986539044
 20
10202.38139913677
 30
0.0
  0
VERTEX
  5
524A
  8
0
 10
14493.52986539044
 20
12325.38140867355
 30
0.0
  0
VERTEX
  5
524B
  8
0
 10
14529.12986539054
 20
12325.38140867355
 30
0.0
  0
VERTEX
  5
524C
  8
0
 10
14529.12986539054
 20
12285.38139913674
 30
0.0
  0
VERTEX
  5
524D
  8
0
 10
14530.12986539054
 20
12285.38139913674
 30
0.0
  0
SEQEND
  5
5882
  8
0
  0
POLYLINE
  5
33C
  8
0
 66
     1
 10
0.0
 20
0.0
 30
0.0
 70
     1
  0
VERTEX
  5
524E
  8
0
 10
15466.12986539054
 20
10225.88139913677
 30
0.0
  0
VERTEX
  5
524F
  8
0
 10
15466.12986539054
 20
10285.38139913677
 30
0.0
  0
VERTEX
  5
5250
  8
0
 10
14530.12986539054
 20
10285.38139913677
 30
0.0
  0
VERTEX
  5
5251
  8
0
 10
14530.12986539054
 20
10225.88139913677
 30
0.0
  0
SEQEND
  5
5883
  8
0
  0
POLYLINE
  5
33D
  8
0
 66
     1
 10
0.0
 20
0.0
 30
0.0
 70
     1
  0
VERTEX
  5
5252
  8
0
 10
14530.12986539054
 20
10285.38139913677
 30
0.0
  0
VERTEX
  5
5253
  8
0
 10
14530.12986539054
 20
10315.38139913677
 30
0.0
  0
VERTEX
  5
5254
  8
0
 10
15466.12986539054
 20
10315.38139913677
 30
0.0
  0
VERTEX
  5
5255
  8
0
 10
15466.12986539054
 20
10285.38139913677
 30
0.0
  0
SEQEND
  5
5884
  8
0
  0
POLYLINE
  5
33E
  8
CLOTHES_RAIL
 66
     1
 10
0.0
 20
0.0
 30
0.0
 70
     1
  0
VERTEX
  5
5256
  8
CLOTHES_RAIL
 10
15466.12986539054
 20
12212.88139913674
 30
0.0
  0
VERTEX
  5
5257
  8
CLOTHES_RAIL
 10
15466.12986539054
 20
12237.88139913674
 30
0.0
  0
VERTEX
  5
5258
  8
CLOTHES_RAIL
 10
14530.12986539054
 20
12237.88139913674
 30
0.0
  0
VERTEX
  5
5259
  8
CLOTHES_RAIL
 10
14530.12986539054
 20
12212.88139913674
 30
0.0
  0
SEQEND
  5
5885
  8
CLOTHES_RAIL
  0
POLYLINE
  5
33F
  8
0
 66
     1
 10
0.0
 20
0.0
 30
0.0
 70
     1
  0
VERTEX
  5
525A
  8
0
 10
14529.12986539054
 20
12285.38139913674
 30
0.0
  0
VERTEX
  5
525B
  8
0
 10
14529.12986539054
 20
12325.38140867355
 30
0.0
  0
VERTEX
  5
525C
  8
0
 10
15466.12986539054
 20
12325.38140867355
 30
0.0
  0
VERTEX
  5
525D
  8
0
 10
15466.12986539054
 20
12285.38139913674
 30
0.0
  0
SEQEND
  5
5886
  8
0
  0
POLYLINE
  5
340
  8
0
 66
     1
 10
0.0
 20
0.0
 30
0.0
 70
     1
  0
VERTEX
  5
525E
  8
0
 10
15412.12986539054
 20
10225.88139913677
 30
0.0
  0
VERTEX
  5
525F
  8
0
 10
15412.12986539054
 20
10198.98139913698
 30
0.0
  0
VERTEX
  5
5260
  8
0
 10
15411.12986539054
 20
10197.98139913685
 30
0.0
  0
VERTEX
  5
5261
  8
0
 10
15407.12986539054
 20
10197.98139913685
 30
0.0
  0
VERTEX
  5
5262
  8
0
 10
15406.12986539054
 20
10198.98139913698
 30
0.0
  0
VERTEX
  5
5263
  8
0
 10
15406.12986539054
 20
10205.48139913685
 30
0.0
  0
VERTEX
  5
5264
  8
0
 10
15379.1476305474
 20
10205.95237579798
 30
0.0
  0
VERTEX
  5
5265
  8
0
 10
15378.12986539054
 20
10206.97014095492
 30
0.0
  0
VERTEX
  5
5266
  8
0
 10
15378.12986539054
 20
10225.88139913677
 30
0.0
  0
SEQEND
  5
5887
  8
0
  0
POLYLINE
  5
341
  8
0
 66
     1
 10
0.0
 20
0.0
 30
0.0
 70
     1
  0
VERTEX
  5
5267
  8
0
 10
14584.1298653906
 20
10225.88139913677
 30
0.0
  0
VERTEX
  5
5268
  8
0
 10
14584.1298653906
 20
10198.98139913698
 30
0.0
  0
VERTEX
  5
5269
  8
0
 10
14585.12986539054
 20
10197.98139913685
 30
0.0
  0
VERTEX
  5
526A
  8
0
 10
14589.12986539059
 20
10197.98139913685
 30
0.0
  0
VERTEX
  5
526B
  8
0
 10
14590.12986539054
 20
10198.98139913698
 30
0.0
  0
VERTEX
  5
526C
  8
0
 10
14590.12986539054
 20
10205.48139913685
 30
0.0
  0
VERTEX
  5
526D
  8
0
 10
14617.11210023366
 20
10205.95237579798
 30
0.0
  0
VERTEX
  5
526E
  8
0
 10
14618.12986539054
 20
10206.97014095492
 30
0.0
  0
VERTEX
  5
526F
  8
0
 10
14618.12986539054
 20
10225.88139913677
 30
0.0
  0
SEQEND
  5
5888
  8
0
  0
POLYLINE
  5
342
  8
0
 66
     1
 10
0.0
 20
0.0
 30
0.0
 70
     1
  0
VERTEX
  5
5270
  8
0
 10
15405.62986539054
 20
10205.38139913682
 30
0.0
  0
VERTEX
  5
5271
  8
0
 10
15405.62986539054
 20
10185.38139913682
 30
0.0
  0
VERTEX
  5
5272
  8
0
 10
14590.62986539054
 20
10185.38139913682
 30
0.0
  0
VERTEX
  5
5273
  8
0
 10
14590.62986539054
 20
10205.38139913682
 30
0.0
  0
SEQEND
  5
5889
  8
0
  0
POLYLINE
  5
343
  8
0
 66
     1
 10
0.0
 20
0.0
 30
0.0
 70
     1
  0
VERTEX
  5
5274
  8
0
 10
14610.62986539054
 20
10185.38139913682
 30
0.0
  0
VERTEX
  5
5275
  8
0
 10
14610.62986539054
 20
10205.38139913682
 30
0.0
  0
VERTEX
  5
5276
  8
0
 10
14590.62986539054
 20
10205.38139913682
 30
0.0
  0
VERTEX
  5
5277
  8
0
 10
14590.62986539054
 20
10185.38139913682
 30
0.0
  0
SEQEND
  5
588A
  8
0
  0
POLYLINE
  5
344
  8
0
 66
     1
 10
0.0
 20
0.0
 30
0.0
 70
     1
  0
VERTEX
  5
5278
  8
0
 10
15385.62986539054
 20
10185.38139913682
 30
0.0
  0
VERTEX
  5
5279
  8
0
 10
15385.62986539054
 20
10205.38139913682
 30
0.0
  0
VERTEX
  5
527A
  8
0
 10
15405.62986539054
 20
10205.38139913682
 30
0.0
  0
VERTEX
  5
527B
  8
0
 10
15405.62986539054
 20
10185.38139913682
 30
0.0
  0
SEQEND
  5
588B
  8
0
  0
POLYLINE
  5
345
  8
0
 66
     1
 10
0.0
 20
0.0
 30
0.0
 70
     1
  0
VERTEX
  5
527C
  8
0
 10
15466.12986539054
 20
11315.38139913676
 30
0.0
  0
VERTEX
  5
527D
  8
0
 10
15466.12986539054
 20
11285.38139913676
 30
0.0
  0
VERTEX
  5
527E
  8
0
 10
14530.12986539054
 20
11285.38139913676
 30
0.0
  0
VERTEX
  5
527F
  8
0
 10
14530.12986539054
 20
11315.38139913676
 30
0.0
  0
SEQEND
  5
588C
  8
0
  0
POLYLINE
  5
346
  8
CLOTHES_RAIL
 66
     1
 10
0.0
 20
0.0
 30
0.0
 70
     1
  0
VERTEX
  5
5280
  8
CLOTHES_RAIL
 10
15466.12986539054
 20
11237.88139913677
 30
0.0
  0
VERTEX
  5
5281
  8
CLOTHES_RAIL
 10
15466.12986539054
 20
11212.88139913676
 30
0.0
  0
VERTEX
  5
5282
  8
CLOTHES_RAIL
 10
14530.12986539054
 20
11212.88139913676
 30
0.0
  0
VERTEX
  5
5283
  8
CLOTHES_RAIL
 10
14530.12986539054
 20
11237.88139913677
 30
0.0
  0
SEQEND
  5
588D
  8
CLOTHES_RAIL
  0
POLYLINE
  5
347
  8
0
 66
     1
 10
0.0
 20
0.0
 30
0.0
 70
     1
  0
VERTEX
  5
5284
  8
0
 10
20102.1863909406
 20
15768.51688915023
 30
0.0
  0
VERTEX
  5
5285
  8
0
 10
20102.1863909406
 20
15798.51688915022
 30
0.0
  0
VERTEX
  5
5286
  8
0
 10
19166.1863909406
 20
15798.51688915022
 30
0.0
  0
VERTEX
  5
5287
  8
0
 10
19166.1863909406
 20
15768.51688915023
 30
0.0
  0
SEQEND
  5
588E
  8
0
  0
POLYLINE
  5
348
  8
0
 66
     1
 10
0.0
 20
0.0
 30
0.0
 70
     1
  0
VERTEX
  5
5288
  8
0
 10
20102.1863909406
 20
15518.51688915023
 30
0.0
  0
VERTEX
  5
5289
  8
0
 10
20102.1863909406
 20
15548.51688915022
 30
0.0
  0
VERTEX
  5
528A
  8
0
 10
19166.1863909406
 20
15548.51688915022
 30
0.0
  0
VERTEX
  5
528B
  8
0
 10
19166.1863909406
 20
15518.51688915023
 30
0.0
  0
SEQEND
  5
588F
  8
0
  0
POLYLINE
  5
349
  8
0
 66
     1
 10
0.0
 20
0.0
 30
0.0
 70
     1
  0
VERTEX
  5
528C
  8
0
 10
20102.1863909406
 20
15268.51688915023
 30
0.0
  0
VERTEX
  5
528D
  8
0
 10
20102.1863909406
 20
15298.51688915022
 30
0.0
  0
VERTEX
  5
528E
  8
0
 10
19166.1863909406
 20
15298.51688915022
 30
0.0
  0
VERTEX
  5
528F
  8
0
 10
19166.1863909406
 20
15268.51688915023
 30
0.0
  0
SEQEND
  5
5890
  8
0
  0
POLYLINE
  5
34A
  8
0
 66
     1
 10
0.0
 20
0.0
 30
0.0
 70
     1
  0
VERTEX
  5
5290
  8
0
 10
20102.1863909406
 20
15018.51688915023
 30
0.0
  0
VERTEX
  5
5291
  8
0
 10
20102.1863909406
 20
15048.51688915022
 30
0.0
  0
VERTEX
  5
5292
  8
0
 10
19166.1863909406
 20
15048.51688915022
 30
0.0
  0
VERTEX
  5
5293
  8
0
 10
19166.1863909406
 20
15018.51688915023
 30
0.0
  0
SEQEND
  5
5891
  8
0
  0
POLYLINE
  5
34B
  8
0
 66
     1
 10
0.0
 20
0.0
 30
0.0
 70
     1
  0
VERTEX
  5
5294
  8
0
 10
20102.1863909406
 20
14768.51688915023
 30
0.0
  0
VERTEX
  5
5295
  8
0
 10
20102.1863909406
 20
14798.51688915023
 30
0.0
  0
VERTEX
  5
5296
  8
0
 10
19166.1863909406
 20
14798.51688915023
 30
0.0
  0
VERTEX
  5
5297
  8
0
 10
19166.1863909406
 20
14768.51688915023
 30
0.0
  0
SEQEND
  5
5892
  8
0
  0
POLYLINE
  5
34C
  8
0
 66
     1
 10
0.0
 20
0.0
 30
0.0
 70
     1
  0
VERTEX
  5
5298
  8
0
 10
20102.1863909406
 20
14518.51688915023
 30
0.0
  0
VERTEX
  5
5299
  8
0
 10
20102.1863909406
 20
14548.51688915023
 30
0.0
  0
VERTEX
  5
529A
  8
0
 10
19166.1863909406
 20
14548.51688915023
 30
0.0
  0
VERTEX
  5
529B
  8
0
 10
19166.1863909406
 20
14518.51688915023
 30
0.0
  0
SEQEND
  5
5893
  8
0
  0
POLYLINE
  5
34D
  8
0
 66
     1
 10
0.0
 20
0.0
 30
0.0
 70
     1
  0
VERTEX
  5
529C
  8
0
 10
20102.1863909406
 20
14268.51688915023
 30
0.0
  0
VERTEX
  5
529D
  8
0
 10
20102.1863909406
 20
14298.51688915023
 30
0.0
  0
VERTEX
  5
529E
  8
0
 10
19166.1863909406
 20
14298.51688915023
 30
0.0
  0
VERTEX
  5
529F
  8
0
 10
19166.1863909406
 20
14268.51688915023
 30
0.0
  0
SEQEND
  5
5894
  8
0
  0
POLYLINE
  5
34E
  8
0
 66
     1
 10
0.0
 20
0.0
 30
0.0
 70
     1
  0
VERTEX
  5
52A0
  8
0
 10
20021.6863909406
 20
13918.51688915027
 30
0.0
  0
VERTEX
  5
52A1
  8
0
 10
20021.6863909406
 20
13938.51688915027
 30
0.0
  0
VERTEX
  5
52A2
  8
0
 10
20041.6863909406
 20
13938.51688915027
 30
0.0
  0
VERTEX
  5
52A3
  8
0
 10
20041.6863909406
 20
13918.51688915027
 30
0.0
  0
SEQEND
  5
5895
  8
0
  0
POLYLINE
  5
34F
  8
0
 66
     1
 10
0.0
 20
0.0
 30
0.0
 70
     1
  0
VERTEX
  5
52A4
  8
0
 10
19246.6863909406
 20
13918.51688915027
 30
0.0
  0
VERTEX
  5
52A5
  8
0
 10
19246.6863909406
 20
13938.51688915027
 30
0.0
  0
VERTEX
  5
52A6
  8
0
 10
19226.6863909406
 20
13938.51688915027
 30
0.0
  0
VERTEX
  5
52A7
  8
0
 10
19226.6863909406
 20
13918.51688915027
 30
0.0
  0
SEQEND
  5
5896
  8
0
  0
POLYLINE
  5
350
  8
0
 66
     1
 10
0.0
 20
0.0
 30
0.0
 70
     1
  0
VERTEX
  5
52A8
  8
0
 10
20041.6863909406
 20
13938.51688915027
 30
0.0
  0
VERTEX
  5
52A9
  8
0
 10
20041.6863909406
 20
13918.51688915027
 30
0.0
  0
VERTEX
  5
52AA
  8
0
 10
19226.6863909406
 20
13918.51688915027
 30
0.0
  0
VERTEX
  5
52AB
  8
0
 10
19226.6863909406
 20
13938.51688915027
 30
0.0
  0
SEQEND
  5
5897
  8
0
  0
POLYLINE
  5
351
  8
0
 66
     1
 10
0.0
 20
0.0
 30
0.0
 70
     1
  0
VERTEX
  5
52AC
  8
0
 10
19220.1863909406
 20
13959.01688915023
 30
0.0
  0
VERTEX
  5
52AD
  8
0
 10
19220.1863909406
 20
13932.11688915042
 30
0.0
  0
VERTEX
  5
52AE
  8
0
 10
19221.1863909406
 20
13931.11688915031
 30
0.0
  0
VERTEX
  5
52AF
  8
0
 10
19225.18639094059
 20
13931.11688915031
 30
0.0
  0
VERTEX
  5
52B0
  8
0
 10
19226.1863909406
 20
13932.11688915042
 30
0.0
  0
VERTEX
  5
52B1
  8
0
 10
19226.1863909406
 20
13938.61688915031
 30
0.0
  0
VERTEX
  5
52B2
  8
0
 10
19253.16862578373
 20
13939.08786581144
 30
0.0
  0
VERTEX
  5
52B3
  8
0
 10
19254.1863909406
 20
13940.10563096838
 30
0.0
  0
VERTEX
  5
52B4
  8
0
 10
19254.1863909406
 20
13959.01688915023
 30
0.0
  0
SEQEND
  5
5898
  8
0
  0
POLYLINE
  5
352
  8
0
 66
     1
 10
0.0
 20
0.0
 30
0.0
 70
     1
  0
VERTEX
  5
52B5
  8
0
 10
20048.18639094054
 20
13959.01688915023
 30
0.0
  0
VERTEX
  5
52B6
  8
0
 10
20048.18639094054
 20
13932.11688915042
 30
0.0
  0
VERTEX
  5
52B7
  8
0
 10
20047.1863909406
 20
13931.11688915031
 30
0.0
  0
VERTEX
  5
52B8
  8
0
 10
20043.18639094054
 20
13931.11688915031
 30
0.0
  0
VERTEX
  5
52B9
  8
0
 10
20042.1863909406
 20
13932.11688915042
 30
0.0
  0
VERTEX
  5
52BA
  8
0
 10
20042.1863909406
 20
13938.61688915031
 30
0.0
  0
VERTEX
  5
52BB
  8
0
 10
20015.20415609748
 20
13939.08786581144
 30
0.0
  0
VERTEX
  5
52BC
  8
0
 10
20014.1863909406
 20
13940.10563096838
 30
0.0
  0
VERTEX
  5
52BD
  8
0
 10
20014.1863909406
 20
13959.01688915023
 30
0.0
  0
SEQEND
  5
5899
  8
0
  0
POLYLINE
  5
353
  8
0
 66
     1
 10
0.0
 20
0.0
 30
0.0
 70
     1
  0
VERTEX
  5
52BE
  8
0
 10
19165.1863909406
 20
16018.5168891502
 30
0.0
  0
VERTEX
  5
52BF
  8
0
 10
19165.1863909406
 20
16058.51689868701
 30
0.0
  0
VERTEX
  5
52C0
  8
0
 10
20102.1863909406
 20
16058.51689868701
 30
0.0
  0
VERTEX
  5
52C1
  8
0
 10
20102.1863909406
 20
16018.5168891502
 30
0.0
  0
SEQEND
  5
589A
  8
0
  0
POLYLINE
  5
354
  8
0
 66
     1
 10
0.0
 20
0.0
 30
0.0
 70
     1
  0
VERTEX
  5
52C2
  8
0
 10
19166.1863909406
 20
14018.51688915023
 30
0.0
  0
VERTEX
  5
52C3
  8
0
 10
19166.1863909406
 20
14048.51688915023
 30
0.0
  0
VERTEX
  5
52C4
  8
0
 10
20102.1863909406
 20
14048.51688915023
 30
0.0
  0
VERTEX
  5
52C5
  8
0
 10
20102.1863909406
 20
14018.51688915023
 30
0.0
  0
SEQEND
  5
589B
  8
0
  0
POLYLINE
  5
355
  8
0
 66
     1
 10
0.0
 20
0.0
 30
0.0
 70
     1
  0
VERTEX
  5
52C6
  8
0
 10
20102.1863909406
 20
13959.01688915023
 30
0.0
  0
VERTEX
  5
52C7
  8
0
 10
20102.1863909406
 20
14018.51688915023
 30
0.0
  0
VERTEX
  5
52C8
  8
0
 10
19166.1863909406
 20
14018.51688915023
 30
0.0
  0
VERTEX
  5
52C9
  8
0
 10
19166.1863909406
 20
13959.01688915023
 30
0.0
  0
SEQEND
  5
589C
  8
0
  0
POLYLINE
  5
356
  8
0
 66
     1
 10
0.0
 20
0.0
 30
0.0
 70
     1
  0
VERTEX
  5
52CA
  8
0
 10
19166.1863909406
 20
13935.51688915023
 30
0.0
  0
VERTEX
  5
52CB
  8
0
 10
19129.58639094039
 20
13935.51688915023
 30
0.0
  0
VERTEX
  5
52CC
  8
0
 10
19129.58639094039
 20
16058.51689868701
 30
0.0
  0
VERTEX
  5
52CD
  8
0
 10
19165.1863909406
 20
16058.51689868701
 30
0.0
  0
VERTEX
  5
52CE
  8
0
 10
19165.1863909406
 20
16018.5168891502
 30
0.0
  0
VERTEX
  5
52CF
  8
0
 10
19166.1863909406
 20
16018.5168891502
 30
0.0
  0
SEQEND
  5
589D
  8
0
  0
POLYLINE
  5
357
  8
0
 66
     1
 10
0.0
 20
0.0
 30
0.0
 70
     1
  0
VERTEX
  5
52D0
  8
0
 10
20137.1863909406
 20
13940.51688915023
 30
0.0
  0
VERTEX
  5
52D1
  8
0
 10
20137.1863909406
 20
16058.51689868701
 30
0.0
  0
VERTEX
  5
52D2
  8
0
 10
20102.1863909406
 20
16058.51689868701
 30
0.0
  0
VERTEX
  5
52D3
  8
0
 10
20102.1863909406
 20
13940.51688915023
 30
0.0
  0
SEQEND
  5
589E
  8
0
  0
POLYLINE
  5
358
  8
0
 66
     1
 10
0.0
 20
0.0
 30
0.0
 70
     1
  0
VERTEX
  5
52D4
  8
0
 10
14530.1298653905
 20
15618.51688915022
 30
0.0
  0
VERTEX
  5
52D5
  8
0
 10
14530.1298653905
 20
15648.51688915022
 30
0.0
  0
VERTEX
  5
52D6
  8
0
 10
15466.1298653905
 20
15648.51688915022
 30
0.0
  0
VERTEX
  5
52D7
  8
0
 10
15466.1298653905
 20
15618.51688915022
 30
0.0
  0
SEQEND
  5
589F
  8
0
  0
POLYLINE
  5
359
  8
0
 66
     1
 10
0.0
 20
0.0
 30
0.0
 70
     1
  0
VERTEX
  5
52D8
  8
0
 10
15466.1298653905
 20
14418.51688915023
 30
0.0
  0
VERTEX
  5
52D9
  8
0
 10
15466.1298653905
 20
14448.51688915023
 30
0.0
  0
VERTEX
  5
52DA
  8
0
 10
14530.1298653905
 20
14448.51688915023
 30
0.0
  0
VERTEX
  5
52DB
  8
0
 10
14530.1298653905
 20
14418.51688915023
 30
0.0
  0
SEQEND
  5
58A0
  8
0
  0
POLYLINE
  5
35A
  8
0
 66
     1
 10
0.0
 20
0.0
 30
0.0
 70
     1
  0
VERTEX
  5
52DC
  8
0
 10
15466.1298653905
 20
15218.51688915022
 30
0.0
  0
VERTEX
  5
52DD
  8
0
 10
15466.1298653905
 20
15248.51688915022
 30
0.0
  0
VERTEX
  5
52DE
  8
0
 10
14530.1298653905
 20
15248.51688915022
 30
0.0
  0
VERTEX
  5
52DF
  8
0
 10
14530.1298653905
 20
15218.51688915022
 30
0.0
  0
SEQEND
  5
58A1
  8
0
  0
POLYLINE
  5
35B
  8
0
 66
     1
 10
0.0
 20
0.0
 30
0.0
 70
     1
  0
VERTEX
  5
52E0
  8
0
 10
14530.1298653905
 20
14818.51688915023
 30
0.0
  0
VERTEX
  5
52E1
  8
0
 10
14530.1298653905
 20
14848.51688915023
 30
0.0
  0
VERTEX
  5
52E2
  8
0
 10
15466.1298653905
 20
14848.51688915023
 30
0.0
  0
VERTEX
  5
52E3
  8
0
 10
15466.1298653905
 20
14818.51688915023
 30
0.0
  0
SEQEND
  5
58A2
  8
0
  0
POLYLINE
  5
35C
  8
0
 66
     1
 10
0.0
 20
0.0
 30
0.0
 70
     1
  0
VERTEX
  5
52E4
  8
0
 10
15385.6298653905
 20
13918.51688915027
 30
0.0
  0
VERTEX
  5
52E5
  8
0
 10
15385.6298653905
 20
13938.51688915027
 30
0.0
  0
VERTEX
  5
52E6
  8
0
 10
15405.6298653905
 20
13938.51688915027
 30
0.0
  0
VERTEX
  5
52E7
  8
0
 10
15405.6298653905
 20
13918.51688915027
 30
0.0
  0
SEQEND
  5
58A3
  8
0
  0
POLYLINE
  5
35D
  8
0
 66
     1
 10
0.0
 20
0.0
 30
0.0
 70
     1
  0
VERTEX
  5
52E8
  8
0
 10
14610.6298653905
 20
13918.51688915027
 30
0.0
  0
VERTEX
  5
52E9
  8
0
 10
14610.6298653905
 20
13938.51688915027
 30
0.0
  0
VERTEX
  5
52EA
  8
0
 10
14590.6298653905
 20
13938.51688915027
 30
0.0
  0
VERTEX
  5
52EB
  8
0
 10
14590.6298653905
 20
13918.51688915027
 30
0.0
  0
SEQEND
  5
58A4
  8
0
  0
POLYLINE
  5
35E
  8
0
 66
     1
 10
0.0
 20
0.0
 30
0.0
 70
     1
  0
VERTEX
  5
52EC
  8
0
 10
15405.6298653905
 20
13938.51688915027
 30
0.0
  0
VERTEX
  5
52ED
  8
0
 10
15405.6298653905
 20
13918.51688915027
 30
0.0
  0
VERTEX
  5
52EE
  8
0
 10
14590.6298653905
 20
13918.51688915027
 30
0.0
  0
VERTEX
  5
52EF
  8
0
 10
14590.6298653905
 20
13938.51688915027
 30
0.0
  0
SEQEND
  5
58A5
  8
0
  0
POLYLINE
  5
35F
  8
0
 66
     1
 10
0.0
 20
0.0
 30
0.0
 70
     1
  0
VERTEX
  5
52F0
  8
0
 10
14584.12986539058
 20
13959.01688915023
 30
0.0
  0
VERTEX
  5
52F1
  8
0
 10
14584.12986539058
 20
13932.11688915042
 30
0.0
  0
VERTEX
  5
52F2
  8
0
 10
14585.1298653905
 20
13931.11688915031
 30
0.0
  0
VERTEX
  5
52F3
  8
0
 10
14589.12986539061
 20
13931.11688915031
 30
0.0
  0
VERTEX
  5
52F4
  8
0
 10
14590.1298653905
 20
13932.11688915042
 30
0.0
  0
VERTEX
  5
52F5
  8
0
 10
14590.1298653905
 20
13938.61688915031
 30
0.0
  0
VERTEX
  5
52F6
  8
0
 10
14617.11210023374
 20
13939.08786581144
 30
0.0
  0
VERTEX
  5
52F7
  8
0
 10
14618.1298653905
 20
13940.10563096838
 30
0.0
  0
VERTEX
  5
52F8
  8
0
 10
14618.1298653905
 20
13959.01688915023
 30
0.0
  0
SEQEND
  5
58A6
  8
0
  0
POLYLINE
  5
360
  8
0
 66
     1
 10
0.0
 20
0.0
 30
0.0
 70
     1
  0
VERTEX
  5
52F9
  8
0
 10
15412.1298653905
 20
13959.01688915023
 30
0.0
  0
VERTEX
  5
52FA
  8
0
 10
15412.1298653905
 20
13932.11688915042
 30
0.0
  0
VERTEX
  5
52FB
  8
0
 10
15411.1298653905
 20
13931.11688915031
 30
0.0
  0
VERTEX
  5
52FC
  8
0
 10
15407.1298653905
 20
13931.11688915031
 30
0.0
  0
VERTEX
  5
52FD
  8
0
 10
15406.1298653905
 20
13932.11688915042
 30
0.0
  0
VERTEX
  5
52FE
  8
0
 10
15406.1298653905
 20
13938.61688915031
 30
0.0
  0
VERTEX
  5
52FF
  8
0
 10
15379.14763054741
 20
13939.08786581144
 30
0.0
  0
VERTEX
  5
5300
  8
0
 10
15378.1298653905
 20
13940.10563096838
 30
0.0
  0
VERTEX
  5
5301
  8
0
 10
15378.1298653905
 20
13959.01688915023
 30
0.0
  0
SEQEND
  5
58A7
  8
0
  0
POLYLINE
  5
361
  8
0
 66
     1
 10
0.0
 20
0.0
 30
0.0
 70
     1
  0
VERTEX
  5
5302
  8
0
 10
14529.1298653905
 20
16018.5168891502
 30
0.0
  0
VERTEX
  5
5303
  8
0
 10
14529.1298653905
 20
16058.516898687
 30
0.0
  0
VERTEX
  5
5304
  8
0
 10
15466.1298653905
 20
16058.516898687
 30
0.0
  0
VERTEX
  5
5305
  8
0
 10
15466.1298653905
 20
16018.5168891502
 30
0.0
  0
SEQEND
  5
58A8
  8
0
  0
POLYLINE
  5
362
  8
0
 66
     1
 10
0.0
 20
0.0
 30
0.0
 70
     1
  0
VERTEX
  5
5306
  8
0
 10
14530.1298653905
 20
14018.51688915023
 30
0.0
  0
VERTEX
  5
5307
  8
0
 10
14530.1298653905
 20
14048.51688915023
 30
0.0
  0
VERTEX
  5
5308
  8
0
 10
15466.1298653905
 20
14048.51688915023
 30
0.0
  0
VERTEX
  5
5309
  8
0
 10
15466.1298653905
 20
14018.51688915023
 30
0.0
  0
SEQEND
  5
58A9
  8
0
  0
POLYLINE
  5
363
  8
0
 66
     1
 10
0.0
 20
0.0
 30
0.0
 70
     1
  0
VERTEX
  5
530A
  8
0
 10
15466.1298653905
 20
13959.01688915023
 30
0.0
  0
VERTEX
  5
530B
  8
0
 10
15466.1298653905
 20
14018.51688915023
 30
0.0
  0
VERTEX
  5
530C
  8
0
 10
14530.1298653905
 20
14018.51688915023
 30
0.0
  0
VERTEX
  5
530D
  8
0
 10
14530.1298653905
 20
13959.01688915023
 30
0.0
  0
SEQEND
  5
58AA
  8
0
  0
POLYLINE
  5
364
  8
0
 66
     1
 10
0.0
 20
0.0
 30
0.0
 70
     1
  0
VERTEX
  5
530E
  8
0
 10
14530.1298653905
 20
13935.51688915023
 30
0.0
  0
VERTEX
  5
530F
  8
0
 10
14493.52986539045
 20
13935.51688915023
 30
0.0
  0
VERTEX
  5
5310
  8
0
 10
14493.52986539045
 20
16058.516898687
 30
0.0
  0
VERTEX
  5
5311
  8
0
 10
14529.1298653905
 20
16058.516898687
 30
0.0
  0
VERTEX
  5
5312
  8
0
 10
14529.1298653905
 20
16018.5168891502
 30
0.0
  0
VERTEX
  5
5313
  8
0
 10
14530.1298653905
 20
16018.5168891502
 30
0.0
  0
SEQEND
  5
58AB
  8
0
  0
POLYLINE
  5
365
  8
0
 66
     1
 10
0.0
 20
0.0
 30
0.0
 70
     1
  0
VERTEX
  5
5314
  8
0
 10
15501.12986539051
 20
13940.51688915023
 30
0.0
  0
VERTEX
  5
5315
  8
0
 10
15501.12986539051
 20
16058.516898687
 30
0.0
  0
VERTEX
  5
5316
  8
0
 10
15466.1298653905
 20
16058.516898687
 30
0.0
  0
VERTEX
  5
5317
  8
0
 10
15466.1298653905
 20
13940.51688915023
 30
0.0
  0
SEQEND
  5
58AC
  8
0
  0
POLYLINE
  5
366
  8
0
 66
     1
 10
0.0
 20
0.0
 30
0.0
 70
     1
  0
VERTEX
  5
5318
  8
0
 10
20137.18639094054
 20
10207.38139913677
 30
0.0
  0
VERTEX
  5
5319
  8
0
 10
20137.18639094054
 20
12325.38140867354
 30
0.0
  0
VERTEX
  5
531A
  8
0
 10
20102.18639094054
 20
12325.38140867354
 30
0.0
  0
VERTEX
  5
531B
  8
0
 10
20102.18639094054
 20
10207.38139913677
 30
0.0
  0
SEQEND
  5
58AD
  8
0
  0
POLYLINE
  5
367
  8
0
 66
     1
 10
0.0
 20
0.0
 30
0.0
 70
     1
  0
VERTEX
  5
531C
  8
0
 10
19166.18639094054
 20
10202.38139913677
 30
0.0
  0
VERTEX
  5
531D
  8
0
 10
19129.58639094035
 20
10202.38139913677
 30
0.0
  0
VERTEX
  5
531E
  8
0
 10
19129.58639094035
 20
12325.38140867354
 30
0.0
  0
VERTEX
  5
531F
  8
0
 10
19165.18639094054
 20
12325.38140867354
 30
0.0
  0
VERTEX
  5
5320
  8
0
 10
19165.18639094054
 20
12285.38139913674
 30
0.0
  0
VERTEX
  5
5321
  8
0
 10
19166.18639094054
 20
12285.38139913674
 30
0.0
  0
SEQEND
  5
58AE
  8
0
  0
POLYLINE
  5
368
  8
0
 66
     1
 10
0.0
 20
0.0
 30
0.0
 70
     1
  0
VERTEX
  5
5322
  8
0
 10
19165.18639094054
 20
12285.38139913674
 30
0.0
  0
VERTEX
  5
5323
  8
0
 10
19165.18639094054
 20
12325.38140867354
 30
0.0
  0
VERTEX
  5
5324
  8
0
 10
20102.18639094054
 20
12325.38140867354
 30
0.0
  0
VERTEX
  5
5325
  8
0
 10
20102.18639094054
 20
12285.38139913674
 30
0.0
  0
SEQEND
  5
58AF
  8
0
  0
POLYLINE
  5
369
  8
0
 66
     1
 10
0.0
 20
0.0
 30
0.0
 70
     1
  0
VERTEX
  5
5326
  8
0
 10
20048.1863909405
 20
10225.88139913677
 30
0.0
  0
VERTEX
  5
5327
  8
0
 10
20048.1863909405
 20
10198.98139913697
 30
0.0
  0
VERTEX
  5
5328
  8
0
 10
20047.18639094054
 20
10197.98139913685
 30
0.0
  0
VERTEX
  5
5329
  8
0
 10
20043.1863909405
 20
10197.98139913685
 30
0.0
  0
VERTEX
  5
532A
  8
0
 10
20042.18639094054
 20
10198.98139913697
 30
0.0
  0
VERTEX
  5
532B
  8
0
 10
20042.18639094054
 20
10205.48139913685
 30
0.0
  0
VERTEX
  5
532C
  8
0
 10
20015.2041560974
 20
10205.95237579798
 30
0.0
  0
VERTEX
  5
532D
  8
0
 10
20014.18639094054
 20
10206.97014095492
 30
0.0
  0
VERTEX
  5
532E
  8
0
 10
20014.18639094054
 20
10225.88139913677
 30
0.0
  0
SEQEND
  5
58B0
  8
0
  0
POLYLINE
  5
36A
  8
0
 66
     1
 10
0.0
 20
0.0
 30
0.0
 70
     1
  0
VERTEX
  5
532F
  8
0
 10
19220.18639094052
 20
10225.88139913677
 30
0.0
  0
VERTEX
  5
5330
  8
0
 10
19220.18639094052
 20
10198.98139913697
 30
0.0
  0
VERTEX
  5
5331
  8
0
 10
19221.18639094052
 20
10197.98139913685
 30
0.0
  0
VERTEX
  5
5332
  8
0
 10
19225.18639094054
 20
10197.98139913685
 30
0.0
  0
VERTEX
  5
5333
  8
0
 10
19226.18639094054
 20
10198.98139913697
 30
0.0
  0
VERTEX
  5
5334
  8
0
 10
19226.18639094054
 20
10205.48139913685
 30
0.0
  0
VERTEX
  5
5335
  8
0
 10
19253.16862578368
 20
10205.95237579798
 30
0.0
  0
VERTEX
  5
5336
  8
0
 10
19254.18639094052
 20
10206.97014095492
 30
0.0
  0
VERTEX
  5
5337
  8
0
 10
19254.18639094052
 20
10225.88139913677
 30
0.0
  0
SEQEND
  5
58B1
  8
0
  0
POLYLINE
  5
36B
  8
0
 66
     1
 10
0.0
 20
0.0
 30
0.0
 70
     1
  0
VERTEX
  5
5338
  8
0
 10
20041.68639094054
 20
10205.38139913681
 30
0.0
  0
VERTEX
  5
5339
  8
0
 10
20041.68639094054
 20
10185.38139913681
 30
0.0
  0
VERTEX
  5
533A
  8
0
 10
19226.68639094052
 20
10185.38139913681
 30
0.0
  0
VERTEX
  5
533B
  8
0
 10
19226.68639094052
 20
10205.38139913681
 30
0.0
  0
SEQEND
  5
58B2
  8
0
  0
POLYLINE
  5
36C
  8
0
 66
     1
 10
0.0
 20
0.0
 30
0.0
 70
     1
  0
VERTEX
  5
533C
  8
0
 10
19246.68639094052
 20
10185.38139913681
 30
0.0
  0
VERTEX
  5
533D
  8
0
 10
19246.68639094052
 20
10205.38139913681
 30
0.0
  0
VERTEX
  5
533E
  8
0
 10
19226.68639094052
 20
10205.38139913681
 30
0.0
  0
VERTEX
  5
533F
  8
0
 10
19226.68639094052
 20
10185.38139913681
 30
0.0
  0
SEQEND
  5
58B3
  8
0
  0
POLYLINE
  5
36D
  8
0
 66
     1
 10
0.0
 20
0.0
 30
0.0
 70
     1
  0
VERTEX
  5
5340
  8
0
 10
20021.68639094054
 20
10185.38139913681
 30
0.0
  0
VERTEX
  5
5341
  8
0
 10
20021.68639094054
 20
10205.38139913681
 30
0.0
  0
VERTEX
  5
5342
  8
0
 10
20041.68639094054
 20
10205.38139913681
 30
0.0
  0
VERTEX
  5
5343
  8
0
 10
20041.68639094054
 20
10185.38139913681
 30
0.0
  0
SEQEND
  5
58B4
  8
0
  0
POLYLINE
  5
36E
  8
0
 66
     1
 10
0.0
 20
0.0
 30
0.0
 70
     1
  0
VERTEX
  5
5344
  8
0
 10
20102.1863909405
 20
10225.88139913677
 30
0.0
  0
VERTEX
  5
5345
  8
0
 10
20102.1863909405
 20
10285.38139913677
 30
0.0
  0
VERTEX
  5
5346
  8
0
 10
19166.1863909405
 20
10285.38139913677
 30
0.0
  0
VERTEX
  5
5347
  8
0
 10
19166.1863909405
 20
10225.88139913677
 30
0.0
  0
SEQEND
  5
58B5
  8
0
  0
POLYLINE
  5
36F
  8
0
 66
     1
 10
0.0
 20
0.0
 30
0.0
  0
VERTEX
  5
5348
  8
0
 10
14197.12986539054
 20
13918.51688915027
 30
0.0
  0
VERTEX
  5
5349
  8
0
 10
22554.48951026663
 20
13918.51688915029
 30
0.0
  0
SEQEND
  5
58B6
  8
0
  0
POLYLINE
  5
370
  8
0
 66
     1
 10
0.0
 20
0.0
 30
0.0
  0
VERTEX
  5
534A
  8
0
 10
14197.12986539054
 20
10185.38139913681
 30
0.0
  0
VERTEX
  5
534B
  8
0
 10
22554.48951026663
 20
10185.38139913681
 30
0.0
  0
SEQEND
  5
58B7
  8
0
  0
POLYLINE
  5
371
  8
0
 66
     1
 10
0.0
 20
0.0
 30
0.0
  0
VERTEX
  5
534C
  8
0
 10
25109.50129716488
 20
10185.38139913681
 30
0.0
  0
VERTEX
  5
534D
  8
0
 10
24113.08787004944
 20
10185.38139913681
 30
0.0
  0
SEQEND
  5
58B8
  8
0
  0
POLYLINE
  5
372
  8
0
 66
     1
 10
0.0
 20
0.0
 30
0.0
 70
     1
  0
VERTEX
  5
534E
  8
0
 10
24876.29458360717
 20
16058.51689868701
 30
0.0
  0
VERTEX
  5
534F
  8
0
 10
24346.29458360716
 20
16058.51689868701
 30
0.0
  0
VERTEX
  5
5350
  8
0
 10
24346.29458360716
 20
13935.51688915023
 30
0.0
  0
VERTEX
  5
5351
  8
0
 10
24876.29458360717
 20
13935.51688915023
 30
0.0
  0
SEQEND
  5
58B9
  8
0
  0
POLYLINE
  5
373
  8
0
 66
     1
 10
0.0
 20
0.0
 30
0.0
 70
     1
  0
VERTEX
  5
5352
  8
0
 10
24876.29458360717
 20
12325.38140867354
 30
0.0
  0
VERTEX
  5
5353
  8
0
 10
24346.29458360716
 20
12325.38140867354
 30
0.0
  0
VERTEX
  5
5354
  8
0
 10
24346.29458360716
 20
10202.38139913677
 30
0.0
  0
VERTEX
  5
5355
  8
0
 10
24876.29458360717
 20
10202.38139913677
 30
0.0
  0
SEQEND
  5
58BA
  8
0
  0
POLYLINE
  5
374
  8
0
 66
     1
 10
0.0
 20
0.0
 30
0.0
  0
VERTEX
  5
5356
  8
0
 10
25109.50129716488
 20
13918.51688915027
 30
0.0
  0
VERTEX
  5
5357
  8
0
 10
24113.08787004944
 20
13918.51688915027
 30
0.0
  0
SEQEND
  5
58BB
  8
0
  0
POLYLINE
  5
375
  8
0
 66
     1
 10
0.0
 20
0.0
 30
0.0
 70
     1
  0
VERTEX
  5
5358
  8
0
 10
24911.29458360715
 20
13935.51688915023
 30
0.0
  0
VERTEX
  5
5359
  8
0
 10
24311.29458360716
 20
13935.51688915023
 30
0.0
  0
VERTEX
  5
535A
  8
0
 10
24311.29458360716
 20
16058.51689868701
 30
0.0
  0
VERTEX
  5
535B
  8
0
 10
24911.29458360715
 20
16058.51689868701
 30
0.0
  0
SEQEND
  5
58BC
  8
0
  0
POLYLINE
  5
376
  8
0
 66
     1
 10
0.0
 20
0.0
 30
0.0
 70
     1
  0
VERTEX
  5
535C
  8
0
 10
24911.29458360715
 20
10202.38139913677
 30
0.0
  0
VERTEX
  5
535D
  8
0
 10
24311.29458360716
 20
10202.38139913677
 30
0.0
  0
VERTEX
  5
535E
  8
0
 10
24311.29458360716
 20
12325.38140867354
 30
0.0
  0
VERTEX
  5
535F
  8
0
 10
24911.29458360715
 20
12325.38140867354
 30
0.0
  0
SEQEND
  5
58BD
  8
0
  0
POLYLINE
  5
377
  8
0
 66
     1
 10
0.0
 20
0.0
 30
0.0
 70
     1
  0
VERTEX
  5
5360
  8
0
 10
13550.0
 20
17042.34759251489
 30
0.0
  0
VERTEX
  5
5361
  8
0
 10
26550.0
 20
17042.34759251489
 30
0.0
  0
VERTEX
  5
5362
  8
0
 10
26550.0
 20
9565.002619770918
 30
0.0
  0
VERTEX
  5
5363
  8
0
 10
13550.0
 20
9565.002619770918
 30
0.0
  0
SEQEND
  5
58BE
  8
0
  0
POLYLINE
  5
378
  8
0
 66
     1
 10
0.0
 20
0.0
 30
0.0
 70
     1
  0
VERTEX
  5
5364
  8
0
 10
17501.12986539051
 20
13940.51688915023
 30
0.0
  0
VERTEX
  5
5365
  8
0
 10
17501.12986539051
 20
16458.51688915028
 30
0.0
  0
VERTEX
  5
5366
  8
0
 10
17466.1298653905
 20
16458.51688915028
 30
0.0
  0
VERTEX
  5
5367
  8
0
 10
17466.1298653905
 20
13940.51688915023
 30
0.0
  0
SEQEND
  5
58BF
  8
0
  0
POLYLINE
  5
379
  8
0
 66
     1
 10
0.0
 20
0.0
 30
0.0
 70
     1
  0
VERTEX
  5
5368
  8
0
 10
16530.1298653905
 20
13935.51688915023
 30
0.0
  0
VERTEX
  5
5369
  8
0
 10
16493.52986539045
 20
13935.51688915023
 30
0.0
  0
VERTEX
  5
536A
  8
0
 10
16493.52986539045
 20
16458.51688915028
 30
0.0
  0
VERTEX
  5
536B
  8
0
 10
16529.1298653905
 20
16458.51688915028
 30
0.0
  0
VERTEX
  5
536C
  8
0
 10
16529.1298653905
 20
16418.51687961348
 30
0.0
  0
VERTEX
  5
536D
  8
0
 10
16530.1298653905
 20
16418.51687961348
 30
0.0
  0
SEQEND
  5
58C0
  8
0
  0
POLYLINE
  5
37A
  8
0
 66
     1
 10
0.0
 20
0.0
 30
0.0
 70
     1
  0
VERTEX
  5
536E
  8
0
 10
17466.1298653905
 20
13959.01688915023
 30
0.0
  0
VERTEX
  5
536F
  8
0
 10
17466.1298653905
 20
14018.51688915023
 30
0.0
  0
VERTEX
  5
5370
  8
0
 10
16530.1298653905
 20
14018.51688915023
 30
0.0
  0
VERTEX
  5
5371
  8
0
 10
16530.1298653905
 20
13959.01688915023
 30
0.0
  0
SEQEND
  5
58C1
  8
0
  0
POLYLINE
  5
37B
  8
0
 66
     1
 10
0.0
 20
0.0
 30
0.0
 70
     1
  0
VERTEX
  5
5372
  8
0
 10
16530.1298653905
 20
14018.51688915023
 30
0.0
  0
VERTEX
  5
5373
  8
0
 10
16530.1298653905
 20
14048.51688915023
 30
0.0
  0
VERTEX
  5
5374
  8
0
 10
17466.1298653905
 20
14048.51688915023
 30
0.0
  0
VERTEX
  5
5375
  8
0
 10
17466.1298653905
 20
14018.51688915023
 30
0.0
  0
SEQEND
  5
58C2
  8
0
  0
POLYLINE
  5
37C
  8
0
 66
     1
 10
0.0
 20
0.0
 30
0.0
 70
     1
  0
VERTEX
  5
5376
  8
0
 10
16529.1298653905
 20
16418.51687961348
 30
0.0
  0
VERTEX
  5
5377
  8
0
 10
16529.1298653905
 20
16458.51688915028
 30
0.0
  0
VERTEX
  5
5378
  8
0
 10
17466.1298653905
 20
16458.51688915028
 30
0.0
  0
VERTEX
  5
5379
  8
0
 10
17466.1298653905
 20
16418.51687961348
 30
0.0
  0
SEQEND
  5
58C3
  8
0
  0
POLYLINE
  5
37D
  8
0
 66
     1
 10
0.0
 20
0.0
 30
0.0
 70
     1
  0
VERTEX
  5
537A
  8
0
 10
17412.1298653905
 20
13959.01688915023
 30
0.0
  0
VERTEX
  5
537B
  8
0
 10
17412.1298653905
 20
13932.11688915042
 30
0.0
  0
VERTEX
  5
537C
  8
0
 10
17411.1298653905
 20
13931.11688915031
 30
0.0
  0
VERTEX
  5
537D
  8
0
 10
17407.1298653905
 20
13931.11688915031
 30
0.0
  0
VERTEX
  5
537E
  8
0
 10
17406.1298653905
 20
13932.11688915042
 30
0.0
  0
VERTEX
  5
537F
  8
0
 10
17406.1298653905
 20
13938.61688915031
 30
0.0
  0
VERTEX
  5
5380
  8
0
 10
17379.14763054741
 20
13939.08786581144
 30
0.0
  0
VERTEX
  5
5381
  8
0
 10
17378.1298653905
 20
13940.10563096838
 30
0.0
  0
VERTEX
  5
5382
  8
0
 10
17378.1298653905
 20
13959.01688915023
 30
0.0
  0
SEQEND
  5
58C4
  8
0
  0
POLYLINE
  5
37E
  8
0
 66
     1
 10
0.0
 20
0.0
 30
0.0
 70
     1
  0
VERTEX
  5
5383
  8
0
 10
16584.12986539058
 20
13959.01688915023
 30
0.0
  0
VERTEX
  5
5384
  8
0
 10
16584.12986539058
 20
13932.11688915042
 30
0.0
  0
VERTEX
  5
5385
  8
0
 10
16585.1298653905
 20
13931.11688915031
 30
0.0
  0
VERTEX
  5
5386
  8
0
 10
16589.12986539061
 20
13931.11688915031
 30
0.0
  0
VERTEX
  5
5387
  8
0
 10
16590.1298653905
 20
13932.11688915042
 30
0.0
  0
VERTEX
  5
5388
  8
0
 10
16590.1298653905
 20
13938.61688915031
 30
0.0
  0
VERTEX
  5
5389
  8
0
 10
16617.11210023374
 20
13939.08786581144
 30
0.0
  0
VERTEX
  5
538A
  8
0
 10
16618.1298653905
 20
13940.10563096838
 30
0.0
  0
VERTEX
  5
538B
  8
0
 10
16618.1298653905
 20
13959.01688915023
 30
0.0
  0
SEQEND
  5
58C5
  8
0
  0
POLYLINE
  5
37F
  8
0
 66
     1
 10
0.0
 20
0.0
 30
0.0
 70
     1
  0
VERTEX
  5
538C
  8
0
 10
17405.6298653905
 20
13938.51688915027
 30
0.0
  0
VERTEX
  5
538D
  8
0
 10
17405.6298653905
 20
13918.51688915027
 30
0.0
  0
VERTEX
  5
538E
  8
0
 10
16590.6298653905
 20
13918.51688915027
 30
0.0
  0
VERTEX
  5
538F
  8
0
 10
16590.6298653905
 20
13938.51688915027
 30
0.0
  0
SEQEND
  5
58C6
  8
0
  0
POLYLINE
  5
380
  8
0
 66
     1
 10
0.0
 20
0.0
 30
0.0
 70
     1
  0
VERTEX
  5
5390
  8
0
 10
16610.6298653905
 20
13918.51688915027
 30
0.0
  0
VERTEX
  5
5391
  8
0
 10
16610.6298653905
 20
13938.51688915027
 30
0.0
  0
VERTEX
  5
5392
  8
0
 10
16590.6298653905
 20
13938.51688915027
 30
0.0
  0
VERTEX
  5
5393
  8
0
 10
16590.6298653905
 20
13918.51688915027
 30
0.0
  0
SEQEND
  5
58C7
  8
0
  0
POLYLINE
  5
381
  8
0
 66
     1
 10
0.0
 20
0.0
 30
0.0
 70
     1
  0
VERTEX
  5
5394
  8
0
 10
17385.6298653905
 20
13918.51688915027
 30
0.0
  0
VERTEX
  5
5395
  8
0
 10
17385.6298653905
 20
13938.51688915027
 30
0.0
  0
VERTEX
  5
5396
  8
0
 10
17405.6298653905
 20
13938.51688915027
 30
0.0
  0
VERTEX
  5
5397
  8
0
 10
17405.6298653905
 20
13918.51688915027
 30
0.0
  0
SEQEND
  5
58C8
  8
0
  0
POLYLINE
  5
382
  8
0
 66
     1
 10
0.0
 20
0.0
 30
0.0
 70
     1
  0
VERTEX
  5
5398
  8
0
 10
16530.1298653905
 20
14818.51688915023
 30
0.0
  0
VERTEX
  5
5399
  8
0
 10
16530.1298653905
 20
14848.51688915023
 30
0.0
  0
VERTEX
  5
539A
  8
0
 10
17466.1298653905
 20
14848.51688915023
 30
0.0
  0
VERTEX
  5
539B
  8
0
 10
17466.1298653905
 20
14818.51688915023
 30
0.0
  0
SEQEND
  5
58C9
  8
0
  0
POLYLINE
  5
383
  8
0
 66
     1
 10
0.0
 20
0.0
 30
0.0
 70
     1
  0
VERTEX
  5
539C
  8
0
 10
17466.1298653905
 20
15218.51688915022
 30
0.0
  0
VERTEX
  5
539D
  8
0
 10
17466.1298653905
 20
15248.51688915022
 30
0.0
  0
VERTEX
  5
539E
  8
0
 10
16530.1298653905
 20
15248.51688915022
 30
0.0
  0
VERTEX
  5
539F
  8
0
 10
16530.1298653905
 20
15218.51688915022
 30
0.0
  0
SEQEND
  5
58CA
  8
0
  0
POLYLINE
  5
384
  8
0
 66
     1
 10
0.0
 20
0.0
 30
0.0
 70
     1
  0
VERTEX
  5
53A0
  8
0
 10
17466.1298653905
 20
14418.51688915023
 30
0.0
  0
VERTEX
  5
53A1
  8
0
 10
17466.1298653905
 20
14448.51688915023
 30
0.0
  0
VERTEX
  5
53A2
  8
0
 10
16530.1298653905
 20
14448.51688915023
 30
0.0
  0
VERTEX
  5
53A3
  8
0
 10
16530.1298653905
 20
14418.51688915023
 30
0.0
  0
SEQEND
  5
58CB
  8
0
  0
POLYLINE
  5
385
  8
0
 66
     1
 10
0.0
 20
0.0
 30
0.0
 70
     1
  0
VERTEX
  5
53A4
  8
0
 10
16530.1298653905
 20
15618.51688915022
 30
0.0
  0
VERTEX
  5
53A5
  8
0
 10
16530.1298653905
 20
15648.51688915022
 30
0.0
  0
VERTEX
  5
53A6
  8
0
 10
17466.1298653905
 20
15648.51688915022
 30
0.0
  0
VERTEX
  5
53A7
  8
0
 10
17466.1298653905
 20
15618.51688915022
 30
0.0
  0
SEQEND
  5
58CC
  8
0
  0
POLYLINE
  5
386
  8
CLOTHES_RAIL
 66
     1
 10
0.0
 20
0.0
 30
0.0
 70
     1
  0
VERTEX
  5
53A8
  8
CLOTHES_RAIL
 10
17466.12986539054
 20
11237.88139913677
 30
0.0
  0
VERTEX
  5
53A9
  8
CLOTHES_RAIL
 10
17466.12986539054
 20
11212.88139913676
 30
0.0
  0
VERTEX
  5
53AA
  8
CLOTHES_RAIL
 10
16530.12986539054
 20
11212.88139913676
 30
0.0
  0
VERTEX
  5
53AB
  8
CLOTHES_RAIL
 10
16530.12986539054
 20
11237.88139913677
 30
0.0
  0
SEQEND
  5
58CD
  8
CLOTHES_RAIL
  0
POLYLINE
  5
387
  8
0
 66
     1
 10
0.0
 20
0.0
 30
0.0
 70
     1
  0
VERTEX
  5
53AC
  8
0
 10
17466.12986539054
 20
11315.38139913676
 30
0.0
  0
VERTEX
  5
53AD
  8
0
 10
17466.12986539054
 20
11285.38139913676
 30
0.0
  0
VERTEX
  5
53AE
  8
0
 10
16530.12986539054
 20
11285.38139913676
 30
0.0
  0
VERTEX
  5
53AF
  8
0
 10
16530.12986539054
 20
11315.38139913676
 30
0.0
  0
SEQEND
  5
58CE
  8
0
  0
POLYLINE
  5
388
  8
0
 66
     1
 10
0.0
 20
0.0
 30
0.0
 70
     1
  0
VERTEX
  5
53B0
  8
0
 10
17385.62986539054
 20
10185.38139913682
 30
0.0
  0
VERTEX
  5
53B1
  8
0
 10
17385.62986539054
 20
10205.38139913682
 30
0.0
  0
VERTEX
  5
53B2
  8
0
 10
17405.62986539054
 20
10205.38139913682
 30
0.0
  0
VERTEX
  5
53B3
  8
0
 10
17405.62986539054
 20
10185.38139913682
 30
0.0
  0
SEQEND
  5
58CF
  8
0
  0
POLYLINE
  5
389
  8
0
 66
     1
 10
0.0
 20
0.0
 30
0.0
 70
     1
  0
VERTEX
  5
53B4
  8
0
 10
16610.62986539054
 20
10185.38139913682
 30
0.0
  0
VERTEX
  5
53B5
  8
0
 10
16610.62986539054
 20
10205.38139913682
 30
0.0
  0
VERTEX
  5
53B6
  8
0
 10
16590.62986539054
 20
10205.38139913682
 30
0.0
  0
VERTEX
  5
53B7
  8
0
 10
16590.62986539054
 20
10185.38139913682
 30
0.0
  0
SEQEND
  5
58D0
  8
0
  0
POLYLINE
  5
38A
  8
0
 66
     1
 10
0.0
 20
0.0
 30
0.0
 70
     1
  0
VERTEX
  5
53B8
  8
0
 10
17405.62986539054
 20
10205.38139913682
 30
0.0
  0
VERTEX
  5
53B9
  8
0
 10
17405.62986539054
 20
10185.38139913682
 30
0.0
  0
VERTEX
  5
53BA
  8
0
 10
16590.62986539054
 20
10185.38139913682
 30
0.0
  0
VERTEX
  5
53BB
  8
0
 10
16590.62986539054
 20
10205.38139913682
 30
0.0
  0
SEQEND
  5
58D1
  8
0
  0
POLYLINE
  5
38B
  8
0
 66
     1
 10
0.0
 20
0.0
 30
0.0
 70
     1
  0
VERTEX
  5
53BC
  8
0
 10
16584.1298653906
 20
10225.88139913677
 30
0.0
  0
VERTEX
  5
53BD
  8
0
 10
16584.1298653906
 20
10198.98139913698
 30
0.0
  0
VERTEX
  5
53BE
  8
0
 10
16585.12986539054
 20
10197.98139913685
 30
0.0
  0
VERTEX
  5
53BF
  8
0
 10
16589.12986539059
 20
10197.98139913685
 30
0.0
  0
VERTEX
  5
53C0
  8
0
 10
16590.12986539054
 20
10198.98139913698
 30
0.0
  0
VERTEX
  5
53C1
  8
0
 10
16590.12986539054
 20
10205.48139913685
 30
0.0
  0
VERTEX
  5
53C2
  8
0
 10
16617.11210023366
 20
10205.95237579798
 30
0.0
  0
VERTEX
  5
53C3
  8
0
 10
16618.12986539054
 20
10206.97014095492
 30
0.0
  0
VERTEX
  5
53C4
  8
0
 10
16618.12986539054
 20
10225.88139913677
 30
0.0
  0
SEQEND
  5
58D2
  8
0
  0
POLYLINE
  5
38C
  8
0
 66
     1
 10
0.0
 20
0.0
 30
0.0
 70
     1
  0
VERTEX
  5
53C5
  8
0
 10
17412.12986539054
 20
10225.88139913677
 30
0.0
  0
VERTEX
  5
53C6
  8
0
 10
17412.12986539054
 20
10198.98139913698
 30
0.0
  0
VERTEX
  5
53C7
  8
0
 10
17411.12986539054
 20
10197.98139913685
 30
0.0
  0
VERTEX
  5
53C8
  8
0
 10
17407.12986539054
 20
10197.98139913685
 30
0.0
  0
VERTEX
  5
53C9
  8
0
 10
17406.12986539054
 20
10198.98139913698
 30
0.0
  0
VERTEX
  5
53CA
  8
0
 10
17406.12986539054
 20
10205.48139913685
 30
0.0
  0
VERTEX
  5
53CB
  8
0
 10
17379.1476305474
 20
10205.95237579798
 30
0.0
  0
VERTEX
  5
53CC
  8
0
 10
17378.12986539054
 20
10206.97014095492
 30
0.0
  0
VERTEX
  5
53CD
  8
0
 10
17378.12986539054
 20
10225.88139913677
 30
0.0
  0
SEQEND
  5
58D3
  8
0
  0
POLYLINE
  5
38D
  8
0
 66
     1
 10
0.0
 20
0.0
 30
0.0
 70
     1
  0
VERTEX
  5
53CE
  8
0
 10
16529.12986539054
 20
12685.38138960001
 30
0.0
  0
VERTEX
  5
53CF
  8
0
 10
16529.12986539054
 20
12725.38139913681
 30
0.0
  0
VERTEX
  5
53D0
  8
0
 10
17466.12986539054
 20
12725.38139913681
 30
0.0
  0
VERTEX
  5
53D1
  8
0
 10
17466.12986539054
 20
12685.38138960001
 30
0.0
  0
SEQEND
  5
58D4
  8
0
  0
POLYLINE
  5
38E
  8
CLOTHES_RAIL
 66
     1
 10
0.0
 20
0.0
 30
0.0
 70
     1
  0
VERTEX
  5
53D2
  8
CLOTHES_RAIL
 10
17466.12986539054
 20
12212.88139913674
 30
0.0
  0
VERTEX
  5
53D3
  8
CLOTHES_RAIL
 10
17466.12986539054
 20
12237.88139913674
 30
0.0
  0
VERTEX
  5
53D4
  8
CLOTHES_RAIL
 10
16530.12986539054
 20
12237.88139913674
 30
0.0
  0
VERTEX
  5
53D5
  8
CLOTHES_RAIL
 10
16530.12986539054
 20
12212.88139913674
 30
0.0
  0
SEQEND
  5
58D5
  8
CLOTHES_RAIL
  0
POLYLINE
  5
38F
  8
0
 66
     1
 10
0.0
 20
0.0
 30
0.0
 70
     1
  0
VERTEX
  5
53D6
  8
0
 10
16530.12986539054
 20
10285.38139913677
 30
0.0
  0
VERTEX
  5
53D7
  8
0
 10
16530.12986539054
 20
10315.38139913677
 30
0.0
  0
VERTEX
  5
53D8
  8
0
 10
17466.12986539054
 20
10315.38139913677
 30
0.0
  0
VERTEX
  5
53D9
  8
0
 10
17466.12986539054
 20
10285.38139913677
 30
0.0
  0
SEQEND
  5
58D6
  8
0
  0
POLYLINE
  5
390
  8
0
 66
     1
 10
0.0
 20
0.0
 30
0.0
 70
     1
  0
VERTEX
  5
53DA
  8
0
 10
17466.12986539054
 20
10225.88139913677
 30
0.0
  0
VERTEX
  5
53DB
  8
0
 10
17466.12986539054
 20
10285.38139913677
 30
0.0
  0
VERTEX
  5
53DC
  8
0
 10
16530.12986539054
 20
10285.38139913677
 30
0.0
  0
VERTEX
  5
53DD
  8
0
 10
16530.12986539054
 20
10225.88139913677
 30
0.0
  0
SEQEND
  5
58D7
  8
0
  0
POLYLINE
  5
391
  8
0
 66
     1
 10
0.0
 20
0.0
 30
0.0
 70
     1
  0
VERTEX
  5
53DE
  8
0
 10
16530.12986539054
 20
10202.38139913677
 30
0.0
  0
VERTEX
  5
53DF
  8
0
 10
16493.52986539044
 20
10202.38139913677
 30
0.0
  0
VERTEX
  5
53E0
  8
0
 10
16493.52986539044
 20
12725.38139913681
 30
0.0
  0
VERTEX
  5
53E1
  8
0
 10
16529.12986539054
 20
12725.38139913681
 30
0.0
  0
VERTEX
  5
53E2
  8
0
 10
16529.12986539054
 20
12685.38138960001
 30
0.0
  0
VERTEX
  5
53E3
  8
0
 10
16530.12986539054
 20
12685.38138960001
 30
0.0
  0
SEQEND
  5
58D8
  8
0
  0
POLYLINE
  5
392
  8
0
 66
     1
 10
0.0
 20
0.0
 30
0.0
 70
     1
  0
VERTEX
  5
53E4
  8
0
 10
17501.12986539054
 20
10207.38139913677
 30
0.0
  0
VERTEX
  5
53E5
  8
0
 10
17501.12986539054
 20
12725.38139913681
 30
0.0
  0
VERTEX
  5
53E6
  8
0
 10
17466.12986539054
 20
12725.38139913681
 30
0.0
  0
VERTEX
  5
53E7
  8
0
 10
17466.12986539054
 20
10207.38139913677
 30
0.0
  0
SEQEND
  5
58D9
  8
0
  0
POLYLINE
  5
393
  8
0
 66
     1
 10
0.0
 20
0.0
 30
0.0
 70
     1
  0
VERTEX
  5
53E8
  8
0
 10
16493.52986539045
 20
16458.51688915028
 30
0.0
  0
VERTEX
  5
53E9
  8
0
 10
16493.52986539045
 20
13935.51688915023
 30
0.0
  0
VERTEX
  5
53EA
  8
0
 10
16463.52986539044
 20
13935.51688915023
 30
0.0
  0
VERTEX
  5
53EB
  8
0
 10
16463.52986539044
 20
16458.51688915028
 30
0.0
  0
SEQEND
  5
58DA
  8
0
  0
POLYLINE
  5
394
  8
0
 66
     1
 10
0.0
 20
0.0
 30
0.0
 70
     1
  0
VERTEX
  5
53EC
  8
0
 10
16493.52986539044
 20
12725.38139913681
 30
0.0
  0
VERTEX
  5
53ED
  8
0
 10
16493.52986539044
 20
10202.38139913677
 30
0.0
  0
VERTEX
  5
53EE
  8
0
 10
16463.52986539044
 20
10202.38139913677
 30
0.0
  0
VERTEX
  5
53EF
  8
0
 10
16463.52986539044
 20
12725.38139913681
 30
0.0
  0
SEQEND
  5
58DB
  8
0
  0
POLYLINE
  5
395
  8
0
 66
     1
 10
0.0
 20
0.0
 30
0.0
 70
     1
  0
VERTEX
  5
53F0
  8
0
 10
22102.1863909405
 20
10225.88139913677
 30
0.0
  0
VERTEX
  5
53F1
  8
0
 10
22102.1863909405
 20
10285.38139913677
 30
0.0
  0
VERTEX
  5
53F2
  8
0
 10
21166.1863909405
 20
10285.38139913677
 30
0.0
  0
VERTEX
  5
53F3
  8
0
 10
21166.1863909405
 20
10225.88139913677
 30
0.0
  0
SEQEND
  5
58DC
  8
0
  0
POLYLINE
  5
396
  8
0
 66
     1
 10
0.0
 20
0.0
 30
0.0
 70
     1
  0
VERTEX
  5
53F4
  8
0
 10
22021.68639094054
 20
10185.38139913681
 30
0.0
  0
VERTEX
  5
53F5
  8
0
 10
22021.68639094054
 20
10205.38139913681
 30
0.0
  0
VERTEX
  5
53F6
  8
0
 10
22041.68639094055
 20
10205.38139913681
 30
0.0
  0
VERTEX
  5
53F7
  8
0
 10
22041.68639094055
 20
10185.38139913681
 30
0.0
  0
SEQEND
  5
58DD
  8
0
  0
POLYLINE
  5
397
  8
0
 66
     1
 10
0.0
 20
0.0
 30
0.0
 70
     1
  0
VERTEX
  5
53F8
  8
0
 10
21246.68639094054
 20
10185.38139913681
 30
0.0
  0
VERTEX
  5
53F9
  8
0
 10
21246.68639094054
 20
10205.38139913681
 30
0.0
  0
VERTEX
  5
53FA
  8
0
 10
21226.68639094054
 20
10205.38139913681
 30
0.0
  0
VERTEX
  5
53FB
  8
0
 10
21226.68639094054
 20
10185.38139913681
 30
0.0
  0
SEQEND
  5
58DE
  8
0
  0
POLYLINE
  5
398
  8
0
 66
     1
 10
0.0
 20
0.0
 30
0.0
 70
     1
  0
VERTEX
  5
53FC
  8
0
 10
22041.68639094055
 20
10205.38139913681
 30
0.0
  0
VERTEX
  5
53FD
  8
0
 10
22041.68639094055
 20
10185.38139913681
 30
0.0
  0
VERTEX
  5
53FE
  8
0
 10
21226.68639094054
 20
10185.38139913681
 30
0.0
  0
VERTEX
  5
53FF
  8
0
 10
21226.68639094054
 20
10205.38139913681
 30
0.0
  0
SEQEND
  5
58DF
  8
0
  0
POLYLINE
  5
399
  8
0
 66
     1
 10
0.0
 20
0.0
 30
0.0
 70
     1
  0
VERTEX
  5
5400
  8
0
 10
21220.18639094054
 20
10225.88139913677
 30
0.0
  0
VERTEX
  5
5401
  8
0
 10
21220.18639094054
 20
10198.98139913697
 30
0.0
  0
VERTEX
  5
5402
  8
0
 10
21221.18639094054
 20
10197.98139913685
 30
0.0
  0
VERTEX
  5
5403
  8
0
 10
21225.18639094054
 20
10197.98139913685
 30
0.0
  0
VERTEX
  5
5404
  8
0
 10
21226.18639094054
 20
10198.98139913697
 30
0.0
  0
VERTEX
  5
5405
  8
0
 10
21226.18639094054
 20
10205.48139913685
 30
0.0
  0
VERTEX
  5
5406
  8
0
 10
21253.16862578368
 20
10205.95237579798
 30
0.0
  0
VERTEX
  5
5407
  8
0
 10
21254.18639094054
 20
10206.97014095492
 30
0.0
  0
VERTEX
  5
5408
  8
0
 10
21254.18639094054
 20
10225.88139913677
 30
0.0
  0
SEQEND
  5
58E0
  8
0
  0
POLYLINE
  5
39A
  8
0
 66
     1
 10
0.0
 20
0.0
 30
0.0
 70
     1
  0
VERTEX
  5
5409
  8
0
 10
22048.1863909405
 20
10225.88139913677
 30
0.0
  0
VERTEX
  5
540A
  8
0
 10
22048.1863909405
 20
10198.98139913697
 30
0.0
  0
VERTEX
  5
540B
  8
0
 10
22047.18639094054
 20
10197.98139913685
 30
0.0
  0
VERTEX
  5
540C
  8
0
 10
22043.1863909405
 20
10197.98139913685
 30
0.0
  0
VERTEX
  5
540D
  8
0
 10
22042.18639094055
 20
10198.98139913697
 30
0.0
  0
VERTEX
  5
540E
  8
0
 10
22042.18639094055
 20
10205.48139913685
 30
0.0
  0
VERTEX
  5
540F
  8
0
 10
22015.2041560974
 20
10205.95237579798
 30
0.0
  0
VERTEX
  5
5410
  8
0
 10
22014.18639094053
 20
10206.97014095492
 30
0.0
  0
VERTEX
  5
5411
  8
0
 10
22014.18639094053
 20
10225.88139913677
 30
0.0
  0
SEQEND
  5
58E1
  8
0
  0
POLYLINE
  5
39B
  8
0
 66
     1
 10
0.0
 20
0.0
 30
0.0
 70
     1
  0
VERTEX
  5
5412
  8
0
 10
21165.18639094054
 20
12685.38138960001
 30
0.0
  0
VERTEX
  5
5413
  8
0
 10
21165.18639094054
 20
12725.38139913681
 30
0.0
  0
VERTEX
  5
5414
  8
0
 10
22102.18639094054
 20
12725.38139913681
 30
0.0
  0
VERTEX
  5
5415
  8
0
 10
22102.18639094054
 20
12685.38138960001
 30
0.0
  0
SEQEND
  5
58E2
  8
0
  0
POLYLINE
  5
39C
  8
0
 66
     1
 10
0.0
 20
0.0
 30
0.0
 70
     1
  0
VERTEX
  5
5416
  8
0
 10
21166.18639094054
 20
10202.38139913677
 30
0.0
  0
VERTEX
  5
5417
  8
0
 10
21129.58639094035
 20
10202.38139913677
 30
0.0
  0
VERTEX
  5
5418
  8
0
 10
21129.58639094035
 20
12725.38139913681
 30
0.0
  0
VERTEX
  5
5419
  8
0
 10
21165.18639094054
 20
12725.38139913681
 30
0.0
  0
VERTEX
  5
541A
  8
0
 10
21165.18639094054
 20
12685.38138960001
 30
0.0
  0
VERTEX
  5
541B
  8
0
 10
21166.18639094054
 20
12685.38138960001
 30
0.0
  0
SEQEND
  5
58E3
  8
0
  0
POLYLINE
  5
39D
  8
0
 66
     1
 10
0.0
 20
0.0
 30
0.0
 70
     1
  0
VERTEX
  5
541C
  8
0
 10
22137.18639094055
 20
10207.38139913677
 30
0.0
  0
VERTEX
  5
541D
  8
0
 10
22137.18639094055
 20
12725.38139913681
 30
0.0
  0
VERTEX
  5
541E
  8
0
 10
22102.18639094054
 20
12725.38139913681
 30
0.0
  0
VERTEX
  5
541F
  8
0
 10
22102.18639094054
 20
10207.38139913677
 30
0.0
  0
SEQEND
  5
58E4
  8
0
  0
POLYLINE
  5
39E
  8
0
 66
     1
 10
0.0
 20
0.0
 30
0.0
 70
     1
  0
VERTEX
  5
5420
  8
0
 10
22137.1863909406
 20
13940.51688915023
 30
0.0
  0
VERTEX
  5
5421
  8
0
 10
22137.1863909406
 20
16458.51688915028
 30
0.0
  0
VERTEX
  5
5422
  8
0
 10
22102.1863909406
 20
16458.51688915028
 30
0.0
  0
VERTEX
  5
5423
  8
0
 10
22102.1863909406
 20
13940.51688915023
 30
0.0
  0
SEQEND
  5
58E5
  8
0
  0
POLYLINE
  5
39F
  8
0
 66
     1
 10
0.0
 20
0.0
 30
0.0
 70
     1
  0
VERTEX
  5
5424
  8
0
 10
21166.1863909406
 20
13935.51688915023
 30
0.0
  0
VERTEX
  5
5425
  8
0
 10
21129.58639094039
 20
13935.51688915023
 30
0.0
  0
VERTEX
  5
5426
  8
0
 10
21129.58639094039
 20
16458.51688915028
 30
0.0
  0
VERTEX
  5
5427
  8
0
 10
21165.1863909406
 20
16458.51688915028
 30
0.0
  0
VERTEX
  5
5428
  8
0
 10
21165.1863909406
 20
16418.51687961348
 30
0.0
  0
VERTEX
  5
5429
  8
0
 10
21166.1863909406
 20
16418.51687961348
 30
0.0
  0
SEQEND
  5
58E6
  8
0
  0
POLYLINE
  5
3A0
  8
0
 66
     1
 10
0.0
 20
0.0
 30
0.0
 70
     1
  0
VERTEX
  5
542A
  8
0
 10
22102.1863909406
 20
13959.01688915023
 30
0.0
  0
VERTEX
  5
542B
  8
0
 10
22102.1863909406
 20
14018.51688915023
 30
0.0
  0
VERTEX
  5
542C
  8
0
 10
21166.1863909406
 20
14018.51688915023
 30
0.0
  0
VERTEX
  5
542D
  8
0
 10
21166.1863909406
 20
13959.01688915023
 30
0.0
  0
SEQEND
  5
58E7
  8
0
  0
POLYLINE
  5
3A1
  8
0
 66
     1
 10
0.0
 20
0.0
 30
0.0
 70
     1
  0
VERTEX
  5
542E
  8
0
 10
21166.1863909406
 20
14018.51688915023
 30
0.0
  0
VERTEX
  5
542F
  8
0
 10
21166.1863909406
 20
14048.51688915023
 30
0.0
  0
VERTEX
  5
5430
  8
0
 10
22102.1863909406
 20
14048.51688915023
 30
0.0
  0
VERTEX
  5
5431
  8
0
 10
22102.1863909406
 20
14018.51688915023
 30
0.0
  0
SEQEND
  5
58E8
  8
0
  0
POLYLINE
  5
3A2
  8
0
 66
     1
 10
0.0
 20
0.0
 30
0.0
 70
     1
  0
VERTEX
  5
5432
  8
0
 10
21165.1863909406
 20
16418.51687961348
 30
0.0
  0
VERTEX
  5
5433
  8
0
 10
21165.1863909406
 20
16458.51688915028
 30
0.0
  0
VERTEX
  5
5434
  8
0
 10
22102.1863909406
 20
16458.51688915028
 30
0.0
  0
VERTEX
  5
5435
  8
0
 10
22102.1863909406
 20
16418.51687961348
 30
0.0
  0
SEQEND
  5
58E9
  8
0
  0
POLYLINE
  5
3A3
  8
0
 66
     1
 10
0.0
 20
0.0
 30
0.0
 70
     1
  0
VERTEX
  5
5436
  8
0
 10
22048.18639094054
 20
13959.01688915023
 30
0.0
  0
VERTEX
  5
5437
  8
0
 10
22048.18639094054
 20
13932.11688915042
 30
0.0
  0
VERTEX
  5
5438
  8
0
 10
22047.1863909406
 20
13931.11688915031
 30
0.0
  0
VERTEX
  5
5439
  8
0
 10
22043.18639094054
 20
13931.11688915031
 30
0.0
  0
VERTEX
  5
543A
  8
0
 10
22042.1863909406
 20
13932.11688915042
 30
0.0
  0
VERTEX
  5
543B
  8
0
 10
22042.1863909406
 20
13938.61688915031
 30
0.0
  0
VERTEX
  5
543C
  8
0
 10
22015.20415609748
 20
13939.08786581144
 30
0.0
  0
VERTEX
  5
543D
  8
0
 10
22014.1863909406
 20
13940.10563096838
 30
0.0
  0
VERTEX
  5
543E
  8
0
 10
22014.1863909406
 20
13959.01688915023
 30
0.0
  0
SEQEND
  5
58EA
  8
0
  0
POLYLINE
  5
3A4
  8
0
 66
     1
 10
0.0
 20
0.0
 30
0.0
 70
     1
  0
VERTEX
  5
543F
  8
0
 10
21220.1863909406
 20
13959.01688915023
 30
0.0
  0
VERTEX
  5
5440
  8
0
 10
21220.1863909406
 20
13932.11688915042
 30
0.0
  0
VERTEX
  5
5441
  8
0
 10
21221.1863909406
 20
13931.11688915031
 30
0.0
  0
VERTEX
  5
5442
  8
0
 10
21225.1863909406
 20
13931.11688915031
 30
0.0
  0
VERTEX
  5
5443
  8
0
 10
21226.1863909406
 20
13932.11688915042
 30
0.0
  0
VERTEX
  5
5444
  8
0
 10
21226.1863909406
 20
13938.61688915031
 30
0.0
  0
VERTEX
  5
5445
  8
0
 10
21253.16862578373
 20
13939.08786581144
 30
0.0
  0
VERTEX
  5
5446
  8
0
 10
21254.1863909406
 20
13940.10563096838
 30
0.0
  0
VERTEX
  5
5447
  8
0
 10
21254.1863909406
 20
13959.01688915023
 30
0.0
  0
SEQEND
  5
58EB
  8
0
  0
POLYLINE
  5
3A5
  8
0
 66
     1
 10
0.0
 20
0.0
 30
0.0
 70
     1
  0
VERTEX
  5
5448
  8
0
 10
22041.6863909406
 20
13938.51688915027
 30
0.0
  0
VERTEX
  5
5449
  8
0
 10
22041.6863909406
 20
13918.51688915027
 30
0.0
  0
VERTEX
  5
544A
  8
0
 10
21226.6863909406
 20
13918.51688915027
 30
0.0
  0
VERTEX
  5
544B
  8
0
 10
21226.6863909406
 20
13938.51688915027
 30
0.0
  0
SEQEND
  5
58EC
  8
0
  0
POLYLINE
  5
3A6
  8
0
 66
     1
 10
0.0
 20
0.0
 30
0.0
 70
     1
  0
VERTEX
  5
544C
  8
0
 10
21246.6863909406
 20
13918.51688915027
 30
0.0
  0
VERTEX
  5
544D
  8
0
 10
21246.6863909406
 20
13938.51688915027
 30
0.0
  0
VERTEX
  5
544E
  8
0
 10
21226.6863909406
 20
13938.51688915027
 30
0.0
  0
VERTEX
  5
544F
  8
0
 10
21226.6863909406
 20
13918.51688915027
 30
0.0
  0
SEQEND
  5
58ED
  8
0
  0
POLYLINE
  5
3A7
  8
0
 66
     1
 10
0.0
 20
0.0
 30
0.0
 70
     1
  0
VERTEX
  5
5450
  8
0
 10
22021.6863909406
 20
13918.51688915027
 30
0.0
  0
VERTEX
  5
5451
  8
0
 10
22021.6863909406
 20
13938.51688915027
 30
0.0
  0
VERTEX
  5
5452
  8
0
 10
22041.6863909406
 20
13938.51688915027
 30
0.0
  0
VERTEX
  5
5453
  8
0
 10
22041.6863909406
 20
13918.51688915027
 30
0.0
  0
SEQEND
  5
58EE
  8
0
  0
POLYLINE
  5
3A8
  8
0
 66
     1
 10
0.0
 20
0.0
 30
0.0
 70
     1
  0
VERTEX
  5
5454
  8
0
 10
22101.6863909406
 20
14418.5168796135
 30
0.0
  0
VERTEX
  5
5455
  8
0
 10
22101.6863909406
 20
14448.5168796135
 30
0.0
  0
VERTEX
  5
5456
  8
0
 10
21165.6863909406
 20
14448.5168796135
 30
0.0
  0
VERTEX
  5
5457
  8
0
 10
21165.6863909406
 20
14418.5168796135
 30
0.0
  0
SEQEND
  5
58EF
  8
0
  0
POLYLINE
  5
3A9
  8
0
 66
     1
 10
0.0
 20
0.0
 30
0.0
 70
     1
  0
VERTEX
  5
5458
  8
0
 10
22101.6863909406
 20
14668.5168796135
 30
0.0
  0
VERTEX
  5
5459
  8
0
 10
22101.6863909406
 20
14698.5168796135
 30
0.0
  0
VERTEX
  5
545A
  8
0
 10
21165.6863909406
 20
14698.5168796135
 30
0.0
  0
VERTEX
  5
545B
  8
0
 10
21165.6863909406
 20
14668.5168796135
 30
0.0
  0
SEQEND
  5
58F0
  8
0
  0
POLYLINE
  5
3AA
  8
0
 66
     1
 10
0.0
 20
0.0
 30
0.0
 70
     1
  0
VERTEX
  5
545C
  8
0
 10
22101.6863909406
 20
14918.5168796135
 30
0.0
  0
VERTEX
  5
545D
  8
0
 10
22101.6863909406
 20
14948.5168796135
 30
0.0
  0
VERTEX
  5
545E
  8
0
 10
21165.6863909406
 20
14948.5168796135
 30
0.0
  0
VERTEX
  5
545F
  8
0
 10
21165.6863909406
 20
14918.5168796135
 30
0.0
  0
SEQEND
  5
58F1
  8
0
  0
POLYLINE
  5
3AB
  8
0
 66
     1
 10
0.0
 20
0.0
 30
0.0
 70
     1
  0
VERTEX
  5
5460
  8
0
 10
22101.6863909406
 20
15168.5168796135
 30
0.0
  0
VERTEX
  5
5461
  8
0
 10
22101.6863909406
 20
15198.51687961349
 30
0.0
  0
VERTEX
  5
5462
  8
0
 10
21165.6863909406
 20
15198.51687961349
 30
0.0
  0
VERTEX
  5
5463
  8
0
 10
21165.6863909406
 20
15168.5168796135
 30
0.0
  0
SEQEND
  5
58F2
  8
0
  0
POLYLINE
  5
3AC
  8
0
 66
     1
 10
0.0
 20
0.0
 30
0.0
 70
     1
  0
VERTEX
  5
5464
  8
0
 10
22101.6863909406
 20
15418.5168796135
 30
0.0
  0
VERTEX
  5
5465
  8
0
 10
22101.6863909406
 20
15448.51687961349
 30
0.0
  0
VERTEX
  5
5466
  8
0
 10
21165.6863909406
 20
15448.51687961349
 30
0.0
  0
VERTEX
  5
5467
  8
0
 10
21165.6863909406
 20
15418.5168796135
 30
0.0
  0
SEQEND
  5
58F3
  8
0
  0
POLYLINE
  5
3AD
  8
0
 66
     1
 10
0.0
 20
0.0
 30
0.0
 70
     1
  0
VERTEX
  5
5468
  8
0
 10
22101.6863909406
 20
15668.5168796135
 30
0.0
  0
VERTEX
  5
5469
  8
0
 10
22101.6863909406
 20
15698.51687961349
 30
0.0
  0
VERTEX
  5
546A
  8
0
 10
21165.6863909406
 20
15698.51687961349
 30
0.0
  0
VERTEX
  5
546B
  8
0
 10
21165.6863909406
 20
15668.5168796135
 30
0.0
  0
SEQEND
  5
58F4
  8
0
  0
POLYLINE
  5
3AE
  8
0
 66
     1
 10
0.0
 20
0.0
 30
0.0
 70
     1
  0
VERTEX
  5
546C
  8
0
 10
22101.6863909406
 20
15918.5168796135
 30
0.0
  0
VERTEX
  5
546D
  8
0
 10
22101.6863909406
 20
15948.51687961349
 30
0.0
  0
VERTEX
  5
546E
  8
0
 10
21165.6863909406
 20
15948.51687961349
 30
0.0
  0
VERTEX
  5
546F
  8
0
 10
21165.6863909406
 20
15918.5168796135
 30
0.0
  0
SEQEND
  5
58F5
  8
0
  0
POLYLINE
  5
3AF
  8
0
 66
     1
 10
0.0
 20
0.0
 30
0.0
 70
     1
  0
VERTEX
  5
5470
  8
0
 10
21129.58639094058
 20
16458.51688915028
 30
0.0
  0
VERTEX
  5
5471
  8
0
 10
21129.58639094058
 20
13935.51688915023
 30
0.0
  0
VERTEX
  5
5472
  8
0
 10
21099.58639094059
 20
13935.51688915023
 30
0.0
  0
VERTEX
  5
5473
  8
0
 10
21099.58639094059
 20
16458.51688915028
 30
0.0
  0
SEQEND
  5
58F6
  8
0
  0
POLYLINE
  5
3B0
  8
0
 66
     1
 10
0.0
 20
0.0
 30
0.0
 70
     1
  0
VERTEX
  5
5474
  8
0
 10
21129.58639094052
 20
12725.38139913681
 30
0.0
  0
VERTEX
  5
5475
  8
0
 10
21129.58639094052
 20
10202.38139913677
 30
0.0
  0
VERTEX
  5
5476
  8
0
 10
21099.58639094052
 20
10202.38139913677
 30
0.0
  0
VERTEX
  5
5477
  8
0
 10
21099.58639094052
 20
12725.38139913681
 30
0.0
  0
SEQEND
  5
58F7
  8
0
  0
POLYLINE
  5
3B1
  8
0
 66
     1
 10
0.0
 20
0.0
 30
0.0
 70
     1
  0
VERTEX
  5
5478
  8
0
 10
25307.7080107226
 20
10202.38139913677
 30
0.0
  0
VERTEX
  5
5479
  8
0
 10
25907.70801072259
 20
10202.38139913677
 30
0.0
  0
VERTEX
  5
547A
  8
0
 10
25907.70801072259
 20
12725.38139913681
 30
0.0
  0
VERTEX
  5
547B
  8
0
 10
25307.7080107226
 20
12725.38139913681
 30
0.0
  0
SEQEND
  5
58F8
  8
0
  0
POLYLINE
  5
3B2
  8
0
 66
     1
 10
0.0
 20
0.0
 30
0.0
 70
     1
  0
VERTEX
  5
547C
  8
0
 10
25307.7080107226
 20
13935.51688915023
 30
0.0
  0
VERTEX
  5
547D
  8
0
 10
25907.70801072259
 20
13935.51688915023
 30
0.0
  0
VERTEX
  5
547E
  8
0
 10
25907.70801072259
 20
16458.51688915028
 30
0.0
  0
VERTEX
  5
547F
  8
0
 10
25307.7080107226
 20
16458.51688915028
 30
0.0
  0
SEQEND
  5
58F9
  8
0
  0
POLYLINE
  5
3B3
  8
0
 66
     1
 10
0.0
 20
0.0
 30
0.0
  0
VERTEX
  5
5480
  8
0
 10
25109.50129716488
 20
13918.51688915027
 30
0.0
  0
VERTEX
  5
5481
  8
0
 10
26105.91472428031
 20
13918.51688915027
 30
0.0
  0
SEQEND
  5
58FA
  8
0
  0
POLYLINE
  5
3B4
  8
0
 66
     1
 10
0.0
 20
0.0
 30
0.0
 70
     1
  0
VERTEX
  5
5482
  8
0
 10
25342.70801072259
 20
12725.38139913681
 30
0.0
  0
VERTEX
  5
5483
  8
0
 10
25872.70801072259
 20
12725.38139913681
 30
0.0
  0
VERTEX
  5
5484
  8
0
 10
25872.70801072259
 20
10202.38139913677
 30
0.0
  0
VERTEX
  5
5485
  8
0
 10
25342.70801072259
 20
10202.38139913677
 30
0.0
  0
SEQEND
  5
58FB
  8
0
  0
POLYLINE
  5
3B5
  8
0
 66
     1
 10
0.0
 20
0.0
 30
0.0
 70
     1
  0
VERTEX
  5
5486
  8
0
 10
25342.70801072259
 20
16458.51688915028
 30
0.0
  0
VERTEX
  5
5487
  8
0
 10
25872.70801072259
 20
16458.51688915028
 30
0.0
  0
VERTEX
  5
5488
  8
0
 10
25872.70801072259
 20
13935.51688915023
 30
0.0
  0
VERTEX
  5
5489
  8
0
 10
25342.70801072259
 20
13935.51688915023
 30
0.0
  0
SEQEND
  5
58FC
  8
0
  0
POLYLINE
  5
3B6
  8
0
 66
     1
 10
0.0
 20
0.0
 30
0.0
  0
VERTEX
  5
548A
  8
0
 10
25109.50129716488
 20
10185.38139913681
 30
0.0
  0
VERTEX
  5
548B
  8
0
 10
26105.91472428031
 20
10185.38139913681
 30
0.0
  0
SEQEND
  5
58FD
  8
0
  0
POLYLINE
  5
3B7
  8
0
 66
     1
 10
0.0
 20
0.0
 30
0.0
 70
     1
  0
VERTEX
  5
548C
  8
0
 10
22101.6863909406
 20
16168.5168796135
 30
0.0
  0
VERTEX
  5
548D
  8
0
 10
22101.6863909406
 20
16198.51687961349
 30
0.0
  0
VERTEX
  5
548E
  8
0
 10
21165.6863909406
 20
16198.51687961349
 30
0.0
  0
VERTEX
  5
548F
  8
0
 10
21165.6863909406
 20
16168.5168796135
 30
0.0
  0
SEQEND
  5
58FE
  8
0
  0
POLYLINE
  5
3B8
  8
0
 66
     1
 10
0.0
 20
0.0
 30
0.0
 70
     1
  0
VERTEX
  5
5490
  8
0
 10
17466.1298653905
 20
16018.51688915022
 30
0.0
  0
VERTEX
  5
5491
  8
0
 10
17466.1298653905
 20
16048.51688915022
 30
0.0
  0
VERTEX
  5
5492
  8
0
 10
16530.1298653905
 20
16048.51688915022
 30
0.0
  0
VERTEX
  5
5493
  8
0
 10
16530.1298653905
 20
16018.51688915022
 30
0.0
  0
SEQEND
  5
58FF
  8
0
  0
POLYLINE
  5
3B9
  8
0
 66
     1
 10
0.0
 20
0.0
 30
0.0
 70
     1
  0
VERTEX
  5
5494
  8
0
 10
17466.12986539054
 20
12315.38139913674
 30
0.0
  0
VERTEX
  5
5495
  8
0
 10
17466.12986539054
 20
12285.38139913674
 30
0.0
  0
VERTEX
  5
5496
  8
0
 10
16530.12986539054
 20
12285.38139913674
 30
0.0
  0
VERTEX
  5
5497
  8
0
 10
16530.12986539054
 20
12315.38139913674
 30
0.0
  0
SEQEND
  5
5900
  8
0
  0
POLYLINE
  5
3BA
  8
0
 66
     1
 10
0.0
 20
0.0
 30
0.0
 70
     1
  0
VERTEX
  5
5498
  8
0
 10
17266.12986539054
 20
4288.036426392761
 30
0.0
  0
VERTEX
  5
5499
  8
0
 10
17266.12986539054
 20
4258.036426392761
 30
0.0
  0
VERTEX
  5
549A
  8
0
 10
16530.12986539054
 20
4258.036426392761
 30
0.0
  0
VERTEX
  5
549B
  8
0
 10
16530.12986539054
 20
4288.036426392761
 30
0.0
  0
SEQEND
  5
5901
  8
0
  0
POLYLINE
  5
3BB
  8
0
 66
     1
 10
0.0
 20
0.0
 30
0.0
 70
     1
  0
VERTEX
  5
549C
  8
0
 10
17266.1298653905
 20
7991.171916406237
 30
0.0
  0
VERTEX
  5
549D
  8
0
 10
17266.1298653905
 20
8021.171916406238
 30
0.0
  0
VERTEX
  5
549E
  8
0
 10
16530.1298653905
 20
8021.171916406238
 30
0.0
  0
VERTEX
  5
549F
  8
0
 10
16530.1298653905
 20
7991.171916406237
 30
0.0
  0
SEQEND
  5
5902
  8
0
  0
POLYLINE
  5
3BC
  8
0
 66
     1
 10
0.0
 20
0.0
 30
0.0
 70
     1
  0
VERTEX
  5
54A0
  8
0
 10
21901.6863909406
 20
8141.171906869521
 30
0.0
  0
VERTEX
  5
54A1
  8
0
 10
21901.6863909406
 20
8171.171906869515
 30
0.0
  0
VERTEX
  5
54A2
  8
0
 10
21165.6863909406
 20
8171.171906869515
 30
0.0
  0
VERTEX
  5
54A3
  8
0
 10
21165.6863909406
 20
8141.171906869521
 30
0.0
  0
SEQEND
  5
5903
  8
0
  0
POLYLINE
  5
3BD
  8
0
 66
     1
 10
0.0
 20
0.0
 30
0.0
  0
VERTEX
  5
54A4
  8
0
 10
25109.50129716488
 20
2158.036426392835
 30
0.0
  0
VERTEX
  5
54A5
  8
0
 10
26105.91472428031
 20
2158.036426392835
 30
0.0
  0
SEQEND
  5
5904
  8
0
  0
POLYLINE
  5
3BE
  8
0
 66
     1
 10
0.0
 20
0.0
 30
0.0
 70
     1
  0
VERTEX
  5
54A6
  8
0
 10
25342.70801072259
 20
8431.171916406303
 30
0.0
  0
VERTEX
  5
54A7
  8
0
 10
25872.70801072259
 20
8431.171916406303
 30
0.0
  0
VERTEX
  5
54A8
  8
0
 10
25872.70801072259
 20
5908.171916406253
 30
0.0
  0
VERTEX
  5
54A9
  8
0
 10
25342.70801072259
 20
5908.171916406253
 30
0.0
  0
SEQEND
  5
5905
  8
0
  0
POLYLINE
  5
3BF
  8
0
 66
     1
 10
0.0
 20
0.0
 30
0.0
 70
     1
  0
VERTEX
  5
54AA
  8
0
 10
25342.70801072259
 20
4698.036426392834
 30
0.0
  0
VERTEX
  5
54AB
  8
0
 10
25872.70801072259
 20
4698.036426392834
 30
0.0
  0
VERTEX
  5
54AC
  8
0
 10
25872.70801072259
 20
2175.036426392791
 30
0.0
  0
VERTEX
  5
54AD
  8
0
 10
25342.70801072259
 20
2175.036426392791
 30
0.0
  0
SEQEND
  5
5906
  8
0
  0
POLYLINE
  5
3C0
  8
0
 66
     1
 10
0.0
 20
0.0
 30
0.0
  0
VERTEX
  5
54AE
  8
0
 10
25109.50129716488
 20
5891.171916406296
 30
0.0
  0
VERTEX
  5
54AF
  8
0
 10
26105.91472428031
 20
5891.171916406296
 30
0.0
  0
SEQEND
  5
5907
  8
0
  0
POLYLINE
  5
3C1
  8
0
 66
     1
 10
0.0
 20
0.0
 30
0.0
 70
     1
  0
VERTEX
  5
54B0
  8
0
 10
25307.7080107226
 20
5908.171916406253
 30
0.0
  0
VERTEX
  5
54B1
  8
0
 10
25907.70801072259
 20
5908.171916406253
 30
0.0
  0
VERTEX
  5
54B2
  8
0
 10
25907.70801072259
 20
8431.171916406303
 30
0.0
  0
VERTEX
  5
54B3
  8
0
 10
25307.7080107226
 20
8431.171916406303
 30
0.0
  0
SEQEND
  5
5908
  8
0
  0
POLYLINE
  5
3C2
  8
0
 66
     1
 10
0.0
 20
0.0
 30
0.0
 70
     1
  0
VERTEX
  5
54B4
  8
0
 10
25307.7080107226
 20
2175.036426392791
 30
0.0
  0
VERTEX
  5
54B5
  8
0
 10
25907.70801072259
 20
2175.036426392791
 30
0.0
  0
VERTEX
  5
54B6
  8
0
 10
25907.70801072259
 20
4698.036426392834
 30
0.0
  0
VERTEX
  5
54B7
  8
0
 10
25307.7080107226
 20
4698.036426392834
 30
0.0
  0
SEQEND
  5
5909
  8
0
  0
POLYLINE
  5
3C3
  8
0
 66
     1
 10
0.0
 20
0.0
 30
0.0
 70
     1
  0
VERTEX
  5
54B8
  8
0
 10
21129.58639094052
 20
4698.036426392834
 30
0.0
  0
VERTEX
  5
54B9
  8
0
 10
21129.58639094052
 20
2175.036426392791
 30
0.0
  0
VERTEX
  5
54BA
  8
0
 10
21099.58639094052
 20
2175.036426392791
 30
0.0
  0
VERTEX
  5
54BB
  8
0
 10
21099.58639094052
 20
4698.036426392834
 30
0.0
  0
SEQEND
  5
590A
  8
0
  0
POLYLINE
  5
3C4
  8
0
 66
     1
 10
0.0
 20
0.0
 30
0.0
 70
     1
  0
VERTEX
  5
54BC
  8
0
 10
21129.58639094058
 20
8431.171916406303
 30
0.0
  0
VERTEX
  5
54BD
  8
0
 10
21129.58639094058
 20
5908.171916406253
 30
0.0
  0
VERTEX
  5
54BE
  8
0
 10
21099.58639094059
 20
5908.171916406253
 30
0.0
  0
VERTEX
  5
54BF
  8
0
 10
21099.58639094059
 20
8431.171916406303
 30
0.0
  0
SEQEND
  5
590B
  8
0
  0
POLYLINE
  5
3C5
  8
0
 66
     1
 10
0.0
 20
0.0
 30
0.0
 70
     1
  0
VERTEX
  5
54C0
  8
0
 10
21901.6863909406
 20
7891.17190686952
 30
0.0
  0
VERTEX
  5
54C1
  8
0
 10
21901.6863909406
 20
7921.171906869514
 30
0.0
  0
VERTEX
  5
54C2
  8
0
 10
21165.6863909406
 20
7921.171906869514
 30
0.0
  0
VERTEX
  5
54C3
  8
0
 10
21165.6863909406
 20
7891.17190686952
 30
0.0
  0
SEQEND
  5
590C
  8
0
  0
POLYLINE
  5
3C6
  8
0
 66
     1
 10
0.0
 20
0.0
 30
0.0
 70
     1
  0
VERTEX
  5
54C4
  8
0
 10
21901.6863909406
 20
7641.17190686952
 30
0.0
  0
VERTEX
  5
54C5
  8
0
 10
21901.6863909406
 20
7671.171906869514
 30
0.0
  0
VERTEX
  5
54C6
  8
0
 10
21165.6863909406
 20
7671.171906869514
 30
0.0
  0
VERTEX
  5
54C7
  8
0
 10
21165.6863909406
 20
7641.17190686952
 30
0.0
  0
SEQEND
  5
590D
  8
0
  0
POLYLINE
  5
3C7
  8
0
 66
     1
 10
0.0
 20
0.0
 30
0.0
 70
     1
  0
VERTEX
  5
54C8
  8
0
 10
21901.6863909406
 20
7391.17190686952
 30
0.0
  0
VERTEX
  5
54C9
  8
0
 10
21901.6863909406
 20
7421.171906869514
 30
0.0
  0
VERTEX
  5
54CA
  8
0
 10
21165.6863909406
 20
7421.171906869514
 30
0.0
  0
VERTEX
  5
54CB
  8
0
 10
21165.6863909406
 20
7391.17190686952
 30
0.0
  0
SEQEND
  5
590E
  8
0
  0
POLYLINE
  5
3C8
  8
0
 66
     1
 10
0.0
 20
0.0
 30
0.0
 70
     1
  0
VERTEX
  5
54CC
  8
0
 10
21901.6863909406
 20
7141.17190686952
 30
0.0
  0
VERTEX
  5
54CD
  8
0
 10
21901.6863909406
 20
7171.171906869513
 30
0.0
  0
VERTEX
  5
54CE
  8
0
 10
21165.6863909406
 20
7171.171906869513
 30
0.0
  0
VERTEX
  5
54CF
  8
0
 10
21165.6863909406
 20
7141.17190686952
 30
0.0
  0
SEQEND
  5
590F
  8
0
  0
POLYLINE
  5
3C9
  8
0
 66
     1
 10
0.0
 20
0.0
 30
0.0
 70
     1
  0
VERTEX
  5
54D0
  8
0
 10
21901.6863909406
 20
6891.17190686952
 30
0.0
  0
VERTEX
  5
54D1
  8
0
 10
21901.6863909406
 20
6921.17190686952
 30
0.0
  0
VERTEX
  5
54D2
  8
0
 10
21165.6863909406
 20
6921.17190686952
 30
0.0
  0
VERTEX
  5
54D3
  8
0
 10
21165.6863909406
 20
6891.17190686952
 30
0.0
  0
SEQEND
  5
5910
  8
0
  0
POLYLINE
  5
3CA
  8
0
 66
     1
 10
0.0
 20
0.0
 30
0.0
 70
     1
  0
VERTEX
  5
54D4
  8
0
 10
21901.6863909406
 20
6641.17190686952
 30
0.0
  0
VERTEX
  5
54D5
  8
0
 10
21901.6863909406
 20
6671.17190686952
 30
0.0
  0
VERTEX
  5
54D6
  8
0
 10
21165.6863909406
 20
6671.17190686952
 30
0.0
  0
VERTEX
  5
54D7
  8
0
 10
21165.6863909406
 20
6641.17190686952
 30
0.0
  0
SEQEND
  5
5911
  8
0
  0
POLYLINE
  5
3CB
  8
0
 66
     1
 10
0.0
 20
0.0
 30
0.0
 70
     1
  0
VERTEX
  5
54D8
  8
0
 10
21901.6863909406
 20
6391.171906869518
 30
0.0
  0
VERTEX
  5
54D9
  8
0
 10
21901.6863909406
 20
6421.17190686952
 30
0.0
  0
VERTEX
  5
54DA
  8
0
 10
21165.6863909406
 20
6421.17190686952
 30
0.0
  0
VERTEX
  5
54DB
  8
0
 10
21165.6863909406
 20
6391.171906869518
 30
0.0
  0
SEQEND
  5
5912
  8
0
  0
POLYLINE
  5
3CC
  8
0
 66
     1
 10
0.0
 20
0.0
 30
0.0
 70
     1
  0
VERTEX
  5
54DC
  8
0
 10
21821.6863909406
 20
5891.171916406296
 30
0.0
  0
VERTEX
  5
54DD
  8
0
 10
21821.6863909406
 20
5911.171916406296
 30
0.0
  0
VERTEX
  5
54DE
  8
0
 10
21841.6863909406
 20
5911.171916406296
 30
0.0
  0
VERTEX
  5
54DF
  8
0
 10
21841.6863909406
 20
5891.171916406296
 30
0.0
  0
SEQEND
  5
5913
  8
0
  0
POLYLINE
  5
3CD
  8
0
 66
     1
 10
0.0
 20
0.0
 30
0.0
 70
     1
  0
VERTEX
  5
54E0
  8
0
 10
21246.6863909406
 20
5891.171916406296
 30
0.0
  0
VERTEX
  5
54E1
  8
0
 10
21246.6863909406
 20
5911.171916406296
 30
0.0
  0
VERTEX
  5
54E2
  8
0
 10
21226.6863909406
 20
5911.171916406296
 30
0.0
  0
VERTEX
  5
54E3
  8
0
 10
21226.6863909406
 20
5891.171916406296
 30
0.0
  0
SEQEND
  5
5914
  8
0
  0
POLYLINE
  5
3CE
  8
0
 66
     1
 10
0.0
 20
0.0
 30
0.0
 70
     1
  0
VERTEX
  5
54E4
  8
0
 10
21841.6863909406
 20
5911.171916406296
 30
0.0
  0
VERTEX
  5
54E5
  8
0
 10
21841.6863909406
 20
5891.171916406296
 30
0.0
  0
VERTEX
  5
54E6
  8
0
 10
21226.6863909406
 20
5891.171916406296
 30
0.0
  0
VERTEX
  5
54E7
  8
0
 10
21226.6863909406
 20
5911.171916406296
 30
0.0
  0
SEQEND
  5
5915
  8
0
  0
POLYLINE
  5
3CF
  8
0
 66
     1
 10
0.0
 20
0.0
 30
0.0
 70
     1
  0
VERTEX
  5
54E8
  8
0
 10
21220.1863909406
 20
5931.67191640625
 30
0.0
  0
VERTEX
  5
54E9
  8
0
 10
21220.1863909406
 20
5904.771916406456
 30
0.0
  0
VERTEX
  5
54EA
  8
0
 10
21221.1863909406
 20
5903.771916406328
 30
0.0
  0
VERTEX
  5
54EB
  8
0
 10
21225.1863909406
 20
5903.771916406328
 30
0.0
  0
VERTEX
  5
54EC
  8
0
 10
21226.1863909406
 20
5904.771916406456
 30
0.0
  0
VERTEX
  5
54ED
  8
0
 10
21226.1863909406
 20
5911.271916406331
 30
0.0
  0
VERTEX
  5
54EE
  8
0
 10
21253.16862578373
 20
5911.742893067463
 30
0.0
  0
VERTEX
  5
54EF
  8
0
 10
21254.1863909406
 20
5912.760658224396
 30
0.0
  0
VERTEX
  5
54F0
  8
0
 10
21254.1863909406
 20
5931.67191640625
 30
0.0
  0
SEQEND
  5
5916
  8
0
  0
POLYLINE
  5
3D0
  8
0
 66
     1
 10
0.0
 20
0.0
 30
0.0
 70
     1
  0
VERTEX
  5
54F1
  8
0
 10
21848.18639094054
 20
5931.67191640625
 30
0.0
  0
VERTEX
  5
54F2
  8
0
 10
21848.18639094054
 20
5904.771916406456
 30
0.0
  0
VERTEX
  5
54F3
  8
0
 10
21847.1863909406
 20
5903.771916406328
 30
0.0
  0
VERTEX
  5
54F4
  8
0
 10
21843.18639094054
 20
5903.771916406328
 30
0.0
  0
VERTEX
  5
54F5
  8
0
 10
21842.1863909406
 20
5904.771916406456
 30
0.0
  0
VERTEX
  5
54F6
  8
0
 10
21842.1863909406
 20
5911.271916406331
 30
0.0
  0
VERTEX
  5
54F7
  8
0
 10
21815.20415609748
 20
5911.742893067463
 30
0.0
  0
VERTEX
  5
54F8
  8
0
 10
21814.1863909406
 20
5912.760658224396
 30
0.0
  0
VERTEX
  5
54F9
  8
0
 10
21814.1863909406
 20
5931.67191640625
 30
0.0
  0
SEQEND
  5
5917
  8
0
  0
POLYLINE
  5
3D1
  8
0
 66
     1
 10
0.0
 20
0.0
 30
0.0
 70
     1
  0
VERTEX
  5
54FA
  8
0
 10
21165.1863909406
 20
8391.171906869498
 30
0.0
  0
VERTEX
  5
54FB
  8
0
 10
21165.1863909406
 20
8431.171916406303
 30
0.0
  0
VERTEX
  5
54FC
  8
0
 10
21902.1863909406
 20
8431.171916406303
 30
0.0
  0
VERTEX
  5
54FD
  8
0
 10
21902.1863909406
 20
8391.171906869498
 30
0.0
  0
SEQEND
  5
5918
  8
0
  0
POLYLINE
  5
3D2
  8
0
 66
     1
 10
0.0
 20
0.0
 30
0.0
 70
     1
  0
VERTEX
  5
54FE
  8
0
 10
21166.1863909406
 20
5991.17191640625
 30
0.0
  0
VERTEX
  5
54FF
  8
0
 10
21166.1863909406
 20
6021.171916406252
 30
0.0
  0
VERTEX
  5
5500
  8
0
 10
21902.1863909406
 20
6021.171916406252
 30
0.0
  0
VERTEX
  5
5501
  8
0
 10
21902.1863909406
 20
5991.17191640625
 30
0.0
  0
SEQEND
  5
5919
  8
0
  0
POLYLINE
  5
3D3
  8
0
 66
     1
 10
0.0
 20
0.0
 30
0.0
 70
     1
  0
VERTEX
  5
5502
  8
0
 10
21902.1863909406
 20
5931.67191640625
 30
0.0
  0
VERTEX
  5
5503
  8
0
 10
21902.1863909406
 20
5991.17191640625
 30
0.0
  0
VERTEX
  5
5504
  8
0
 10
21166.1863909406
 20
5991.17191640625
 30
0.0
  0
VERTEX
  5
5505
  8
0
 10
21166.1863909406
 20
5931.67191640625
 30
0.0
  0
SEQEND
  5
591A
  8
0
  0
POLYLINE
  5
3D4
  8
0
 66
     1
 10
0.0
 20
0.0
 30
0.0
 70
     1
  0
VERTEX
  5
5506
  8
0
 10
21166.1863909406
 20
5908.171916406253
 30
0.0
  0
VERTEX
  5
5507
  8
0
 10
21129.58639094039
 20
5908.171916406253
 30
0.0
  0
VERTEX
  5
5508
  8
0
 10
21129.58639094039
 20
8431.171916406303
 30
0.0
  0
VERTEX
  5
5509
  8
0
 10
21165.1863909406
 20
8431.171916406303
 30
0.0
  0
VERTEX
  5
550A
  8
0
 10
21165.1863909406
 20
8391.171906869498
 30
0.0
  0
VERTEX
  5
550B
  8
0
 10
21166.1863909406
 20
8391.171906869498
 30
0.0
  0
SEQEND
  5
591B
  8
0
  0
POLYLINE
  5
3D5
  8
0
 66
     1
 10
0.0
 20
0.0
 30
0.0
 70
     1
  0
VERTEX
  5
550C
  8
0
 10
21937.1863909406
 20
5913.171916406252
 30
0.0
  0
VERTEX
  5
550D
  8
0
 10
21937.1863909406
 20
8431.171916406303
 30
0.0
  0
VERTEX
  5
550E
  8
0
 10
21902.1863909406
 20
8431.171916406303
 30
0.0
  0
VERTEX
  5
550F
  8
0
 10
21902.1863909406
 20
5913.171916406252
 30
0.0
  0
SEQEND
  5
591C
  8
0
  0
POLYLINE
  5
3D6
  8
0
 66
     1
 10
0.0
 20
0.0
 30
0.0
 70
     1
  0
VERTEX
  5
5510
  8
0
 10
21937.18639094054
 20
2180.036426392792
 30
0.0
  0
VERTEX
  5
5511
  8
0
 10
21937.18639094054
 20
4698.036426392834
 30
0.0
  0
VERTEX
  5
5512
  8
0
 10
21902.18639094054
 20
4698.036426392834
 30
0.0
  0
VERTEX
  5
5513
  8
0
 10
21902.18639094054
 20
2180.036426392792
 30
0.0
  0
SEQEND
  5
591D
  8
0
  0
POLYLINE
  5
3D7
  8
0
 66
     1
 10
0.0
 20
0.0
 30
0.0
 70
     1
  0
VERTEX
  5
5514
  8
0
 10
21166.18639094054
 20
2175.036426392791
 30
0.0
  0
VERTEX
  5
5515
  8
0
 10
21129.58639094035
 20
2175.036426392791
 30
0.0
  0
VERTEX
  5
5516
  8
0
 10
21129.58639094035
 20
4698.036426392834
 30
0.0
  0
VERTEX
  5
5517
  8
0
 10
21165.18639094054
 20
4698.036426392834
 30
0.0
  0
VERTEX
  5
5518
  8
0
 10
21165.18639094054
 20
4658.036416856034
 30
0.0
  0
VERTEX
  5
5519
  8
0
 10
21166.18639094054
 20
4658.036416856034
 30
0.0
  0
SEQEND
  5
591E
  8
0
  0
POLYLINE
  5
3D8
  8
0
 66
     1
 10
0.0
 20
0.0
 30
0.0
 70
     1
  0
VERTEX
  5
551A
  8
0
 10
21165.18639094054
 20
4658.036416856034
 30
0.0
  0
VERTEX
  5
551B
  8
0
 10
21165.18639094054
 20
4698.036426392834
 30
0.0
  0
VERTEX
  5
551C
  8
0
 10
21902.18639094054
 20
4698.036426392834
 30
0.0
  0
VERTEX
  5
551D
  8
0
 10
21902.18639094054
 20
4658.036416856034
 30
0.0
  0
SEQEND
  5
591F
  8
0
  0
POLYLINE
  5
3D9
  8
0
 66
     1
 10
0.0
 20
0.0
 30
0.0
 70
     1
  0
VERTEX
  5
551E
  8
0
 10
21848.1863909405
 20
2198.536426392791
 30
0.0
  0
VERTEX
  5
551F
  8
0
 10
21848.1863909405
 20
2171.636426392994
 30
0.0
  0
VERTEX
  5
5520
  8
0
 10
21847.18639094054
 20
2170.636426392871
 30
0.0
  0
VERTEX
  5
5521
  8
0
 10
21843.1863909405
 20
2170.636426392871
 30
0.0
  0
VERTEX
  5
5522
  8
0
 10
21842.18639094054
 20
2171.636426392994
 30
0.0
  0
VERTEX
  5
5523
  8
0
 10
21842.18639094054
 20
2178.136426392871
 30
0.0
  0
VERTEX
  5
5524
  8
0
 10
21815.2041560974
 20
2178.607403054005
 30
0.0
  0
VERTEX
  5
5525
  8
0
 10
21814.18639094053
 20
2179.625168210938
 30
0.0
  0
VERTEX
  5
5526
  8
0
 10
21814.18639094053
 20
2198.536426392791
 30
0.0
  0
SEQEND
  5
5920
  8
0
  0
POLYLINE
  5
3DA
  8
0
 66
     1
 10
0.0
 20
0.0
 30
0.0
 70
     1
  0
VERTEX
  5
5527
  8
0
 10
21220.18639094054
 20
2198.536426392791
 30
0.0
  0
VERTEX
  5
5528
  8
0
 10
21220.18639094054
 20
2171.636426392994
 30
0.0
  0
VERTEX
  5
5529
  8
0
 10
21221.18639094054
 20
2170.636426392871
 30
0.0
  0
VERTEX
  5
552A
  8
0
 10
21225.18639094054
 20
2170.636426392871
 30
0.0
  0
VERTEX
  5
552B
  8
0
 10
21226.18639094054
 20
2171.636426392994
 30
0.0
  0
VERTEX
  5
552C
  8
0
 10
21226.18639094054
 20
2178.136426392871
 30
0.0
  0
VERTEX
  5
552D
  8
0
 10
21253.16862578368
 20
2178.607403054005
 30
0.0
  0
VERTEX
  5
552E
  8
0
 10
21254.18639094054
 20
2179.625168210938
 30
0.0
  0
VERTEX
  5
552F
  8
0
 10
21254.18639094054
 20
2198.536426392791
 30
0.0
  0
SEQEND
  5
5921
  8
0
  0
POLYLINE
  5
3DB
  8
0
 66
     1
 10
0.0
 20
0.0
 30
0.0
 70
     1
  0
VERTEX
  5
5530
  8
0
 10
21841.68639094054
 20
2178.036426392835
 30
0.0
  0
VERTEX
  5
5531
  8
0
 10
21841.68639094054
 20
2158.036426392835
 30
0.0
  0
VERTEX
  5
5532
  8
0
 10
21226.68639094054
 20
2158.036426392835
 30
0.0
  0
VERTEX
  5
5533
  8
0
 10
21226.68639094054
 20
2178.036426392835
 30
0.0
  0
SEQEND
  5
5922
  8
0
  0
POLYLINE
  5
3DC
  8
0
 66
     1
 10
0.0
 20
0.0
 30
0.0
 70
     1
  0
VERTEX
  5
5534
  8
0
 10
21246.68639094054
 20
2158.036426392835
 30
0.0
  0
VERTEX
  5
5535
  8
0
 10
21246.68639094054
 20
2178.036426392835
 30
0.0
  0
VERTEX
  5
5536
  8
0
 10
21226.68639094054
 20
2178.036426392835
 30
0.0
  0
VERTEX
  5
5537
  8
0
 10
21226.68639094054
 20
2158.036426392835
 30
0.0
  0
SEQEND
  5
5923
  8
0
  0
POLYLINE
  5
3DD
  8
0
 66
     1
 10
0.0
 20
0.0
 30
0.0
 70
     1
  0
VERTEX
  5
5538
  8
0
 10
21821.68639094054
 20
2158.036426392835
 30
0.0
  0
VERTEX
  5
5539
  8
0
 10
21821.68639094054
 20
2178.036426392835
 30
0.0
  0
VERTEX
  5
553A
  8
0
 10
21841.68639094054
 20
2178.036426392835
 30
0.0
  0
VERTEX
  5
553B
  8
0
 10
21841.68639094054
 20
2158.036426392835
 30
0.0
  0
SEQEND
  5
5924
  8
0
  0
POLYLINE
  5
3DE
  8
0
 66
     1
 10
0.0
 20
0.0
 30
0.0
 70
     1
  0
VERTEX
  5
553C
  8
0
 10
21902.1863909405
 20
2198.536426392791
 30
0.0
  0
VERTEX
  5
553D
  8
0
 10
21902.1863909405
 20
2258.036426392791
 30
0.0
  0
VERTEX
  5
553E
  8
0
 10
21166.1863909405
 20
2258.036426392791
 30
0.0
  0
VERTEX
  5
553F
  8
0
 10
21166.1863909405
 20
2198.536426392791
 30
0.0
  0
SEQEND
  5
5925
  8
0
  0
POLYLINE
  5
3DF
  8
0
 66
     1
 10
0.0
 20
0.0
 30
0.0
 70
     1
  0
VERTEX
  5
5540
  8
0
 10
16493.52986539044
 20
4698.036426392826
 30
0.0
  0
VERTEX
  5
5541
  8
0
 10
16493.52986539044
 20
2175.036426392791
 30
0.0
  0
VERTEX
  5
5542
  8
0
 10
16463.52986539044
 20
2175.036426392791
 30
0.0
  0
VERTEX
  5
5543
  8
0
 10
16463.52986539044
 20
4698.036426392826
 30
0.0
  0
SEQEND
  5
5926
  8
0
  0
POLYLINE
  5
3E0
  8
0
 66
     1
 10
0.0
 20
0.0
 30
0.0
 70
     1
  0
VERTEX
  5
5544
  8
0
 10
16493.52986539045
 20
8431.171916406302
 30
0.0
  0
VERTEX
  5
5545
  8
0
 10
16493.52986539045
 20
5908.171916406249
 30
0.0
  0
VERTEX
  5
5546
  8
0
 10
16463.52986539044
 20
5908.171916406249
 30
0.0
  0
VERTEX
  5
5547
  8
0
 10
16463.52986539044
 20
8431.171916406302
 30
0.0
  0
SEQEND
  5
5927
  8
0
  0
POLYLINE
  5
3E1
  8
0
 66
     1
 10
0.0
 20
0.0
 30
0.0
 70
     1
  0
VERTEX
  5
5548
  8
0
 10
17301.12986539054
 20
2180.036426392792
 30
0.0
  0
VERTEX
  5
5549
  8
0
 10
17301.12986539054
 20
4698.036426392834
 30
0.0
  0
VERTEX
  5
554A
  8
0
 10
17266.12986539054
 20
4698.036426392834
 30
0.0
  0
VERTEX
  5
554B
  8
0
 10
17266.12986539054
 20
2180.036426392792
 30
0.0
  0
SEQEND
  5
5928
  8
0
  0
POLYLINE
  5
3E2
  8
0
 66
     1
 10
0.0
 20
0.0
 30
0.0
 70
     1
  0
VERTEX
  5
554C
  8
0
 10
16530.12986539054
 20
2175.036426392791
 30
0.0
  0
VERTEX
  5
554D
  8
0
 10
16493.52986539044
 20
2175.036426392791
 30
0.0
  0
VERTEX
  5
554E
  8
0
 10
16493.52986539044
 20
4698.036426392834
 30
0.0
  0
VERTEX
  5
554F
  8
0
 10
16529.12986539054
 20
4698.036426392834
 30
0.0
  0
VERTEX
  5
5550
  8
0
 10
16529.12986539054
 20
4658.036416856027
 30
0.0
  0
VERTEX
  5
5551
  8
0
 10
16530.12986539054
 20
4658.036416856027
 30
0.0
  0
SEQEND
  5
5929
  8
0
  0
POLYLINE
  5
3E3
  8
0
 66
     1
 10
0.0
 20
0.0
 30
0.0
 70
     1
  0
VERTEX
  5
5552
  8
0
 10
17266.12986539054
 20
2198.536426392791
 30
0.0
  0
VERTEX
  5
5553
  8
0
 10
17266.12986539054
 20
2258.036426392791
 30
0.0
  0
VERTEX
  5
5554
  8
0
 10
16530.12986539054
 20
2258.036426392791
 30
0.0
  0
VERTEX
  5
5555
  8
0
 10
16530.12986539054
 20
2198.536426392791
 30
0.0
  0
SEQEND
  5
592A
  8
0
  0
POLYLINE
  5
3E4
  8
0
 66
     1
 10
0.0
 20
0.0
 30
0.0
 70
     1
  0
VERTEX
  5
5556
  8
0
 10
16530.12986539054
 20
2258.036426392791
 30
0.0
  0
VERTEX
  5
5557
  8
0
 10
16530.12986539054
 20
2288.036426392791
 30
0.0
  0
VERTEX
  5
5558
  8
0
 10
17266.12986539054
 20
2288.036426392791
 30
0.0
  0
VERTEX
  5
5559
  8
0
 10
17266.12986539054
 20
2258.036426392791
 30
0.0
  0
SEQEND
  5
592B
  8
0
  0
POLYLINE
  5
3E5
  8
CLOTHES_RAIL
 66
     1
 10
0.0
 20
0.0
 30
0.0
 70
     1
  0
VERTEX
  5
555A
  8
CLOTHES_RAIL
 10
17266.12986539054
 20
4185.536426392761
 30
0.0
  0
VERTEX
  5
555B
  8
CLOTHES_RAIL
 10
17266.12986539054
 20
4210.536426392763
 30
0.0
  0
VERTEX
  5
555C
  8
CLOTHES_RAIL
 10
16530.12986539054
 20
4210.536426392763
 30
0.0
  0
VERTEX
  5
555D
  8
CLOTHES_RAIL
 10
16530.12986539054
 20
4185.536426392761
 30
0.0
  0
SEQEND
  5
592C
  8
CLOTHES_RAIL
  0
POLYLINE
  5
3E6
  8
0
 66
     1
 10
0.0
 20
0.0
 30
0.0
 70
     1
  0
VERTEX
  5
555E
  8
0
 10
16529.12986539054
 20
4658.036416856027
 30
0.0
  0
VERTEX
  5
555F
  8
0
 10
16529.12986539054
 20
4698.036426392834
 30
0.0
  0
VERTEX
  5
5560
  8
0
 10
17266.12986539054
 20
4698.036426392834
 30
0.0
  0
VERTEX
  5
5561
  8
0
 10
17266.12986539054
 20
4658.036416856027
 30
0.0
  0
SEQEND
  5
592D
  8
0
  0
POLYLINE
  5
3E7
  8
0
 66
     1
 10
0.0
 20
0.0
 30
0.0
 70
     1
  0
VERTEX
  5
5562
  8
0
 10
17212.12986539054
 20
2198.536426392791
 30
0.0
  0
VERTEX
  5
5563
  8
0
 10
17212.12986539054
 20
2171.636426393001
 30
0.0
  0
VERTEX
  5
5564
  8
0
 10
17211.12986539054
 20
2170.636426392871
 30
0.0
  0
VERTEX
  5
5565
  8
0
 10
17207.12986539054
 20
2170.636426392871
 30
0.0
  0
VERTEX
  5
5566
  8
0
 10
17206.12986539054
 20
2171.636426393001
 30
0.0
  0
VERTEX
  5
5567
  8
0
 10
17206.12986539054
 20
2178.136426392871
 30
0.0
  0
VERTEX
  5
5568
  8
0
 10
17179.1476305474
 20
2178.607403054005
 30
0.0
  0
VERTEX
  5
5569
  8
0
 10
17178.12986539054
 20
2179.625168210944
 30
0.0
  0
VERTEX
  5
556A
  8
0
 10
17178.12986539054
 20
2198.536426392791
 30
0.0
  0
SEQEND
  5
592E
  8
0
  0
POLYLINE
  5
3E8
  8
0
 66
     1
 10
0.0
 20
0.0
 30
0.0
 70
     1
  0
VERTEX
  5
556B
  8
0
 10
16584.1298653906
 20
2198.536426392791
 30
0.0
  0
VERTEX
  5
556C
  8
0
 10
16584.1298653906
 20
2171.636426393001
 30
0.0
  0
VERTEX
  5
556D
  8
0
 10
16585.12986539054
 20
2170.636426392871
 30
0.0
  0
VERTEX
  5
556E
  8
0
 10
16589.12986539059
 20
2170.636426392871
 30
0.0
  0
VERTEX
  5
556F
  8
0
 10
16590.12986539054
 20
2171.636426393001
 30
0.0
  0
VERTEX
  5
5570
  8
0
 10
16590.12986539054
 20
2178.136426392871
 30
0.0
  0
VERTEX
  5
5571
  8
0
 10
16617.11210023366
 20
2178.607403054005
 30
0.0
  0
VERTEX
  5
5572
  8
0
 10
16618.12986539054
 20
2179.625168210944
 30
0.0
  0
VERTEX
  5
5573
  8
0
 10
16618.12986539054
 20
2198.536426392791
 30
0.0
  0
SEQEND
  5
592F
  8
0
  0
POLYLINE
  5
3E9
  8
0
 66
     1
 10
0.0
 20
0.0
 30
0.0
 70
     1
  0
VERTEX
  5
5574
  8
0
 10
17205.62986539054
 20
2178.036426392842
 30
0.0
  0
VERTEX
  5
5575
  8
0
 10
17205.62986539054
 20
2158.036426392841
 30
0.0
  0
VERTEX
  5
5576
  8
0
 10
16590.62986539054
 20
2158.036426392841
 30
0.0
  0
VERTEX
  5
5577
  8
0
 10
16590.62986539054
 20
2178.036426392842
 30
0.0
  0
SEQEND
  5
5930
  8
0
  0
POLYLINE
  5
3EA
  8
0
 66
     1
 10
0.0
 20
0.0
 30
0.0
 70
     1
  0
VERTEX
  5
5578
  8
0
 10
16610.62986539054
 20
2158.036426392841
 30
0.0
  0
VERTEX
  5
5579
  8
0
 10
16610.62986539054
 20
2178.036426392842
 30
0.0
  0
VERTEX
  5
557A
  8
0
 10
16590.62986539054
 20
2178.036426392842
 30
0.0
  0
VERTEX
  5
557B
  8
0
 10
16590.62986539054
 20
2158.036426392841
 30
0.0
  0
SEQEND
  5
5931
  8
0
  0
POLYLINE
  5
3EB
  8
0
 66
     1
 10
0.0
 20
0.0
 30
0.0
 70
     1
  0
VERTEX
  5
557C
  8
0
 10
17185.62986539054
 20
2158.036426392841
 30
0.0
  0
VERTEX
  5
557D
  8
0
 10
17185.62986539054
 20
2178.036426392842
 30
0.0
  0
VERTEX
  5
557E
  8
0
 10
17205.62986539054
 20
2178.036426392842
 30
0.0
  0
VERTEX
  5
557F
  8
0
 10
17205.62986539054
 20
2158.036426392841
 30
0.0
  0
SEQEND
  5
5932
  8
0
  0
POLYLINE
  5
3EC
  8
0
 66
     1
 10
0.0
 20
0.0
 30
0.0
 70
     1
  0
VERTEX
  5
5580
  8
0
 10
17266.12986539054
 20
3288.036426392784
 30
0.0
  0
VERTEX
  5
5581
  8
0
 10
17266.12986539054
 20
3258.036426392783
 30
0.0
  0
VERTEX
  5
5582
  8
0
 10
16530.12986539054
 20
3258.036426392783
 30
0.0
  0
VERTEX
  5
5583
  8
0
 10
16530.12986539054
 20
3288.036426392784
 30
0.0
  0
SEQEND
  5
5933
  8
0
  0
POLYLINE
  5
3ED
  8
CLOTHES_RAIL
 66
     1
 10
0.0
 20
0.0
 30
0.0
 70
     1
  0
VERTEX
  5
5584
  8
CLOTHES_RAIL
 10
17266.12986539054
 20
3210.536426392791
 30
0.0
  0
VERTEX
  5
5585
  8
CLOTHES_RAIL
 10
17266.12986539054
 20
3185.536426392785
 30
0.0
  0
VERTEX
  5
5586
  8
CLOTHES_RAIL
 10
16530.12986539054
 20
3185.536426392785
 30
0.0
  0
VERTEX
  5
5587
  8
CLOTHES_RAIL
 10
16530.12986539054
 20
3210.536426392791
 30
0.0
  0
SEQEND
  5
5934
  8
CLOTHES_RAIL
  0
POLYLINE
  5
3EE
  8
0
 66
     1
 10
0.0
 20
0.0
 30
0.0
 70
     1
  0
VERTEX
  5
5588
  8
0
 10
16530.1298653905
 20
7591.171916406245
 30
0.0
  0
VERTEX
  5
5589
  8
0
 10
16530.1298653905
 20
7621.171916406246
 30
0.0
  0
VERTEX
  5
558A
  8
0
 10
17266.1298653905
 20
7621.171916406246
 30
0.0
  0
VERTEX
  5
558B
  8
0
 10
17266.1298653905
 20
7591.171916406245
 30
0.0
  0
SEQEND
  5
5935
  8
0
  0
POLYLINE
  5
3EF
  8
0
 66
     1
 10
0.0
 20
0.0
 30
0.0
 70
     1
  0
VERTEX
  5
558C
  8
0
 10
17266.1298653905
 20
6391.17191640625
 30
0.0
  0
VERTEX
  5
558D
  8
0
 10
17266.1298653905
 20
6421.17191640625
 30
0.0
  0
VERTEX
  5
558E
  8
0
 10
16530.1298653905
 20
6421.17191640625
 30
0.0
  0
VERTEX
  5
558F
  8
0
 10
16530.1298653905
 20
6391.17191640625
 30
0.0
  0
SEQEND
  5
5936
  8
0
  0
POLYLINE
  5
3F0
  8
0
 66
     1
 10
0.0
 20
0.0
 30
0.0
 70
     1
  0
VERTEX
  5
5590
  8
0
 10
17266.1298653905
 20
7191.171916406244
 30
0.0
  0
VERTEX
  5
5591
  8
0
 10
17266.1298653905
 20
7221.171916406246
 30
0.0
  0
VERTEX
  5
5592
  8
0
 10
16530.1298653905
 20
7221.171916406246
 30
0.0
  0
VERTEX
  5
5593
  8
0
 10
16530.1298653905
 20
7191.171916406244
 30
0.0
  0
SEQEND
  5
5937
  8
0
  0
POLYLINE
  5
3F1
  8
0
 66
     1
 10
0.0
 20
0.0
 30
0.0
 70
     1
  0
VERTEX
  5
5594
  8
0
 10
16530.1298653905
 20
6791.171916406253
 30
0.0
  0
VERTEX
  5
5595
  8
0
 10
16530.1298653905
 20
6821.171916406253
 30
0.0
  0
VERTEX
  5
5596
  8
0
 10
17266.1298653905
 20
6821.171916406253
 30
0.0
  0
VERTEX
  5
5597
  8
0
 10
17266.1298653905
 20
6791.171916406253
 30
0.0
  0
SEQEND
  5
5938
  8
0
  0
POLYLINE
  5
3F2
  8
0
 66
     1
 10
0.0
 20
0.0
 30
0.0
 70
     1
  0
VERTEX
  5
5598
  8
0
 10
17185.6298653905
 20
5891.171916406295
 30
0.0
  0
VERTEX
  5
5599
  8
0
 10
17185.6298653905
 20
5911.171916406296
 30
0.0
  0
VERTEX
  5
559A
  8
0
 10
17205.6298653905
 20
5911.171916406296
 30
0.0
  0
VERTEX
  5
559B
  8
0
 10
17205.6298653905
 20
5891.171916406295
 30
0.0
  0
SEQEND
  5
5939
  8
0
  0
POLYLINE
  5
3F3
  8
0
 66
     1
 10
0.0
 20
0.0
 30
0.0
 70
     1
  0
VERTEX
  5
559C
  8
0
 10
16610.6298653905
 20
5891.171916406295
 30
0.0
  0
VERTEX
  5
559D
  8
0
 10
16610.6298653905
 20
5911.171916406296
 30
0.0
  0
VERTEX
  5
559E
  8
0
 10
16590.6298653905
 20
5911.171916406296
 30
0.0
  0
VERTEX
  5
559F
  8
0
 10
16590.6298653905
 20
5891.171916406295
 30
0.0
  0
SEQEND
  5
593A
  8
0
  0
POLYLINE
  5
3F4
  8
0
 66
     1
 10
0.0
 20
0.0
 30
0.0
 70
     1
  0
VERTEX
  5
55A0
  8
0
 10
17205.6298653905
 20
5911.171916406296
 30
0.0
  0
VERTEX
  5
55A1
  8
0
 10
17205.6298653905
 20
5891.171916406295
 30
0.0
  0
VERTEX
  5
55A2
  8
0
 10
16590.6298653905
 20
5891.171916406295
 30
0.0
  0
VERTEX
  5
55A3
  8
0
 10
16590.6298653905
 20
5911.171916406296
 30
0.0
  0
SEQEND
  5
593B
  8
0
  0
POLYLINE
  5
3F5
  8
0
 66
     1
 10
0.0
 20
0.0
 30
0.0
 70
     1
  0
VERTEX
  5
55A4
  8
0
 10
16584.12986539058
 20
5931.67191640625
 30
0.0
  0
VERTEX
  5
55A5
  8
0
 10
16584.12986539058
 20
5904.771916406454
 30
0.0
  0
VERTEX
  5
55A6
  8
0
 10
16585.1298653905
 20
5903.771916406328
 30
0.0
  0
VERTEX
  5
55A7
  8
0
 10
16589.12986539061
 20
5903.771916406328
 30
0.0
  0
VERTEX
  5
55A8
  8
0
 10
16590.1298653905
 20
5904.771916406454
 30
0.0
  0
VERTEX
  5
55A9
  8
0
 10
16590.1298653905
 20
5911.271916406331
 30
0.0
  0
VERTEX
  5
55AA
  8
0
 10
16617.11210023374
 20
5911.742893067462
 30
0.0
  0
VERTEX
  5
55AB
  8
0
 10
16618.1298653905
 20
5912.760658224396
 30
0.0
  0
VERTEX
  5
55AC
  8
0
 10
16618.1298653905
 20
5931.67191640625
 30
0.0
  0
SEQEND
  5
593C
  8
0
  0
POLYLINE
  5
3F6
  8
0
 66
     1
 10
0.0
 20
0.0
 30
0.0
 70
     1
  0
VERTEX
  5
55AD
  8
0
 10
17212.1298653905
 20
5931.67191640625
 30
0.0
  0
VERTEX
  5
55AE
  8
0
 10
17212.1298653905
 20
5904.771916406454
 30
0.0
  0
VERTEX
  5
55AF
  8
0
 10
17211.1298653905
 20
5903.771916406328
 30
0.0
  0
VERTEX
  5
55B0
  8
0
 10
17207.1298653905
 20
5903.771916406328
 30
0.0
  0
VERTEX
  5
55B1
  8
0
 10
17206.1298653905
 20
5904.771916406454
 30
0.0
  0
VERTEX
  5
55B2
  8
0
 10
17206.1298653905
 20
5911.271916406331
 30
0.0
  0
VERTEX
  5
55B3
  8
0
 10
17179.14763054741
 20
5911.742893067462
 30
0.0
  0
VERTEX
  5
55B4
  8
0
 10
17178.1298653905
 20
5912.760658224396
 30
0.0
  0
VERTEX
  5
55B5
  8
0
 10
17178.1298653905
 20
5931.67191640625
 30
0.0
  0
SEQEND
  5
593D
  8
0
  0
POLYLINE
  5
3F7
  8
0
 66
     1
 10
0.0
 20
0.0
 30
0.0
 70
     1
  0
VERTEX
  5
55B6
  8
0
 10
16529.1298653905
 20
8391.171906869497
 30
0.0
  0
VERTEX
  5
55B7
  8
0
 10
16529.1298653905
 20
8431.171916406302
 30
0.0
  0
VERTEX
  5
55B8
  8
0
 10
17266.1298653905
 20
8431.171916406302
 30
0.0
  0
VERTEX
  5
55B9
  8
0
 10
17266.1298653905
 20
8391.171906869497
 30
0.0
  0
SEQEND
  5
593E
  8
0
  0
POLYLINE
  5
3F8
  8
0
 66
     1
 10
0.0
 20
0.0
 30
0.0
 70
     1
  0
VERTEX
  5
55BA
  8
0
 10
16530.1298653905
 20
5991.17191640625
 30
0.0
  0
VERTEX
  5
55BB
  8
0
 10
16530.1298653905
 20
6021.17191640625
 30
0.0
  0
VERTEX
  5
55BC
  8
0
 10
17266.1298653905
 20
6021.17191640625
 30
0.0
  0
VERTEX
  5
55BD
  8
0
 10
17266.1298653905
 20
5991.17191640625
 30
0.0
  0
SEQEND
  5
593F
  8
0
  0
POLYLINE
  5
3F9
  8
0
 66
     1
 10
0.0
 20
0.0
 30
0.0
 70
     1
  0
VERTEX
  5
55BE
  8
0
 10
17266.1298653905
 20
5931.67191640625
 30
0.0
  0
VERTEX
  5
55BF
  8
0
 10
17266.1298653905
 20
5991.17191640625
 30
0.0
  0
VERTEX
  5
55C0
  8
0
 10
16530.1298653905
 20
5991.17191640625
 30
0.0
  0
VERTEX
  5
55C1
  8
0
 10
16530.1298653905
 20
5931.67191640625
 30
0.0
  0
SEQEND
  5
5940
  8
0
  0
POLYLINE
  5
3FA
  8
0
 66
     1
 10
0.0
 20
0.0
 30
0.0
 70
     1
  0
VERTEX
  5
55C2
  8
0
 10
16530.1298653905
 20
5908.171916406249
 30
0.0
  0
VERTEX
  5
55C3
  8
0
 10
16493.52986539045
 20
5908.171916406249
 30
0.0
  0
VERTEX
  5
55C4
  8
0
 10
16493.52986539045
 20
8431.171916406302
 30
0.0
  0
VERTEX
  5
55C5
  8
0
 10
16529.1298653905
 20
8431.171916406302
 30
0.0
  0
VERTEX
  5
55C6
  8
0
 10
16529.1298653905
 20
8391.171906869497
 30
0.0
  0
VERTEX
  5
55C7
  8
0
 10
16530.1298653905
 20
8391.171906869497
 30
0.0
  0
SEQEND
  5
5941
  8
0
  0
POLYLINE
  5
3FB
  8
0
 66
     1
 10
0.0
 20
0.0
 30
0.0
 70
     1
  0
VERTEX
  5
55C8
  8
0
 10
17301.1298653905
 20
5913.171916406248
 30
0.0
  0
VERTEX
  5
55C9
  8
0
 10
17301.1298653905
 20
8431.171916406302
 30
0.0
  0
VERTEX
  5
55CA
  8
0
 10
17266.1298653905
 20
8431.171916406302
 30
0.0
  0
VERTEX
  5
55CB
  8
0
 10
17266.1298653905
 20
5913.171916406248
 30
0.0
  0
SEQEND
  5
5942
  8
0
  0
POLYLINE
  5
3FC
  8
0
 66
     1
 10
0.0
 20
0.0
 30
0.0
 70
     1
  0
VERTEX
  5
55CC
  8
0
 10
13550.0
 20
9015.002619770916
 30
0.0
  0
VERTEX
  5
55CD
  8
0
 10
26550.0
 20
9015.002619770916
 30
0.0
  0
VERTEX
  5
55CE
  8
0
 10
26550.0
 20
1537.657647026935
 30
0.0
  0
VERTEX
  5
55CF
  8
0
 10
13550.0
 20
1537.657647026935
 30
0.0
  0
SEQEND
  5
5943
  8
0
  0
POLYLINE
  5
3FD
  8
0
 66
     1
 10
0.0
 20
0.0
 30
0.0
  0
VERTEX
  5
55D0
  8
0
 10
9450.01997202792
 20
4891.171916406282
 30
0.0
  0
VERTEX
  5
55D1
  8
0
 10
8453.606544912513
 20
4891.171916406282
 30
0.0
  0
SEQEND
  5
5944
  8
0
  0
POLYLINE
  5
3FE
  8
0
 66
     1
 10
0.0
 20
0.0
 30
0.0
  0
VERTEX
  5
55D2
  8
0
 10
3402.630686210061
 20
4891.171916406282
 30
0.0
  0
VERTEX
  5
55D3
  8
0
 10
2406.217259094658
 20
4891.171916406282
 30
0.0
  0
SEQEND
  5
5945
  8
0
  0
POLYLINE
  5
3FF
  8
0
 66
     1
 10
0.0
 20
0.0
 30
0.0
 70
     1
  0
VERTEX
  5
55D4
  8
0
 10
3054.423972652367
 20
4908.171916406238
 30
0.0
  0
VERTEX
  5
55D5
  8
0
 10
2754.423972652367
 20
4908.171916406238
 30
0.0
  0
VERTEX
  5
55D6
  8
0
 10
2754.423972652367
 20
7431.171925943011
 30
0.0
  0
VERTEX
  5
55D7
  8
0
 10
3054.423972652367
 20
7431.171925943011
 30
0.0
  0
SEQEND
  5
5946
  8
0
  0
POLYLINE
  5
400
  8
0
 66
     1
 10
0.0
 20
0.0
 30
0.0
 70
     1
  0
VERTEX
  5
55D8
  8
0
 10
3054.423972652367
 20
2175.036426392791
 30
0.0
  0
VERTEX
  5
55D9
  8
0
 10
2754.423972652367
 20
2175.036426392791
 30
0.0
  0
VERTEX
  5
55DA
  8
0
 10
2754.423972652367
 20
4298.036435929563
 30
0.0
  0
VERTEX
  5
55DB
  8
0
 10
3054.423972652367
 20
4298.036435929563
 30
0.0
  0
SEQEND
  5
5947
  8
0
  0
POLYLINE
  5
401
  8
0
 66
     1
 10
0.0
 20
0.0
 30
0.0
  0
VERTEX
  5
55DC
  8
0
 10
3402.630686210061
 20
2158.036426392835
 30
0.0
  0
VERTEX
  5
55DD
  8
0
 10
2406.217259094658
 20
2158.036426392835
 30
0.0
  0
SEQEND
  5
5948
  8
0
  0
POLYLINE
  5
402
  8
0
 66
     1
 10
0.0
 20
0.0
 30
0.0
  0
VERTEX
  5
55DE
  8
0
 10
9450.01997202792
 20
2158.036426392835
 30
0.0
  0
VERTEX
  5
55DF
  8
0
 10
8453.606544912513
 20
2158.036426392835
 30
0.0
  0
SEQEND
  5
5949
  8
0
  0
POLYLINE
  5
403
  8
0
 66
     1
 10
0.0
 20
0.0
 30
0.0
 70
     1
  0
VERTEX
  5
55E0
  8
0
 10
9251.81325847022
 20
2175.036426392791
 30
0.0
  0
VERTEX
  5
55E1
  8
0
 10
8651.813258470222
 20
2175.036426392791
 30
0.0
  0
VERTEX
  5
55E2
  8
0
 10
8651.813258470222
 20
4298.036435929563
 30
0.0
  0
VERTEX
  5
55E3
  8
0
 10
9251.81325847022
 20
4298.036435929563
 30
0.0
  0
SEQEND
  5
594A
  8
0
  0
POLYLINE
  5
404
  8
0
 66
     1
 10
0.0
 20
0.0
 30
0.0
 70
     1
  0
VERTEX
  5
55E4
  8
0
 10
9216.813258470222
 20
4298.036435929563
 30
0.0
  0
VERTEX
  5
55E5
  8
0
 10
8686.813258470222
 20
4298.036435929563
 30
0.0
  0
VERTEX
  5
55E6
  8
0
 10
8686.813258470222
 20
2175.036426392791
 30
0.0
  0
VERTEX
  5
55E7
  8
0
 10
9216.813258470222
 20
2175.036426392791
 30
0.0
  0
SEQEND
  5
594B
  8
0
  0
POLYLINE
  5
405
  8
0
 66
     1
 10
0.0
 20
0.0
 30
0.0
 70
     1
  0
VERTEX
  5
55E8
  8
0
 10
9216.813258470222
 20
7431.171925943011
 30
0.0
  0
VERTEX
  5
55E9
  8
0
 10
8686.813258470222
 20
7431.171925943011
 30
0.0
  0
VERTEX
  5
55EA
  8
0
 10
8686.813258470222
 20
4908.171916406238
 30
0.0
  0
VERTEX
  5
55EB
  8
0
 10
9216.813258470222
 20
4908.171916406238
 30
0.0
  0
SEQEND
  5
594C
  8
0
  0
POLYLINE
  5
406
  8
0
 66
     1
 10
0.0
 20
0.0
 30
0.0
 70
     1
  0
VERTEX
  5
55EC
  8
0
 10
9251.81325847022
 20
4908.171916406238
 30
0.0
  0
VERTEX
  5
55ED
  8
0
 10
8651.813258470222
 20
4908.171916406238
 30
0.0
  0
VERTEX
  5
55EE
  8
0
 10
8651.813258470222
 20
7431.171925943011
 30
0.0
  0
VERTEX
  5
55EF
  8
0
 10
9251.81325847022
 20
7431.171925943011
 30
0.0
  0
SEQEND
  5
594D
  8
0
  0
POLYLINE
  5
407
  8
0
 66
     1
 10
0.0
 20
0.0
 30
0.0
 70
     1
  0
VERTEX
  5
55F0
  8
0
 10
24911.29458360715
 20
2175.036426392791
 30
0.0
  0
VERTEX
  5
55F1
  8
0
 10
24311.29458360716
 20
2175.036426392791
 30
0.0
  0
VERTEX
  5
55F2
  8
0
 10
24311.29458360716
 20
4298.036435929563
 30
0.0
  0
VERTEX
  5
55F3
  8
0
 10
24911.29458360715
 20
4298.036435929563
 30
0.0
  0
SEQEND
  5
594E
  8
0
  0
POLYLINE
  5
408
  8
0
 66
     1
 10
0.0
 20
0.0
 30
0.0
 70
     1
  0
VERTEX
  5
55F4
  8
0
 10
24911.29458360715
 20
5908.171916406253
 30
0.0
  0
VERTEX
  5
55F5
  8
0
 10
24311.29458360716
 20
5908.171916406253
 30
0.0
  0
VERTEX
  5
55F6
  8
0
 10
24311.29458360716
 20
8031.171925943024
 30
0.0
  0
VERTEX
  5
55F7
  8
0
 10
24911.29458360715
 20
8031.171925943024
 30
0.0
  0
SEQEND
  5
594F
  8
0
  0
POLYLINE
  5
409
  8
0
 66
     1
 10
0.0
 20
0.0
 30
0.0
  0
VERTEX
  5
55F8
  8
0
 10
25109.50129716488
 20
5891.171916406296
 30
0.0
  0
VERTEX
  5
55F9
  8
0
 10
24113.08787004944
 20
5891.171916406296
 30
0.0
  0
SEQEND
  5
5950
  8
0
  0
POLYLINE
  5
40A
  8
0
 66
     1
 10
0.0
 20
0.0
 30
0.0
 70
     1
  0
VERTEX
  5
55FA
  8
0
 10
24876.29458360717
 20
4298.036435929563
 30
0.0
  0
VERTEX
  5
55FB
  8
0
 10
24346.29458360716
 20
4298.036435929563
 30
0.0
  0
VERTEX
  5
55FC
  8
0
 10
24346.29458360716
 20
2175.036426392791
 30
0.0
  0
VERTEX
  5
55FD
  8
0
 10
24876.29458360717
 20
2175.036426392791
 30
0.0
  0
SEQEND
  5
5951
  8
0
  0
POLYLINE
  5
40B
  8
0
 66
     1
 10
0.0
 20
0.0
 30
0.0
 70
     1
  0
VERTEX
  5
55FE
  8
0
 10
24876.29458360717
 20
8031.171925943024
 30
0.0
  0
VERTEX
  5
55FF
  8
0
 10
24346.29458360716
 20
8031.171925943024
 30
0.0
  0
VERTEX
  5
5600
  8
0
 10
24346.29458360716
 20
5908.171916406253
 30
0.0
  0
VERTEX
  5
5601
  8
0
 10
24876.29458360717
 20
5908.171916406253
 30
0.0
  0
SEQEND
  5
5952
  8
0
  0
POLYLINE
  5
40C
  8
0
 66
     1
 10
0.0
 20
0.0
 30
0.0
  0
VERTEX
  5
5602
  8
0
 10
25109.50129716488
 20
2158.036426392835
 30
0.0
  0
VERTEX
  5
5603
  8
0
 10
24113.08787004944
 20
2158.036426392835
 30
0.0
  0
SEQEND
  5
5953
  8
0
  0
POLYLINE
  5
40D
  8
0
 66
     1
 10
0.0
 20
0.0
 30
0.0
  0
VERTEX
  5
5604
  8
0
 10
14197.12986539054
 20
2158.036426392835
 30
0.0
  0
VERTEX
  5
5605
  8
0
 10
22554.48951026663
 20
2158.036426392834
 30
0.0
  0
SEQEND
  5
5954
  8
0
  0
POLYLINE
  5
40E
  8
0
 66
     1
 10
0.0
 20
0.0
 30
0.0
  0
VERTEX
  5
5606
  8
0
 10
14197.12986539054
 20
5891.171916406296
 30
0.0
  0
VERTEX
  5
5607
  8
0
 10
22554.48951026663
 20
5891.171916406308
 30
0.0
  0
SEQEND
  5
5955
  8
0
  0
POLYLINE
  5
40F
  8
0
 66
     1
 10
0.0
 20
0.0
 30
0.0
 70
     1
  0
VERTEX
  5
5608
  8
0
 10
19902.18639094049
 20
2198.536426392791
 30
0.0
  0
VERTEX
  5
5609
  8
0
 10
19902.18639094049
 20
2258.036426392791
 30
0.0
  0
VERTEX
  5
560A
  8
0
 10
19166.1863909405
 20
2258.036426392791
 30
0.0
  0
VERTEX
  5
560B
  8
0
 10
19166.1863909405
 20
2198.536426392791
 30
0.0
  0
SEQEND
  5
5956
  8
0
  0
POLYLINE
  5
410
  8
0
 66
     1
 10
0.0
 20
0.0
 30
0.0
 70
     1
  0
VERTEX
  5
560C
  8
0
 10
19821.68639094054
 20
2158.036426392835
 30
0.0
  0
VERTEX
  5
560D
  8
0
 10
19821.68639094054
 20
2178.036426392835
 30
0.0
  0
VERTEX
  5
560E
  8
0
 10
19841.68639094054
 20
2178.036426392835
 30
0.0
  0
VERTEX
  5
560F
  8
0
 10
19841.68639094054
 20
2158.036426392835
 30
0.0
  0
SEQEND
  5
5957
  8
0
  0
POLYLINE
  5
411
  8
0
 66
     1
 10
0.0
 20
0.0
 30
0.0
 70
     1
  0
VERTEX
  5
5610
  8
0
 10
19246.68639094052
 20
2158.036426392835
 30
0.0
  0
VERTEX
  5
5611
  8
0
 10
19246.68639094052
 20
2178.036426392835
 30
0.0
  0
VERTEX
  5
5612
  8
0
 10
19226.68639094052
 20
2178.036426392835
 30
0.0
  0
VERTEX
  5
5613
  8
0
 10
19226.68639094052
 20
2158.036426392835
 30
0.0
  0
SEQEND
  5
5958
  8
0
  0
POLYLINE
  5
412
  8
0
 66
     1
 10
0.0
 20
0.0
 30
0.0
 70
     1
  0
VERTEX
  5
5614
  8
0
 10
19841.68639094054
 20
2178.036426392835
 30
0.0
  0
VERTEX
  5
5615
  8
0
 10
19841.68639094054
 20
2158.036426392835
 30
0.0
  0
VERTEX
  5
5616
  8
0
 10
19226.68639094052
 20
2158.036426392835
 30
0.0
  0
VERTEX
  5
5617
  8
0
 10
19226.68639094052
 20
2178.036426392835
 30
0.0
  0
SEQEND
  5
5959
  8
0
  0
POLYLINE
  5
413
  8
0
 66
     1
 10
0.0
 20
0.0
 30
0.0
 70
     1
  0
VERTEX
  5
5618
  8
0
 10
19220.18639094052
 20
2198.536426392791
 30
0.0
  0
VERTEX
  5
5619
  8
0
 10
19220.18639094052
 20
2171.636426392994
 30
0.0
  0
VERTEX
  5
561A
  8
0
 10
19221.18639094052
 20
2170.636426392871
 30
0.0
  0
VERTEX
  5
561B
  8
0
 10
19225.18639094054
 20
2170.636426392871
 30
0.0
  0
VERTEX
  5
561C
  8
0
 10
19226.18639094054
 20
2171.636426392994
 30
0.0
  0
VERTEX
  5
561D
  8
0
 10
19226.18639094054
 20
2178.136426392871
 30
0.0
  0
VERTEX
  5
561E
  8
0
 10
19253.16862578368
 20
2178.607403054005
 30
0.0
  0
VERTEX
  5
561F
  8
0
 10
19254.18639094052
 20
2179.625168210938
 30
0.0
  0
VERTEX
  5
5620
  8
0
 10
19254.18639094052
 20
2198.536426392791
 30
0.0
  0
SEQEND
  5
595A
  8
0
  0
POLYLINE
  5
414
  8
0
 66
     1
 10
0.0
 20
0.0
 30
0.0
 70
     1
  0
VERTEX
  5
5621
  8
0
 10
19848.18639094049
 20
2198.536426392791
 30
0.0
  0
VERTEX
  5
5622
  8
0
 10
19848.18639094049
 20
2171.636426392994
 30
0.0
  0
VERTEX
  5
5623
  8
0
 10
19847.18639094052
 20
2170.636426392871
 30
0.0
  0
VERTEX
  5
5624
  8
0
 10
19843.18639094049
 20
2170.636426392871
 30
0.0
  0
VERTEX
  5
5625
  8
0
 10
19842.18639094054
 20
2171.636426392994
 30
0.0
  0
VERTEX
  5
5626
  8
0
 10
19842.18639094054
 20
2178.136426392871
 30
0.0
  0
VERTEX
  5
5627
  8
0
 10
19815.2041560974
 20
2178.607403054005
 30
0.0
  0
VERTEX
  5
5628
  8
0
 10
19814.18639094052
 20
2179.625168210938
 30
0.0
  0
VERTEX
  5
5629
  8
0
 10
19814.18639094052
 20
2198.536426392791
 30
0.0
  0
SEQEND
  5
595B
  8
0
  0
POLYLINE
  5
415
  8
0
 66
     1
 10
0.0
 20
0.0
 30
0.0
 70
     1
  0
VERTEX
  5
562A
  8
0
 10
19165.18639094054
 20
4258.036426392761
 30
0.0
  0
VERTEX
  5
562B
  8
0
 10
19165.18639094054
 20
4298.036435929563
 30
0.0
  0
VERTEX
  5
562C
  8
0
 10
19902.18639094052
 20
4298.036435929563
 30
0.0
  0
VERTEX
  5
562D
  8
0
 10
19902.18639094052
 20
4258.036426392761
 30
0.0
  0
SEQEND
  5
595C
  8
0
  0
POLYLINE
  5
416
  8
0
 66
     1
 10
0.0
 20
0.0
 30
0.0
 70
     1
  0
VERTEX
  5
562E
  8
0
 10
19166.18639094054
 20
2175.036426392791
 30
0.0
  0
VERTEX
  5
562F
  8
0
 10
19129.58639094035
 20
2175.036426392791
 30
0.0
  0
VERTEX
  5
5630
  8
0
 10
19129.58639094035
 20
4298.036435929563
 30
0.0
  0
VERTEX
  5
5631
  8
0
 10
19165.18639094054
 20
4298.036435929563
 30
0.0
  0
VERTEX
  5
5632
  8
0
 10
19165.18639094054
 20
4258.036426392761
 30
0.0
  0
VERTEX
  5
5633
  8
0
 10
19166.18639094054
 20
4258.036426392761
 30
0.0
  0
SEQEND
  5
595D
  8
0
  0
POLYLINE
  5
417
  8
0
 66
     1
 10
0.0
 20
0.0
 30
0.0
 70
     1
  0
VERTEX
  5
5634
  8
0
 10
19937.18639094052
 20
2180.036426392792
 30
0.0
  0
VERTEX
  5
5635
  8
0
 10
19937.18639094052
 20
4298.036435929563
 30
0.0
  0
VERTEX
  5
5636
  8
0
 10
19902.18639094052
 20
4298.036435929563
 30
0.0
  0
VERTEX
  5
5637
  8
0
 10
19902.18639094052
 20
2180.036426392792
 30
0.0
  0
SEQEND
  5
595E
  8
0
  0
POLYLINE
  5
418
  8
0
 66
     1
 10
0.0
 20
0.0
 30
0.0
 70
     1
  0
VERTEX
  5
5638
  8
0
 10
15301.12986539051
 20
5913.171916406248
 30
0.0
  0
VERTEX
  5
5639
  8
0
 10
15301.12986539051
 20
8031.171925943024
 30
0.0
  0
VERTEX
  5
563A
  8
0
 10
15266.1298653905
 20
8031.171925943024
 30
0.0
  0
VERTEX
  5
563B
  8
0
 10
15266.1298653905
 20
5913.171916406248
 30
0.0
  0
SEQEND
  5
595F
  8
0
  0
POLYLINE
  5
419
  8
0
 66
     1
 10
0.0
 20
0.0
 30
0.0
 70
     1
  0
VERTEX
  5
563C
  8
0
 10
14530.1298653905
 20
5908.171916406249
 30
0.0
  0
VERTEX
  5
563D
  8
0
 10
14493.52986539045
 20
5908.171916406249
 30
0.0
  0
VERTEX
  5
563E
  8
0
 10
14493.52986539045
 20
8031.171925943024
 30
0.0
  0
VERTEX
  5
563F
  8
0
 10
14529.1298653905
 20
8031.171925943024
 30
0.0
  0
VERTEX
  5
5640
  8
0
 10
14529.1298653905
 20
7991.17191640622
 30
0.0
  0
VERTEX
  5
5641
  8
0
 10
14530.1298653905
 20
7991.17191640622
 30
0.0
  0
SEQEND
  5
5960
  8
0
  0
POLYLINE
  5
41A
  8
0
 66
     1
 10
0.0
 20
0.0
 30
0.0
 70
     1
  0
VERTEX
  5
5642
  8
0
 10
15266.1298653905
 20
5931.67191640625
 30
0.0
  0
VERTEX
  5
5643
  8
0
 10
15266.1298653905
 20
5991.17191640625
 30
0.0
  0
VERTEX
  5
5644
  8
0
 10
14530.1298653905
 20
5991.17191640625
 30
0.0
  0
VERTEX
  5
5645
  8
0
 10
14530.1298653905
 20
5931.67191640625
 30
0.0
  0
SEQEND
  5
5961
  8
0
  0
POLYLINE
  5
41B
  8
0
 66
     1
 10
0.0
 20
0.0
 30
0.0
 70
     1
  0
VERTEX
  5
5646
  8
0
 10
14530.1298653905
 20
5991.17191640625
 30
0.0
  0
VERTEX
  5
5647
  8
0
 10
14530.1298653905
 20
6021.17191640625
 30
0.0
  0
VERTEX
  5
5648
  8
0
 10
15266.1298653905
 20
6021.17191640625
 30
0.0
  0
VERTEX
  5
5649
  8
0
 10
15266.1298653905
 20
5991.17191640625
 30
0.0
  0
SEQEND
  5
5962
  8
0
  0
POLYLINE
  5
41C
  8
0
 66
     1
 10
0.0
 20
0.0
 30
0.0
 70
     1
  0
VERTEX
  5
564A
  8
0
 10
14529.1298653905
 20
7991.17191640622
 30
0.0
  0
VERTEX
  5
564B
  8
0
 10
14529.1298653905
 20
8031.171925943024
 30
0.0
  0
VERTEX
  5
564C
  8
0
 10
15266.1298653905
 20
8031.171925943024
 30
0.0
  0
VERTEX
  5
564D
  8
0
 10
15266.1298653905
 20
7991.17191640622
 30
0.0
  0
SEQEND
  5
5963
  8
0
  0
POLYLINE
  5
41D
  8
0
 66
     1
 10
0.0
 20
0.0
 30
0.0
 70
     1
  0
VERTEX
  5
564E
  8
0
 10
15212.1298653905
 20
5931.67191640625
 30
0.0
  0
VERTEX
  5
564F
  8
0
 10
15212.1298653905
 20
5904.771916406454
 30
0.0
  0
VERTEX
  5
5650
  8
0
 10
15211.1298653905
 20
5903.771916406328
 30
0.0
  0
VERTEX
  5
5651
  8
0
 10
15207.1298653905
 20
5903.771916406328
 30
0.0
  0
VERTEX
  5
5652
  8
0
 10
15206.1298653905
 20
5904.771916406454
 30
0.0
  0
VERTEX
  5
5653
  8
0
 10
15206.1298653905
 20
5911.271916406331
 30
0.0
  0
VERTEX
  5
5654
  8
0
 10
15179.14763054741
 20
5911.742893067462
 30
0.0
  0
VERTEX
  5
5655
  8
0
 10
15178.1298653905
 20
5912.760658224396
 30
0.0
  0
VERTEX
  5
5656
  8
0
 10
15178.1298653905
 20
5931.67191640625
 30
0.0
  0
SEQEND
  5
5964
  8
0
  0
POLYLINE
  5
41E
  8
0
 66
     1
 10
0.0
 20
0.0
 30
0.0
 70
     1
  0
VERTEX
  5
5657
  8
0
 10
14584.12986539058
 20
5931.67191640625
 30
0.0
  0
VERTEX
  5
5658
  8
0
 10
14584.12986539058
 20
5904.771916406454
 30
0.0
  0
VERTEX
  5
5659
  8
0
 10
14585.1298653905
 20
5903.771916406328
 30
0.0
  0
VERTEX
  5
565A
  8
0
 10
14589.12986539061
 20
5903.771916406328
 30
0.0
  0
VERTEX
  5
565B
  8
0
 10
14590.1298653905
 20
5904.771916406454
 30
0.0
  0
VERTEX
  5
565C
  8
0
 10
14590.1298653905
 20
5911.271916406331
 30
0.0
  0
VERTEX
  5
565D
  8
0
 10
14617.11210023374
 20
5911.742893067462
 30
0.0
  0
VERTEX
  5
565E
  8
0
 10
14618.1298653905
 20
5912.760658224396
 30
0.0
  0
VERTEX
  5
565F
  8
0
 10
14618.1298653905
 20
5931.67191640625
 30
0.0
  0
SEQEND
  5
5965
  8
0
  0
POLYLINE
  5
41F
  8
0
 66
     1
 10
0.0
 20
0.0
 30
0.0
 70
     1
  0
VERTEX
  5
5660
  8
0
 10
15205.6298653905
 20
5911.171916406296
 30
0.0
  0
VERTEX
  5
5661
  8
0
 10
15205.6298653905
 20
5891.171916406295
 30
0.0
  0
VERTEX
  5
5662
  8
0
 10
14590.6298653905
 20
5891.171916406295
 30
0.0
  0
VERTEX
  5
5663
  8
0
 10
14590.6298653905
 20
5911.171916406296
 30
0.0
  0
SEQEND
  5
5966
  8
0
  0
POLYLINE
  5
420
  8
0
 66
     1
 10
0.0
 20
0.0
 30
0.0
 70
     1
  0
VERTEX
  5
5664
  8
0
 10
14610.6298653905
 20
5891.171916406295
 30
0.0
  0
VERTEX
  5
5665
  8
0
 10
14610.6298653905
 20
5911.171916406296
 30
0.0
  0
VERTEX
  5
5666
  8
0
 10
14590.6298653905
 20
5911.171916406296
 30
0.0
  0
VERTEX
  5
5667
  8
0
 10
14590.6298653905
 20
5891.171916406295
 30
0.0
  0
SEQEND
  5
5967
  8
0
  0
POLYLINE
  5
421
  8
0
 66
     1
 10
0.0
 20
0.0
 30
0.0
 70
     1
  0
VERTEX
  5
5668
  8
0
 10
15185.6298653905
 20
5891.171916406295
 30
0.0
  0
VERTEX
  5
5669
  8
0
 10
15185.6298653905
 20
5911.171916406296
 30
0.0
  0
VERTEX
  5
566A
  8
0
 10
15205.6298653905
 20
5911.171916406296
 30
0.0
  0
VERTEX
  5
566B
  8
0
 10
15205.6298653905
 20
5891.171916406295
 30
0.0
  0
SEQEND
  5
5968
  8
0
  0
POLYLINE
  5
422
  8
0
 66
     1
 10
0.0
 20
0.0
 30
0.0
 70
     1
  0
VERTEX
  5
566C
  8
0
 10
14530.1298653905
 20
6791.171916406253
 30
0.0
  0
VERTEX
  5
566D
  8
0
 10
14530.1298653905
 20
6821.171916406253
 30
0.0
  0
VERTEX
  5
566E
  8
0
 10
15266.1298653905
 20
6821.171916406253
 30
0.0
  0
VERTEX
  5
566F
  8
0
 10
15266.1298653905
 20
6791.171916406253
 30
0.0
  0
SEQEND
  5
5969
  8
0
  0
POLYLINE
  5
423
  8
0
 66
     1
 10
0.0
 20
0.0
 30
0.0
 70
     1
  0
VERTEX
  5
5670
  8
0
 10
15266.1298653905
 20
7191.171916406244
 30
0.0
  0
VERTEX
  5
5671
  8
0
 10
15266.1298653905
 20
7221.171916406246
 30
0.0
  0
VERTEX
  5
5672
  8
0
 10
14530.1298653905
 20
7221.171916406246
 30
0.0
  0
VERTEX
  5
5673
  8
0
 10
14530.1298653905
 20
7191.171916406244
 30
0.0
  0
SEQEND
  5
596A
  8
0
  0
POLYLINE
  5
424
  8
0
 66
     1
 10
0.0
 20
0.0
 30
0.0
 70
     1
  0
VERTEX
  5
5674
  8
0
 10
15266.1298653905
 20
6391.17191640625
 30
0.0
  0
VERTEX
  5
5675
  8
0
 10
15266.1298653905
 20
6421.17191640625
 30
0.0
  0
VERTEX
  5
5676
  8
0
 10
14530.1298653905
 20
6421.17191640625
 30
0.0
  0
VERTEX
  5
5677
  8
0
 10
14530.1298653905
 20
6391.17191640625
 30
0.0
  0
SEQEND
  5
596B
  8
0
  0
POLYLINE
  5
425
  8
0
 66
     1
 10
0.0
 20
0.0
 30
0.0
 70
     1
  0
VERTEX
  5
5678
  8
0
 10
14530.1298653905
 20
7591.171916406245
 30
0.0
  0
VERTEX
  5
5679
  8
0
 10
14530.1298653905
 20
7621.171916406246
 30
0.0
  0
VERTEX
  5
567A
  8
0
 10
15266.1298653905
 20
7621.171916406246
 30
0.0
  0
VERTEX
  5
567B
  8
0
 10
15266.1298653905
 20
7591.171916406245
 30
0.0
  0
SEQEND
  5
596C
  8
0
  0
POLYLINE
  5
426
  8
0
 66
     1
 10
0.0
 20
0.0
 30
0.0
 70
     1
  0
VERTEX
  5
567C
  8
0
 10
19937.1863909406
 20
5913.171916406252
 30
0.0
  0
VERTEX
  5
567D
  8
0
 10
19937.1863909406
 20
8031.171925943024
 30
0.0
  0
VERTEX
  5
567E
  8
0
 10
19902.1863909406
 20
8031.171925943024
 30
0.0
  0
VERTEX
  5
567F
  8
0
 10
19902.1863909406
 20
5913.171916406252
 30
0.0
  0
SEQEND
  5
596D
  8
0
  0
POLYLINE
  5
427
  8
0
 66
     1
 10
0.0
 20
0.0
 30
0.0
 70
     1
  0
VERTEX
  5
5680
  8
0
 10
19166.1863909406
 20
5908.171916406253
 30
0.0
  0
VERTEX
  5
5681
  8
0
 10
19129.58639094039
 20
5908.171916406253
 30
0.0
  0
VERTEX
  5
5682
  8
0
 10
19129.58639094039
 20
8031.171925943024
 30
0.0
  0
VERTEX
  5
5683
  8
0
 10
19165.1863909406
 20
8031.171925943024
 30
0.0
  0
VERTEX
  5
5684
  8
0
 10
19165.1863909406
 20
7991.171916406222
 30
0.0
  0
VERTEX
  5
5685
  8
0
 10
19166.1863909406
 20
7991.171916406222
 30
0.0
  0
SEQEND
  5
596E
  8
0
  0
POLYLINE
  5
428
  8
0
 66
     1
 10
0.0
 20
0.0
 30
0.0
 70
     1
  0
VERTEX
  5
5686
  8
0
 10
19902.1863909406
 20
5931.67191640625
 30
0.0
  0
VERTEX
  5
5687
  8
0
 10
19902.1863909406
 20
5991.17191640625
 30
0.0
  0
VERTEX
  5
5688
  8
0
 10
19166.1863909406
 20
5991.17191640625
 30
0.0
  0
VERTEX
  5
5689
  8
0
 10
19166.1863909406
 20
5931.67191640625
 30
0.0
  0
SEQEND
  5
596F
  8
0
  0
POLYLINE
  5
429
  8
0
 66
     1
 10
0.0
 20
0.0
 30
0.0
 70
     1
  0
VERTEX
  5
568A
  8
0
 10
19166.1863909406
 20
5991.17191640625
 30
0.0
  0
VERTEX
  5
568B
  8
0
 10
19166.1863909406
 20
6021.171916406252
 30
0.0
  0
VERTEX
  5
568C
  8
0
 10
19902.1863909406
 20
6021.171916406252
 30
0.0
  0
VERTEX
  5
568D
  8
0
 10
19902.1863909406
 20
5991.17191640625
 30
0.0
  0
SEQEND
  5
5970
  8
0
  0
POLYLINE
  5
42A
  8
0
 66
     1
 10
0.0
 20
0.0
 30
0.0
 70
     1
  0
VERTEX
  5
568E
  8
0
 10
19165.1863909406
 20
7991.171916406222
 30
0.0
  0
VERTEX
  5
568F
  8
0
 10
19165.1863909406
 20
8031.171925943024
 30
0.0
  0
VERTEX
  5
5690
  8
0
 10
19902.1863909406
 20
8031.171925943024
 30
0.0
  0
VERTEX
  5
5691
  8
0
 10
19902.1863909406
 20
7991.171916406222
 30
0.0
  0
SEQEND
  5
5971
  8
0
  0
POLYLINE
  5
42B
  8
0
 66
     1
 10
0.0
 20
0.0
 30
0.0
 70
     1
  0
VERTEX
  5
5692
  8
0
 10
19848.18639094052
 20
5931.67191640625
 30
0.0
  0
VERTEX
  5
5693
  8
0
 10
19848.18639094052
 20
5904.771916406456
 30
0.0
  0
VERTEX
  5
5694
  8
0
 10
19847.1863909406
 20
5903.771916406328
 30
0.0
  0
VERTEX
  5
5695
  8
0
 10
19843.18639094052
 20
5903.771916406328
 30
0.0
  0
VERTEX
  5
5696
  8
0
 10
19842.1863909406
 20
5904.771916406456
 30
0.0
  0
VERTEX
  5
5697
  8
0
 10
19842.1863909406
 20
5911.271916406331
 30
0.0
  0
VERTEX
  5
5698
  8
0
 10
19815.20415609748
 20
5911.742893067463
 30
0.0
  0
VERTEX
  5
5699
  8
0
 10
19814.1863909406
 20
5912.760658224396
 30
0.0
  0
VERTEX
  5
569A
  8
0
 10
19814.1863909406
 20
5931.67191640625
 30
0.0
  0
SEQEND
  5
5972
  8
0
  0
POLYLINE
  5
42C
  8
0
 66
     1
 10
0.0
 20
0.0
 30
0.0
 70
     1
  0
VERTEX
  5
569B
  8
0
 10
19220.1863909406
 20
5931.67191640625
 30
0.0
  0
VERTEX
  5
569C
  8
0
 10
19220.1863909406
 20
5904.771916406456
 30
0.0
  0
VERTEX
  5
569D
  8
0
 10
19221.1863909406
 20
5903.771916406328
 30
0.0
  0
VERTEX
  5
569E
  8
0
 10
19225.18639094059
 20
5903.771916406328
 30
0.0
  0
VERTEX
  5
569F
  8
0
 10
19226.1863909406
 20
5904.771916406456
 30
0.0
  0
VERTEX
  5
56A0
  8
0
 10
19226.1863909406
 20
5911.271916406331
 30
0.0
  0
VERTEX
  5
56A1
  8
0
 10
19253.16862578373
 20
5911.742893067463
 30
0.0
  0
VERTEX
  5
56A2
  8
0
 10
19254.1863909406
 20
5912.760658224396
 30
0.0
  0
VERTEX
  5
56A3
  8
0
 10
19254.1863909406
 20
5931.67191640625
 30
0.0
  0
SEQEND
  5
5973
  8
0
  0
POLYLINE
  5
42D
  8
0
 66
     1
 10
0.0
 20
0.0
 30
0.0
 70
     1
  0
VERTEX
  5
56A4
  8
0
 10
19841.6863909406
 20
5911.171916406296
 30
0.0
  0
VERTEX
  5
56A5
  8
0
 10
19841.6863909406
 20
5891.171916406296
 30
0.0
  0
VERTEX
  5
56A6
  8
0
 10
19226.6863909406
 20
5891.171916406296
 30
0.0
  0
VERTEX
  5
56A7
  8
0
 10
19226.6863909406
 20
5911.171916406296
 30
0.0
  0
SEQEND
  5
5974
  8
0
  0
POLYLINE
  5
42E
  8
0
 66
     1
 10
0.0
 20
0.0
 30
0.0
 70
     1
  0
VERTEX
  5
56A8
  8
0
 10
19246.6863909406
 20
5891.171916406296
 30
0.0
  0
VERTEX
  5
56A9
  8
0
 10
19246.6863909406
 20
5911.171916406296
 30
0.0
  0
VERTEX
  5
56AA
  8
0
 10
19226.6863909406
 20
5911.171916406296
 30
0.0
  0
VERTEX
  5
56AB
  8
0
 10
19226.6863909406
 20
5891.171916406296
 30
0.0
  0
SEQEND
  5
5975
  8
0
  0
POLYLINE
  5
42F
  8
0
 66
     1
 10
0.0
 20
0.0
 30
0.0
 70
     1
  0
VERTEX
  5
56AC
  8
0
 10
19821.6863909406
 20
5891.171916406296
 30
0.0
  0
VERTEX
  5
56AD
  8
0
 10
19821.6863909406
 20
5911.171916406296
 30
0.0
  0
VERTEX
  5
56AE
  8
0
 10
19841.6863909406
 20
5911.171916406296
 30
0.0
  0
VERTEX
  5
56AF
  8
0
 10
19841.6863909406
 20
5891.171916406296
 30
0.0
  0
SEQEND
  5
5976
  8
0
  0
POLYLINE
  5
430
  8
0
 66
     1
 10
0.0
 20
0.0
 30
0.0
 70
     1
  0
VERTEX
  5
56B0
  8
0
 10
19902.1863909406
 20
6241.17191640625
 30
0.0
  0
VERTEX
  5
56B1
  8
0
 10
19902.1863909406
 20
6271.171916406252
 30
0.0
  0
VERTEX
  5
56B2
  8
0
 10
19166.1863909406
 20
6271.171916406252
 30
0.0
  0
VERTEX
  5
56B3
  8
0
 10
19166.1863909406
 20
6241.17191640625
 30
0.0
  0
SEQEND
  5
5977
  8
0
  0
POLYLINE
  5
431
  8
0
 66
     1
 10
0.0
 20
0.0
 30
0.0
 70
     1
  0
VERTEX
  5
56B4
  8
0
 10
19902.1863909406
 20
6491.171916406253
 30
0.0
  0
VERTEX
  5
56B5
  8
0
 10
19902.1863909406
 20
6521.171916406252
 30
0.0
  0
VERTEX
  5
56B6
  8
0
 10
19166.1863909406
 20
6521.171916406252
 30
0.0
  0
VERTEX
  5
56B7
  8
0
 10
19166.1863909406
 20
6491.171916406253
 30
0.0
  0
SEQEND
  5
5978
  8
0
  0
POLYLINE
  5
432
  8
0
 66
     1
 10
0.0
 20
0.0
 30
0.0
 70
     1
  0
VERTEX
  5
56B8
  8
0
 10
19902.1863909406
 20
6741.171916406253
 30
0.0
  0
VERTEX
  5
56B9
  8
0
 10
19902.1863909406
 20
6771.171916406252
 30
0.0
  0
VERTEX
  5
56BA
  8
0
 10
19166.1863909406
 20
6771.171916406252
 30
0.0
  0
VERTEX
  5
56BB
  8
0
 10
19166.1863909406
 20
6741.171916406253
 30
0.0
  0
SEQEND
  5
5979
  8
0
  0
POLYLINE
  5
433
  8
0
 66
     1
 10
0.0
 20
0.0
 30
0.0
 70
     1
  0
VERTEX
  5
56BC
  8
0
 10
19902.1863909406
 20
6991.171916406253
 30
0.0
  0
VERTEX
  5
56BD
  8
0
 10
19902.1863909406
 20
7021.171916406245
 30
0.0
  0
VERTEX
  5
56BE
  8
0
 10
19166.1863909406
 20
7021.171916406245
 30
0.0
  0
VERTEX
  5
56BF
  8
0
 10
19166.1863909406
 20
6991.171916406253
 30
0.0
  0
SEQEND
  5
597A
  8
0
  0
POLYLINE
  5
434
  8
0
 66
     1
 10
0.0
 20
0.0
 30
0.0
 70
     1
  0
VERTEX
  5
56C0
  8
0
 10
19902.1863909406
 20
7241.171916406253
 30
0.0
  0
VERTEX
  5
56C1
  8
0
 10
19902.1863909406
 20
7271.171916406245
 30
0.0
  0
VERTEX
  5
56C2
  8
0
 10
19166.1863909406
 20
7271.171916406245
 30
0.0
  0
VERTEX
  5
56C3
  8
0
 10
19166.1863909406
 20
7241.171916406253
 30
0.0
  0
SEQEND
  5
597B
  8
0
  0
POLYLINE
  5
435
  8
0
 66
     1
 10
0.0
 20
0.0
 30
0.0
 70
     1
  0
VERTEX
  5
56C4
  8
0
 10
19902.1863909406
 20
7491.171916406253
 30
0.0
  0
VERTEX
  5
56C5
  8
0
 10
19902.1863909406
 20
7521.171916406245
 30
0.0
  0
VERTEX
  5
56C6
  8
0
 10
19166.1863909406
 20
7521.171916406245
 30
0.0
  0
VERTEX
  5
56C7
  8
0
 10
19166.1863909406
 20
7491.171916406253
 30
0.0
  0
SEQEND
  5
597C
  8
0
  0
POLYLINE
  5
436
  8
0
 66
     1
 10
0.0
 20
0.0
 30
0.0
 70
     1
  0
VERTEX
  5
56C8
  8
0
 10
19902.1863909406
 20
7741.171916406253
 30
0.0
  0
VERTEX
  5
56C9
  8
0
 10
19902.1863909406
 20
7771.171916406245
 30
0.0
  0
VERTEX
  5
56CA
  8
0
 10
19166.1863909406
 20
7771.171916406245
 30
0.0
  0
VERTEX
  5
56CB
  8
0
 10
19166.1863909406
 20
7741.171916406253
 30
0.0
  0
SEQEND
  5
597D
  8
0
  0
POLYLINE
  5
437
  8
CLOTHES_RAIL
 66
     1
 10
0.0
 20
0.0
 30
0.0
 70
     1
  0
VERTEX
  5
56CC
  8
CLOTHES_RAIL
 10
15266.12986539054
 20
3210.536426392791
 30
0.0
  0
VERTEX
  5
56CD
  8
CLOTHES_RAIL
 10
15266.12986539054
 20
3185.536426392785
 30
0.0
  0
VERTEX
  5
56CE
  8
CLOTHES_RAIL
 10
14530.12986539054
 20
3185.536426392785
 30
0.0
  0
VERTEX
  5
56CF
  8
CLOTHES_RAIL
 10
14530.12986539054
 20
3210.536426392791
 30
0.0
  0
SEQEND
  5
597E
  8
CLOTHES_RAIL
  0
POLYLINE
  5
438
  8
0
 66
     1
 10
0.0
 20
0.0
 30
0.0
 70
     1
  0
VERTEX
  5
56D0
  8
0
 10
15266.12986539054
 20
3288.036426392784
 30
0.0
  0
VERTEX
  5
56D1
  8
0
 10
15266.12986539054
 20
3258.036426392783
 30
0.0
  0
VERTEX
  5
56D2
  8
0
 10
14530.12986539054
 20
3258.036426392783
 30
0.0
  0
VERTEX
  5
56D3
  8
0
 10
14530.12986539054
 20
3288.036426392784
 30
0.0
  0
SEQEND
  5
597F
  8
0
  0
POLYLINE
  5
439
  8
0
 66
     1
 10
0.0
 20
0.0
 30
0.0
 70
     1
  0
VERTEX
  5
56D4
  8
0
 10
15185.62986539054
 20
2158.036426392841
 30
0.0
  0
VERTEX
  5
56D5
  8
0
 10
15185.62986539054
 20
2178.036426392842
 30
0.0
  0
VERTEX
  5
56D6
  8
0
 10
15205.62986539054
 20
2178.036426392842
 30
0.0
  0
VERTEX
  5
56D7
  8
0
 10
15205.62986539054
 20
2158.036426392841
 30
0.0
  0
SEQEND
  5
5980
  8
0
  0
POLYLINE
  5
43A
  8
0
 66
     1
 10
0.0
 20
0.0
 30
0.0
 70
     1
  0
VERTEX
  5
56D8
  8
0
 10
14610.62986539054
 20
2158.036426392841
 30
0.0
  0
VERTEX
  5
56D9
  8
0
 10
14610.62986539054
 20
2178.036426392842
 30
0.0
  0
VERTEX
  5
56DA
  8
0
 10
14590.62986539054
 20
2178.036426392842
 30
0.0
  0
VERTEX
  5
56DB
  8
0
 10
14590.62986539054
 20
2158.036426392841
 30
0.0
  0
SEQEND
  5
5981
  8
0
  0
POLYLINE
  5
43B
  8
0
 66
     1
 10
0.0
 20
0.0
 30
0.0
 70
     1
  0
VERTEX
  5
56DC
  8
0
 10
15205.62986539054
 20
2178.036426392842
 30
0.0
  0
VERTEX
  5
56DD
  8
0
 10
15205.62986539054
 20
2158.036426392841
 30
0.0
  0
VERTEX
  5
56DE
  8
0
 10
14590.62986539054
 20
2158.036426392841
 30
0.0
  0
VERTEX
  5
56DF
  8
0
 10
14590.62986539054
 20
2178.036426392842
 30
0.0
  0
SEQEND
  5
5982
  8
0
  0
POLYLINE
  5
43C
  8
0
 66
     1
 10
0.0
 20
0.0
 30
0.0
 70
     1
  0
VERTEX
  5
56E0
  8
0
 10
14584.1298653906
 20
2198.536426392791
 30
0.0
  0
VERTEX
  5
56E1
  8
0
 10
14584.1298653906
 20
2171.636426393001
 30
0.0
  0
VERTEX
  5
56E2
  8
0
 10
14585.12986539054
 20
2170.636426392871
 30
0.0
  0
VERTEX
  5
56E3
  8
0
 10
14589.12986539059
 20
2170.636426392871
 30
0.0
  0
VERTEX
  5
56E4
  8
0
 10
14590.12986539054
 20
2171.636426393001
 30
0.0
  0
VERTEX
  5
56E5
  8
0
 10
14590.12986539054
 20
2178.136426392871
 30
0.0
  0
VERTEX
  5
56E6
  8
0
 10
14617.11210023366
 20
2178.607403054005
 30
0.0
  0
VERTEX
  5
56E7
  8
0
 10
14618.12986539054
 20
2179.625168210944
 30
0.0
  0
VERTEX
  5
56E8
  8
0
 10
14618.12986539054
 20
2198.536426392791
 30
0.0
  0
SEQEND
  5
5983
  8
0
  0
POLYLINE
  5
43D
  8
0
 66
     1
 10
0.0
 20
0.0
 30
0.0
 70
     1
  0
VERTEX
  5
56E9
  8
0
 10
15212.12986539054
 20
2198.536426392791
 30
0.0
  0
VERTEX
  5
56EA
  8
0
 10
15212.12986539054
 20
2171.636426393001
 30
0.0
  0
VERTEX
  5
56EB
  8
0
 10
15211.12986539054
 20
2170.636426392871
 30
0.0
  0
VERTEX
  5
56EC
  8
0
 10
15207.12986539054
 20
2170.636426392871
 30
0.0
  0
VERTEX
  5
56ED
  8
0
 10
15206.12986539054
 20
2171.636426393001
 30
0.0
  0
VERTEX
  5
56EE
  8
0
 10
15206.12986539054
 20
2178.136426392871
 30
0.0
  0
VERTEX
  5
56EF
  8
0
 10
15179.1476305474
 20
2178.607403054005
 30
0.0
  0
VERTEX
  5
56F0
  8
0
 10
15178.12986539054
 20
2179.625168210944
 30
0.0
  0
VERTEX
  5
56F1
  8
0
 10
15178.12986539054
 20
2198.536426392791
 30
0.0
  0
SEQEND
  5
5984
  8
0
  0
POLYLINE
  5
43E
  8
0
 66
     1
 10
0.0
 20
0.0
 30
0.0
 70
     1
  0
VERTEX
  5
56F2
  8
0
 10
14529.12986539054
 20
4258.036426392761
 30
0.0
  0
VERTEX
  5
56F3
  8
0
 10
14529.12986539054
 20
4298.03643592957
 30
0.0
  0
VERTEX
  5
56F4
  8
0
 10
15266.12986539054
 20
4298.03643592957
 30
0.0
  0
VERTEX
  5
56F5
  8
0
 10
15266.12986539054
 20
4258.036426392761
 30
0.0
  0
SEQEND
  5
5985
  8
0
  0
POLYLINE
  5
43F
  8
CLOTHES_RAIL
 66
     1
 10
0.0
 20
0.0
 30
0.0
 70
     1
  0
VERTEX
  5
56F6
  8
CLOTHES_RAIL
 10
15266.12986539054
 20
4185.536426392761
 30
0.0
  0
VERTEX
  5
56F7
  8
CLOTHES_RAIL
 10
15266.12986539054
 20
4210.536426392763
 30
0.0
  0
VERTEX
  5
56F8
  8
CLOTHES_RAIL
 10
14530.12986539054
 20
4210.536426392763
 30
0.0
  0
VERTEX
  5
56F9
  8
CLOTHES_RAIL
 10
14530.12986539054
 20
4185.536426392761
 30
0.0
  0
SEQEND
  5
5986
  8
CLOTHES_RAIL
  0
POLYLINE
  5
440
  8
0
 66
     1
 10
0.0
 20
0.0
 30
0.0
 70
     1
  0
VERTEX
  5
56FA
  8
0
 10
14530.12986539054
 20
2258.036426392791
 30
0.0
  0
VERTEX
  5
56FB
  8
0
 10
14530.12986539054
 20
2288.036426392791
 30
0.0
  0
VERTEX
  5
56FC
  8
0
 10
15266.12986539054
 20
2288.036426392791
 30
0.0
  0
VERTEX
  5
56FD
  8
0
 10
15266.12986539054
 20
2258.036426392791
 30
0.0
  0
SEQEND
  5
5987
  8
0
  0
POLYLINE
  5
441
  8
0
 66
     1
 10
0.0
 20
0.0
 30
0.0
 70
     1
  0
VERTEX
  5
56FE
  8
0
 10
15266.12986539054
 20
2198.536426392791
 30
0.0
  0
VERTEX
  5
56FF
  8
0
 10
15266.12986539054
 20
2258.036426392791
 30
0.0
  0
VERTEX
  5
5700
  8
0
 10
14530.12986539054
 20
2258.036426392791
 30
0.0
  0
VERTEX
  5
5701
  8
0
 10
14530.12986539054
 20
2198.536426392791
 30
0.0
  0
SEQEND
  5
5988
  8
0
  0
POLYLINE
  5
442
  8
0
 66
     1
 10
0.0
 20
0.0
 30
0.0
 70
     1
  0
VERTEX
  5
5702
  8
0
 10
14530.12986539054
 20
2175.036426392791
 30
0.0
  0
VERTEX
  5
5703
  8
0
 10
14493.52986539044
 20
2175.036426392791
 30
0.0
  0
VERTEX
  5
5704
  8
0
 10
14493.52986539044
 20
4298.03643592957
 30
0.0
  0
VERTEX
  5
5705
  8
0
 10
14529.12986539054
 20
4298.03643592957
 30
0.0
  0
VERTEX
  5
5706
  8
0
 10
14529.12986539054
 20
4258.036426392761
 30
0.0
  0
VERTEX
  5
5707
  8
0
 10
14530.12986539054
 20
4258.036426392761
 30
0.0
  0
SEQEND
  5
5989
  8
0
  0
POLYLINE
  5
443
  8
0
 66
     1
 10
0.0
 20
0.0
 30
0.0
 70
     1
  0
VERTEX
  5
5708
  8
0
 10
15301.12986539054
 20
2180.036426392792
 30
0.0
  0
VERTEX
  5
5709
  8
0
 10
15301.12986539054
 20
4298.03643592957
 30
0.0
  0
VERTEX
  5
570A
  8
0
 10
15266.12986539054
 20
4298.03643592957
 30
0.0
  0
VERTEX
  5
570B
  8
0
 10
15266.12986539054
 20
2180.036426392792
 30
0.0
  0
SEQEND
  5
598A
  8
0
  0
POLYLINE
  5
444
  8
0
 66
     1
 10
0.0
 20
0.0
 30
0.0
 70
     1
  0
VERTEX
  5
570C
  8
0
 10
14493.52986539045
 20
8031.171925943024
 30
0.0
  0
VERTEX
  5
570D
  8
0
 10
14493.52986539045
 20
5908.171916406249
 30
0.0
  0
VERTEX
  5
570E
  8
0
 10
14463.52986539045
 20
5908.171916406249
 30
0.0
  0
VERTEX
  5
570F
  8
0
 10
14463.52986539045
 20
8031.171925943024
 30
0.0
  0
SEQEND
  5
598B
  8
0
  0
POLYLINE
  5
445
  8
0
 66
     1
 10
0.0
 20
0.0
 30
0.0
 70
     1
  0
VERTEX
  5
5710
  8
0
 10
19129.58639094058
 20
8031.171925943024
 30
0.0
  0
VERTEX
  5
5711
  8
0
 10
19129.58639094058
 20
5908.171916406253
 30
0.0
  0
VERTEX
  5
5712
  8
0
 10
19099.58639094058
 20
5908.171916406253
 30
0.0
  0
VERTEX
  5
5713
  8
0
 10
19099.58639094058
 20
8031.171925943024
 30
0.0
  0
SEQEND
  5
598C
  8
0
  0
POLYLINE
  5
446
  8
0
 66
     1
 10
0.0
 20
0.0
 30
0.0
 70
     1
  0
VERTEX
  5
5714
  8
0
 10
14493.52986539044
 20
4298.036435929563
 30
0.0
  0
VERTEX
  5
5715
  8
0
 10
14493.52986539044
 20
2175.036426392791
 30
0.0
  0
VERTEX
  5
5716
  8
0
 10
14463.52986539045
 20
2175.036426392791
 30
0.0
  0
VERTEX
  5
5717
  8
0
 10
14463.52986539045
 20
4298.036435929563
 30
0.0
  0
SEQEND
  5
598D
  8
0
  0
POLYLINE
  5
447
  8
0
 66
     1
 10
0.0
 20
0.0
 30
0.0
 70
     1
  0
VERTEX
  5
5718
  8
0
 10
19129.58639094051
 20
4298.036435929563
 30
0.0
  0
VERTEX
  5
5719
  8
0
 10
19129.58639094051
 20
2175.036426392791
 30
0.0
  0
VERTEX
  5
571A
  8
0
 10
19099.58639094051
 20
2175.036426392791
 30
0.0
  0
VERTEX
  5
571B
  8
0
 10
19099.58639094051
 20
4298.036435929563
 30
0.0
  0
SEQEND
  5
598E
  8
0
  0
POLYLINE
  5
448
  8
0
 66
     1
 10
0.0
 20
0.0
 30
0.0
  0
VERTEX
  5
571C
  8
0
 10
35698.2067135577
 20
2158.036426392829
 30
0.0
  0
VERTEX
  5
571D
  8
0
 10
31501.7932864423
 20
2158.036426392829
 30
0.0
  0
SEQEND
  5
598F
  8
0
  0
POLYLINE
  5
449
  8
0
 66
     1
 10
0.0
 20
0.0
 30
0.0
  0
VERTEX
  5
571E
  8
0
 10
35698.2067135577
 20
5891.171916406291
 30
0.0
  0
VERTEX
  5
571F
  8
0
 10
31501.7932864423
 20
5891.171916406291
 30
0.0
  0
SEQEND
  5
5990
  8
0
  0
POLYLINE
  5
44A
  8
0
 66
     1
 10
0.0
 20
0.0
 30
0.0
 70
     1
  0
VERTEX
  5
5720
  8
0
 10
32265.00000000001
 20
8431.1719164063
 30
0.0
  0
VERTEX
  5
5721
  8
0
 10
31735.00000000001
 20
8431.1719164063
 30
0.0
  0
VERTEX
  5
5722
  8
0
 10
31735.00000000001
 20
5908.171916406253
 30
0.0
  0
VERTEX
  5
5723
  8
0
 10
32265.00000000001
 20
5908.171916406253
 30
0.0
  0
SEQEND
  5
5991
  8
0
  0
POLYLINE
  5
44B
  8
0
 66
     1
 10
0.0
 20
0.0
 30
0.0
 70
     1
  0
VERTEX
  5
5724
  8
0
 10
32300.00000000001
 20
5908.171916406253
 30
0.0
  0
VERTEX
  5
5725
  8
0
 10
31700.00000000001
 20
5908.171916406253
 30
0.0
  0
VERTEX
  5
5726
  8
0
 10
31700.00000000001
 20
8431.1719164063
 30
0.0
  0
VERTEX
  5
5727
  8
0
 10
32300.00000000001
 20
8431.1719164063
 30
0.0
  0
SEQEND
  5
5992
  8
0
  0
POLYLINE
  5
44C
  8
0
 66
     1
 10
0.0
 20
0.0
 30
0.0
 70
     1
  0
VERTEX
  5
5728
  8
0
 10
32265.00000000001
 20
4298.036435929559
 30
0.0
  0
VERTEX
  5
5729
  8
0
 10
31735.00000000001
 20
4298.036435929559
 30
0.0
  0
VERTEX
  5
572A
  8
0
 10
31735.00000000001
 20
2175.036426392789
 30
0.0
  0
VERTEX
  5
572B
  8
0
 10
32265.00000000001
 20
2175.036426392789
 30
0.0
  0
SEQEND
  5
5993
  8
0
  0
POLYLINE
  5
44D
  8
0
 66
     1
 10
0.0
 20
0.0
 30
0.0
 70
     1
  0
VERTEX
  5
572C
  8
0
 10
32300.00000000001
 20
2175.036426392789
 30
0.0
  0
VERTEX
  5
572D
  8
0
 10
31700.00000000001
 20
2175.036426392789
 30
0.0
  0
VERTEX
  5
572E
  8
0
 10
31700.00000000001
 20
4298.036435929559
 30
0.0
  0
VERTEX
  5
572F
  8
0
 10
32300.00000000001
 20
4298.036435929559
 30
0.0
  0
SEQEND
  5
5994
  8
0
  0
POLYLINE
  5
44E
  8
0
 66
     1
 10
0.0
 20
0.0
 30
0.0
 70
     1
  0
VERTEX
  5
5730
  8
0
 10
33699.99999999999
 20
2175.036426392789
 30
0.0
  0
VERTEX
  5
5731
  8
0
 10
33100.00000000001
 20
2175.036426392789
 30
0.0
  0
VERTEX
  5
5732
  8
0
 10
33100.00000000001
 20
4298.036435929559
 30
0.0
  0
VERTEX
  5
5733
  8
0
 10
33699.99999999999
 20
4298.036435929559
 30
0.0
  0
SEQEND
  5
5995
  8
0
  0
POLYLINE
  5
44F
  8
0
 66
     1
 10
0.0
 20
0.0
 30
0.0
 70
     1
  0
VERTEX
  5
5734
  8
0
 10
33665.00000000001
 20
4298.036435929559
 30
0.0
  0
VERTEX
  5
5735
  8
0
 10
33135.00000000001
 20
4298.036435929559
 30
0.0
  0
VERTEX
  5
5736
  8
0
 10
33135.00000000001
 20
2175.036426392789
 30
0.0
  0
VERTEX
  5
5737
  8
0
 10
33665.00000000001
 20
2175.036426392789
 30
0.0
  0
SEQEND
  5
5996
  8
0
  0
POLYLINE
  5
450
  8
0
 66
     1
 10
0.0
 20
0.0
 30
0.0
 70
     1
  0
VERTEX
  5
5738
  8
0
 10
33699.99999999999
 20
5908.171916406253
 30
0.0
  0
VERTEX
  5
5739
  8
0
 10
33100.00000000001
 20
5908.171916406253
 30
0.0
  0
VERTEX
  5
573A
  8
0
 10
33100.00000000001
 20
8431.1719164063
 30
0.0
  0
VERTEX
  5
573B
  8
0
 10
33699.99999999999
 20
8431.1719164063
 30
0.0
  0
SEQEND
  5
5997
  8
0
  0
POLYLINE
  5
451
  8
0
 66
     1
 10
0.0
 20
0.0
 30
0.0
 70
     1
  0
VERTEX
  5
573C
  8
0
 10
33665.00000000001
 20
8431.1719164063
 30
0.0
  0
VERTEX
  5
573D
  8
0
 10
33135.00000000001
 20
8431.1719164063
 30
0.0
  0
VERTEX
  5
573E
  8
0
 10
33135.00000000001
 20
5908.171916406253
 30
0.0
  0
VERTEX
  5
573F
  8
0
 10
33665.00000000001
 20
5908.171916406253
 30
0.0
  0
SEQEND
  5
5998
  8
0
  0
POLYLINE
  5
452
  8
0
 66
     1
 10
0.0
 20
0.0
 30
0.0
 70
     1
  0
VERTEX
  5
5740
  8
0
 10
33735.00000000002
 20
8431.1719164063
 30
0.0
  0
VERTEX
  5
5741
  8
0
 10
34265.00000000001
 20
8431.1719164063
 30
0.0
  0
VERTEX
  5
5742
  8
0
 10
34265.00000000001
 20
5908.171916406253
 30
0.0
  0
VERTEX
  5
5743
  8
0
 10
33735.00000000002
 20
5908.171916406253
 30
0.0
  0
SEQEND
  5
5999
  8
0
  0
POLYLINE
  5
453
  8
0
 66
     1
 10
0.0
 20
0.0
 30
0.0
 70
     1
  0
VERTEX
  5
5744
  8
0
 10
33700.00000000001
 20
5908.171916406253
 30
0.0
  0
VERTEX
  5
5745
  8
0
 10
34300.00000000001
 20
5908.171916406253
 30
0.0
  0
VERTEX
  5
5746
  8
0
 10
34300.00000000001
 20
8431.1719164063
 30
0.0
  0
VERTEX
  5
5747
  8
0
 10
33700.00000000001
 20
8431.1719164063
 30
0.0
  0
SEQEND
  5
599A
  8
0
  0
POLYLINE
  5
454
  8
0
 66
     1
 10
0.0
 20
0.0
 30
0.0
 70
     1
  0
VERTEX
  5
5748
  8
0
 10
33735.00000000002
 20
4298.036435929559
 30
0.0
  0
VERTEX
  5
5749
  8
0
 10
34265.00000000001
 20
4298.036435929559
 30
0.0
  0
VERTEX
  5
574A
  8
0
 10
34265.00000000001
 20
2175.036426392789
 30
0.0
  0
VERTEX
  5
574B
  8
0
 10
33735.00000000002
 20
2175.036426392789
 30
0.0
  0
SEQEND
  5
599B
  8
0
  0
POLYLINE
  5
455
  8
0
 66
     1
 10
0.0
 20
0.0
 30
0.0
 70
     1
  0
VERTEX
  5
574C
  8
0
 10
33700.00000000001
 20
2175.036426392789
 30
0.0
  0
VERTEX
  5
574D
  8
0
 10
34300.00000000001
 20
2175.036426392789
 30
0.0
  0
VERTEX
  5
574E
  8
0
 10
34300.00000000001
 20
4298.036435929559
 30
0.0
  0
VERTEX
  5
574F
  8
0
 10
33700.00000000001
 20
4298.036435929559
 30
0.0
  0
SEQEND
  5
599C
  8
0
  0
POLYLINE
  5
456
  8
0
 66
     1
 10
0.0
 20
0.0
 30
0.0
 70
     1
  0
VERTEX
  5
5750
  8
0
 10
34899.99999999999
 20
5908.171916406253
 30
0.0
  0
VERTEX
  5
5751
  8
0
 10
34300.00000000001
 20
5908.171916406253
 30
0.0
  0
VERTEX
  5
5752
  8
0
 10
34300.00000000001
 20
8431.1719164063
 30
0.0
  0
VERTEX
  5
5753
  8
0
 10
34899.99999999999
 20
8431.1719164063
 30
0.0
  0
SEQEND
  5
599D
  8
0
  0
POLYLINE
  5
457
  8
0
 66
     1
 10
0.0
 20
0.0
 30
0.0
 70
     1
  0
VERTEX
  5
5754
  8
0
 10
34865.00000000001
 20
8431.1719164063
 30
0.0
  0
VERTEX
  5
5755
  8
0
 10
34335.00000000001
 20
8431.1719164063
 30
0.0
  0
VERTEX
  5
5756
  8
0
 10
34335.00000000001
 20
5908.171916406253
 30
0.0
  0
VERTEX
  5
5757
  8
0
 10
34865.00000000001
 20
5908.171916406253
 30
0.0
  0
SEQEND
  5
599E
  8
0
  0
POLYLINE
  5
458
  8
0
 66
     1
 10
0.0
 20
0.0
 30
0.0
 70
     1
  0
VERTEX
  5
5758
  8
0
 10
34935.00000000001
 20
8431.1719164063
 30
0.0
  0
VERTEX
  5
5759
  8
0
 10
35465.00000000001
 20
8431.1719164063
 30
0.0
  0
VERTEX
  5
575A
  8
0
 10
35465.00000000001
 20
5908.171916406253
 30
0.0
  0
VERTEX
  5
575B
  8
0
 10
34935.00000000001
 20
5908.171916406253
 30
0.0
  0
SEQEND
  5
599F
  8
0
  0
POLYLINE
  5
459
  8
0
 66
     1
 10
0.0
 20
0.0
 30
0.0
 70
     1
  0
VERTEX
  5
575C
  8
0
 10
34900.00000000001
 20
5908.171916406253
 30
0.0
  0
VERTEX
  5
575D
  8
0
 10
35500.00000000001
 20
5908.171916406253
 30
0.0
  0
VERTEX
  5
575E
  8
0
 10
35500.00000000001
 20
8431.1719164063
 30
0.0
  0
VERTEX
  5
575F
  8
0
 10
34900.00000000001
 20
8431.1719164063
 30
0.0
  0
SEQEND
  5
59A0
  8
0
  0
POLYLINE
  5
45A
  8
0
 66
     1
 10
0.0
 20
0.0
 30
0.0
 70
     1
  0
VERTEX
  5
5760
  8
0
 10
34899.99999999999
 20
2175.036426392789
 30
0.0
  0
VERTEX
  5
5761
  8
0
 10
34300.00000000001
 20
2175.036426392789
 30
0.0
  0
VERTEX
  5
5762
  8
0
 10
34300.00000000001
 20
4298.036435929559
 30
0.0
  0
VERTEX
  5
5763
  8
0
 10
34899.99999999999
 20
4298.036435929559
 30
0.0
  0
SEQEND
  5
59A1
  8
0
  0
POLYLINE
  5
45B
  8
0
 66
     1
 10
0.0
 20
0.0
 30
0.0
 70
     1
  0
VERTEX
  5
5764
  8
0
 10
34865.00000000001
 20
4298.036435929559
 30
0.0
  0
VERTEX
  5
5765
  8
0
 10
34335.00000000001
 20
4298.036435929559
 30
0.0
  0
VERTEX
  5
5766
  8
0
 10
34335.00000000001
 20
2175.036426392789
 30
0.0
  0
VERTEX
  5
5767
  8
0
 10
34865.00000000001
 20
2175.036426392789
 30
0.0
  0
SEQEND
  5
59A2
  8
0
  0
POLYLINE
  5
45C
  8
0
 66
     1
 10
0.0
 20
0.0
 30
0.0
 70
     1
  0
VERTEX
  5
5768
  8
0
 10
27100.0
 20
1537.657647026934
 30
0.0
  0
VERTEX
  5
5769
  8
0
 10
40100.0
 20
1537.657647026934
 30
0.0
  0
VERTEX
  5
576A
  8
0
 10
40100.0
 20
1837.657647026935
 30
0.0
  0
VERTEX
  5
576B
  8
0
 10
27100.0
 20
1837.657647026935
 30
0.0
  0
SEQEND
  5
59A3
  8
0
  0
TEXT
  5
45D
  8
0
 10
27319.31746728745
 20
1635.467425269805
 30
0.0
 40
125.0
  1
Examples of compositions / Esempi di composizioni / Kompositionsbeispiele
  7
STILE1
 72
     1
 11
31117.02952085888
 21
1635.467425269805
 31
0.0
  0
TEXT
  5
45E
  8
0
 10
14200.88162072467
 20
1635.467425269804
 30
0.0
 40
125.0
  1
Modular Combinations (L=80 cm) / Componibilità moduli (L=80 cm) / Zusammensetzbarkeit Module (L=80 cm)
  7
STILE1
 72
     1
 11
19813.97685881991
 21
1635.467425269804
 31
0.0
  0
TEXT
  5
45F
  8
0
 10
6435.285829406143
 20
1635.467425269804
 30
0.0
 40
125.0
  1
Sliding modules / Moduli mobili / Bewegliche Module
  7
STILE1
 72
     1
 11
9075.631811549
 21
1635.467425269804
 31
0.0
  0
TEXT
  5
460
  8
0
 10
455.5941790745374
 20
1635.467425269804
 30
0.0
 40
125.0
  1
Static modules / Moduli fissi / Feste Module
  7
STILE1
 72
     1
 11
2714.987780265014
 21
1635.467425269804
 31
0.0
  0
LINE
  5
461
  8
0
 10
8025.371948238463
 20
987.6576470269353
 30
0.0
 11
8025.371948238463
 21
0.0
 31
0.0
  0
TEXT
  5
462
  8
0
 10
6252.7084966879
 20
778.7322304035334
 30
0.0
 40
125.0
  1
2022-06
  7
STILE1
 72
     1
 11
6687.604330021233
 21
778.7322304035334
 31
0.0
  0
LINE
  5
463
  8
0
 10
5350.247965492308
 20
687.661092123016
 30
0.0
 11
5350.247965492308
 21
987.6576470269353
 31
0.0
  0
LINE
  5
464
  8
0
 10
2675.123982746154
 20
987.6576470269353
 30
0.0
 11
2675.123982746154
 21
0.0
 31
0.0
  0
POLYLINE
  5
465
  8
0
 66
     1
 10
0.0
 20
0.0
 30
0.0
 70
     1
  0
VERTEX
  5
576C
  8
0
 10
0.0
 20
987.6576470269353
 30
0.0
  0
VERTEX
  5
576D
  8
0
 10
8025.371948238463
 20
987.6576470269353
 30
0.0
  0
VERTEX
  5
576E
  8
0
 10
8025.371948238463
 20
0.0
 30
0.0
  0
VERTEX
  5
576F
  8
0
 10
0.0
 20
0.0
 30
0.0
  0
SEQEND
  5
59A4
  8
0
  0
POLYLINE
  5
466
  8
0
 66
     1
 10
0.0
 20
0.0
 30
0.0
  0
VERTEX
  5
5770
  8
0
 10
2675.123982746154
 20
687.661092123016
 30
0.0
  0
VERTEX
  5
5771
  8
0
 10
8025.371948238463
 20
687.6610921230168
 30
0.0
  0
SEQEND
  5
59A5
  8
0
  0
TEXT
  5
467
  8
0
 10
3484.840736835664
 20
170.1637904425171
 30
0.0
 40
125.0
  1
This drawing is property of Fantin S.r.l. 
  7
STILE1
 72
     1
 11
5499.721689216617
 21
170.1637904425171
 31
0.0
  0
POLYLINE
  5
468
  8
0
  6
CONTINUOUS
 66
     1
 10
0.0
 20
0.0
 30
0.0
 70
     1
  0
VERTEX
  5
5772
  8
0
  6
CONTINUOUS
 10
847.7226611692438
 20
383.6228027346076
 30
0.0
  0
VERTEX
  5
5773
  8
0
  6
CONTINUOUS
 10
847.7226611692438
 20
383.6228027346076
 30
0.0
  0
VERTEX
  5
5774
  8
0
  6
CONTINUOUS
 10
872.0839436817907
 20
299.9999999999997
 30
0.0
  0
VERTEX
  5
5775
  8
0
  6
CONTINUOUS
 10
997.8006456140432
 20
299.9999999999997
 30
0.0
  0
VERTEX
  5
5776
  8
0
  6
CONTINUOUS
 10
880.3917914489284
 20
652.7743326826017
 30
0.0
 42
0.1089385125692126
  0
VERTEX
  5
5777
  8
0
  6
CONTINUOUS
 10
867.6499316329131
 20
680.4454704024826
 30
0.0
 42
0.1589313772246072
  0
VERTEX
  5
5778
  8
0
  6
CONTINUOUS
 10
855.6541064428161
 20
687.7303423592817
 30
0.0
 42
0.058673645385263
  0
VERTEX
  5
5779
  8
0
  6
CONTINUOUS
 10
839.4089355459447
 20
689.3216281465718
 30
0.0
  0
VERTEX
  5
577A
  8
0
  6
CONTINUOUS
 10
839.4089355459447
 20
689.3216281465718
 30
0.0
  0
VERTEX
  5
577B
  8
0
  6
CONTINUOUS
 10
744.1606580931694
 20
689.3216281465718
 30
0.0
 42
0.058673645385263
  0
VERTEX
  5
577C
  8
0
  6
CONTINUOUS
 10
727.9154871962947
 20
687.7303423592817
 30
0.0
 42
0.1589313772246072
  0
VERTEX
  5
577D
  8
0
  6
CONTINUOUS
 10
715.9196620061985
 20
680.4454704024826
 30
0.0
 42
0.1089385125692126
  0
VERTEX
  5
577E
  8
0
  6
CONTINUOUS
 10
703.1778021901849
 20
652.7743326826017
 30
0.0
  0
VERTEX
  5
577F
  8
0
  6
CONTINUOUS
 10
585.768948029726
 20
299.9999999999997
 30
0.0
  0
VERTEX
  5
5780
  8
0
  6
CONTINUOUS
 10
704.8348931223154
 20
299.9999999999997
 30
0.0
  0
VERTEX
  5
5781
  8
0
  6
CONTINUOUS
 10
728.6473931185901
 20
383.6228027346076
 30
0.0
  0
SEQEND
  5
59A6
  8
0
  6
CONTINUOUS
  0
POLYLINE
  5
469
  8
0
  6
CONTINUOUS
 66
     1
 10
0.0
 20
0.0
 30
0.0
  0
VERTEX
  5
5782
  8
0
  6
CONTINUOUS
 10
791.2309977225952
 20
580.7787272136192
 30
0.0
  0
VERTEX
  5
5783
  8
0
  6
CONTINUOUS
 10
824.458943684584
 20
466.6909450956151
 30
0.0
  0
VERTEX
  5
5784
  8
0
  6
CONTINUOUS
 10
751.9104003906241
 20
466.6909450956151
 30
0.0
  0
VERTEX
  5
5785
  8
0
  6
CONTINUOUS
 10
785.13834635727
 20
580.7787272136192
 30
0.0
  0
VERTEX
  5
5786
  8
0
  6
CONTINUOUS
 10
791.2309977225952
 20
580.7787272136192
 30
0.0
  0
SEQEND
  5
59A7
  8
0
  6
CONTINUOUS
  0
POLYLINE
  5
46A
  8
0
  6
CONTINUOUS
 66
     1
 10
0.0
 20
0.0
 30
0.0
  0
VERTEX
  5
5787
  8
0
  6
CONTINUOUS
 10
605.1458875834936
 20
687.6576470269353
 30
0.0
  0
VERTEX
  5
5788
  8
0
  6
CONTINUOUS
 10
605.1458875834936
 20
598.4968532994384
 30
0.0
  0
VERTEX
  5
5789
  8
0
  6
CONTINUOUS
 10
419.0693901898336
 20
598.4968532994384
 30
0.0
  0
VERTEX
  5
578A
  8
0
  6
CONTINUOUS
 10
419.0693901898336
 20
521.52136230492
 30
0.0
  0
VERTEX
  5
578B
  8
0
  6
CONTINUOUS
 10
549.2130398191512
 20
521.52136230492
 30
0.0
  0
VERTEX
  5
578C
  8
0
  6
CONTINUOUS
 10
549.2130398191512
 20
438.4480523003727
 30
0.0
  0
VERTEX
  5
578D
  8
0
  6
CONTINUOUS
 10
419.0693901898336
 20
438.4480523003727
 30
0.0
  0
VERTEX
  5
578E
  8
0
  6
CONTINUOUS
 10
419.0693901898336
 20
299.9999999999997
 30
0.0
  0
VERTEX
  5
578F
  8
0
  6
CONTINUOUS
 10
300.0
 20
299.9999999999997
 30
0.0
  0
VERTEX
  5
5790
  8
0
  6
CONTINUOUS
 10
300.0
 20
687.6576470269353
 30
0.0
  0
VERTEX
  5
5791
  8
0
  6
CONTINUOUS
 10
605.1458875834936
 20
687.6576470269353
 30
0.0
  0
SEQEND
  5
59A8
  8
0
  6
CONTINUOUS
  0
POLYLINE
  5
46B
  8
0
  6
CONTINUOUS
 66
     1
 10
0.0
 20
0.0
 30
0.0
 70
     1
  0
VERTEX
  5
5792
  8
0
  6
CONTINUOUS
 10
1820.206949869171
 20
687.6593695743937
 30
0.0
  0
VERTEX
  5
5793
  8
0
  6
CONTINUOUS
 10
1939.276340059005
 20
687.6593695743937
 30
0.0
  0
VERTEX
  5
5794
  8
0
  6
CONTINUOUS
 10
1939.276340059005
 20
299.9999999999997
 30
0.0
  0
VERTEX
  5
5795
  8
0
  6
CONTINUOUS
 10
1820.206949869171
 20
299.9999999999997
 30
0.0
  0
SEQEND
  5
59A9
  8
0
  6
CONTINUOUS
  0
POLYLINE
  5
46C
  8
0
  6
CONTINUOUS
 66
     1
 10
0.0
 20
0.0
 30
0.0
  0
VERTEX
  5
5796
  8
0
  6
CONTINUOUS
 10
1783.103271485306
 20
687.6593695743937
 30
0.0
  0
VERTEX
  5
5797
  8
0
  6
CONTINUOUS
 10
1783.103271485306
 20
596.8363172747192
 30
0.0
  0
VERTEX
  5
5798
  8
0
  6
CONTINUOUS
 10
1666.80718316231
 20
596.8363172747192
 30
0.0
  0
VERTEX
  5
5799
  8
0
  6
CONTINUOUS
 10
1666.80718316231
 20
299.9999999999997
 30
0.0
  0
VERTEX
  5
579A
  8
0
  6
CONTINUOUS
 10
1547.737792972475
 20
299.9999999999997
 30
0.0
  0
VERTEX
  5
579B
  8
0
  6
CONTINUOUS
 10
1547.737792972475
 20
596.8363172747192
 30
0.0
  0
VERTEX
  5
579C
  8
0
  6
CONTINUOUS
 10
1434.204671224579
 20
596.8363172747192
 30
0.0
  0
VERTEX
  5
579D
  8
0
  6
CONTINUOUS
 10
1434.204671224579
 20
687.6593695743937
 30
0.0
  0
VERTEX
  5
579E
  8
0
  6
CONTINUOUS
 10
1783.103271485306
 20
687.6593695743937
 30
0.0
  0
SEQEND
  5
59AA
  8
0
  6
CONTINUOUS
  0
POLYLINE
  5
46D
  8
0
  6
CONTINUOUS
 66
     1
 10
0.0
 20
0.0
 30
0.0
  0
VERTEX
  5
579F
  8
0
  6
CONTINUOUS
 10
1030.479098847136
 20
299.9999999999997
 30
0.0
  0
VERTEX
  5
57A0
  8
0
  6
CONTINUOUS
 10
1030.479098847136
 20
687.661092123016
 30
0.0
  0
VERTEX
  5
57A1
  8
0
  6
CONTINUOUS
 10
1131.828640410675
 20
687.661092123016
 30
0.0
 42
-0.316444976687396
  0
VERTEX
  5
57A2
  8
0
  6
CONTINUOUS
 10
1182.776435003616
 20
659.4164767791514
 30
0.0
  0
VERTEX
  5
57A3
  8
0
  6
CONTINUOUS
 10
1283.569593643768
 20
489.3975694442633
 30
0.0
  0
VERTEX
  5
57A4
  8
0
  6
CONTINUOUS
 10
1286.337727867066
 20
489.3975694442633
 30
0.0
  0
VERTEX
  5
57A5
  8
0
  6
CONTINUOUS
 10
1286.337727867066
 20
687.661092123016
 30
0.0
  0
VERTEX
  5
57A6
  8
0
  6
CONTINUOUS
 10
1398.761528860777
 20
687.661092123016
 30
0.0
  0
VERTEX
  5
57A7
  8
0
  6
CONTINUOUS
 10
1398.761528860777
 20
299.9999999999997
 30
0.0
  0
VERTEX
  5
57A8
  8
0
  6
CONTINUOUS
 10
1316.239434136078
 20
299.9999999999997
 30
0.0
 42
-0.312959769389874
  0
VERTEX
  5
57A9
  8
0
  6
CONTINUOUS
 10
1265.29163953848
 20
328.2428927952421
 30
0.0
  0
VERTEX
  5
57AA
  8
0
  6
CONTINUOUS
 10
1145.671034073457
 20
521.5196397574612
 30
0.0
  0
VERTEX
  5
57AB
  8
0
  6
CONTINUOUS
 10
1142.906344942748
 20
521.5196397574612
 30
0.0
  0
VERTEX
  5
57AC
  8
0
  6
CONTINUOUS
 10
1142.906344942748
 20
299.9999999999997
 30
0.0
  0
VERTEX
  5
57AD
  8
0
  6
CONTINUOUS
 10
1030.479098847136
 20
299.9999999999997
 30
0.0
  0
SEQEND
  5
59AB
  8
0
  6
CONTINUOUS
  0
POLYLINE
  5
46E
  8
0
  6
CONTINUOUS
 66
     1
 10
0.0
 20
0.0
 30
0.0
  0
VERTEX
  5
57AE
  8
0
  6
CONTINUOUS
 10
2006.841552732512
 20
299.9999999999997
 30
0.0
  0
VERTEX
  5
57AF
  8
0
  6
CONTINUOUS
 10
2006.841552732512
 20
687.661092123016
 30
0.0
  0
VERTEX
  5
57B0
  8
0
  6
CONTINUOUS
 10
2108.191094296053
 20
687.661092123016
 30
0.0
 42
-0.316444976687396
  0
VERTEX
  5
57B1
  8
0
  6
CONTINUOUS
 10
2159.138888884337
 20
659.4164767791514
 30
0.0
  0
VERTEX
  5
57B2
  8
0
  6
CONTINUOUS
 10
2259.932047529146
 20
489.3975694442633
 30
0.0
  0
VERTEX
  5
57B3
  8
0
  6
CONTINUOUS
 10
2262.700181747787
 20
489.3975694442633
 30
0.0
  0
VERTEX
  5
57B4
  8
0
  6
CONTINUOUS
 10
2262.700181747787
 20
687.661092123016
 30
0.0
  0
VERTEX
  5
57B5
  8
0
  6
CONTINUOUS
 10
2375.123982746154
 20
687.661092123016
 30
0.0
  0
VERTEX
  5
57B6
  8
0
  6
CONTINUOUS
 10
2375.123982746154
 20
299.9999999999997
 30
0.0
  0
VERTEX
  5
57B7
  8
0
  6
CONTINUOUS
 10
2292.601888021454
 20
299.9999999999997
 30
0.0
 42
-0.312959769389874
  0
VERTEX
  5
57B8
  8
0
  6
CONTINUOUS
 10
2241.654093428515
 20
328.2428927952421
 30
0.0
  0
VERTEX
  5
57B9
  8
0
  6
CONTINUOUS
 10
2122.033487958833
 20
521.5196397574612
 30
0.0
  0
VERTEX
  5
57BA
  8
0
  6
CONTINUOUS
 10
2119.268798828125
 20
521.5196397574612
 30
0.0
  0
VERTEX
  5
57BB
  8
0
  6
CONTINUOUS
 10
2119.268798828125
 20
299.9999999999997
 30
0.0
  0
VERTEX
  5
57BC
  8
0
  6
CONTINUOUS
 10
2006.841552732512
 20
299.9999999999997
 30
0.0
  0
SEQEND
  5
59AC
  8
0
  6
CONTINUOUS
  0
TEXT
  5
46F
  8
0
 10
3713.516758291063
 20
778.7322304035334
 30
0.0
 40
125.0
  1
Binaria
  7
STILE1
 72
     1
 11
4032.062145195825
 21
778.7322304035334
 31
0.0
  0
TEXT
  5
470
  8
0
 10
3173.906836621409
 20
432.2479967307316
 30
0.0
 40
125.0
  1
Questo disegno è di proprietà di Fantin S.r.l.   
  7
STILE1
 72
     1
 11
5596.525884240456
 21
432.2479967307316
 31
0.0
  0
POLYLINE
  5
471
  8
0
 66
     1
 10
0.0
 20
0.0
 30
0.0
 70
     1
  0
VERTEX
  5
57BD
  8
0
 10
-0.000000000007276
 20
1537.657647026935
 30
0.0
  0
VERTEX
  5
57BE
  8
0
 10
13000.0
 20
1537.657647026935
 30
0.0
  0
VERTEX
  5
57BF
  8
0
 10
13000.0
 20
1837.657647026935
 30
0.0
  0
VERTEX
  5
57C0
  8
0
 10
-0.000000000007276
 20
1837.657647026935
 30
0.0
  0
SEQEND
  5
59AD
  8
0
  0
POLYLINE
  5
472
  8
0
 66
     1
 10
0.0
 20
0.0
 30
0.0
 70
     1
  0
VERTEX
  5
57C1
  8
0
 10
27100.0
 20
1537.657647026934
 30
0.0
  0
VERTEX
  5
57C2
  8
0
 10
40100.0
 20
1537.657647026934
 30
0.0
  0
VERTEX
  5
57C3
  8
0
 10
40100.0
 20
1837.657647026935
 30
0.0
  0
VERTEX
  5
57C4
  8
0
 10
27100.0
 20
1837.657647026935
 30
0.0
  0
SEQEND
  5
59AE
  8
0
  0
POLYLINE
  5
473
  8
0
 66
     1
 10
0.0
 20
0.0
 30
0.0
 70
     1
  0
VERTEX
  5
57C5
  8
0
 10
13550.0
 20
1537.657647026935
 30
0.0
  0
VERTEX
  5
57C6
  8
0
 10
26550.0
 20
1537.657647026935
 30
0.0
  0
VERTEX
  5
57C7
  8
0
 10
26550.0
 20
1837.657647026935
 30
0.0
  0
VERTEX
  5
57C8
  8
0
 10
13550.0
 20
1837.657647026935
 30
0.0
  0
SEQEND
  5
59AF
  8
0
  0
POLYLINE
  5
474
  8
0
 66
     1
 10
0.0
 20
0.0
 30
0.0
 70
     1
  0
VERTEX
  5
57C9
  8
0
 10
27100.0
 20
1537.657647026934
 30
0.0
  0
VERTEX
  5
57CA
  8
0
 10
40100.0
 20
1537.657647026934
 30
0.0
  0
VERTEX
  5
57CB
  8
0
 10
40100.0
 20
9015.002619770908
 30
0.0
  0
VERTEX
  5
57CC
  8
0
 10
27100.0
 20
9015.002619770908
 30
0.0
  0
SEQEND
  5
59B0
  8
0
  0
POLYLINE
  5
475
  8
0
 66
     1
 10
0.0
 20
0.0
 30
0.0
 70
     1
  0
VERTEX
  5
57CD
  8
0
 10
0.0
 20
9015.002619770916
 30
0.0
  0
VERTEX
  5
57CE
  8
0
 10
13000.0
 20
9015.002619770916
 30
0.0
  0
VERTEX
  5
57CF
  8
0
 10
13000.0
 20
1537.657647026935
 30
0.0
  0
VERTEX
  5
57D0
  8
0
 10
0.0
 20
1537.657647026935
 30
0.0
  0
SEQEND
  5
59B1
  8
0
  0
ENDSEC
  0
EOF
