  0
SECTION
  2
HEADER
  9
$ACADVER
  1
AC1032
  9
$ACADMAINTVER
 90
        4
  9
$DWGCODEPAGE
  3
ANSI_1252
  9
$LASTSAVEDBY
  1
ut02
  9
$REQUIREDVERSIONS
160
                 0
  9
$INSBASE
 10
0.0
 20
0.0
 30
0.0
  9
$EXTMIN
 10
110957.3197108027
 20
-15744.25642601585
 30
0.0
  9
$EXTMAX
 10
123419.7359182515
 20
-4448.436372001137
 30
0.0
  9
$LIMMIN
 10
-0.25
 20
-0.7499999999999999
  9
$LIMMAX
 10
10.75
 20
7.75
  9
$ORTHOMODE
 70
     1
  9
$REGENMODE
 70
     1
  9
$FILLMODE
 70
     1
  9
$QTEXTMODE
 70
     0
  9
$MIRRTEXT
 70
     0
  9
$LTSCALE
 40
100.0
  9
$ATTMODE
 70
     1
  9
$TEXTSIZE
 40
2.5
  9
$TRACEWID
 40
0.05
  9
$TEXTSTYLE
  7
STANDARD
  9
$CLAYER
  8
0
  9
$CELTYPE
  6
BYLAYER
  9
$CECOLOR
 62
   256
  9
$CELTSCALE
 40
1.0
  9
$DISPSILH
 70
     0
  9
$DIMSCALE
 40
20.0
  9
$DIMASZ
 40
3.0
  9
$DIMEXO
 40
1.0
  9
$DIMDLI
 40
0.0
  9
$DIMRND
 40
0.0
  9
$DIMDLE
 40
0.0
  9
$DIMEXE
 40
1.0
  9
$DIMTP
 40
0.0
  9
$DIMTM
 40
0.0
  9
$DIMTXT
 40
3.0
  9
$DIMCEN
 40
1.0
  9
$DIMTSZ
 40
0.0
  9
$DIMTOL
 70
     0
  9
$DIMLIM
 70
     0
  9
$DIMTIH
 70
     0
  9
$DIMTOH
 70
     0
  9
$DIMSE1
 70
     0
  9
$DIMSE2
 70
     0
  9
$DIMTAD
 70
     1
  9
$DIMZIN
 70
     8
  9
$DIMBLK
  1

  9
$DIMASO
 70
     1
  9
$DIMSHO
 70
     0
  9
$DIMPOST
  1

  9
$DIMAPOST
  1

  9
$DIMALT
 70
     0
  9
$DIMALTD
 70
     2
  9
$DIMALTF
 40
25.4
  9
$DIMLFAC
 40
1.0
  9
$DIMTOFL
 70
     1
  9
$DIMTVP
 40
0.0
  9
$DIMTIX
 70
     1
  9
$DIMSOXD
 70
     0
  9
$DIMSAH
 70
     0
  9
$DIMBLK1
  1

  9
$DIMBLK2
  1

  9
$DIMSTYLE
  2
FANTIN mm
  9
$DIMCLRD
 70
   256
  9
$DIMCLRE
 70
   256
  9
$DIMCLRT
 70
   256
  9
$DIMTFAC
 40
1.0
  9
$DIMGAP
 40
1.5
  9
$DIMJUST
 70
     0
  9
$DIMSD1
 70
     0
  9
$DIMSD2
 70
     0
  9
$DIMTOLJ
 70
     1
  9
$DIMTZIN
 70
     0
  9
$DIMALTZ
 70
     0
  9
$DIMALTTZ
 70
     0
  9
$DIMUPT
 70
     0
  9
$DIMDEC
 70
     2
  9
$DIMTDEC
 70
     4
  9
$DIMALTU
 70
     2
  9
$DIMALTTD
 70
     2
  9
$DIMTXSTY
  7
STILE1
  9
$DIMAUNIT
 70
     0
  9
$DIMADEC
 70
     0
  9
$DIMALTRND
 40
0.0
  9
$DIMAZIN
 70
     0
  9
$DIMDSEP
 70
    46
  9
$DIMATFIT
 70
     3
  9
$DIMFRAC
 70
     0
  9
$DIMLDRBLK
  1

  9
$DIMLUNIT
 70
     2
  9
$DIMLWD
 70
    -1
  9
$DIMLWE
 70
    -1
  9
$DIMTMOVE
 70
     0
  9
$DIMFXL
 40
1.0
  9
$DIMFXLON
 70
     0
  9
$DIMJOGANG
 40
0.7853981633974483
  9
$DIMTFILL
 70
     0
  9
$DIMTFILLCLR
 70
     0
  9
$DIMARCSYM
 70
     0
  9
$DIMLTYPE
  6
BYLAYER
  9
$DIMLTEX1
  6
BYLAYER
  9
$DIMLTEX2
  6
BYLAYER
  9
$DIMTXTDIRECTION
 70
     0
  9
$LUNITS
 70
     2
  9
$LUPREC
 70
     4
  9
$SKETCHINC
 40
0.1
  9
$FILLETRAD
 40
1.0
  9
$AUNITS
 70
     0
  9
$AUPREC
 70
     0
  9
$MENU
  1
acad
  9
$ELEVATION
 40
0.0
  9
$PELEVATION
 40
0.0
  9
$THICKNESS
 40
0.0
  9
$LIMCHECK
 70
     0
  9
$CHAMFERA
 40
0.0
  9
$CHAMFERB
 40
0.0
  9
$CHAMFERC
 40
0.0
  9
$CHAMFERD
 40
0.0
  9
$SKPOLY
 70
     0
  9
$TDCREATE
 40
2450204.495699757
  9
$TDUCREATE
 40
2450204.412366424
  9
$TDUPDATE
 40
2459760.487119202
  9
$TDUUPDATE
 40
2459760.403785868
  9
$TDINDWG
 40
1.5405176968
  9
$TDUSRTIMER
 40
0.0009496991
  9
$USRTIMER
 70
     1
  9
$ANGBASE
 50
0.0
  9
$ANGDIR
 70
     0
  9
$PDMODE
 70
     0
  9
$PDSIZE
 40
0.0
  9
$PLINEWID
 40
0.0
  9
$SPLFRAME
 70
     0
  9
$SPLINETYPE
 70
     6
  9
$SPLINESEGS
 70
     8
  9
$HANDSEED
  5
A5013
  9
$SURFTAB1
 70
     6
  9
$SURFTAB2
 70
     6
  9
$SURFTYPE
 70
     6
  9
$SURFU
 70
     6
  9
$SURFV
 70
     6
  9
$UCSBASE
  2

  9
$UCSNAME
  2

  9
$UCSORG
 10
0.0
 20
0.0
 30
0.0
  9
$UCSXDIR
 10
1.0
 20
0.0
 30
0.0
  9
$UCSYDIR
 10
0.0
 20
1.0
 30
0.0
  9
$UCSORTHOREF
  2

  9
$UCSORTHOVIEW
 70
     0
  9
$UCSORGTOP
 10
0.0
 20
0.0
 30
0.0
  9
$UCSORGBOTTOM
 10
0.0
 20
0.0
 30
0.0
  9
$UCSORGLEFT
 10
0.0
 20
0.0
 30
0.0
  9
$UCSORGRIGHT
 10
0.0
 20
0.0
 30
0.0
  9
$UCSORGFRONT
 10
0.0
 20
0.0
 30
0.0
  9
$UCSORGBACK
 10
0.0
 20
0.0
 30
0.0
  9
$PUCSBASE
  2

  9
$PUCSNAME
  2

  9
$PUCSORG
 10
0.0
 20
0.0
 30
0.0
  9
$PUCSXDIR
 10
1.0
 20
0.0
 30
0.0
  9
$PUCSYDIR
 10
0.0
 20
1.0
 30
0.0
  9
$PUCSORTHOREF
  2

  9
$PUCSORTHOVIEW
 70
     0
  9
$PUCSORGTOP
 10
0.0
 20
0.0
 30
0.0
  9
$PUCSORGBOTTOM
 10
0.0
 20
0.0
 30
0.0
  9
$PUCSORGLEFT
 10
0.0
 20
0.0
 30
0.0
  9
$PUCSORGRIGHT
 10
0.0
 20
0.0
 30
0.0
  9
$PUCSORGFRONT
 10
0.0
 20
0.0
 30
0.0
  9
$PUCSORGBACK
 10
0.0
 20
0.0
 30
0.0
  9
$USERI1
 70
     0
  9
$USERI2
 70
     0
  9
$USERI3
 70
     0
  9
$USERI4
 70
     0
  9
$USERI5
 70
     0
  9
$USERR1
 40
0.0
  9
$USERR2
 40
0.0
  9
$USERR3
 40
0.0
  9
$USERR4
 40
0.0
  9
$USERR5
 40
0.0
  9
$WORLDVIEW
 70
     1
  9
$SHADEDGE
 70
     3
  9
$SHADEDIF
 70
    70
  9
$TILEMODE
 70
     1
  9
$MAXACTVP
 70
    16
  9
$PINSBASE
 10
0.0
 20
0.0
 30
0.0
  9
$PLIMCHECK
 70
     0
  9
$PEXTMIN
 10
-0.3381462702120075
 20
0.8459837498699585
 30
0.0
  9
$PEXTMAX
 10
415.413624644739
 20
287.8459837498699
 30
0.0
  9
$PLIMMIN
 10
-6.550032031932233
 20
4.200264022997543
  9
$PLIMMAX
 10
413.4499679680678
 20
301.2002640229975
  9
$UNITMODE
 70
     0
  9
$VISRETAIN
 70
     0
  9
$PLINEGEN
 70
     0
  9
$PSLTSCALE
 70
     0
  9
$TREEDEPTH
 70
  3020
  9
$CMLSTYLE
  2
STANDARD
  9
$CMLJUST
 70
     0
  9
$CMLSCALE
 40
1.0
  9
$PROXYGRAPHICS
 70
     0
  9
$MEASUREMENT
 70
     0
  9
$CELWEIGHT
370
    -1
  9
$ENDCAPS
280
     0
  9
$JOINSTYLE
280
     0
  9
$LWDISPLAY
290
     0
  9
$INSUNITS
 70
     0
  9
$HYPERLINKBASE
  1

  9
$STYLESHEET
  1

  9
$XEDIT
290
     1
  9
$CEPSNTYPE
380
     0
  9
$PSTYLEMODE
290
     1
  9
$FINGERPRINTGUID
  2
{8A2FD58B-C2FB-4C1A-B17C-EAA915700872}
  9
$VERSIONGUID
  2
{FAEB1C32-E019-11D5-929B-00C0DF256EC4}
  9
$EXTNAMES
290
     1
  9
$PSVPSCALE
 40
0.0
  9
$OLESTARTUP
290
     0
  9
$SORTENTS
280
   127
  9
$INDEXCTL
280
     0
  9
$HIDETEXT
280
     1
  9
$XCLIPFRAME
280
     2
  9
$HALOGAP
280
     0
  9
$OBSCOLOR
 70
   257
  9
$OBSLTYPE
280
     0
  9
$INTERSECTIONDISPLAY
280
     0
  9
$INTERSECTIONCOLOR
 70
   257
  9
$DIMASSOC
280
     2
  9
$PROJECTNAME
  1

  9
$CAMERADISPLAY
290
     0
  9
$LENSLENGTH
 40
50.0
  9
$CAMERAHEIGHT
 40
0.0
  9
$STEPSPERSEC
 40
2.0
  9
$STEPSIZE
 40
6.0
  9
$3DDWFPREC
 40
2.0
  9
$PSOLWIDTH
 40
0.25
  9
$PSOLHEIGHT
 40
4.0
  9
$LOFTANG1
 40
1.570796326794897
  9
$LOFTANG2
 40
1.570796326794897
  9
$LOFTMAG1
 40
0.0
  9
$LOFTMAG2
 40
0.0
  9
$LOFTPARAM
 70
     7
  9
$LOFTNORMALS
280
     1
  9
$LATITUDE
 40
37.795
  9
$LONGITUDE
 40
-122.394
  9
$NORTHDIRECTION
 40
0.0
  9
$TIMEZONE
 70
 -8000
  9
$LIGHTGLYPHDISPLAY
280
     1
  9
$TILEMODELIGHTSYNCH
280
     1
  9
$SOLIDHIST
280
     1
  9
$SHOWHIST
280
     1
  9
$DWFFRAME
280
     2
  9
$DGNFRAME
280
     2
  9
$REALWORLDSCALE
290
     1
  9
$INTERFERECOLOR
 62
   256
  9
$CSHADOW
280
     0
  9
$SHADOWPLANELOCATION
 40
0.0
  0
ENDSEC
  0
SECTION
  2
CLASSES
  0
CLASS
  1
SCALE
  2
AcDbScale
  3
ObjectDBX Classes
 90
     1153
 91
        3
280
     0
281
     0
  0
CLASS
  1
MATERIAL
  2
AcDbMaterial
  3
ObjectDBX Classes
 90
     1153
 91
        3
280
     0
281
     0
  0
CLASS
  1
VISUALSTYLE
  2
AcDbVisualStyle
  3
ObjectDBX Classes
 90
     4095
 91
        3
280
     0
281
     0
  0
CLASS
  1
TABLESTYLE
  2
AcDbTableStyle
  3
ObjectDBX Classes
 90
     4095
 91
        3
280
     0
281
     0
  0
CLASS
  1
RASTERVARIABLES
  2
AcDbRasterVariables
  3
ISM
 90
        0
 91
        3
280
     0
281
     0
  0
CLASS
  1
ACDBDICTIONARYWDFLT
  2
AcDbDictionaryWithDefault
  3
ObjectDBX Classes
 90
        0
 91
        3
280
     0
281
     0
  0
CLASS
  1
DICTIONARYVAR
  2
AcDbDictionaryVar
  3
ObjectDBX Classes
 90
        0
 91
        3
280
     0
281
     0
  0
CLASS
  1
MLEADERSTYLE
  2
AcDbMLeaderStyle
  3
ACDB_MLEADERSTYLE_CLASS
 90
     4095
 91
        3
280
     0
281
     0
  0
CLASS
  1
SUN
  2
AcDbSun
  3
SCENEOE
 90
     1153
 91
        3
280
     0
281
     0
  0
CLASS
  1
DIMASSOC
  2
AcDbDimAssoc
  3
"AcDbDimAssoc|Product Desc:     AcDim ARX App For Dimension|Company:          Autodesk, Inc.|WEB Address:      www.autodesk.com"
 90
        0
 91
        3
280
     0
281
     0
  0
CLASS
  1
SORTENTSTABLE
  2
AcDbSortentsTable
  3
ObjectDBX Classes
 90
        0
 91
        3
280
     0
281
     0
  0
CLASS
  1
FIELD
  2
AcDbField
  3
ObjectDBX Classes
 90
     1152
 91
        3
280
     0
281
     0
  0
CLASS
  1
FIELDLIST
  2
AcDbFieldList
  3
ObjectDBX Classes
 90
     1152
 91
        3
280
     0
281
     0
  0
CLASS
  1
CELLSTYLEMAP
  2
AcDbCellStyleMap
  3
ObjectDBX Classes
 90
     1152
 91
        3
280
     0
281
     0
  0
ENDSEC
  0
SECTION
  2
TABLES
  0
TABLE
  2
VPORT
  5
8
330
0
100
AcDbSymbolTable
 70
     1
  0
VPORT
  5
CA6
330
8
100
AcDbSymbolTableRecord
100
AcDbViewportTableRecord
  2
*ACTIVE
 70
     0
 10
0.0
 20
0.0
 11
1.0
 21
1.0
 12
117188.5278145271
 22
-10096.34639900849
 13
0.0
 23
0.0
 14
1.0
 24
1.0
 15
0.0
 25
0.0
 16
0.0
 26
0.0
 36
1.0
 17
0.0
 27
0.0
 37
0.0
 40
11521.73645509501
 41
2.03629417382999
 42
50.0
 43
0.0
 44
0.0
 50
0.0
 51
0.0
 71
    16
 72
   100
 73
     1
 74
     1
 75
     0
 76
     0
 77
     0
 78
     0
281
     0
 65
     1
110
0.0
120
0.0
130
0.0
111
1.0
121
0.0
131
0.0
112
0.0
122
1.0
132
0.0
 79
     0
146
0.0
348
84A5
 60
     3
 61
     5
292
     1
282
     1
141
0.0
142
0.0
 63
   256
361
DE5
  0
ENDTAB
  0
TABLE
  2
LTYPE
  5
5
330
0
100
AcDbSymbolTable
 70
     1
  0
LTYPE
  5
12
330
5
100
AcDbSymbolTableRecord
100
AcDbLinetypeTableRecord
  2
BYBLOCK
 70
     0
  3

 72
    65
 73
     0
 40
0.0
  0
LTYPE
  5
13
330
5
100
AcDbSymbolTableRecord
100
AcDbLinetypeTableRecord
  2
BYLAYER
 70
     0
  3

 72
    65
 73
     0
 40
0.0
  0
LTYPE
  5
14
330
5
100
AcDbSymbolTableRecord
100
AcDbLinetypeTableRecord
  2
CONTINUOUS
 70
     0
  3
Solid line
 72
    65
 73
     0
 40
0.0
  0
ENDTAB
  0
TABLE
  2
LAYER
  5
2
102
{ACAD_XDICTIONARY
360
E30
102
}
330
0
100
AcDbSymbolTable
 70
     2
  0
LAYER
  5
F
330
2
100
AcDbSymbolTableRecord
100
AcDbLayerTableRecord
  2
0
 70
     0
 62
     7
  6
CONTINUOUS
370
    -3
390
CE8
347
CCF
348
0
  0
LAYER
  5
153EC
330
2
100
AcDbSymbolTableRecord
100
AcDbLayerTableRecord
  2
7-RETINI
 70
     0
 62
   253
  6
CONTINUOUS
370
    -3
390
CE8
347
CCF
348
0
1001
AcAecLayerStandard
1000

1000

  0
ENDTAB
  0
TABLE
  2
STYLE
  5
3
330
0
100
AcDbSymbolTable
 70
     2
  0
STYLE
  5
10
330
3
100
AcDbSymbolTableRecord
100
AcDbTextStyleTableRecord
  2
STANDARD
 70
     0
 40
0.0
 41
1.0
 50
0.0
 71
     0
 42
2.5
  3
txt
  4

  0
STYLE
  5
64D
330
3
100
AcDbSymbolTableRecord
100
AcDbTextStyleTableRecord
  2
STILE1
 70
     0
 40
0.0
 41
1.0
 50
0.0
 71
     0
 42
2.5
  3
ROMANS.SHX
  4

  0
ENDTAB
  0
TABLE
  2
VIEW
  5
6
330
0
100
AcDbSymbolTable
 70
     0
  0
ENDTAB
  0
TABLE
  2
UCS
  5
7
330
0
100
AcDbSymbolTable
 70
     0
  0
ENDTAB
  0
TABLE
  2
APPID
  5
9
330
0
100
AcDbSymbolTable
 70
    21
  0
APPID
  5
11
330
9
100
AcDbSymbolTableRecord
100
AcDbRegAppTableRecord
  2
ACAD
 70
     0
  0
APPID
  5
FEF
330
9
100
AcDbSymbolTableRecord
100
AcDbRegAppTableRecord
  2
AcAecLayerStandard
 70
     0
  0
APPID
  5
228E
330
9
100
AcDbSymbolTableRecord
100
AcDbRegAppTableRecord
  2
AcCmTransparency
 70
     0
  0
APPID
  5
2292
330
9
100
AcDbSymbolTableRecord
100
AcDbRegAppTableRecord
  2
PLOTTRANSPARENCY
 70
     0
  0
APPID
  5
70E7
330
9
100
AcDbSymbolTableRecord
100
AcDbRegAppTableRecord
  2
RAK
 70
     0
  0
APPID
  5
70EB
330
9
100
AcDbSymbolTableRecord
100
AcDbRegAppTableRecord
  2
AVE_FINISH
 70
     0
  0
APPID
  5
1107F
330
9
100
AcDbSymbolTableRecord
100
AcDbRegAppTableRecord
  2
ACAD_PSEXT
 70
     0
  0
APPID
  5
11080
330
9
100
AcDbSymbolTableRecord
100
AcDbRegAppTableRecord
  2
ACAD_NAV_VCDISPLAY
 70
     0
  0
APPID
  5
11215
330
9
100
AcDbSymbolTableRecord
100
AcDbRegAppTableRecord
  2
ADE
 70
     0
  0
APPID
  5
13D70
330
9
100
AcDbSymbolTableRecord
100
AcDbRegAppTableRecord
  2
AcLayerTools
 70
     0
  0
APPID
  5
1591D
330
9
100
AcDbSymbolTableRecord
100
AcDbRegAppTableRecord
  2
ACAD_DSTYLE_DIMJAG
 70
     0
  0
APPID
  5
1591E
330
9
100
AcDbSymbolTableRecord
100
AcDbRegAppTableRecord
  2
ACAD_DSTYLE_DIMTALN
 70
     0
  0
APPID
  5
1E562
330
9
100
AcDbSymbolTableRecord
100
AcDbRegAppTableRecord
  2
ACAD_DSTYLE_DIMRADIAL_EXTENSION
 70
     0
  0
APPID
  5
2A42A
330
9
100
AcDbSymbolTableRecord
100
AcDbRegAppTableRecord
  2
ACAD_DIMASSOC_DIMLFAC
 70
     0
  0
APPID
  5
2A42B
330
9
100
AcDbSymbolTableRecord
100
AcDbRegAppTableRecord
  2
ACAD_DIMASSOC_CALC_DIMLFAC
 70
     0
  0
APPID
  5
2A42C
330
9
100
AcDbSymbolTableRecord
100
AcDbRegAppTableRecord
  2
ACAD_DIMASSOC_OVERRIDDEN_DIMLFAC
 70
     0
  0
APPID
  5
47ABD
330
9
100
AcDbSymbolTableRecord
100
AcDbRegAppTableRecord
  2
AcadAnnotative
 70
     0
  0
APPID
  5
47ABE
330
9
100
AcDbSymbolTableRecord
100
AcDbRegAppTableRecord
  2
AcadStringInfo
 70
     0
  0
APPID
  5
88523
330
9
100
AcDbSymbolTableRecord
100
AcDbRegAppTableRecord
  2
HATCHBACKGROUNDCOLOR
 70
     0
  0
APPID
  5
88534
330
9
100
AcDbSymbolTableRecord
100
AcDbRegAppTableRecord
  2
ACAD_DSTYLE_DIMBREAK
 70
     0
  0
APPID
  5
88539
330
9
100
AcDbSymbolTableRecord
100
AcDbRegAppTableRecord
  2
PE_URL
 70
     0
  0
ENDTAB
  0
TABLE
  2
DIMSTYLE
  5
A
330
0
100
AcDbSymbolTable
 70
     1
100
AcDbDimStyleTable
  0
DIMSTYLE
105
FAE
330
A
100
AcDbSymbolTableRecord
100
AcDbDimStyleTableRecord
  2
FANTIN mm
 70
     0
 40
20.0
 41
3.0
 42
1.0
 43
0.0
 44
1.0
 73
     0
 74
     0
 77
     1
 78
     8
140
3.0
141
1.0
147
1.5
172
     1
174
     1
176
   256
177
   256
271
     2
178
   256
271
     2
340
64D
371
    -1
372
    -1
345
13
346
13
347
13
  0
ENDTAB
  0
TABLE
  2
BLOCK_RECORD
  5
1
330
0
100
AcDbSymbolTable
 70
     5
  0
BLOCK_RECORD
  5
18
102
{ACAD_XDICTIONARY
360
882E6
102
}
330
1
100
AcDbSymbolTableRecord
100
AcDbBlockTableRecord
  2
*MODEL_SPACE
340
CA8
 70
     0
280
     1
281
     0
  0
BLOCK_RECORD
  5
A4A3B
330
1
100
AcDbSymbolTableRecord
100
AcDbBlockTableRecord
  2
*Paper_Space
340
A4A3C
 70
     0
280
     1
281
     0
  0
BLOCK_RECORD
  5
915A8
102
{ACAD_XDICTIONARY
360
915C6
102
}
330
1
100
AcDbSymbolTableRecord
100
AcDbBlockTableRecord
  2
A$C31264
340
0
102
{BLKREFS
331
97542
331
975AB
331
97617
102
}
 70
     0
280
     1
281
     0
  0
BLOCK_RECORD
  5
971DE
102
{ACAD_XDICTIONARY
360
971FC
102
}
330
1
100
AcDbSymbolTableRecord
100
AcDbBlockTableRecord
  2
A$C27917
340
0
102
{BLKREFS
331
A4657
331
A465F
331
A4662
331
A4663
331
A466C
331
A466F
331
A4678
331
A467B
331
A4682
331
A4684
331
A4686
331
A4687
331
A4688
331
A468A
331
A468B
331
A468C
331
A46C5
331
A46FF
331
A470B
102
}
 70
     0
280
     1
281
     0
  0
BLOCK_RECORD
  5
9751C
102
{ACAD_XDICTIONARY
360
9753A
102
}
330
1
100
AcDbSymbolTableRecord
100
AcDbBlockTableRecord
  2
A$C10049
340
0
102
{BLKREFS
331
A467F
331
A4700
331
A470C
331
A4715
331
A4716
102
}
 70
     0
280
     1
281
     0
  0
BLOCK_RECORD
  5
9758A
102
{ACAD_XDICTIONARY
360
975A8
102
}
330
1
100
AcDbSymbolTableRecord
100
AcDbBlockTableRecord
  2
A$C1724
340
0
102
{BLKREFS
331
A468D
331
A468E
331
A468F
331
A4690
331
A46C6
102
}
 70
     0
280
     1
281
     0
  0
BLOCK_RECORD
  5
975EB
102
{ACAD_XDICTIONARY
360
97609
102
}
330
1
100
AcDbSymbolTableRecord
100
AcDbBlockTableRecord
  2
A$C443
340
0
102
{BLKREFS
331
A4680
331
A4683
331
A4685
331
A4689
331
A4691
331
A4692
331
A4693
331
A4694
102
}
 70
     0
280
     1
281
     0
  0
ENDTAB
  0
ENDSEC
  0
SECTION
  2
BLOCKS
  0
BLOCK
  5
30
330
18
100
AcDbEntity
  8
0
100
AcDbBlockBegin
  2
*MODEL_SPACE
 70
     0
 10
0.0
 20
0.0
 30
0.0
  3
*MODEL_SPACE
  1

  0
ENDBLK
  5
31
330
18
100
AcDbEntity
  8
0
100
AcDbBlockEnd
  0
BLOCK
  5
A4A3D
330
A4A3B
100
AcDbEntity
 67
     1
  8
0
100
AcDbBlockBegin
  2
*Paper_Space
 70
     0
 10
0.0
 20
0.0
 30
0.0
  3
*Paper_Space
  1

  0
ENDBLK
  5
A4A3E
330
A4A3B
100
AcDbEntity
 67
     1
  8
0
100
AcDbBlockEnd
  0
BLOCK
  5
915CC
330
915A8
100
AcDbEntity
  8
0
100
AcDbBlockBegin
  2
A$C31264
 70
     0
 10
0.0
 20
0.0
 30
0.0
  3
A$C31264
  1

  0
LINE
  5
915C8
330
915A8
100
AcDbEntity
  8
0
100
AcDbLine
 10
6.000015735626221
 20
12.00002431870234
 30
0.0
 11
426.0000026226044
 21
12.00002431869507
 31
0.0
  0
LINE
  5
915C9
330
915A8
100
AcDbEntity
  8
0
100
AcDbLine
 10
426.0000026226044
 20
0.0
 30
0.0
 11
6.000015735626221
 21
0.000000000007276
 31
0.0
  0
ARC
  5
915CA
330
915A8
100
AcDbEntity
  8
0
100
AcDbCircle
 10
426.0
 20
6.00000953675044
 30
0.0
 40
6.0
100
AcDbArc
 50
270.0
 51
90.0
  0
ARC
  5
915CB
330
915A8
100
AcDbEntity
  8
0
100
AcDbCircle
 10
6.0
 20
6.000009536757716
 30
0.0
 40
6.0
100
AcDbArc
 50
90.0
 51
270.0
  0
ENDBLK
  5
915CD
330
915A8
100
AcDbEntity
  8
0
100
AcDbBlockEnd
  0
BLOCK
  5
97208
330
971DE
100
AcDbEntity
  8
0
100
AcDbBlockBegin
  2
A$C27917
 70
     0
 10
0.0
 20
0.0
 30
0.0
  3
A$C27917
  1

  0
POLYLINE
  5
971FE
330
971DE
100
AcDbEntity
  8
0
100
AcDb2dPolyline
 66
     1
 10
0.0
 20
0.0
 30
0.0
 70
     1
  0
VERTEX
  5
971FF
330
971FE
100
AcDbEntity
  8
0
100
AcDbVertex
100
AcDb2dVertex
 10
597.0
 20
0.0
 30
0.0
  0
VERTEX
  5
97200
330
971FE
100
AcDbEntity
  8
0
100
AcDbVertex
100
AcDb2dVertex
 10
597.0
 20
794.0000143052494
 30
0.0
  0
VERTEX
  5
97201
330
971FE
100
AcDbEntity
  8
0
100
AcDbVertex
100
AcDb2dVertex
 10
0.0
 20
794.0000143052494
 30
0.0
  0
VERTEX
  5
97202
330
971FE
100
AcDbEntity
  8
0
100
AcDbVertex
100
AcDb2dVertex
 10
0.0
 20
0.0
 30
0.0
  0
SEQEND
  5
97203
330
971FE
100
AcDbEntity
  8
0
  0
LINE
  5
97204
330
971DE
100
AcDbEntity
  8
0
100
AcDbLine
 10
508.4999934434891
 20
732.4999686480041
 30
0.0
 11
88.50000655651093
 21
732.4999686480114
 31
0.0
  0
LINE
  5
97205
330
971DE
100
AcDbEntity
  8
0
100
AcDbLine
 10
88.50000655651093
 20
744.4999929667065
 30
0.0
 11
508.4999934434891
 21
744.4999929666992
 31
0.0
  0
ARC
  5
97206
330
971DE
100
AcDbEntity
  8
0
100
AcDbCircle
 10
88.5000091791153
 20
738.499983429956
 30
0.0
 40
6.0
100
AcDbArc
 50
90.0
 51
270.0
  0
ARC
  5
97207
330
971DE
100
AcDbEntity
  8
0
100
AcDbCircle
 10
508.5000091791153
 20
738.499983429956
 30
0.0
 40
6.0
100
AcDbArc
 50
270.0
 51
90.0
  0
ENDBLK
  5
97209
330
971DE
100
AcDbEntity
  8
0
100
AcDbBlockEnd
  0
BLOCK
  5
9754C
330
9751C
100
AcDbEntity
  8
0
100
AcDbBlockBegin
  2
A$C10049
 70
     0
 10
0.0
 20
0.0
 30
0.0
  3
A$C10049
  1

  0
POLYLINE
  5
9753C
330
9751C
100
AcDbEntity
  8
0
100
AcDb2dPolyline
 66
     1
 10
0.0
 20
0.0
 30
0.0
 70
     1
  0
VERTEX
  5
9753D
330
9753C
100
AcDbEntity
  8
0
100
AcDbVertex
100
AcDb2dVertex
 10
597.0
 20
-0.000000000007276
 30
0.0
  0
VERTEX
  5
9753E
330
9753C
100
AcDbEntity
  8
0
100
AcDbVertex
100
AcDb2dVertex
 10
597.0000000000291
 20
1393.999992966641
 30
0.0
  0
VERTEX
  5
9753F
330
9753C
100
AcDbEntity
  8
0
100
AcDbVertex
100
AcDb2dVertex
 10
0.0000000000291038
 20
1393.999992966641
 30
0.0
  0
VERTEX
  5
97540
330
9753C
100
AcDbEntity
  8
0
100
AcDbVertex
100
AcDb2dVertex
 10
0.0
 20
-0.000000000007276
 30
0.0
  0
SEQEND
  5
97541
330
9753C
100
AcDbEntity
  8
0
  0
INSERT
  5
97542
330
9751C
100
AcDbEntity
  8
0
100
AcDbBlockReference
  2
A$C31264
 10
82.49999082091381
 20
744.4999929666992
 30
0.0
 41
-1.0
 50
180.0
  0
ENDBLK
  5
9754D
330
9751C
100
AcDbEntity
  8
0
100
AcDbBlockEnd
  0
BLOCK
  5
975B5
330
9758A
100
AcDbEntity
  8
0
100
AcDbBlockBegin
  2
A$C1724
 70
     0
 10
0.0
 20
0.0
 30
0.0
  3
A$C1724
  1

  0
LWPOLYLINE
  5
975AA
330
9758A
100
AcDbEntity
  8
0
100
AcDbPolyline
 90
        4
 70
     1
 43
0.0
 10
597.0
 20
0.0
 10
597.0
 20
1196.999992966652
 10
0.0
 20
1196.999992966652
 10
0.0
 20
0.0
  0
INSERT
  5
975AB
330
9758A
100
AcDbEntity
  8
0
100
AcDbBlockReference
  2
A$C31264
 10
82.4999908208847
 20
51.49998855589365
 30
0.0
  0
ENDBLK
  5
975B6
330
9758A
100
AcDbEntity
  8
0
100
AcDbBlockEnd
  0
BLOCK
  5
97621
330
975EB
100
AcDbEntity
  8
0
100
AcDbBlockBegin
  2
A$C443
 70
     0
 10
0.0
 20
0.0
 30
0.0
  3
A$C443
  1

  0
POLYLINE
  5
9760B
330
975EB
100
AcDbEntity
  8
0
100
AcDb2dPolyline
 66
     1
 10
0.0
 20
0.0
 30
0.0
 70
     1
  0
VERTEX
  5
9760C
330
9760B
100
AcDbEntity
  8
0
100
AcDbVertex
100
AcDb2dVertex
 10
597.0
 20
-0.000000000003638
 30
0.0
  0
VERTEX
  5
9760D
330
9760B
100
AcDbEntity
  8
0
100
AcDbVertex
100
AcDb2dVertex
 10
597.0000000000291
 20
596.999992966641
 30
0.0
  0
VERTEX
  5
9760E
330
9760B
100
AcDbEntity
  8
0
100
AcDbVertex
100
AcDb2dVertex
 10
0.0000000000291038
 20
596.999992966641
 30
0.0
  0
VERTEX
  5
9760F
330
9760B
100
AcDbEntity
  8
0
100
AcDbVertex
100
AcDb2dVertex
 10
0.0
 20
-0.000000000003638
 30
0.0
  0
SEQEND
  5
97610
330
9760B
100
AcDbEntity
  8
0
  0
POLYLINE
  5
97611
330
975EB
100
AcDbEntity
  8
0
100
AcDb2dPolyline
 66
     1
 10
0.0
 20
0.0
 30
0.0
 70
     1
  0
VERTEX
  5
97612
330
97611
100
AcDbEntity
  8
0
100
AcDbVertex
100
AcDb2dVertex
 10
597.0
 20
596.999992966641
 30
0.0
  0
VERTEX
  5
97613
330
97611
100
AcDbEntity
  8
0
100
AcDbVertex
100
AcDb2dVertex
 10
597.0000000000291
 20
-0.000000000003638
 30
0.0
  0
VERTEX
  5
97614
330
97611
100
AcDbEntity
  8
0
100
AcDbVertex
100
AcDb2dVertex
 10
0.0000000000291038
 20
-0.000000000003638
 30
0.0
  0
VERTEX
  5
97615
330
97611
100
AcDbEntity
  8
0
100
AcDbVertex
100
AcDb2dVertex
 10
0.0
 20
596.999992966641
 30
0.0
  0
SEQEND
  5
97616
330
97611
100
AcDbEntity
  8
0
  0
INSERT
  5
97617
330
975EB
100
AcDbEntity
  8
0
100
AcDbBlockReference
  2
A$C31264
 10
82.49999082091381
 20
49.49999999999272
 30
0.0
  0
ENDBLK
  5
97622
330
975EB
100
AcDbEntity
  8
0
100
AcDbBlockEnd
  0
ENDSEC
  0
SECTION
  2
ENTITIES
  0
LWPOLYLINE
  5
A4605
330
18
100
AcDbEntity
  8
0
100
AcDbPolyline
 90
        4
 70
     1
 43
0.0
 10
121901.8059521725
 20
-7136.511731770637
 10
121901.8059521725
 20
-5736.511731770614
 10
122500.8059521725
 20
-5736.511731770614
 10
122500.8059521725
 20
-7136.511731770637
  0
LWPOLYLINE
  5
A4606
330
18
100
AcDbEntity
  8
0
100
AcDbPolyline
 90
        8
 70
     1
 43
0.0
 10
122535.8059521725
 20
-5701.511731770614
 10
122535.8059521725
 20
-7388.511731770637
 10
122500.8059521725
 20
-7388.511731770637
 10
122500.8059521725
 20
-7171.511731770637
 10
121901.8059521725
 20
-7171.511731770637
 10
121901.8059521725
 20
-7388.511731770637
 10
121866.8059521725
 20
-7388.511731770637
 10
121866.8059521725
 20
-5701.511731770614
  0
LWPOLYLINE
  5
A4608
330
18
100
AcDbEntity
  8
0
100
AcDbPolyline
 90
        4
 70
     1
 43
0.0
 10
121901.8059521725
 20
-10157.15337043365
 10
121901.8059521725
 20
-8757.153370433634
 10
122500.8059521725
 20
-8757.153370433634
 10
122500.8059521725
 20
-10157.15337043365
  0
LWPOLYLINE
  5
A4609
330
18
100
AcDbEntity
  8
0
100
AcDbPolyline
 90
        8
 70
     1
 43
0.0
 10
122535.8059521725
 20
-8722.153370433634
 10
122535.8059521725
 20
-10409.15337043365
 10
122500.8059521725
 20
-10409.15337043365
 10
122500.8059521725
 20
-10192.15337043365
 10
121901.8059521725
 20
-10192.15337043365
 10
121901.8059521725
 20
-10409.15337043365
 10
121866.8059521725
 20
-10409.15337043365
 10
121866.8059521725
 20
-8722.153370433634
  0
LWPOLYLINE
  5
A460A
330
18
100
AcDbEntity
  8
0
100
AcDbPolyline
 90
        4
 70
     1
 43
0.0
 10
122535.8059521725
 20
-12314.29501350732
 10
122535.8059521725
 20
-12326.29501350732
 10
122569.7059521725
 20
-12326.29501350732
 10
122569.7059521725
 20
-12314.29501350732
  0
LWPOLYLINE
  5
A460B
330
18
100
AcDbEntity
  8
0
100
AcDbPolyline
 90
        4
 70
     1
 43
0.0
 10
121901.8059521725
 20
-13177.79500909667
 10
121901.8059521725
 20
-11177.79500909663
 10
122500.8059521725
 20
-11177.79500909663
 10
122500.8059521725
 20
-13177.79500909667
  0
LWPOLYLINE
  5
A460C
330
18
100
AcDbEntity
  8
0
100
AcDbPolyline
 90
        8
 70
     1
 43
0.0
 10
122535.8059521725
 20
-11142.79500909663
 10
122535.8059521725
 20
-13429.79500909667
 10
122500.8059521725
 20
-13429.79500909667
 10
122500.8059521725
 20
-13212.79500909667
 10
121901.8059521725
 20
-13212.79500909667
 10
121901.8059521725
 20
-13429.79500909667
 10
121866.8059521725
 20
-13429.79500909667
 10
121866.8059521725
 20
-11142.79500909663
  0
LINE
  5
A460D
330
18
100
AcDbEntity
  8
0
100
AcDbLine
 10
111667.1461037777
 20
-13429.79500909667
 30
0.0
 11
111702.1461037777
 21
-13429.79500909667
 31
0.0
  0
LINE
  5
A4617
330
18
100
AcDbEntity
  8
0
100
AcDbLine
 10
119837.1461037777
 20
-5701.511731770614
 30
0.0
 11
119163.1461037777
 21
-5701.511731770614
 31
0.0
  0
LWPOLYLINE
  5
A4618
330
18
100
AcDbEntity
  8
0
100
AcDbPolyline
 90
        8
 70
     0
 43
0.0
 10
119163.1461037777
 20
-5701.511731770614
 10
119163.1461037777
 20
-7388.511731770614
 10
119198.1461037777
 20
-7388.511731770614
 10
119198.1461037777
 20
-7171.51173904238
 10
119802.1461037777
 20
-7171.51173904238
 10
119802.1461037777
 20
-7388.511731770614
 10
119837.1461037777
 20
-7388.511731770614
 10
119837.1461037777
 20
-5701.511731770614
  0
LWPOLYLINE
  5
A4619
330
18
100
AcDbEntity
  8
0
  6
Continuous
 62
     7
370
    25
100
AcDbPolyline
 90
        4
 70
     1
 43
0.0
 10
119802.1461037777
 20
-5736.511731770614
 10
119198.1461037777
 20
-5736.511731770614
 10
119198.1461037777
 20
-7136.51173904238
 10
119802.1461037777
 20
-7136.51173904238
  0
LINE
  5
A461A
330
18
100
AcDbEntity
  8
0
100
AcDbLine
 10
119198.1461037777
 20
-5736.511731770614
 30
0.0
 11
119198.1461037777
 21
-5701.511731770614
 31
0.0
  0
LINE
  5
A461B
330
18
100
AcDbEntity
  8
0
100
AcDbLine
 10
119802.1461037777
 20
-5736.511731770614
 30
0.0
 11
119802.1461037777
 21
-5701.511731770614
 31
0.0
  0
LINE
  5
A461C
330
18
100
AcDbEntity
  8
0
100
AcDbLine
 10
119198.1461037777
 20
-7136.51173904238
 30
0.0
 11
119198.1461037777
 21
-7171.51173904238
 31
0.0
  0
LINE
  5
A461D
330
18
100
AcDbEntity
  8
0
100
AcDbLine
 10
119802.1461037777
 20
-7136.51173904238
 30
0.0
 11
119802.1461037777
 21
-7171.51173904238
 31
0.0
  0
LINE
  5
A461F
330
18
100
AcDbEntity
  8
0
100
AcDbLine
 10
112941.1461037777
 20
-8722.153370433647
 30
0.0
 11
111667.1461037777
 21
-8722.153370433654
 31
0.0
  0
LWPOLYLINE
  5
A4620
330
18
100
AcDbEntity
  8
0
100
AcDbPolyline
 90
        8
 70
     0
 43
0.0
 10
111667.1461037777
 20
-8722.153370433654
 10
111667.1461037777
 20
-10409.15337043365
 10
111702.1461037777
 20
-10409.15337043365
 10
111702.1461037777
 20
-10192.15337770542
 10
112906.1461037777
 20
-10192.15337770541
 10
112906.1461037777
 20
-10409.15337043365
 10
112941.1461037777
 20
-10409.15337043365
 10
112941.1461037777
 20
-8722.153370433647
  0
LWPOLYLINE
  5
A4621
330
18
100
AcDbEntity
  8
0
  6
Continuous
 62
     7
370
    25
100
AcDbPolyline
 90
        4
 70
     1
 43
0.0
 10
112906.1461037777
 20
-8757.153370433647
 10
111702.1461037777
 20
-8757.153370433654
 10
111702.1461037777
 20
-10157.15337770542
 10
112906.1461037777
 20
-10157.15337770541
  0
LINE
  5
A4622
330
18
100
AcDbEntity
  8
0
100
AcDbLine
 10
111702.1461037777
 20
-8757.153370433654
 30
0.0
 11
111702.1461037777
 21
-8722.153370433654
 31
0.0
  0
LINE
  5
A4623
330
18
100
AcDbEntity
  8
0
100
AcDbLine
 10
112906.1461037777
 20
-8757.153370433647
 30
0.0
 11
112906.1461037777
 21
-8722.153370433647
 31
0.0
  0
LINE
  5
A4624
330
18
100
AcDbEntity
  8
0
100
AcDbLine
 10
111702.1461037777
 20
-10157.15337770542
 30
0.0
 11
111702.1461037777
 21
-10192.15337770542
 31
0.0
  0
LINE
  5
A4625
330
18
100
AcDbEntity
  8
0
100
AcDbLine
 10
112906.1461037777
 20
-10157.15337770541
 30
0.0
 11
112906.1461037777
 21
-10192.15337770541
 31
0.0
  0
LINE
  5
A462D
330
18
100
AcDbEntity
  8
0
100
AcDbLine
 10
114815.1461037777
 20
-8722.153370433643
 30
0.0
 11
113541.1461037777
 21
-8722.15337043365
 31
0.0
  0
LWPOLYLINE
  5
A462E
330
18
100
AcDbEntity
  8
0
100
AcDbPolyline
 90
        8
 70
     0
 43
0.0
 10
113541.1461037777
 20
-8722.15337043365
 10
113541.1461037777
 20
-10409.15337043365
 10
113576.1461037777
 20
-10409.15337043365
 10
113576.1461037777
 20
-10192.15337770542
 10
114780.1461037777
 20
-10192.15337770541
 10
114780.1461037777
 20
-10409.15337043364
 10
114815.1461037777
 20
-10409.15337043364
 10
114815.1461037777
 20
-8722.153370433643
  0
LWPOLYLINE
  5
A462F
330
18
100
AcDbEntity
  8
0
  6
Continuous
 62
     7
370
    25
100
AcDbPolyline
 90
        4
 70
     1
 43
0.0
 10
114780.1461037777
 20
-8757.153370433643
 10
113576.1461037777
 20
-8757.15337043365
 10
113576.1461037777
 20
-10157.15337770542
 10
114780.1461037777
 20
-10157.15337770541
  0
LINE
  5
A4630
330
18
100
AcDbEntity
  8
0
100
AcDbLine
 10
113576.1461037777
 20
-8757.15337043365
 30
0.0
 11
113576.1461037777
 21
-8722.15337043365
 31
0.0
  0
LINE
  5
A4631
330
18
100
AcDbEntity
  8
0
100
AcDbLine
 10
114780.1461037777
 20
-8757.153370433643
 30
0.0
 11
114780.1461037777
 21
-8722.153370433643
 31
0.0
  0
LINE
  5
A4632
330
18
100
AcDbEntity
  8
0
100
AcDbLine
 10
113576.1461037777
 20
-10157.15337770542
 30
0.0
 11
113576.1461037777
 21
-10192.15337770542
 31
0.0
  0
LINE
  5
A4633
330
18
100
AcDbEntity
  8
0
100
AcDbLine
 10
114780.1461037777
 20
-10157.15337770541
 30
0.0
 11
114780.1461037777
 21
-10192.15337770541
 31
0.0
  0
HATCH
  5
A4634
330
18
100
AcDbEntity
  8
7-RETINI
100
AcDbHatch
 10
0.0
 20
0.0
 30
0.0
210
0.0
220
0.0
230
1.0
  2
DOTS
 70
     0
 71
     0
 91
        1
 92
        1
 93
        4
 72
     1
 10
114188.6461037777
 20
-9360.153363400234
 11
114188.6461037777
 21
-8757.153370433709
 72
     1
 10
114188.6461037777
 20
-8757.153370433709
 11
114780.1461037777
 21
-8757.153370433643
 72
     1
 10
114780.1461037777
 20
-8757.153370433643
 11
114780.1461037777
 21
-9360.153363400168
 72
     1
 10
114780.1461037777
 20
-9360.153363400168
 11
114188.6461037777
 21
-9360.153363400234
 97
        0
 75
     0
 76
     1
 52
0.0
 41
400.0
 77
     0
 78
     1
 53
0.0
 43
-1637.304604708435
 44
-27728.68701022558
 45
12.5
 46
25.0
 79
     2
 49
0.0
 49
-25.0
 98
        1
 10
-1637.304604708435
 20
-27728.68701022558
1001
ACAD
1010
0.0
1020
0.0
1030
0.0
1001
HATCHBACKGROUNDCOLOR
1071
-939524096
1000

1000

1001
PE_URL
1000

  0
LWPOLYLINE
  5
A4635
330
18
100
AcDbEntity
  8
0
100
AcDbPolyline
 90
        4
 70
     1
 43
0.0
 10
114188.6461037777
 20
-9360.153363400234
 10
114188.6461037777
 20
-8757.153370433709
 10
114780.1461037777
 20
-8757.153370433643
 10
114780.1461037777
 20
-9360.153363400168
  0
LINE
  5
A4639
330
18
100
AcDbEntity
  8
0
100
AcDbLine
 10
115415.1461037777
 20
-8722.153370433636
 30
0.0
 11
116689.1461037777
 21
-8722.153370433643
 31
0.0
  0
LWPOLYLINE
  5
A463A
330
18
100
AcDbEntity
  8
0
100
AcDbPolyline
 90
        8
 70
     0
 43
0.0
 10
116689.1461037777
 20
-8722.153370433643
 10
116689.1461037777
 20
-10409.15337043364
 10
116654.1461037777
 20
-10409.15337043364
 10
116654.1461037777
 20
-10192.15337770541
 10
115450.1461037777
 20
-10192.1533777054
 10
115450.1461037777
 20
-10409.15337043364
 10
115415.1461037777
 20
-10409.15337043364
 10
115415.1461037777
 20
-8722.153370433636
  0
LWPOLYLINE
  5
A463B
330
18
100
AcDbEntity
  8
0
  6
Continuous
 62
     7
370
    25
100
AcDbPolyline
 90
        4
 70
     1
 43
0.0
 10
115450.1461037777
 20
-8757.153370433636
 10
116654.1461037777
 20
-8757.153370433643
 10
116654.1461037777
 20
-10157.15337770541
 10
115450.1461037777
 20
-10157.1533777054
  0
LINE
  5
A463C
330
18
100
AcDbEntity
  8
0
100
AcDbLine
 10
116654.1461037777
 20
-8757.153370433643
 30
0.0
 11
116654.1461037777
 21
-8722.153370433643
 31
0.0
  0
LINE
  5
A463D
330
18
100
AcDbEntity
  8
0
100
AcDbLine
 10
115450.1461037777
 20
-8757.153370433636
 30
0.0
 11
115450.1461037777
 21
-8722.153370433636
 31
0.0
  0
LINE
  5
A463E
330
18
100
AcDbEntity
  8
0
100
AcDbLine
 10
116654.1461037777
 20
-10157.15337770541
 30
0.0
 11
116654.1461037777
 21
-10192.15337770541
 31
0.0
  0
LINE
  5
A463F
330
18
100
AcDbEntity
  8
0
100
AcDbLine
 10
115450.1461037777
 20
-10157.1533777054
 30
0.0
 11
115450.1461037777
 21
-10192.1533777054
 31
0.0
  0
HATCH
  5
A4640
330
18
100
AcDbEntity
  8
7-RETINI
100
AcDbHatch
 10
0.0
 20
0.0
 30
0.0
210
0.0
220
0.0
230
1.0
  2
DOTS
 70
     0
 71
     0
 91
        1
 92
        1
 93
        4
 72
     1
 10
116041.6461037777
 20
-9360.153363400226
 11
116041.6461037777
 21
-8757.153370433702
 72
     1
 10
116041.6461037777
 20
-8757.153370433702
 11
115450.1461037777
 21
-8757.153370433636
 72
     1
 10
115450.1461037777
 20
-8757.153370433636
 11
115450.1461037777
 21
-9360.15336340016
 72
     1
 10
115450.1461037777
 20
-9360.15336340016
 11
116041.6461037777
 21
-9360.153363400226
 97
        0
 75
     0
 76
     1
 52
0.0
 41
400.0
 77
     0
 78
     1
 53
0.0
 43
-1237.304604708435
 44
-27728.68701022558
 45
12.5
 46
25.0
 79
     2
 49
0.0
 49
-25.0
 98
        1
 10
-1237.304604708435
 20
-27728.68701022558
1001
ACAD
1010
0.0
1020
0.0
1030
0.0
1001
HATCHBACKGROUNDCOLOR
1071
-939524096
1000

1000

1001
PE_URL
1000

  0
LWPOLYLINE
  5
A4641
330
18
100
AcDbEntity
  8
0
100
AcDbPolyline
 90
        4
 70
     1
 43
0.0
 10
116041.6461037777
 20
-9360.153363400226
 10
116041.6461037777
 20
-8757.153370433702
 10
115450.1461037777
 20
-8757.153370433636
 10
115450.1461037777
 20
-9360.15336340016
  0
LINE
  5
A4643
330
18
100
AcDbEntity
  8
0
100
AcDbLine
 10
117289.1461037777
 20
-8722.153370433629
 30
0.0
 11
118563.1461037777
 21
-8722.153370433636
 31
0.0
  0
LWPOLYLINE
  5
A4644
330
18
100
AcDbEntity
  8
0
100
AcDbPolyline
 90
        8
 70
     0
 43
0.0
 10
118563.1461037777
 20
-8722.153370433636
 10
118563.1461037777
 20
-10409.15337043364
 10
118528.1461037777
 20
-10409.15337043364
 10
118528.1461037777
 20
-10192.1533777054
 10
117324.1461037777
 20
-10192.1533777054
 10
117324.1461037777
 20
-10409.15337043363
 10
117289.1461037777
 20
-10409.15337043363
 10
117289.1461037777
 20
-8722.153370433629
  0
LWPOLYLINE
  5
A4645
330
18
100
AcDbEntity
  8
0
  6
Continuous
 62
     7
370
    25
100
AcDbPolyline
 90
        4
 70
     1
 43
0.0
 10
117324.1461037777
 20
-8757.153370433629
 10
118528.1461037777
 20
-8757.153370433636
 10
118528.1461037777
 20
-10157.1533777054
 10
117324.1461037777
 20
-10157.1533777054
  0
LINE
  5
A4646
330
18
100
AcDbEntity
  8
0
100
AcDbLine
 10
118528.1461037777
 20
-8757.153370433636
 30
0.0
 11
118528.1461037777
 21
-8722.153370433636
 31
0.0
  0
LINE
  5
A4647
330
18
100
AcDbEntity
  8
0
100
AcDbLine
 10
117324.1461037777
 20
-8757.153370433629
 30
0.0
 11
117324.1461037777
 21
-8722.153370433629
 31
0.0
  0
LINE
  5
A4648
330
18
100
AcDbEntity
  8
0
100
AcDbLine
 10
118528.1461037777
 20
-10157.1533777054
 30
0.0
 11
118528.1461037777
 21
-10192.1533777054
 31
0.0
  0
LINE
  5
A4649
330
18
100
AcDbEntity
  8
0
100
AcDbLine
 10
117324.1461037777
 20
-10157.1533777054
 30
0.0
 11
117324.1461037777
 21
-10192.1533777054
 31
0.0
  0
HATCH
  5
A464A
330
18
100
AcDbEntity
  8
7-RETINI
100
AcDbHatch
 10
0.0
 20
0.0
 30
0.0
210
0.0
220
0.0
230
1.0
  2
DOTS
 70
     0
 71
     0
 91
        1
 92
        1
 93
        4
 72
     1
 10
117915.6461037777
 20
-9360.153363400219
 11
117915.6461037777
 21
-8757.153370433694
 72
     1
 10
117915.6461037777
 20
-8757.153370433694
 11
117324.1461037777
 21
-8757.153370433629
 72
     1
 10
117324.1461037777
 20
-8757.153370433629
 11
117324.1461037777
 21
-9360.153363400153
 72
     1
 10
117324.1461037777
 20
-9360.153363400153
 11
117915.6461037777
 21
-9360.153363400219
 97
        0
 75
     0
 76
     1
 52
0.0
 41
400.0
 77
     0
 78
     1
 53
0.0
 43
636.6953952915646
 44
-27728.68701022557
 45
12.5
 46
25.0
 79
     2
 49
0.0
 49
-25.0
 98
        1
 10
636.6953952915646
 20
-27728.68701022557
1001
ACAD
1010
0.0
1020
0.0
1030
0.0
1001
HATCHBACKGROUNDCOLOR
1071
-939524096
1000

1000

1001
PE_URL
1000

  0
LWPOLYLINE
  5
A464B
330
18
100
AcDbEntity
  8
0
100
AcDbPolyline
 90
        4
 70
     1
 43
0.0
 10
117915.6461037777
 20
-9360.153363400219
 10
117915.6461037777
 20
-8757.153370433694
 10
117324.1461037777
 20
-8757.153370433629
 10
117324.1461037777
 20
-9360.153363400153
  0
HATCH
  5
A464D
330
18
100
AcDbEntity
  8
7-RETINI
100
AcDbHatch
 10
0.0
 20
0.0
 30
0.0
210
0.0
220
0.0
230
1.0
  2
DOTS
 70
     0
 71
     0
 91
        1
 92
        1
 93
        4
 72
     1
 10
117936.6461037777
 20
-9360.153363400219
 11
117936.6461037777
 21
-8757.153370433694
 72
     1
 10
117936.6461037777
 20
-8757.153370433694
 11
118528.1461037777
 21
-8757.153370433629
 72
     1
 10
118528.1461037777
 20
-8757.153370433629
 11
118528.1461037777
 21
-9360.153363400153
 72
     1
 10
118528.1461037777
 20
-9360.153363400153
 11
117936.6461037777
 21
-9360.153363400219
 97
        0
 75
     0
 76
     1
 52
0.0
 41
400.0
 77
     0
 78
     1
 53
0.0
 43
-837.3046047084349
 44
-27728.68701022558
 45
12.5
 46
25.0
 79
     2
 49
0.0
 49
-25.0
 98
        1
 10
235215.5968122639
 20
-27728.68701022557
1001
ACAD
1010
0.0
1020
0.0
1030
0.0
1001
HATCHBACKGROUNDCOLOR
1071
-939524096
1000

1000

1001
PE_URL
1000

  0
LWPOLYLINE
  5
A464E
330
18
100
AcDbEntity
  8
0
100
AcDbPolyline
 90
        4
 70
     1
 43
0.0
 10
117936.6461037777
 20
-9360.153363400219
 10
117936.6461037777
 20
-8757.153370433694
 10
118528.1461037777
 20
-8757.153370433629
 10
118528.1461037777
 20
-9360.153363400153
  0
LINE
  5
A4650
330
18
100
AcDbEntity
  8
0
100
AcDbLine
 10
112941.1461037777
 20
-11142.79500909666
 30
0.0
 11
111667.1461037777
 21
-11142.79500909667
 31
0.0
  0
LWPOLYLINE
  5
A4651
330
18
100
AcDbEntity
  8
0
100
AcDbPolyline
 90
        8
 70
     0
 43
0.0
 10
111667.1461037777
 20
-11142.79500909667
 10
111667.1461037777
 20
-13429.79500909667
 10
111702.1461037777
 20
-13429.79500909667
 10
111702.1461037777
 20
-13212.79501636844
 10
112906.1461037777
 20
-13212.79501636843
 10
112906.1461037777
 20
-13429.79500909666
 10
112941.1461037777
 20
-13429.79500909666
 10
112941.1461037777
 20
-11142.79500909666
  0
LWPOLYLINE
  5
A4652
330
18
100
AcDbEntity
  8
0
  6
Continuous
 62
     7
370
    25
100
AcDbPolyline
 90
        4
 70
     1
 43
0.0
 10
112906.1461037777
 20
-11177.79500909666
 10
111702.1461037777
 20
-11177.79500909667
 10
111702.1461037777
 20
-13177.79501636844
 10
112906.1461037777
 20
-13177.79501636843
  0
LINE
  5
A4653
330
18
100
AcDbEntity
  8
0
100
AcDbLine
 10
111702.1461037777
 20
-11177.79500909667
 30
0.0
 11
111702.1461037777
 21
-11142.79500909667
 31
0.0
  0
LINE
  5
A4654
330
18
100
AcDbEntity
  8
0
100
AcDbLine
 10
112906.1461037777
 20
-11177.79500909666
 30
0.0
 11
112906.1461037777
 21
-11142.79500909666
 31
0.0
  0
LINE
  5
A4655
330
18
100
AcDbEntity
  8
0
100
AcDbLine
 10
111702.1461037777
 20
-13177.79501636844
 30
0.0
 11
111702.1461037777
 21
-13212.79501636844
 31
0.0
  0
LINE
  5
A4656
330
18
100
AcDbEntity
  8
0
100
AcDbLine
 10
112906.1461037777
 20
-13177.79501636843
 30
0.0
 11
112906.1461037777
 21
-13212.79501636843
 31
0.0
  0
INSERT
  5
A4657
330
18
100
AcDbEntity
  8
0
100
AcDbBlockReference
  2
A$C27917
 10
112305.6461037777
 20
-13174.79501636844
 30
0.0
  0
LINE
  5
A4658
330
18
100
AcDbEntity
  8
0
100
AcDbLine
 10
114815.1461037777
 20
-11142.79500909666
 30
0.0
 11
113541.1461037777
 21
-11142.79500909667
 31
0.0
  0
LWPOLYLINE
  5
A4659
330
18
100
AcDbEntity
  8
0
100
AcDbPolyline
 90
        8
 70
     0
 43
0.0
 10
113541.1461037777
 20
-11142.79500909667
 10
113541.1461037777
 20
-13429.79500909667
 10
113576.1461037777
 20
-13429.79500909667
 10
113576.1461037777
 20
-13212.79501636843
 10
114780.1461037777
 20
-13212.79501636843
 10
114780.1461037777
 20
-13429.79500909666
 10
114815.1461037777
 20
-13429.79500909666
 10
114815.1461037777
 20
-11142.79500909666
  0
LWPOLYLINE
  5
A465A
330
18
100
AcDbEntity
  8
0
  6
Continuous
 62
     7
370
    25
100
AcDbPolyline
 90
        4
 70
     1
 43
0.0
 10
114780.1461037777
 20
-11177.79500909666
 10
113576.1461037777
 20
-11177.79500909667
 10
113576.1461037777
 20
-13177.79501636843
 10
114780.1461037777
 20
-13177.79501636843
  0
LINE
  5
A465B
330
18
100
AcDbEntity
  8
0
100
AcDbLine
 10
113576.1461037777
 20
-11177.79500909667
 30
0.0
 11
113576.1461037777
 21
-11142.79500909667
 31
0.0
  0
LINE
  5
A465C
330
18
100
AcDbEntity
  8
0
100
AcDbLine
 10
114780.1461037777
 20
-11177.79500909666
 30
0.0
 11
114780.1461037777
 21
-11142.79500909666
 31
0.0
  0
LINE
  5
A465D
330
18
100
AcDbEntity
  8
0
100
AcDbLine
 10
113576.1461037777
 20
-13177.79501636843
 30
0.0
 11
113576.1461037777
 21
-13212.79501636843
 31
0.0
  0
LINE
  5
A465E
330
18
100
AcDbEntity
  8
0
100
AcDbLine
 10
114780.1461037777
 20
-13177.79501636843
 30
0.0
 11
114780.1461037777
 21
-13212.79501636843
 31
0.0
  0
INSERT
  5
A465F
330
18
100
AcDbEntity
  8
0
100
AcDbBlockReference
  2
A$C27917
 10
114179.6461037777
 20
-13174.79501636843
 30
0.0
  0
HATCH
  5
A4660
330
18
100
AcDbEntity
  8
7-RETINI
100
AcDbHatch
 10
0.0
 20
0.0
 30
0.0
210
0.0
220
0.0
230
1.0
  2
DOTS
 70
     0
 71
     0
 91
        1
 92
        1
 93
        4
 72
     1
 10
114188.6461037777
 20
-12380.79500206325
 11
114188.6461037777
 21
-11777.79500909672
 72
     1
 10
114188.6461037777
 20
-11777.79500909672
 11
114780.1461037777
 21
-11777.79500909666
 72
     1
 10
114780.1461037777
 20
-11777.79500909666
 11
114780.1461037777
 21
-12380.79500206318
 72
     1
 10
114780.1461037777
 20
-12380.79500206318
 11
114188.6461037777
 21
-12380.79500206325
 97
        0
 75
     0
 76
     1
 52
0.0
 41
400.0
 77
     0
 78
     1
 53
0.0
 43
-1637.304604708435
 44
-30749.32864888859
 45
12.5
 46
25.0
 79
     2
 49
0.0
 49
-25.0
 98
        1
 10
-1637.304604708435
 20
-30749.32864888859
1001
ACAD
1010
0.0
1020
0.0
1030
0.0
1001
HATCHBACKGROUNDCOLOR
1071
-939524096
1000

1000

1001
PE_URL
1000

  0
LWPOLYLINE
  5
A4661
330
18
100
AcDbEntity
  8
0
100
AcDbPolyline
 90
        4
 70
     1
 43
0.0
 10
114188.6461037777
 20
-12380.79500206325
 10
114188.6461037777
 20
-11777.79500909672
 10
114780.1461037777
 20
-11777.79500909666
 10
114780.1461037777
 20
-12380.79500206318
  0
INSERT
  5
A4662
330
18
100
AcDbEntity
  8
0
100
AcDbBlockReference
  2
A$C27917
 10
114176.6461037777
 20
-13174.79501636843
 30
0.0
 41
-1.0
  0
INSERT
  5
A4663
330
18
100
AcDbEntity
  8
0
100
AcDbBlockReference
  2
A$C27917
 10
112302.6461037777
 20
-13174.79501636844
 30
0.0
 41
-1.0
  0
LINE
  5
A4665
330
18
100
AcDbEntity
  8
0
100
AcDbLine
 10
115415.1461037777
 20
-11142.79500909665
 30
0.0
 11
116689.1461037777
 21
-11142.79500909666
 31
0.0
  0
LWPOLYLINE
  5
A4666
330
18
100
AcDbEntity
  8
0
100
AcDbPolyline
 90
        8
 70
     0
 43
0.0
 10
116689.1461037777
 20
-11142.79500909666
 10
116689.1461037777
 20
-13429.79500909666
 10
116654.1461037777
 20
-13429.79500909666
 10
116654.1461037777
 20
-13212.79501636843
 10
115450.1461037777
 20
-13212.79501636842
 10
115450.1461037777
 20
-13429.79500909665
 10
115415.1461037777
 20
-13429.79500909665
 10
115415.1461037777
 20
-11142.79500909665
  0
LWPOLYLINE
  5
A4667
330
18
100
AcDbEntity
  8
0
  6
Continuous
 62
     7
370
    25
100
AcDbPolyline
 90
        4
 70
     1
 43
0.0
 10
115450.1461037777
 20
-11177.79500909665
 10
116654.1461037777
 20
-11177.79500909666
 10
116654.1461037777
 20
-13177.79501636843
 10
115450.1461037777
 20
-13177.79501636842
  0
LINE
  5
A4668
330
18
100
AcDbEntity
  8
0
100
AcDbLine
 10
116654.1461037777
 20
-11177.79500909666
 30
0.0
 11
116654.1461037777
 21
-11142.79500909666
 31
0.0
  0
LINE
  5
A4669
330
18
100
AcDbEntity
  8
0
100
AcDbLine
 10
115450.1461037777
 20
-11177.79500909665
 30
0.0
 11
115450.1461037777
 21
-11142.79500909665
 31
0.0
  0
LINE
  5
A466A
330
18
100
AcDbEntity
  8
0
100
AcDbLine
 10
116654.1461037777
 20
-13177.79501636843
 30
0.0
 11
116654.1461037777
 21
-13212.79501636843
 31
0.0
  0
LINE
  5
A466B
330
18
100
AcDbEntity
  8
0
100
AcDbLine
 10
115450.1461037777
 20
-13177.79501636842
 30
0.0
 11
115450.1461037777
 21
-13212.79501636842
 31
0.0
  0
INSERT
  5
A466C
330
18
100
AcDbEntity
  8
0
100
AcDbBlockReference
  2
A$C27917
 10
116050.6461037777
 20
-13174.79501636843
 30
0.0
 41
-1.0
  0
HATCH
  5
A466D
330
18
100
AcDbEntity
  8
7-RETINI
100
AcDbHatch
 10
0.0
 20
0.0
 30
0.0
210
0.0
220
0.0
230
1.0
  2
DOTS
 70
     0
 71
     0
 91
        1
 92
        1
 93
        4
 72
     1
 10
116041.6461037777
 20
-12380.79500206324
 11
116041.6461037777
 21
-11777.79500909672
 72
     1
 10
116041.6461037777
 20
-11777.79500909672
 11
115450.1461037777
 21
-11777.79500909665
 72
     1
 10
115450.1461037777
 20
-11777.79500909665
 11
115450.1461037777
 21
-12380.79500206318
 72
     1
 10
115450.1461037777
 20
-12380.79500206318
 11
116041.6461037777
 21
-12380.79500206324
 97
        0
 75
     0
 76
     1
 52
0.0
 41
400.0
 77
     0
 78
     1
 53
0.0
 43
-1237.304604708435
 44
-30749.32864888859
 45
12.5
 46
25.0
 79
     2
 49
0.0
 49
-25.0
 98
        1
 10
-1237.304604708435
 20
-30749.32864888859
1001
ACAD
1010
0.0
1020
0.0
1030
0.0
1001
HATCHBACKGROUNDCOLOR
1071
-939524096
1000

1000

1001
PE_URL
1000

  0
LWPOLYLINE
  5
A466E
330
18
100
AcDbEntity
  8
0
100
AcDbPolyline
 90
        4
 70
     1
 43
0.0
 10
116041.6461037777
 20
-12380.79500206324
 10
116041.6461037777
 20
-11777.79500909672
 10
115450.1461037777
 20
-11777.79500909665
 10
115450.1461037777
 20
-12380.79500206318
  0
INSERT
  5
A466F
330
18
100
AcDbEntity
  8
0
100
AcDbBlockReference
  2
A$C27917
 10
116053.6461037777
 20
-13174.79501636843
 30
0.0
  0
LINE
  5
A4671
330
18
100
AcDbEntity
  8
0
100
AcDbLine
 10
117289.1461037777
 20
-11142.79500909664
 30
0.0
 11
118563.1461037777
 21
-11142.79500909665
 31
0.0
  0
LWPOLYLINE
  5
A4672
330
18
100
AcDbEntity
  8
0
100
AcDbPolyline
 90
        8
 70
     0
 43
0.0
 10
118563.1461037777
 20
-11142.79500909665
 10
118563.1461037777
 20
-13429.79500909665
 10
118528.1461037777
 20
-13429.79500909665
 10
118528.1461037777
 20
-13212.79501636842
 10
117324.1461037777
 20
-13212.79501636841
 10
117324.1461037777
 20
-13429.79500909664
 10
117289.1461037777
 20
-13429.79500909664
 10
117289.1461037777
 20
-11142.79500909664
  0
LWPOLYLINE
  5
A4673
330
18
100
AcDbEntity
  8
0
  6
Continuous
 62
     7
370
    25
100
AcDbPolyline
 90
        4
 70
     1
 43
0.0
 10
117324.1461037777
 20
-11177.79500909664
 10
118528.1461037777
 20
-11177.79500909665
 10
118528.1461037777
 20
-13177.79501636842
 10
117324.1461037777
 20
-13177.79501636841
  0
LINE
  5
A4674
330
18
100
AcDbEntity
  8
0
100
AcDbLine
 10
118528.1461037777
 20
-11177.79500909665
 30
0.0
 11
118528.1461037777
 21
-11142.79500909665
 31
0.0
  0
LINE
  5
A4675
330
18
100
AcDbEntity
  8
0
100
AcDbLine
 10
117324.1461037777
 20
-11177.79500909664
 30
0.0
 11
117324.1461037777
 21
-11142.79500909664
 31
0.0
  0
LINE
  5
A4676
330
18
100
AcDbEntity
  8
0
100
AcDbLine
 10
118528.1461037777
 20
-13177.79501636842
 30
0.0
 11
118528.1461037777
 21
-13212.79501636842
 31
0.0
  0
LINE
  5
A4677
330
18
100
AcDbEntity
  8
0
100
AcDbLine
 10
117324.1461037777
 20
-13177.79501636841
 30
0.0
 11
117324.1461037777
 21
-13212.79501636841
 31
0.0
  0
INSERT
  5
A4678
330
18
100
AcDbEntity
  8
0
100
AcDbBlockReference
  2
A$C27917
 10
117924.6461037777
 20
-13174.79501636842
 30
0.0
 41
-1.0
  0
HATCH
  5
A4679
330
18
100
AcDbEntity
  8
7-RETINI
100
AcDbHatch
 10
0.0
 20
0.0
 30
0.0
210
0.0
220
0.0
230
1.0
  2
DOTS
 70
     0
 71
     0
 91
        1
 92
        1
 93
        4
 72
     1
 10
117915.6461037777
 20
-12380.79500206323
 11
117915.6461037777
 21
-11777.79500909671
 72
     1
 10
117915.6461037777
 20
-11777.79500909671
 11
117324.1461037777
 21
-11777.79500909664
 72
     1
 10
117324.1461037777
 20
-11777.79500909664
 11
117324.1461037777
 21
-12380.79500206317
 72
     1
 10
117324.1461037777
 20
-12380.79500206317
 11
117915.6461037777
 21
-12380.79500206323
 97
        0
 75
     0
 76
     1
 52
0.0
 41
400.0
 77
     0
 78
     1
 53
0.0
 43
636.6953952915646
 44
-30749.32864888859
 45
12.5
 46
25.0
 79
     2
 49
0.0
 49
-25.0
 98
        1
 10
636.6953952915646
 20
-30749.32864888859
1001
ACAD
1010
0.0
1020
0.0
1030
0.0
1001
HATCHBACKGROUNDCOLOR
1071
-939524096
1000

1000

1001
PE_URL
1000

  0
LWPOLYLINE
  5
A467A
330
18
100
AcDbEntity
  8
0
100
AcDbPolyline
 90
        4
 70
     1
 43
0.0
 10
117915.6461037777
 20
-12380.79500206323
 10
117915.6461037777
 20
-11777.79500909671
 10
117324.1461037777
 20
-11777.79500909664
 10
117324.1461037777
 20
-12380.79500206317
  0
INSERT
  5
A467B
330
18
100
AcDbEntity
  8
0
100
AcDbBlockReference
  2
A$C27917
 10
117927.6461037777
 20
-13174.79501636842
 30
0.0
  0
HATCH
  5
A467D
330
18
100
AcDbEntity
  8
7-RETINI
100
AcDbHatch
 10
0.0
 20
0.0
 30
0.0
210
0.0
220
0.0
230
1.0
  2
DOTS
 70
     0
 71
     0
 91
        1
 92
        1
 93
        4
 72
     1
 10
117936.6461037777
 20
-12380.79500206323
 11
117936.6461037777
 21
-11777.79500909671
 72
     1
 10
117936.6461037777
 20
-11777.79500909671
 11
118528.1461037777
 21
-11777.79500909664
 72
     1
 10
118528.1461037777
 20
-11777.79500909664
 11
118528.1461037777
 21
-12380.79500206317
 72
     1
 10
118528.1461037777
 20
-12380.79500206317
 11
117936.6461037777
 21
-12380.79500206323
 97
        0
 75
     0
 76
     1
 52
0.0
 41
400.0
 77
     0
 78
     1
 53
0.0
 43
-837.3046047084349
 44
-30749.32864888859
 45
12.5
 46
25.0
 79
     2
 49
0.0
 49
-25.0
 98
        1
 10
235215.5968122639
 20
-30749.32864888859
1001
ACAD
1010
0.0
1020
0.0
1030
0.0
1001
HATCHBACKGROUNDCOLOR
1071
-939524096
1000

1000

1001
PE_URL
1000

  0
LWPOLYLINE
  5
A467E
330
18
100
AcDbEntity
  8
0
100
AcDbPolyline
 90
        4
 70
     1
 43
0.0
 10
117936.6461037777
 20
-12380.79500206323
 10
117936.6461037777
 20
-11777.79500909671
 10
118528.1461037777
 20
-11777.79500909664
 10
118528.1461037777
 20
-12380.79500206317
  0
INSERT
  5
A467F
330
18
100
AcDbEntity
  8
0
100
AcDbBlockReference
  2
A$C10049
 10
119201.6461037777
 20
-7133.511739042373
 30
0.0
  0
INSERT
  5
A4680
330
18
100
AcDbEntity
  8
0
100
AcDbBlockReference
  2
A$C443
 10
111705.6461037777
 20
-9357.153363400295
 30
0.0
  0
INSERT
  5
A4682
330
18
100
AcDbEntity
  8
0
100
AcDbBlockReference
  2
A$C27917
 10
112302.6461037777
 20
-10154.15337770542
 30
0.0
 41
-1.0
  0
INSERT
  5
A4683
330
18
100
AcDbEntity
  8
0
100
AcDbBlockReference
  2
A$C443
 10
112902.6461037777
 20
-9357.153363400295
 30
0.0
 41
-1.0
  0
INSERT
  5
A4684
330
18
100
AcDbEntity
  8
0
100
AcDbBlockReference
  2
A$C27917
 10
112305.6461037777
 20
-10154.15337770542
 30
0.0
  0
INSERT
  5
A4685
330
18
100
AcDbEntity
  8
0
100
AcDbBlockReference
  2
A$C443
 10
113579.6461037777
 20
-9357.153363400292
 30
0.0
  0
INSERT
  5
A4686
330
18
100
AcDbEntity
  8
0
100
AcDbBlockReference
  2
A$C27917
 10
114176.6461037777
 20
-10154.15337770542
 30
0.0
 41
-1.0
  0
INSERT
  5
A4687
330
18
100
AcDbEntity
  8
0
100
AcDbBlockReference
  2
A$C27917
 10
114179.6461037777
 20
-10154.15337770542
 30
0.0
  0
INSERT
  5
A4688
330
18
100
AcDbEntity
  8
0
100
AcDbBlockReference
  2
A$C27917
 10
116050.6461037777
 20
-10154.15337770542
 30
0.0
 41
-1.0
  0
INSERT
  5
A4689
330
18
100
AcDbEntity
  8
0
100
AcDbBlockReference
  2
A$C443
 10
116650.6461037777
 20
-9357.153363400292
 30
0.0
 41
-1.0
  0
INSERT
  5
A468A
330
18
100
AcDbEntity
  8
0
100
AcDbBlockReference
  2
A$C27917
 10
116053.6461037777
 20
-10154.15337770542
 30
0.0
  0
INSERT
  5
A468B
330
18
100
AcDbEntity
  8
0
100
AcDbBlockReference
  2
A$C27917
 10
117924.6461037777
 20
-10154.15337770541
 30
0.0
 41
-1.0
  0
INSERT
  5
A468C
330
18
100
AcDbEntity
  8
0
100
AcDbBlockReference
  2
A$C27917
 10
117927.6461037777
 20
-10154.15337770541
 30
0.0
  0
INSERT
  5
A468D
330
18
100
AcDbEntity
  8
0
100
AcDbBlockReference
  2
A$C1724
 10
111705.6461037777
 20
-12377.79500206319
 30
0.0
  0
INSERT
  5
A468E
330
18
100
AcDbEntity
  8
0
100
AcDbBlockReference
  2
A$C1724
 10
112902.6461037777
 20
-12377.79500206319
 30
0.0
 41
-1.0
  0
INSERT
  5
A468F
330
18
100
AcDbEntity
  8
0
100
AcDbBlockReference
  2
A$C1724
 10
113579.6461037777
 20
-12377.79500206318
 30
0.0
  0
INSERT
  5
A4690
330
18
100
AcDbEntity
  8
0
100
AcDbBlockReference
  2
A$C1724
 10
116650.6461037777
 20
-12377.79500206318
 30
0.0
 41
-1.0
  0
INSERT
  5
A4691
330
18
100
AcDbEntity
  8
0
100
AcDbBlockReference
  2
A$C443
 10
115453.6461037777
 20
-11777.79500206329
 30
0.0
  0
INSERT
  5
A4692
330
18
100
AcDbEntity
  8
0
100
AcDbBlockReference
  2
A$C443
 10
117327.6461037777
 20
-11777.79500206329
 30
0.0
  0
INSERT
  5
A4693
330
18
100
AcDbEntity
  8
0
100
AcDbBlockReference
  2
A$C443
 10
114776.6461037777
 20
-11777.79500206331
 30
0.0
 41
-1.0
  0
INSERT
  5
A4694
330
18
100
AcDbEntity
  8
0
100
AcDbBlockReference
  2
A$C443
 10
118524.6461037777
 20
-11777.7950020633
 30
0.0
 41
-1.0
  0
LINE
  5
A46BC
330
18
100
AcDbEntity
  8
0
100
AcDbLine
 10
119163.1461037777
 20
-13429.79500909664
 30
0.0
 11
119198.1461037777
 21
-13429.79500909664
 31
0.0
  0
LINE
  5
A46BE
330
18
100
AcDbEntity
  8
0
100
AcDbLine
 10
119837.1461037777
 20
-11142.79500909663
 30
0.0
 11
119163.1461037777
 21
-11142.79500909664
 31
0.0
  0
LWPOLYLINE
  5
A46BF
330
18
100
AcDbEntity
  8
0
100
AcDbPolyline
 90
        8
 70
     0
 43
0.0
 10
119163.1461037777
 20
-11142.79500909664
 10
119163.1461037777
 20
-13429.79500909664
 10
119198.1461037777
 20
-13429.79500909664
 10
119198.1461037777
 20
-13212.7950163684
 10
119802.1461037777
 20
-13212.79501636839
 10
119802.1461037777
 20
-13429.79500909663
 10
119837.1461037777
 20
-13429.79500909663
 10
119837.1461037777
 20
-11142.79500909663
  0
LWPOLYLINE
  5
A46C0
330
18
100
AcDbEntity
  8
0
  6
Continuous
 62
     7
370
    25
100
AcDbPolyline
 90
        4
 70
     1
 43
0.0
 10
119802.1461037777
 20
-11177.79500909663
 10
119198.1461037777
 20
-11177.79500909664
 10
119198.1461037777
 20
-13177.7950163684
 10
119802.1461037777
 20
-13177.79501636839
  0
LINE
  5
A46C1
330
18
100
AcDbEntity
  8
0
100
AcDbLine
 10
119198.1461037777
 20
-11177.79500909664
 30
0.0
 11
119198.1461037777
 21
-11142.79500909664
 31
0.0
  0
LINE
  5
A46C2
330
18
100
AcDbEntity
  8
0
100
AcDbLine
 10
119802.1461037777
 20
-11177.79500909663
 30
0.0
 11
119802.1461037777
 21
-11142.79500909663
 31
0.0
  0
LINE
  5
A46C3
330
18
100
AcDbEntity
  8
0
100
AcDbLine
 10
119198.1461037777
 20
-13177.7950163684
 30
0.0
 11
119198.1461037777
 21
-13212.7950163684
 31
0.0
  0
LINE
  5
A46C4
330
18
100
AcDbEntity
  8
0
100
AcDbLine
 10
119802.1461037777
 20
-13177.79501636839
 30
0.0
 11
119802.1461037777
 21
-13212.79501636839
 31
0.0
  0
INSERT
  5
A46C5
330
18
100
AcDbEntity
  8
0
100
AcDbBlockReference
  2
A$C27917
 10
119798.6461037777
 20
-13174.7950163684
 30
0.0
 41
-1.0
  0
INSERT
  5
A46C6
330
18
100
AcDbEntity
  8
0
100
AcDbBlockReference
  2
A$C1724
 10
119201.6461037777
 20
-12377.79500206315
 30
0.0
  0
LWPOLYLINE
  5
A46F4
330
18
100
AcDbEntity
  8
0
100
AcDbPolyline
 90
        4
 70
     1
 43
0.0
 10
122535.8059521725
 20
-11716.29500206331
 10
122535.8059521725
 20
-11728.29500206331
 10
122569.7059521725
 20
-11728.29500206331
 10
122569.7059521725
 20
-11716.29500206331
  0
LINE
  5
A46F5
330
18
100
AcDbEntity
  8
0
100
AcDbLine
 10
114815.1461037777
 20
-5701.511731770634
 30
0.0
 11
113541.1461037777
 21
-5701.511731770641
 31
0.0
  0
LWPOLYLINE
  5
A46F6
330
18
100
AcDbEntity
  8
0
100
AcDbPolyline
 90
        8
 70
     0
 43
0.0
 10
113541.1461037777
 20
-5701.511731770641
 10
113541.1461037777
 20
-7388.511731770642
 10
113576.1461037777
 20
-7388.511731770642
 10
113576.1461037777
 20
-7171.511739042408
 10
114780.1461037777
 20
-7171.511739042401
 10
114780.1461037777
 20
-7388.511731770634
 10
114815.1461037777
 20
-7388.511731770634
 10
114815.1461037777
 20
-5701.511731770634
  0
LWPOLYLINE
  5
A46F7
330
18
100
AcDbEntity
  8
0
  6
Continuous
 62
     7
370
    25
100
AcDbPolyline
 90
        4
 70
     1
 43
0.0
 10
114780.1461037777
 20
-5736.511731770634
 10
113576.1461037777
 20
-5736.511731770641
 10
113576.1461037777
 20
-7136.511739042408
 10
114780.1461037777
 20
-7136.511739042401
  0
LINE
  5
A46F8
330
18
100
AcDbEntity
  8
0
100
AcDbLine
 10
113576.1461037777
 20
-5736.511731770641
 30
0.0
 11
113576.1461037777
 21
-5701.511731770641
 31
0.0
  0
LINE
  5
A46F9
330
18
100
AcDbEntity
  8
0
100
AcDbLine
 10
114780.1461037777
 20
-5736.511731770634
 30
0.0
 11
114780.1461037777
 21
-5701.511731770634
 31
0.0
  0
LINE
  5
A46FA
330
18
100
AcDbEntity
  8
0
100
AcDbLine
 10
113576.1461037777
 20
-7136.511739042408
 30
0.0
 11
113576.1461037777
 21
-7171.511739042408
 31
0.0
  0
LINE
  5
A46FB
330
18
100
AcDbEntity
  8
0
100
AcDbLine
 10
114780.1461037777
 20
-7136.511739042401
 30
0.0
 11
114780.1461037777
 21
-7171.511739042401
 31
0.0
  0
HATCH
  5
A46FC
330
18
100
AcDbEntity
  8
7-RETINI
100
AcDbHatch
 10
0.0
 20
0.0
 30
0.0
210
0.0
220
0.0
230
1.0
  2
DOTS
 70
     0
 71
     0
 91
        1
 92
        1
 93
        4
 72
     1
 10
114188.6461037777
 20
-6339.511724737225
 11
114188.6461037777
 21
-5736.511731770699
 72
     1
 10
114188.6461037777
 20
-5736.511731770699
 11
114780.1461037777
 21
-5736.511731770634
 72
     1
 10
114780.1461037777
 20
-5736.511731770634
 11
114780.1461037777
 21
-6339.511724737158
 72
     1
 10
114780.1461037777
 20
-6339.511724737159
 11
114188.6461037777
 21
-6339.511724737225
 97
        0
 75
     0
 76
     1
 52
0.0
 41
400.0
 77
     0
 78
     1
 53
0.0
 43
-1637.304604708421
 44
-24708.04537156257
 45
12.5
 46
25.0
 79
     2
 49
0.0
 49
-25.0
 98
        1
 10
-1637.304604708421
 20
-24708.04537156257
1001
ACAD
1010
0.0
1020
0.0
1030
0.0
1001
HATCHBACKGROUNDCOLOR
1071
-939524096
1000

1000

1001
PE_URL
1000

  0
LWPOLYLINE
  5
A46FD
330
18
100
AcDbEntity
  8
0
100
AcDbPolyline
 90
        4
 70
     1
 43
0.0
 10
114188.6461037777
 20
-6339.511724737225
 10
114188.6461037777
 20
-5736.511731770699
 10
114780.1461037777
 20
-5736.511731770634
 10
114780.1461037777
 20
-6339.511724737159
  0
INSERT
  5
A46FF
330
18
100
AcDbEntity
  8
0
100
AcDbBlockReference
  2
A$C27917
 10
114179.6461037777
 20
-7133.511739042408
 30
0.0
  0
INSERT
  5
A4700
330
18
100
AcDbEntity
  8
0
100
AcDbBlockReference
  2
A$C10049
 10
113579.6461037777
 20
-7133.511739042408
 30
0.0
  0
LINE
  5
A4701
330
18
100
AcDbEntity
  8
0
100
AcDbLine
 10
115415.1461037776
 20
-5701.511731770641
 30
0.0
 11
116689.1461037776
 21
-5701.511731770579
 31
0.0
  0
LWPOLYLINE
  5
A4702
330
18
100
AcDbEntity
  8
0
100
AcDbPolyline
 90
        8
 70
     0
 43
0.0
 10
116689.1461037776
 20
-5701.511731770579
 10
116689.1461037777
 20
-7388.51173177058
 10
116654.1461037777
 20
-7388.51173177058
 10
116654.1461037777
 20
-7171.511739042347
 10
115450.1461037777
 20
-7171.511739042408
 10
115450.1461037777
 20
-7388.511731770642
 10
115415.1461037777
 20
-7388.511731770642
 10
115415.1461037776
 20
-5701.511731770641
  0
LWPOLYLINE
  5
A4703
330
18
100
AcDbEntity
  8
0
  6
Continuous
 62
     7
370
    25
100
AcDbPolyline
 90
        4
 70
     1
 43
0.0
 10
115450.1461037776
 20
-5736.511731770641
 10
116654.1461037776
 20
-5736.511731770579
 10
116654.1461037777
 20
-7136.511739042347
 10
115450.1461037777
 20
-7136.511739042408
  0
LINE
  5
A4704
330
18
100
AcDbEntity
  8
0
100
AcDbLine
 10
116654.1461037776
 20
-5736.511731770579
 30
0.0
 11
116654.1461037776
 21
-5701.511731770579
 31
0.0
  0
LINE
  5
A4705
330
18
100
AcDbEntity
  8
0
100
AcDbLine
 10
115450.1461037776
 20
-5736.511731770641
 30
0.0
 11
115450.1461037776
 21
-5701.511731770641
 31
0.0
  0
LINE
  5
A4706
330
18
100
AcDbEntity
  8
0
100
AcDbLine
 10
116654.1461037777
 20
-7136.511739042347
 30
0.0
 11
116654.1461037777
 21
-7171.511739042347
 31
0.0
  0
LINE
  5
A4707
330
18
100
AcDbEntity
  8
0
100
AcDbLine
 10
115450.1461037777
 20
-7136.511739042408
 30
0.0
 11
115450.1461037777
 21
-7171.511739042408
 31
0.0
  0
HATCH
  5
A4708
330
18
100
AcDbEntity
  8
7-RETINI
100
AcDbHatch
 10
0.0
 20
0.0
 30
0.0
210
0.0
220
0.0
230
1.0
  2
DOTS
 70
     0
 71
     0
 91
        1
 92
        1
 93
        4
 72
     1
 10
116041.6461037777
 20
-6339.511724737199
 11
116041.6461037777
 21
-5736.511731770674
 72
     1
 10
116041.6461037776
 20
-5736.511731770674
 11
115450.1461037776
 21
-5736.511731770641
 72
     1
 10
115450.1461037776
 20
-5736.511731770641
 11
115450.1461037777
 21
-6339.511724737165
 72
     1
 10
115450.1461037777
 20
-6339.511724737166
 11
116041.6461037777
 21
-6339.511724737199
 97
        0
 75
     0
 76
     1
 52
0.0
 41
400.0
 77
     0
 78
     1
 53
0.0
 43
-5659.30460470845
 44
-24708.04537156256
 45
12.5
 46
25.0
 79
     2
 49
0.0
 49
-25.0
 98
        1
 10
231867.5968122649
 20
-24708.04537155609
1001
ACAD
1010
0.0
1020
0.0
1030
0.0
1001
HATCHBACKGROUNDCOLOR
1071
-939524096
1000

1000

1001
PE_URL
1000

  0
LWPOLYLINE
  5
A4709
330
18
100
AcDbEntity
  8
0
100
AcDbPolyline
 90
        4
 70
     1
 43
0.0
 10
116041.6461037777
 20
-6339.511724737199
 10
116041.6461037776
 20
-5736.511731770674
 10
115450.1461037776
 20
-5736.511731770641
 10
115450.1461037777
 20
-6339.511724737166
  0
INSERT
  5
A470B
330
18
100
AcDbEntity
  8
0
100
AcDbBlockReference
  2
A$C27917
 10
116050.6461037777
 20
-7133.511739042379
 30
0.0
 41
-1.0
  0
INSERT
  5
A470C
330
18
100
AcDbEntity
  8
0
100
AcDbBlockReference
  2
A$C10049
 10
116650.6461037777
 20
-7133.511739042347
 30
0.0
 41
-1.0
  0
LINE
  5
A470D
330
18
100
AcDbEntity
  8
0
100
AcDbLine
 10
111667.1461037776
 20
-5701.511731770641
 30
0.0
 11
112941.1461037776
 21
-5701.511731770579
 31
0.0
  0
LWPOLYLINE
  5
A470E
330
18
100
AcDbEntity
  8
0
100
AcDbPolyline
 90
        8
 70
     0
 43
0.0
 10
112941.1461037776
 20
-5701.511731770579
 10
112941.1461037777
 20
-7388.51173177058
 10
112906.1461037777
 20
-7388.51173177058
 10
112906.1461037777
 20
-7171.511739042347
 10
111702.1461037777
 20
-7171.511739042408
 10
111702.1461037777
 20
-7388.511731770642
 10
111667.1461037777
 20
-7388.511731770642
 10
111667.1461037776
 20
-5701.511731770641
  0
LWPOLYLINE
  5
A470F
330
18
100
AcDbEntity
  8
0
  6
Continuous
 62
     7
370
    25
100
AcDbPolyline
 90
        4
 70
     1
 43
0.0
 10
111702.1461037776
 20
-5736.511731770641
 10
112906.1461037776
 20
-5736.511731770579
 10
112906.1461037777
 20
-7136.511739042347
 10
111702.1461037777
 20
-7136.511739042408
  0
LINE
  5
A4710
330
18
100
AcDbEntity
  8
0
100
AcDbLine
 10
112906.1461037776
 20
-5736.511731770579
 30
0.0
 11
112906.1461037776
 21
-5701.511731770579
 31
0.0
  0
LINE
  5
A4711
330
18
100
AcDbEntity
  8
0
100
AcDbLine
 10
111702.1461037776
 20
-5736.511731770641
 30
0.0
 11
111702.1461037776
 21
-5701.511731770641
 31
0.0
  0
LINE
  5
A4712
330
18
100
AcDbEntity
  8
0
100
AcDbLine
 10
112906.1461037777
 20
-7136.511739042347
 30
0.0
 11
112906.1461037777
 21
-7171.511739042347
 31
0.0
  0
LINE
  5
A4713
330
18
100
AcDbEntity
  8
0
100
AcDbLine
 10
111702.1461037777
 20
-7136.511739042408
 30
0.0
 11
111702.1461037777
 21
-7171.511739042408
 31
0.0
  0
INSERT
  5
A4715
330
18
100
AcDbEntity
  8
0
100
AcDbBlockReference
  2
A$C10049
 10
112902.6461037777
 20
-7133.511739042347
 30
0.0
 41
-1.0
  0
INSERT
  5
A4716
330
18
100
AcDbEntity
  8
0
100
AcDbBlockReference
  2
A$C10049
 10
111705.6461037769
 20
-7133.511739042077
 30
0.0
 50
359.9999999999745
  0
TEXT
  5
A4FDB
330
18
100
AcDbEntity
  8
0
100
AcDbText
 10
114131.226547424
 20
-15312.00842928512
 30
0.0
 40
125.0
  1
Questo disegno è di proprietà di Fantin S.r.l.   
  7
STILE1
 72
     1
 11
116553.8455950431
 21
-15312.00842928512
 31
0.0
100
AcDbText
  0
TEXT
  5
A4FDC
330
18
100
AcDbEntity
  8
0
100
AcDbText
 10
114893.7855547713
 20
-14965.52419561231
 30
0.0
 40
125.0
  1
Frame Tall Units
  7
STILE1
 72
     1
 11
115697.170971438
 21
-14965.52419561231
 31
0.0
100
AcDbText
  0
LWPOLYLINE
  5
A4FDD
330
18
100
AcDbEntity
  8
0
  6
Continuous
100
AcDbPolyline
 90
       15
 70
     0
 43
0.0
 10
112964.1612635352
 20
-15444.25642601585
 10
112964.1612635352
 20
-15056.59533389283
 10
113065.5108050987
 20
-15056.59533389283
 42
-0.316444976687396
 10
113116.458599687
 20
-15084.8399492367
 10
113217.2517583318
 20
-15254.85885657158
 10
113220.0198925505
 20
-15254.85885657158
 10
113220.0198925505
 20
-15056.59533389283
 10
113332.4436935488
 20
-15056.59533389283
 10
113332.4436935488
 20
-15444.25642601585
 10
113249.9215988241
 20
-15444.25642601585
 42
-0.312959769389874
 10
113198.9738042312
 20
-15416.0135332206
 10
113079.3531987615
 20
-15222.73678625839
 10
113076.5885096308
 20
-15222.73678625839
 10
113076.5885096308
 20
-15444.25642601585
 10
112964.1612635352
 20
-15444.25642601585
  0
LWPOLYLINE
  5
A4FDE
330
18
100
AcDbEntity
  8
0
  6
Continuous
100
AcDbPolyline
 90
       15
 70
     0
 43
0.0
 10
111987.7988096498
 20
-15444.25642601585
 10
111987.7988096498
 20
-15056.59533389283
 10
112089.1483512133
 20
-15056.59533389283
 42
-0.316444976687396
 10
112140.0961458063
 20
-15084.8399492367
 10
112240.8893044464
 20
-15254.85885657158
 10
112243.6574386697
 20
-15254.85885657158
 10
112243.6574386697
 20
-15056.59533389283
 10
112356.0812396634
 20
-15056.59533389283
 10
112356.0812396634
 20
-15444.25642601585
 10
112273.5591449387
 20
-15444.25642601585
 42
-0.312959769389874
 10
112222.6113503411
 20
-15416.0135332206
 10
112102.9907448761
 20
-15222.73678625839
 10
112100.2260557454
 20
-15222.73678625839
 10
112100.2260557454
 20
-15444.25642601585
 10
111987.7988096498
 20
-15444.25642601585
  0
LWPOLYLINE
  5
A4FDF
330
18
100
AcDbEntity
  8
0
  6
Continuous
100
AcDbPolyline
 90
        9
 70
     0
 43
0.0
 10
112740.422982288
 20
-15056.59705644145
 10
112740.422982288
 20
-15147.42010874113
 10
112624.126893965
 20
-15147.42010874113
 10
112624.126893965
 20
-15444.25642601585
 10
112505.0575037751
 20
-15444.25642601585
 10
112505.0575037751
 20
-15147.42010874113
 10
112391.5243820272
 20
-15147.42010874113
 10
112391.5243820272
 20
-15056.59705644145
 10
112740.422982288
 20
-15056.59705644145
  0
LWPOLYLINE
  5
A4FE0
330
18
100
AcDbEntity
  8
0
  6
Continuous
100
AcDbPolyline
 90
        4
 70
     1
 43
0.0
 10
112777.5266606718
 20
-15056.59705644145
 10
112896.5960508617
 20
-15056.59705644145
 10
112896.5960508617
 20
-15444.25642601585
 10
112777.5266606718
 20
-15444.25642601585
  0
LWPOLYLINE
  5
A4FE1
330
18
100
AcDbEntity
  8
0
  6
Continuous
100
AcDbPolyline
 90
       11
 70
     0
 43
0.0
 10
111562.4655983862
 20
-15056.59877898891
 10
111562.4655983862
 20
-15145.75957271641
 10
111376.3891009925
 20
-15145.75957271641
 10
111376.3891009925
 20
-15222.73506371093
 10
111506.5327506218
 20
-15222.73506371093
 10
111506.5327506218
 20
-15305.80837371547
 10
111376.3891009925
 20
-15305.80837371547
 10
111376.3891009925
 20
-15444.25642601585
 10
111257.3197108027
 20
-15444.25642601585
 10
111257.3197108027
 20
-15056.59877898891
 10
111562.4655983862
 20
-15056.59877898891
  0
LWPOLYLINE
  5
A4FE2
330
18
100
AcDbEntity
  8
0
  6
Continuous
100
AcDbPolyline
 90
        5
 70
     0
 43
0.0
 10
111748.5507085253
 20
-15163.47769880223
 10
111781.7786544873
 20
-15277.56548092023
 10
111709.2301111933
 20
-15277.56548092023
 10
111742.4580571599
 20
-15163.47769880223
 10
111748.5507085253
 20
-15163.47769880223
  0
LWPOLYLINE
  5
A4FE3
330
18
100
AcDbEntity
  8
0
  6
Continuous
100
AcDbPolyline
 90
       16
 70
     1
 43
0.0
 10
111805.0423719719
 20
-15360.63362328124
 10
111805.0423719719
 20
-15360.63362328124
 10
111829.4036544845
 20
-15444.25642601585
 10
111955.1203564167
 20
-15444.25642601585
 10
111837.7115022516
 20
-15091.48209333324
 42
0.1089385125692126
 10
111824.9696424356
 20
-15063.81095561336
 42
0.1589313772246072
 10
111812.9738172455
 20
-15056.52608365656
 42
0.058673645385263
 10
111796.7286463486
 20
-15054.93479786927
 10
111796.7286463486
 20
-15054.93479786927
 10
111701.4803688958
 20
-15054.93479786927
 42
0.058673645385263
 10
111685.235197999
 20
-15056.52608365656
 42
0.1589313772246072
 10
111673.2393728089
 20
-15063.81095561336
 42
0.1089385125692126
 10
111660.4975129928
 20
-15091.48209333324
 10
111543.0886588324
 20
-15444.25642601585
 10
111662.154603925
 20
-15444.25642601585
 10
111685.9671039213
 20
-15360.63362328124
  0
TEXT
  5
A4FE4
330
18
100
AcDbEntity
  8
0
100
AcDbText
 10
114442.1604476384
 20
-15574.09263557333
 30
0.0
 40
125.0
  1
This drawing is property of Fantin S.r.l. 
  7
STILE1
 72
     1
 11
116457.0414000193
 21
-15574.09263557333
 31
0.0
100
AcDbText
  0
LWPOLYLINE
  5
A4FE5
330
18
100
AcDbEntity
  8
0
100
AcDbPolyline
 90
        2
 70
     0
 43
0.0
 10
113632.4436935488
 20
-15056.59533389283
 10
118982.6916590411
 20
-15056.59533389283
  0
LWPOLYLINE
  5
A4FE6
330
18
100
AcDbEntity
  8
0
100
AcDbPolyline
 90
        4
 70
     1
 43
0.0
 10
110957.3197108027
 20
-14756.59877898891
 10
118982.6916590411
 20
-14756.59877898891
 10
118982.6916590411
 20
-15744.25642601585
 10
110957.3197108027
 20
-15744.25642601585
  0
LINE
  5
A4FE7
330
18
100
AcDbEntity
  8
0
100
AcDbLine
 10
113632.4436935488
 20
-14756.59877898891
 30
0.0
 11
113632.4436935488
 21
-15744.25642601585
 31
0.0
  0
LINE
  5
A4FE8
330
18
100
AcDbEntity
  8
0
100
AcDbLine
 10
117704.8134118533
 20
-15056.59533389283
 30
0.0
 11
117704.8134118533
 21
-14756.59877898891
 31
0.0
  0
TEXT
  5
A4FE9
330
18
100
AcDbEntity
  8
0
100
AcDbText
 10
117881.7364273187
 20
-14965.52419561231
 30
0.0
 40
125.0
  1
2022-06
  7
STILE1
 72
     1
 11
118316.632260652
 21
-14965.52419561231
 31
0.0
100
AcDbText
  0
LINE
  5
A4FEA
330
18
100
AcDbEntity
  8
0
100
AcDbLine
 10
118982.6916590411
 20
-14756.59877898891
 30
0.0
 11
118982.6916590411
 21
-15744.25642601585
 31
0.0
  0
LWPOLYLINE
  5
A4FEB
330
18
100
AcDbEntity
  8
0
100
AcDbPolyline
 90
        4
 70
     1
 43
0.0
 10
110957.3197108027
 20
-4448.436372001137
 10
123419.7359182515
 20
-4448.436372001137
 10
123419.7359182515
 20
-14192.09350459227
 10
110957.3197108027
 20
-14192.09350459226
  0
LWPOLYLINE
  5
A500C
330
18
100
AcDbEntity
  8
0
100
AcDbPolyline
 90
        4
 70
     1
 43
0.0
 10
122535.8059521725
 20
-12430.29504772043
 10
122535.8059521725
 20
-12442.29504772043
 10
122569.7059521725
 20
-12442.29504772043
 10
122569.7059521725
 20
-12430.29504772043
  0
LWPOLYLINE
  5
A500D
330
18
100
AcDbEntity
  8
0
100
AcDbPolyline
 90
        4
 70
     1
 43
0.0
 10
122535.8059521725
 20
-9409.653409057411
 10
122535.8059521725
 20
-9421.653409057411
 10
122569.7059521725
 20
-9421.653409057411
 10
122569.7059521725
 20
-9409.653409057411
  0
LWPOLYLINE
  5
A500E
330
18
100
AcDbEntity
  8
0
100
AcDbPolyline
 90
        4
 70
     1
 43
0.0
 10
122535.8059521725
 20
-9295.653363400299
 10
122535.8059521725
 20
-9307.653363400299
 10
122569.7059521725
 20
-9307.653363400299
 10
122569.7059521725
 20
-9295.653363400299
  0
LWPOLYLINE
  5
A500F
330
18
100
AcDbEntity
  8
0
100
AcDbPolyline
 90
        4
 70
     1
 43
0.0
 10
122535.8059521725
 20
-6389.011770394211
 10
122535.8059521725
 20
-6401.011770394211
 10
122569.7059521725
 20
-6401.011770394211
 10
122569.7059521725
 20
-6389.011770394211
  0
ENDSEC
  0
SECTION
  2
OBJECTS
  0
DICTIONARY
  5
C
330
0
100
AcDbDictionary
281
     1
  3
ACAD_COLOR
350
CF4
  3
ACAD_DETAILVIEWSTYLE
350
E6B
  3
ACAD_FIELDLIST
350
4ACEF
  3
ACAD_GROUP
350
D
  3
ACAD_IMAGE_VARS
350
CE4
  3
ACAD_LAYOUT
350
CA7
  3
ACAD_MATERIAL
350
CCC
  3
ACAD_MLEADERSTYLE
350
CF8
  3
ACAD_MLINESTYLE
350
E
  3
ACAD_PLOTSETTINGS
350
CE6
  3
ACAD_PLOTSTYLENAME
350
CE7
  3
ACAD_SCALELIST
350
CAA
  3
ACAD_SECTIONVIEWSTYLE
350
E6C
  3
ACAD_TABLESTYLE
350
CE1
  3
ACAD_VISUALSTYLE
350
CD0
  3
AcadDim
350
4AA6E
  3
ACDB_RECOMPOSE_DATA
350
A5012
  3
AcDbVariableDictionary
350
DD7
  3
APPDATA
350
CE3
  3
CENTERLINE
350
84AB
  3
DimOffsetDictionary
350
84A6
  0
SUN
  5
DE5
330
CA6
100
AcDbSun
 90
        1
290
     0
 63
     7
421
 16777215
 40
1.0
291
     1
 91
  2455826
 92
 54000000
292
     0
 70
     2
 71
   256
280
     1
  0
DICTIONARY
  5
E30
330
2
100
AcDbDictionary
280
     1
281
     1
  3
ACAD_LAYERSTATES
360
E31
  3
ACLYDICTIONARY
360
9D5EF
  0
DICTIONARY
  5
882E6
330
18
100
AcDbDictionary
280
     1
281
     1
  3
ACAD_SORTENTS
360
882E7
  0
DICTIONARY
  5
915C6
330
915A8
100
AcDbDictionary
280
     1
281
     1
  3
ACAD_SORTENTS
360
915C7
  0
DICTIONARY
  5
971FC
330
971DE
100
AcDbDictionary
280
     1
281
     1
  3
ACAD_SORTENTS
360
971FD
  0
DICTIONARY
  5
9753A
330
9751C
100
AcDbDictionary
280
     1
281
     1
  3
ACAD_SORTENTS
360
9753B
  0
DICTIONARY
  5
975A8
330
9758A
100
AcDbDictionary
280
     1
281
     1
  3
ACAD_SORTENTS
360
975A9
  0
DICTIONARY
  5
97609
330
975EB
100
AcDbDictionary
280
     1
281
     1
  3
ACAD_SORTENTS
360
9760A
  0
DICTIONARY
  5
CF4
102
{ACAD_REACTORS
330
C
102
}
330
C
100
AcDbDictionary
281
     1
  0
DICTIONARY
  5
E6B
102
{ACAD_REACTORS
330
C
102
}
330
C
100
AcDbDictionary
281
     1
  0
FIELDLIST
  5
4ACEF
102
{ACAD_REACTORS
330
C
102
}
330
C
100
AcDbIdSet
 90
        0
100
AcDbFieldList
  0
DICTIONARY
  5
D
102
{ACAD_REACTORS
330
C
102
}
330
C
100
AcDbDictionary
281
     1
  0
RASTERVARIABLES
  5
CE4
102
{ACAD_REACTORS
330
C
102
}
330
C
100
AcDbRasterVariables
 90
        0
 70
     1
 71
     1
 72
     0
  0
DICTIONARY
  5
CA7
102
{ACAD_REACTORS
330
C
102
}
330
C
100
AcDbDictionary
281
     1
  3
Model
350
CA8
  3
Sheet1
350
A4A3C
  0
DICTIONARY
  5
CCC
102
{ACAD_REACTORS
330
C
102
}
330
C
100
AcDbDictionary
281
     1
  3
ByBlock
350
CCE
  3
ByLayer
350
CCD
  3
Global
350
CCF
  0
DICTIONARY
  5
CF8
102
{ACAD_REACTORS
330
C
102
}
330
C
100
AcDbDictionary
281
     1
  3
Standard
350
DE4
  0
DICTIONARY
  5
E
102
{ACAD_REACTORS
330
C
102
}
330
C
100
AcDbDictionary
281
     1
  3
STANDARD
350
1B
  0
DICTIONARY
  5
CE6
102
{ACAD_REACTORS
330
C
102
}
330
C
100
AcDbDictionary
281
     1
  0
ACDBDICTIONARYWDFLT
  5
CE7
102
{ACAD_REACTORS
330
C
102
}
330
C
100
AcDbDictionary
281
     1
  3
Normal
350
CE8
100
AcDbDictionaryWithDefault
340
CE8
  0
DICTIONARY
  5
CAA
102
{ACAD_REACTORS
330
C
102
}
330
C
100
AcDbDictionary
281
     1
  3
*A1
350
1C6A
  3
A0
350
CAB
  3
A1
350
CAC
  3
A2
350
CAD
  3
A3
350
CAE
  3
A4
350
CAF
  3
A5
350
CB0
  3
A6
350
CB1
  3
A7
350
CB2
  3
A8
350
CB3
  3
A9
350
CB4
  3
B0
350
CB5
  3
B1
350
CB6
  3
B2
350
CB7
  3
B3
350
CB8
  3
B4
350
CB9
  3
B5
350
CBA
  3
B6
350
CBB
  3
B7
350
CBC
  3
B8
350
CBD
  3
B9
350
CBE
  3
C0
350
CBF
  3
C1
350
CC0
  3
C2
350
CC1
  3
C3
350
CC2
  3
C4
350
CC3
  3
C5
350
CC4
  3
C6
350
CC5
  3
C7
350
CC6
  3
C8
350
CC7
  3
C9
350
CC8
  3
D0
350
CC9
  3
D1
350
CCA
  3
D2
350
CCB
  0
DICTIONARY
  5
E6C
102
{ACAD_REACTORS
330
C
102
}
330
C
100
AcDbDictionary
281
     1
  0
DICTIONARY
  5
CE1
102
{ACAD_REACTORS
330
C
102
}
330
C
100
AcDbDictionary
281
     1
  3
Standard
350
CE2
  0
DICTIONARY
  5
CD0
102
{ACAD_REACTORS
330
C
102
}
330
C
100
AcDbDictionary
281
     1
  3
*A1
350
84A5
  3
2dWireframe
350
CD5
  3
3D Hidden
350
CD7
  3
3dWireframe
350
CD6
  3
Basic
350
CD8
  3
Brighten
350
CDC
  3
ColorChange
350
CE0
  3
Conceptual
350
CDA
  3
Dim
350
CDB
  3
EdgeColorOff
350
DDE
  3
Facepattern
350
CDF
  3
Flat
350
CD1
  3
FlatWithEdges
350
CD2
  3
Gouraud
350
CD3
  3
GouraudWithEdges
350
CD4
  3
Hidden
350
DDB
  3
JitterOff
350
DDC
  3
Linepattern
350
CDE
  3
OverhangOff
350
DDD
  3
Realistic
350
CD9
  3
Shaded
350
DE3
  3
Shaded with edges
350
DE2
  3
Shades of Gray
350
DDF
  3
Sketchy
350
DE0
  3
Thicken
350
CDD
  3
Wireframe
350
DDA
  3
X-Ray
350
DE1
  0
XRECORD
  5
4AA6E
102
{ACAD_REACTORS
330
C
102
}
330
C
100
AcDbXrecord
280
     1
340
0
 72
     0
 71
     0
 70
     0
 69
     0
 68
     1
 67
     3
 66
     0
 65
     0
 64
     0
 63
     3
 62
     1
 61
     0
 60
     0
 40
0.0
  0
XRECORD
  5
A5012
102
{ACAD_REACTORS
330
C
102
}
330
C
100
AcDbXrecord
280
     1
 90
        1
330
CE2
  0
DICTIONARY
  5
DD7
102
{ACAD_REACTORS
330
C
102
}
330
C
100
AcDbDictionary
281
     1
  3
CANNOSCALE
350
DD8
  3
CMLEADERSTYLE
350
E6A
  3
CTABLESTYLE
350
DD9
  3
HPTRANSPARENCY
350
FAD
  0
DICTIONARY
  5
CE3
102
{ACAD_REACTORS
330
C
102
}
330
C
100
AcDbDictionary
281
     1
  0
DICTIONARY
  5
84AB
102
{ACAD_REACTORS
330
C
102
}
330
C
100
AcDbDictionary
281
     1
  3
CLEXTENSION
350
1607F
  0
DICTIONARY
  5
84A6
102
{ACAD_REACTORS
330
C
102
}
330
C
100
AcDbDictionary
281
     1
  3
DIMRAILANGLE
350
1607D
  3
DIMRAILFIRSTOFFSET
350
1607B
  3
DIMRAILOFFSET
350
1607C
  3
DIMRAILSENABLED
350
1607E
  0
DICTIONARY
  5
E31
102
{ACAD_REACTORS
330
E30
102
}
330
E30
100
AcDbDictionary
281
     1
1001
AcLayerTools
1000
CA8
1000
CA6
  0
DICTIONARY
  5
9D5EF
102
{ACAD_REACTORS
330
E30
102
}
330
E30
100
AcDbDictionary
281
     1
1001
ACAD
1000
<All
  0
SORTENTSTABLE
  5
882E7
102
{ACAD_REACTORS
330
882E6
102
}
330
882E6
100
AcDbSortentsTable
330
18
  0
SORTENTSTABLE
  5
915C7
102
{ACAD_REACTORS
330
915C6
102
}
330
915C6
100
AcDbSortentsTable
330
915A8
  0
SORTENTSTABLE
  5
971FD
102
{ACAD_REACTORS
330
971FC
102
}
330
971FC
100
AcDbSortentsTable
330
971DE
  0
SORTENTSTABLE
  5
9753B
102
{ACAD_REACTORS
330
9753A
102
}
330
9753A
100
AcDbSortentsTable
330
9751C
  0
SORTENTSTABLE
  5
975A9
102
{ACAD_REACTORS
330
975A8
102
}
330
975A8
100
AcDbSortentsTable
330
9758A
  0
SORTENTSTABLE
  5
9760A
102
{ACAD_REACTORS
330
97609
102
}
330
97609
100
AcDbSortentsTable
330
975EB
  0
LAYOUT
  5
CA8
102
{ACAD_REACTORS
330
CA7
102
}
330
CA7
100
AcDbPlotSettings
  1

  2
none_device
  4
ANSI_A_(11.00_x_8.50_Inches)
  6

 40
6.35
 41
19.05
 42
6.35
 43
19.05
 44
279.4
 45
215.9
 46
0.0
 47
0.0
 48
0.0
 49
0.0
140
0.0
141
0.0
142
1.0
143
45.71490761604328
 70
  1712
 72
     0
 73
     0
 74
     0
  7

 75
     0
 76
     0
 77
     2
 78
   300
147
0.0218747024143402
148
-11205.91227082969
149
-456.2784380497612
100
AcDbLayout
  1
Model
 70
     1
 71
     0
 10
-0.25
 20
-0.7499999999999999
 11
10.75
 21
7.75
 12
0.0
 22
0.0
 32
0.0
 14
110957.3197108027
 24
-15744.25642601585
 34
0.0
 15
123419.7359182515
 25
-4448.436372001137
 35
0.0
146
0.0
 13
0.0
 23
0.0
 33
0.0
 16
1.0
 26
0.0
 36
0.0
 17
0.0
 27
1.0
 37
0.0
 76
     0
330
18
331
CA6
  0
LAYOUT
  5
A4A3C
102
{ACAD_REACTORS
330
CA7
102
}
330
CA7
100
AcDbPlotSettings
  1

  2
none_device
  4

  6

 40
0.0
 41
0.0
 42
0.0
 43
0.0
 44
0.0
 45
0.0
 46
0.0
 47
0.0
 48
0.0
 49
0.0
140
0.0
141
0.0
142
1.0
143
1.0
 70
   688
 72
     0
 73
     0
 74
     5
  7

 75
    16
 76
     0
 77
     2
 78
   300
147
1.0
148
0.0
149
0.0
100
AcDbLayout
  1
Sheet1
 70
     1
 71
     1
 10
0.0
 20
0.0
 11
0.0
 21
0.0
 12
0.0
 22
0.0
 32
0.0
 14
0.0
 24
0.0
 34
0.0
 15
0.0
 25
0.0
 35
0.0
146
0.0
 13
0.0
 23
0.0
 33
0.0
 16
1.0
 26
0.0
 36
0.0
 17
0.0
 27
1.0
 37
0.0
 76
     0
330
A4A3B
  0
MATERIAL
  5
CCE
102
{ACAD_REACTORS
330
CCC
102
}
330
CCC
100
AcDbMaterial
  1
ByBlock
 72
     1
 94
      127
  0
MATERIAL
  5
CCD
102
{ACAD_REACTORS
330
CCC
102
}
330
CCC
100
AcDbMaterial
  1
ByLayer
 72
     1
 94
      127
  0
MATERIAL
  5
CCF
102
{ACAD_REACTORS
330
CCC
102
}
330
CCC
100
AcDbMaterial
  1
Global
 72
     1
 94
      127
  0
MLEADERSTYLE
  5
DE4
102
{ACAD_REACTORS
330
CF8
102
}
330
CF8
100
AcDbMLeaderStyle
179
     2
170
     2
171
     1
172
     0
 90
        2
 40
0.0
 41
0.0
173
     1
 91
-1056964608
340
12
 92
       -2
290
     1
 42
0.09
291
     1
 43
0.36
  3
Standard
341
0
 44
0.18
300

342
10
174
     1
178
     6
175
     1
176
     0
 93
-1056964608
 45
0.18
292
     0
297
     0
 46
0.18
343
0
 94
-1056964608
 47
1.0
 49
1.0
140
1.0
293
     1
141
0.0
294
     1
177
     0
142
1.0
295
     0
296
     0
143
0.125
271
     0
272
     9
273
     9
298
     0
  0
MLINESTYLE
  5
1B
102
{ACAD_REACTORS
330
E
102
}
330
E
100
AcDbMlineStyle
  2
STANDARD
 70
     0
  3

 62
     0
 51
90.0
 52
90.0
 71
     2
 49
0.5
 62
   256
  6
BYLAYER
 49
-0.5
 62
   256
  6
BYLAYER
  0
ACDBPLACEHOLDER
  5
CE8
102
{ACAD_REACTORS
330
CE7
102
}
330
CE7
  0
SCALE
  5
1C6A
102
{ACAD_REACTORS
330
CAA
102
}
330
CAA
100
AcDbScale
 70
     0
300
1:1_XREF_XREF
140
1.0
141
1.0
290
     0
  0
SCALE
  5
CAB
102
{ACAD_REACTORS
330
CAA
102
}
330
CAA
100
AcDbScale
 70
     0
300
1:1
140
1.0
141
1.0
290
     1
  0
SCALE
  5
CAC
102
{ACAD_REACTORS
330
CAA
102
}
330
CAA
100
AcDbScale
 70
     0
300
1:2
140
1.0
141
2.0
290
     0
  0
SCALE
  5
CAD
102
{ACAD_REACTORS
330
CAA
102
}
330
CAA
100
AcDbScale
 70
     0
300
1:4
140
1.0
141
4.0
290
     0
  0
SCALE
  5
CAE
102
{ACAD_REACTORS
330
CAA
102
}
330
CAA
100
AcDbScale
 70
     0
300
1:5
140
1.0
141
5.0
290
     0
  0
SCALE
  5
CAF
102
{ACAD_REACTORS
330
CAA
102
}
330
CAA
100
AcDbScale
 70
     0
300
1:8
140
1.0
141
8.0
290
     0
  0
SCALE
  5
CB0
102
{ACAD_REACTORS
330
CAA
102
}
330
CAA
100
AcDbScale
 70
     0
300
1:10
140
1.0
141
10.0
290
     0
  0
SCALE
  5
CB1
102
{ACAD_REACTORS
330
CAA
102
}
330
CAA
100
AcDbScale
 70
     0
300
1:16
140
1.0
141
16.0
290
     0
  0
SCALE
  5
CB2
102
{ACAD_REACTORS
330
CAA
102
}
330
CAA
100
AcDbScale
 70
     0
300
1:20
140
1.0
141
20.0
290
     0
  0
SCALE
  5
CB3
102
{ACAD_REACTORS
330
CAA
102
}
330
CAA
100
AcDbScale
 70
     0
300
1:30
140
1.0
141
30.0
290
     0
  0
SCALE
  5
CB4
102
{ACAD_REACTORS
330
CAA
102
}
330
CAA
100
AcDbScale
 70
     0
300
1:40
140
1.0
141
40.0
290
     0
  0
SCALE
  5
CB5
102
{ACAD_REACTORS
330
CAA
102
}
330
CAA
100
AcDbScale
 70
     0
300
1:50
140
1.0
141
50.0
290
     0
  0
SCALE
  5
CB6
102
{ACAD_REACTORS
330
CAA
102
}
330
CAA
100
AcDbScale
 70
     0
300
1:100
140
1.0
141
100.0
290
     0
  0
SCALE
  5
CB7
102
{ACAD_REACTORS
330
CAA
102
}
330
CAA
100
AcDbScale
 70
     0
300
2:1
140
2.0
141
1.0
290
     0
  0
SCALE
  5
CB8
102
{ACAD_REACTORS
330
CAA
102
}
330
CAA
100
AcDbScale
 70
     0
300
4:1
140
4.0
141
1.0
290
     0
  0
SCALE
  5
CB9
102
{ACAD_REACTORS
330
CAA
102
}
330
CAA
100
AcDbScale
 70
     0
300
8:1
140
8.0
141
1.0
290
     0
  0
SCALE
  5
CBA
102
{ACAD_REACTORS
330
CAA
102
}
330
CAA
100
AcDbScale
 70
     0
300
10:1
140
10.0
141
1.0
290
     0
  0
SCALE
  5
CBB
102
{ACAD_REACTORS
330
CAA
102
}
330
CAA
100
AcDbScale
 70
     0
300
100:1
140
100.0
141
1.0
290
     0
  0
SCALE
  5
CBC
102
{ACAD_REACTORS
330
CAA
102
}
330
CAA
100
AcDbScale
 70
     0
300
1/128" = 1'-0"
140
0.0078125
141
12.0
290
     0
  0
SCALE
  5
CBD
102
{ACAD_REACTORS
330
CAA
102
}
330
CAA
100
AcDbScale
 70
     0
300
1/64" = 1'-0"
140
0.015625
141
12.0
290
     0
  0
SCALE
  5
CBE
102
{ACAD_REACTORS
330
CAA
102
}
330
CAA
100
AcDbScale
 70
     0
300
1/32" = 1'-0"
140
0.03125
141
12.0
290
     0
  0
SCALE
  5
CBF
102
{ACAD_REACTORS
330
CAA
102
}
330
CAA
100
AcDbScale
 70
     0
300
1/16" = 1'-0"
140
0.0625
141
12.0
290
     0
  0
SCALE
  5
CC0
102
{ACAD_REACTORS
330
CAA
102
}
330
CAA
100
AcDbScale
 70
     0
300
3/32" = 1'-0"
140
0.09375
141
12.0
290
     0
  0
SCALE
  5
CC1
102
{ACAD_REACTORS
330
CAA
102
}
330
CAA
100
AcDbScale
 70
     0
300
1/8" = 1'-0"
140
0.125
141
12.0
290
     0
  0
SCALE
  5
CC2
102
{ACAD_REACTORS
330
CAA
102
}
330
CAA
100
AcDbScale
 70
     0
300
3/16" = 1'-0"
140
0.1875
141
12.0
290
     0
  0
SCALE
  5
CC3
102
{ACAD_REACTORS
330
CAA
102
}
330
CAA
100
AcDbScale
 70
     0
300
1/4" = 1'-0"
140
0.25
141
12.0
290
     0
  0
SCALE
  5
CC4
102
{ACAD_REACTORS
330
CAA
102
}
330
CAA
100
AcDbScale
 70
     0
300
3/8" = 1'-0"
140
0.375
141
12.0
290
     0
  0
SCALE
  5
CC5
102
{ACAD_REACTORS
330
CAA
102
}
330
CAA
100
AcDbScale
 70
     0
300
1/2" = 1'-0"
140
0.5
141
12.0
290
     0
  0
SCALE
  5
CC6
102
{ACAD_REACTORS
330
CAA
102
}
330
CAA
100
AcDbScale
 70
     0
300
3/4" = 1'-0"
140
0.75
141
12.0
290
     0
  0
SCALE
  5
CC7
102
{ACAD_REACTORS
330
CAA
102
}
330
CAA
100
AcDbScale
 70
     0
300
1" = 1'-0"
140
1.0
141
12.0
290
     0
  0
SCALE
  5
CC8
102
{ACAD_REACTORS
330
CAA
102
}
330
CAA
100
AcDbScale
 70
     0
300
1-1/2" = 1'-0"
140
1.5
141
12.0
290
     0
  0
SCALE
  5
CC9
102
{ACAD_REACTORS
330
CAA
102
}
330
CAA
100
AcDbScale
 70
     0
300
3" = 1'-0"
140
3.0
141
12.0
290
     0
  0
SCALE
  5
CCA
102
{ACAD_REACTORS
330
CAA
102
}
330
CAA
100
AcDbScale
 70
     0
300
6" = 1'-0"
140
6.0
141
12.0
290
     0
  0
SCALE
  5
CCB
102
{ACAD_REACTORS
330
CAA
102
}
330
CAA
100
AcDbScale
 70
     0
300
1'-0" = 1'-0"
140
12.0
141
12.0
290
     0
  0
TABLESTYLE
  5
CE2
102
{ACAD_REACTORS
330
CE1
102
}
102
{ACAD_XDICTIONARY
360
A5010
102
}
330
CE1
100
AcDbTableStyle
  3
Standard
 70
     0
 71
     0
 40
0.06
 41
0.06
280
     0
281
     0
  7
STANDARD
140
0.18
170
     2
 62
     0
 63
   257
283
     0
 90
        4
 91
        0
  1

274
    -2
284
     1
 64
     0
275
    -2
285
     1
 65
     0
276
    -2
286
     1
 66
     0
277
    -2
287
     1
 67
     0
278
    -2
288
     1
 68
     0
279
    -2
289
     1
 69
     0
  7
STANDARD
140
0.25
170
     5
 62
     0
 63
   257
283
     0
 90
        4
 91
        0
  1

274
    -2
284
     1
 64
     0
275
    -2
285
     1
 65
     0
276
    -2
286
     1
 66
     0
277
    -2
287
     1
 67
     0
278
    -2
288
     1
 68
     0
279
    -2
289
     1
 69
     0
  7
STANDARD
140
0.18
170
     5
 62
     0
 63
   257
283
     0
 90
        4
 91
        0
  1

274
    -2
284
     1
 64
     0
275
    -2
285
     1
 65
     0
276
    -2
286
     1
 66
     0
277
    -2
287
     1
 67
     0
278
    -2
288
     1
 68
     0
279
    -2
289
     1
 69
     0
  0
VISUALSTYLE
  5
84A5
102
{ACAD_REACTORS
330
CD0
102
}
330
CD0
100
AcDbVisualStyle
  2
*
 70
    10
177
     3
291
     0
 70
    58
 90
        0
176
     1
 90
        2
176
     1
 90
        0
176
     1
 90
        0
176
     1
 40
-0.6
176
     1
 40
-30.0
176
     1
 62
     7
420
 16777215
176
     1
 90
        1
176
     1
 90
        4
176
     1
 62
     7
176
     1
 62
   257
176
     1
 90
        1
176
     1
 90
        1
176
     1
 40
1.0
176
     1
 90
        8
176
     1
 62
     7
176
     1
 40
1.0
176
     1
 90
        1
176
     1
 90
        6
176
     1
 90
        2
176
     1
 62
     7
176
     1
 90
        5
176
     1
 90
        0
176
     1
 90
        0
176
     1
290
     0
176
     1
 90
        1
176
     1
 40
0.0
176
     1
 90
        0
176
     1
290
     1
176
     1
290
     1
176
     1
290
     0
176
     1
290
     0
176
     1
290
     0
176
     1
290
     0
176
     1
290
     0
176
     1
290
     0
176
     1
290
     0
176
     1
 90
       50
176
     1
 40
0.0
176
     1
 40
1.0
176
     1
 90
        0
176
     1
 62
    18
420
        0
176
     1
 90
       50
176
     1
 90
        3
176
     1
 62
     5
420
      255
176
     1
290
     0
176
     1
 90
       50
176
     1
 90
       50
176
     1
 90
       50
176
     1
290
     0
176
     1
 90
       50
176
     1
 62
   256
176
     0
 40
1.0
176
     0
 90
        2
176
     1
  1
strokes_ogs.tif
176
     1
290
     0
176
     1
 40
1.0
176
     1
 40
1.0
176
     1
  0
VISUALSTYLE
  5
CD5
102
{ACAD_REACTORS
330
CD0
102
}
330
CD0
100
AcDbVisualStyle
  2
2dWireframe
 70
     4
177
     3
291
     0
 70
    58
 90
        0
176
     1
 90
        2
176
     1
 90
        0
176
     1
 90
        0
176
     1
 40
-0.6
176
     1
 40
-30.0
176
     1
 62
     7
420
 16777215
176
     1
 90
        1
176
     1
 90
        4
176
     1
 62
     7
176
     1
 62
   257
176
     1
 90
        1
176
     1
 90
        1
176
     1
 40
1.0
176
     1
 90
        0
176
     1
 62
   257
176
     1
 40
1.0
176
     1
 90
        1
176
     1
 90
        6
176
     1
 90
        2
176
     1
 62
     7
176
     1
 90
        5
176
     1
 90
        0
176
     1
 90
        0
176
     1
290
     0
176
     1
 90
        1
176
     1
 40
0.0
176
     1
 90
        0
176
     1
290
     1
176
     1
290
     1
176
     1
290
     0
176
     1
290
     0
176
     1
290
     0
176
     1
290
     0
176
     1
290
     0
176
     1
290
     0
176
     1
290
     0
176
     1
 90
       50
176
     1
 40
0.0
176
     1
 40
1.0
176
     1
 90
        0
176
     1
 62
    18
420
        0
176
     1
 90
       50
176
     1
 90
        3
176
     1
 62
     5
420
      255
176
     1
290
     0
176
     1
 90
       50
176
     1
 90
       50
176
     1
 90
       50
176
     1
290
     0
176
     1
 90
       50
176
     1
 62
   256
176
     0
 40
1.0
176
     0
 90
        2
176
     1
  1
strokes_ogs.tif
176
     1
290
     0
176
     1
 40
1.0
176
     1
 40
1.0
176
     1
  0
VISUALSTYLE
  5
CD7
102
{ACAD_REACTORS
330
CD0
102
}
330
CD0
100
AcDbVisualStyle
  2
3D Hidden
 70
     6
177
     3
291
     0
 70
    58
 90
        1
176
     1
 90
        2
176
     1
 90
        2
176
     1
 90
        0
176
     1
 40
-0.6
176
     1
 40
-30.0
176
     1
 62
     7
420
 16777215
176
     1
 90
        2
176
     1
 90
        2
176
     1
 62
     7
176
     1
 62
   257
176
     1
 90
        2
176
     1
 90
        1
176
     1
 40
40.0
176
     1
 90
        0
176
     1
 62
   257
176
     1
 40
1.0
176
     1
 90
        1
176
     1
 90
        6
176
     1
 90
        2
176
     1
 62
     7
176
     1
 90
        3
176
     1
 90
        0
176
     1
 90
        0
176
     1
290
     0
176
     1
 90
        1
176
     1
 40
0.0
176
     1
 90
        0
176
     1
290
     0
176
     1
290
     1
176
     1
290
     1
176
     1
290
     0
176
     1
290
     0
176
     1
290
     0
176
     1
290
     0
176
     1
290
     0
176
     1
290
     0
176
     1
 90
       50
176
     1
 40
0.0
176
     1
 40
1.0
176
     1
 90
        0
176
     1
 62
    18
420
        0
176
     1
 90
       50
176
     1
 90
        3
176
     1
 62
     5
420
      255
176
     1
290
     0
176
     1
 90
       50
176
     1
 90
       50
176
     1
 90
       50
176
     1
290
     0
176
     1
 90
       50
176
     1
 62
   256
176
     0
 40
1.0
176
     0
 90
        2
176
     1
  1
strokes_ogs.tif
176
     1
290
     0
176
     1
 40
1.0
176
     1
 40
1.0
176
     1
  0
VISUALSTYLE
  5
CD6
102
{ACAD_REACTORS
330
CD0
102
}
330
CD0
100
AcDbVisualStyle
  2
3dWireframe
 70
     5
177
     3
291
     0
 70
    58
 90
        0
176
     1
 90
        2
176
     1
 90
        0
176
     1
 90
        0
176
     1
 40
-0.6
176
     1
 40
-30.0
176
     1
 62
     7
420
 16777215
176
     1
 90
        1
176
     1
 90
        4
176
     1
 62
     7
176
     1
 62
   257
176
     1
 90
        1
176
     1
 90
        1
176
     1
 40
1.0
176
     1
 90
        0
176
     1
 62
   257
176
     1
 40
1.0
176
     1
 90
        1
176
     1
 90
        6
176
     1
 90
        2
176
     1
 62
     7
176
     1
 90
        5
176
     1
 90
        0
176
     1
 90
        0
176
     1
290
     0
176
     1
 90
        1
176
     1
 40
0.0
176
     1
 90
        0
176
     1
290
     0
176
     1
290
     1
176
     1
290
     1
176
     1
290
     0
176
     1
290
     0
176
     1
290
     0
176
     1
290
     0
176
     1
290
     0
176
     1
290
     0
176
     1
 90
       50
176
     1
 40
0.0
176
     1
 40
1.0
176
     1
 90
        0
176
     1
 62
    18
420
        0
176
     1
 90
       50
176
     1
 90
        3
176
     1
 62
     5
420
      255
176
     1
290
     0
176
     1
 90
       50
176
     1
 90
       50
176
     1
 90
       50
176
     1
290
     0
176
     1
 90
       50
176
     1
 62
   256
176
     0
 40
1.0
176
     0
 90
        2
176
     1
  1
strokes_ogs.tif
176
     1
290
     0
176
     1
 40
1.0
176
     1
 40
1.0
176
     1
  0
VISUALSTYLE
  5
CD8
102
{ACAD_REACTORS
330
CD0
102
}
330
CD0
100
AcDbVisualStyle
  2
Basic
 70
     7
177
     3
291
     1
 70
    58
 90
        1
176
     1
 90
        0
176
     1
 90
        1
176
     1
 90
        0
176
     1
 40
-0.6
176
     1
 40
-30.0
176
     1
 62
     7
420
 16777215
176
     1
 90
        0
176
     1
 90
        4
176
     1
 62
     7
176
     1
 62
   257
176
     1
 90
        1
176
     1
 90
        1
176
     1
 40
1.0
176
     1
 90
        8
176
     1
 62
     7
176
     1
 40
1.0
176
     1
 90
        1
176
     1
 90
        6
176
     1
 90
        2
176
     1
 62
     7
176
     1
 90
        5
176
     1
 90
        0
176
     1
 90
        0
176
     1
290
     0
176
     1
 90
        1
176
     1
 40
0.0
176
     1
 90
        0
176
     1
290
     0
176
     1
290
     1
176
     1
290
     1
176
     1
290
     0
176
     1
290
     0
176
     1
290
     0
176
     1
290
     0
176
     1
290
     0
176
     1
290
     0
176
     1
 90
       50
176
     1
 40
0.0
176
     1
 40
1.0
176
     1
 90
        0
176
     1
 62
    18
420
        0
176
     1
 90
       50
176
     1
 90
        3
176
     1
 62
     5
420
      255
176
     1
290
     0
176
     1
 90
       50
176
     1
 90
       50
176
     1
 90
       50
176
     1
290
     0
176
     1
 90
       50
176
     1
 62
   256
176
     0
 40
1.0
176
     0
 90
        2
176
     1
  1
strokes_ogs.tif
176
     1
290
     0
176
     1
 40
1.0
176
     1
 40
1.0
176
     1
  0
VISUALSTYLE
  5
CDC
102
{ACAD_REACTORS
330
CD0
102
}
330
CD0
100
AcDbVisualStyle
  2
Brighten
 70
    12
177
     3
291
     1
 70
    58
 90
        2
176
     1
 90
        2
176
     1
 90
        0
176
     1
 90
        0
176
     1
 40
-0.6
176
     1
 40
-30.0
176
     1
 62
     7
420
 16777215
176
     1
 90
        1
176
     1
 90
        4
176
     1
 62
     7
176
     1
 62
   257
176
     1
 90
        1
176
     1
 90
        1
176
     1
 40
1.0
176
     1
 90
        8
176
     1
 62
     7
176
     1
 40
1.0
176
     1
 90
        1
176
     1
 90
        6
176
     1
 90
        2
176
     1
 62
     7
176
     1
 90
        5
176
     1
 90
        0
176
     1
 90
        0
176
     1
290
     0
176
     1
 90
        1
176
     1
 40
50.0
176
     1
 90
        0
176
     1
290
     0
176
     1
290
     1
176
     1
290
     1
176
     1
290
     0
176
     1
290
     0
176
     1
290
     0
176
     1
290
     0
176
     1
290
     0
176
     1
290
     0
176
     1
 90
       50
176
     1
 40
0.0
176
     1
 40
1.0
176
     1
 90
        0
176
     1
 62
    18
420
        0
176
     1
 90
       50
176
     1
 90
        3
176
     1
 62
     5
420
      255
176
     1
290
     0
176
     1
 90
       50
176
     1
 90
       50
176
     1
 90
       50
176
     1
290
     0
176
     1
 90
       50
176
     1
 62
   256
176
     0
 40
1.0
176
     0
 90
        2
176
     1
  1
strokes_ogs.tif
176
     1
290
     0
176
     1
 40
1.0
176
     1
 40
1.0
176
     1
  0
VISUALSTYLE
  5
CE0
102
{ACAD_REACTORS
330
CD0
102
}
330
CD0
100
AcDbVisualStyle
  2
ColorChange
 70
    16
177
     3
291
     1
 70
    58
 90
        2
176
     1
 90
        2
176
     1
 90
        3
176
     1
 90
        0
176
     1
 40
-0.6
176
     1
 40
-30.0
176
     1
 62
     8
420
  8421504
176
     1
 90
        1
176
     1
 90
        4
176
     1
 62
     7
176
     1
 62
   257
176
     1
 90
        1
176
     1
 90
        1
176
     1
 40
1.0
176
     1
 90
        8
176
     1
 62
     8
420
  8421504
176
     1
 40
1.0
176
     1
 90
        1
176
     1
 90
        6
176
     1
 90
        2
176
     1
 62
     7
176
     1
 90
        5
176
     1
 90
        0
176
     1
 90
        0
176
     1
290
     0
176
     1
 90
        1
176
     1
 40
0.0
176
     1
 90
        0
176
     1
290
     0
176
     1
290
     1
176
     1
290
     1
176
     1
290
     0
176
     1
290
     0
176
     1
290
     0
176
     1
290
     0
176
     1
290
     0
176
     1
290
     0
176
     1
 90
       50
176
     1
 40
0.0
176
     1
 40
1.0
176
     1
 90
        0
176
     1
 62
    18
420
        0
176
     1
 90
       50
176
     1
 90
        3
176
     1
 62
     5
420
      255
176
     1
290
     0
176
     1
 90
       50
176
     1
 90
       50
176
     1
 90
       50
176
     1
290
     0
176
     1
 90
       50
176
     1
 62
   256
176
     0
 40
1.0
176
     0
 90
        2
176
     1
  1
strokes_ogs.tif
176
     1
290
     0
176
     1
 40
1.0
176
     1
 40
1.0
176
     1
  0
VISUALSTYLE
  5
CDA
102
{ACAD_REACTORS
330
CD0
102
}
330
CD0
100
AcDbVisualStyle
  2
Conceptual
 70
     9
177
     3
291
     0
 70
    58
 90
        3
176
     1
 90
        2
176
     1
 90
        0
176
     1
 90
        0
176
     1
 40
-0.6
176
     1
 40
-30.0
176
     1
 62
     7
420
 16777215
176
     1
 90
        2
176
     1
 90
        2
176
     1
 62
     7
176
     1
 62
   257
176
     1
 90
        1
176
     1
 90
        1
176
     1
 40
40.0
176
     1
 90
        8
176
     1
 62
     7
176
     1
 40
1.0
176
     1
 90
        1
176
     1
 90
        6
176
     1
 90
        2
176
     1
 62
     7
176
     1
 90
        3
176
     1
 90
        0
176
     1
 90
        0
176
     1
290
     0
176
     1
 90
        1
176
     1
 40
0.0
176
     1
 90
        0
176
     1
290
     0
176
     1
290
     1
176
     1
290
     1
176
     1
290
     0
176
     1
290
     0
176
     1
290
     0
176
     1
290
     0
176
     1
290
     0
176
     1
290
     0
176
     1
 90
       50
176
     1
 40
0.0
176
     1
 40
1.0
176
     1
 90
        0
176
     1
 62
    18
420
        0
176
     1
 90
       50
176
     1
 90
        3
176
     1
 62
     5
420
      255
176
     1
290
     0
176
     1
 90
       50
176
     1
 90
       50
176
     1
 90
       50
176
     1
290
     0
176
     1
 90
       50
176
     1
 62
   256
176
     0
 40
1.0
176
     0
 90
        2
176
     1
  1
strokes_ogs.tif
176
     1
290
     0
176
     1
 40
1.0
176
     1
 40
1.0
176
     1
  0
VISUALSTYLE
  5
CDB
102
{ACAD_REACTORS
330
CD0
102
}
330
CD0
100
AcDbVisualStyle
  2
Dim
 70
    11
177
     3
291
     1
 70
    58
 90
        2
176
     1
 90
        2
176
     1
 90
        0
176
     1
 90
        0
176
     1
 40
-0.6
176
     1
 40
-30.0
176
     1
 62
     7
420
 16777215
176
     1
 90
        1
176
     1
 90
        4
176
     1
 62
     7
176
     1
 62
   257
176
     1
 90
        1
176
     1
 90
        1
176
     1
 40
1.0
176
     1
 90
        8
176
     1
 62
     7
176
     1
 40
1.0
176
     1
 90
        1
176
     1
 90
        6
176
     1
 90
        2
176
     1
 62
     7
176
     1
 90
        5
176
     1
 90
        0
176
     1
 90
        0
176
     1
290
     0
176
     1
 90
        1
176
     1
 40
-50.0
176
     1
 90
        0
176
     1
290
     0
176
     1
290
     1
176
     1
290
     1
176
     1
290
     0
176
     1
290
     0
176
     1
290
     0
176
     1
290
     0
176
     1
290
     0
176
     1
290
     0
176
     1
 90
       50
176
     1
 40
0.0
176
     1
 40
1.0
176
     1
 90
        0
176
     1
 62
    18
420
        0
176
     1
 90
       50
176
     1
 90
        3
176
     1
 62
     5
420
      255
176
     1
290
     0
176
     1
 90
       50
176
     1
 90
       50
176
     1
 90
       50
176
     1
290
     0
176
     1
 90
       50
176
     1
 62
   256
176
     0
 40
1.0
176
     0
 90
        2
176
     1
  1
strokes_ogs.tif
176
     1
290
     0
176
     1
 40
1.0
176
     1
 40
1.0
176
     1
  0
VISUALSTYLE
  5
DDE
102
{ACAD_REACTORS
330
CD0
102
}
330
CD0
100
AcDbVisualStyle
  2
EdgeColorOff
 70
    22
177
     3
291
     1
 70
    58
 90
        2
176
     0
 90
        2
176
     0
 90
        0
176
     0
 90
        0
176
     0
 40
0.6
176
     0
 40
30.0
176
     0
 62
     7
420
 16777215
176
     0
 90
        1
176
     0
 90
        4
176
     0
 62
     7
176
     0
 62
   257
176
     0
 90
        1
176
     0
 90
        1
176
     0
 40
1.0
176
     0
 90
        8
176
     2
 62
     7
176
     0
 40
1.0
176
     0
 90
        1
176
     0
 90
        6
176
     0
 90
        2
176
     0
 62
     7
176
     0
 90
        5
176
     0
 90
        0
176
     0
 90
        0
176
     0
290
     0
176
     0
 90
        1
176
     0
 40
0.0
176
     0
 90
        0
176
     0
290
     0
176
     0
290
     1
176
     0
290
     1
176
     0
290
     0
176
     0
290
     0
176
     0
290
     0
176
     0
290
     0
176
     0
290
     0
176
     0
290
     0
176
     0
 90
       50
176
     0
 40
0.0
176
     0
 40
1.0
176
     0
 90
        0
176
     0
 62
    18
420
        0
176
     0
 90
       50
176
     0
 90
        3
176
     0
 62
     5
420
      255
176
     0
290
     0
176
     0
 90
       50
176
     0
 90
       50
176
     0
 90
       50
176
     0
290
     0
176
     0
 90
       50
176
     0
 62
   256
176
     0
 40
1.0
176
     0
 90
        2
176
     0
  1
strokes_ogs.tif
176
     0
290
     0
176
     0
 40
1.0
176
     0
 40
1.0
176
     0
  0
VISUALSTYLE
  5
CDF
102
{ACAD_REACTORS
330
CD0
102
}
330
CD0
100
AcDbVisualStyle
  2
Facepattern
 70
    15
177
     3
291
     1
 70
    58
 90
        2
176
     1
 90
        2
176
     1
 90
        0
176
     1
 90
        0
176
     1
 40
-0.6
176
     1
 40
-30.0
176
     1
 62
     7
420
 16777215
176
     1
 90
        1
176
     1
 90
        4
176
     1
 62
     7
176
     1
 62
   257
176
     1
 90
        1
176
     1
 90
        1
176
     1
 40
1.0
176
     1
 90
        8
176
     1
 62
     7
176
     1
 40
1.0
176
     1
 90
        1
176
     1
 90
        6
176
     1
 90
        2
176
     1
 62
     7
176
     1
 90
        5
176
     1
 90
        0
176
     1
 90
        0
176
     1
290
     0
176
     1
 90
        1
176
     1
 40
0.0
176
     1
 90
        0
176
     1
290
     0
176
     1
290
     1
176
     1
290
     1
176
     1
290
     0
176
     1
290
     0
176
     1
290
     0
176
     1
290
     0
176
     1
290
     0
176
     1
290
     0
176
     1
 90
       50
176
     1
 40
0.0
176
     1
 40
1.0
176
     1
 90
        0
176
     1
 62
    18
420
        0
176
     1
 90
       50
176
     1
 90
        3
176
     1
 62
     5
420
      255
176
     1
290
     0
176
     1
 90
       50
176
     1
 90
       50
176
     1
 90
       50
176
     1
290
     0
176
     1
 90
       50
176
     1
 62
   256
176
     0
 40
1.0
176
     0
 90
        2
176
     1
  1
strokes_ogs.tif
176
     1
290
     0
176
     1
 40
1.0
176
     1
 40
1.0
176
     1
  0
VISUALSTYLE
  5
CD1
102
{ACAD_REACTORS
330
CD0
102
}
330
CD0
100
AcDbVisualStyle
  2
Flat
 70
     0
177
     3
291
     1
 70
    58
 90
        2
176
     1
 90
        1
176
     1
 90
        1
176
     1
 90
        2
176
     1
 40
-0.6
176
     1
 40
30.0
176
     1
 62
     7
420
 16777215
176
     1
 90
        0
176
     1
 90
        4
176
     1
 62
     7
176
     1
 62
   257
176
     1
 90
        1
176
     1
 90
        1
176
     1
 40
1.0
176
     1
 90
        8
176
     1
 62
     7
176
     1
 40
1.0
176
     1
 90
        1
176
     1
 90
        6
176
     1
 90
        2
176
     1
 62
     7
176
     1
 90
        5
176
     1
 90
        0
176
     1
 90
        0
176
     1
290
     0
176
     1
 90
       13
176
     1
 40
0.0
176
     1
 90
        0
176
     1
290
     0
176
     1
290
     1
176
     1
290
     1
176
     1
290
     0
176
     1
290
     0
176
     1
290
     0
176
     1
290
     0
176
     1
290
     0
176
     1
290
     0
176
     1
 90
       50
176
     1
 40
0.0
176
     1
 40
1.0
176
     1
 90
        0
176
     1
 62
    18
420
        0
176
     1
 90
       50
176
     1
 90
        3
176
     1
 62
     5
420
      255
176
     1
290
     0
176
     1
 90
       50
176
     1
 90
       50
176
     1
 90
       50
176
     1
290
     0
176
     1
 90
       50
176
     1
 62
   256
176
     0
 40
1.0
176
     0
 90
        2
176
     1
  1
strokes_ogs.tif
176
     1
290
     0
176
     1
 40
1.0
176
     1
 40
1.0
176
     1
  0
VISUALSTYLE
  5
CD2
102
{ACAD_REACTORS
330
CD0
102
}
330
CD0
100
AcDbVisualStyle
  2
FlatWithEdges
 70
     1
177
     3
291
     1
 70
    58
 90
        2
176
     1
 90
        1
176
     1
 90
        1
176
     1
 90
        2
176
     1
 40
-0.6
176
     1
 40
30.0
176
     1
 62
     7
420
 16777215
176
     1
 90
        1
176
     1
 90
        4
176
     1
 62
     7
176
     1
 62
   257
176
     1
 90
        1
176
     1
 90
        1
176
     1
 40
1.0
176
     1
 90
        0
176
     1
 62
   257
176
     1
 40
1.0
176
     1
 90
        1
176
     1
 90
        6
176
     1
 90
        2
176
     1
 62
     7
176
     1
 90
        5
176
     1
 90
        0
176
     1
 90
        0
176
     1
290
     0
176
     1
 90
       13
176
     1
 40
0.0
176
     1
 90
        0
176
     1
290
     0
176
     1
290
     1
176
     1
290
     1
176
     1
290
     0
176
     1
290
     0
176
     1
290
     0
176
     1
290
     0
176
     1
290
     0
176
     1
290
     0
176
     1
 90
       50
176
     1
 40
0.0
176
     1
 40
1.0
176
     1
 90
        0
176
     1
 62
    18
420
        0
176
     1
 90
       50
176
     1
 90
        3
176
     1
 62
     5
420
      255
176
     1
290
     0
176
     1
 90
       50
176
     1
 90
       50
176
     1
 90
       50
176
     1
290
     0
176
     1
 90
       50
176
     1
 62
   256
176
     0
 40
1.0
176
     0
 90
        2
176
     1
  1
strokes_ogs.tif
176
     1
290
     0
176
     1
 40
1.0
176
     1
 40
1.0
176
     1
  0
VISUALSTYLE
  5
CD3
102
{ACAD_REACTORS
330
CD0
102
}
330
CD0
100
AcDbVisualStyle
  2
Gouraud
 70
     2
177
     3
291
     1
 70
    58
 90
        2
176
     1
 90
        2
176
     1
 90
        1
176
     1
 90
        2
176
     1
 40
-0.6
176
     1
 40
30.0
176
     1
 62
     7
420
 16777215
176
     1
 90
        0
176
     1
 90
        4
176
     1
 62
     7
176
     1
 62
   257
176
     1
 90
        1
176
     1
 90
        1
176
     1
 40
1.0
176
     1
 90
        0
176
     1
 62
     7
176
     1
 40
1.0
176
     1
 90
        1
176
     1
 90
        6
176
     1
 90
        2
176
     1
 62
     7
176
     1
 90
        5
176
     1
 90
        0
176
     1
 90
        0
176
     1
290
     0
176
     1
 90
       13
176
     1
 40
0.0
176
     1
 90
        0
176
     1
290
     0
176
     1
290
     1
176
     1
290
     1
176
     1
290
     0
176
     1
290
     0
176
     1
290
     0
176
     1
290
     0
176
     1
290
     0
176
     1
290
     0
176
     1
 90
       50
176
     1
 40
0.0
176
     1
 40
1.0
176
     1
 90
        0
176
     1
 62
    18
420
        0
176
     1
 90
       50
176
     1
 90
        3
176
     1
 62
     5
420
      255
176
     1
290
     0
176
     1
 90
       50
176
     1
 90
       50
176
     1
 90
       50
176
     1
290
     0
176
     1
 90
       50
176
     1
 62
   256
176
     0
 40
1.0
176
     0
 90
        2
176
     1
  1
strokes_ogs.tif
176
     1
290
     0
176
     1
 40
1.0
176
     1
 40
1.0
176
     1
  0
VISUALSTYLE
  5
CD4
102
{ACAD_REACTORS
330
CD0
102
}
330
CD0
100
AcDbVisualStyle
  2
GouraudWithEdges
 70
     3
177
     3
291
     1
 70
    58
 90
        2
176
     1
 90
        2
176
     1
 90
        1
176
     1
 90
        2
176
     1
 40
-0.6
176
     1
 40
30.0
176
     1
 62
     7
420
 16777215
176
     1
 90
        1
176
     1
 90
        4
176
     1
 62
     7
176
     1
 62
   257
176
     1
 90
        1
176
     1
 90
        1
176
     1
 40
1.0
176
     1
 90
        0
176
     1
 62
   257
176
     1
 40
1.0
176
     1
 90
        1
176
     1
 90
        6
176
     1
 90
        2
176
     1
 62
     7
176
     1
 90
        5
176
     1
 90
        0
176
     1
 90
        0
176
     1
290
     0
176
     1
 90
       13
176
     1
 40
0.0
176
     1
 90
        0
176
     1
290
     0
176
     1
290
     1
176
     1
290
     1
176
     1
290
     0
176
     1
290
     0
176
     1
290
     0
176
     1
290
     0
176
     1
290
     0
176
     1
290
     0
176
     1
 90
       50
176
     1
 40
0.0
176
     1
 40
1.0
176
     1
 90
        0
176
     1
 62
    18
420
        0
176
     1
 90
       50
176
     1
 90
        3
176
     1
 62
     5
420
      255
176
     1
290
     0
176
     1
 90
       50
176
     1
 90
       50
176
     1
 90
       50
176
     1
290
     0
176
     1
 90
       50
176
     1
 62
   256
176
     0
 40
1.0
176
     0
 90
        2
176
     1
  1
strokes_ogs.tif
176
     1
290
     0
176
     1
 40
1.0
176
     1
 40
1.0
176
     1
  0
VISUALSTYLE
  5
DDB
102
{ACAD_REACTORS
330
CD0
102
}
330
CD0
100
AcDbVisualStyle
  2
Hidden
 70
     6
177
     3
291
     0
 70
    58
 90
        1
176
     1
 90
        2
176
     1
 90
        2
176
     1
 90
        0
176
     1
 40
0.6
176
     1
 40
30.0
176
     1
 62
     7
420
 16777215
176
     1
 90
        2
176
     1
 90
        2
176
     1
 62
     7
176
     1
 62
   257
176
     1
 90
        2
176
     1
 90
        1
176
     1
 40
40.0
176
     1
 90
        0
176
     1
 62
   257
176
     1
 40
1.0
176
     1
 90
        1
176
     1
 90
        6
176
     1
 90
        2
176
     1
 62
     7
176
     1
 90
        3
176
     1
 90
        0
176
     1
 90
        0
176
     1
290
     0
176
     1
 90
        1
176
     1
 40
0.0
176
     1
 90
        0
176
     1
290
     0
176
     1
290
     1
176
     1
290
     1
176
     1
290
     0
176
     1
290
     0
176
     1
290
     0
176
     1
290
     0
176
     1
290
     0
176
     1
290
     0
176
     1
 90
       50
176
     1
 40
0.0
176
     1
 40
1.0
176
     1
 90
        0
176
     1
 62
    18
420
        0
176
     1
 90
       50
176
     1
 90
        3
176
     1
 62
     5
420
      255
176
     1
290
     0
176
     1
 90
       50
176
     1
 90
       50
176
     1
 90
       50
176
     1
290
     0
176
     1
 90
       50
176
     1
 62
   256
176
     0
 40
1.0
176
     0
 90
        2
176
     1
  1
strokes_ogs.tif
176
     1
290
     0
176
     1
 40
1.0
176
     1
 40
1.0
176
     1
  0
VISUALSTYLE
  5
DDC
102
{ACAD_REACTORS
330
CD0
102
}
330
CD0
100
AcDbVisualStyle
  2
JitterOff
 70
    20
177
     3
291
     1
 70
    58
 90
        2
176
     0
 90
        2
176
     0
 90
        0
176
     0
 90
        0
176
     0
 40
0.6
176
     0
 40
30.0
176
     0
 62
     7
420
 16777215
176
     0
 90
        1
176
     0
 90
        4
176
     0
 62
     7
176
     0
 62
   257
176
     0
 90
        1
176
     0
 90
        1
176
     0
 40
1.0
176
     0
 90
       10
176
     2
 62
     7
176
     0
 40
1.0
176
     0
 90
        1
176
     0
 90
        6
176
     0
 90
        2
176
     0
 62
     7
176
     0
 90
        5
176
     0
 90
        0
176
     0
 90
        0
176
     0
290
     0
176
     0
 90
        1
176
     0
 40
0.0
176
     0
 90
        0
176
     0
290
     0
176
     0
290
     1
176
     0
290
     1
176
     0
290
     0
176
     0
290
     0
176
     0
290
     0
176
     0
290
     0
176
     0
290
     0
176
     0
290
     0
176
     0
 90
       50
176
     0
 40
0.0
176
     0
 40
1.0
176
     0
 90
        0
176
     0
 62
    18
420
        0
176
     0
 90
       50
176
     0
 90
        3
176
     0
 62
     5
420
      255
176
     0
290
     0
176
     0
 90
       50
176
     0
 90
       50
176
     0
 90
       50
176
     0
290
     0
176
     0
 90
       50
176
     0
 62
   256
176
     0
 40
1.0
176
     0
 90
        2
176
     0
  1
strokes_ogs.tif
176
     0
290
     0
176
     0
 40
1.0
176
     0
 40
1.0
176
     0
  0
VISUALSTYLE
  5
CDE
102
{ACAD_REACTORS
330
CD0
102
}
330
CD0
100
AcDbVisualStyle
  2
Linepattern
 70
    14
177
     3
291
     1
 70
    58
 90
        2
176
     1
 90
        2
176
     1
 90
        0
176
     1
 90
        0
176
     1
 40
-0.6
176
     1
 40
-30.0
176
     1
 62
     7
420
 16777215
176
     1
 90
        1
176
     1
 90
        4
176
     1
 62
     7
176
     1
 62
   257
176
     1
 90
        7
176
     1
 90
        7
176
     1
 40
1.0
176
     1
 90
        8
176
     1
 62
     7
176
     1
 40
1.0
176
     1
 90
        1
176
     1
 90
        6
176
     1
 90
        2
176
     1
 62
     7
176
     1
 90
        5
176
     1
 90
        0
176
     1
 90
        0
176
     1
290
     0
176
     1
 90
        1
176
     1
 40
0.0
176
     1
 90
        0
176
     1
290
     0
176
     1
290
     1
176
     1
290
     1
176
     1
290
     0
176
     1
290
     0
176
     1
290
     0
176
     1
290
     0
176
     1
290
     0
176
     1
290
     0
176
     1
 90
       50
176
     1
 40
0.0
176
     1
 40
1.0
176
     1
 90
        0
176
     1
 62
    18
420
        0
176
     1
 90
       50
176
     1
 90
        3
176
     1
 62
     5
420
      255
176
     1
290
     0
176
     1
 90
       50
176
     1
 90
       50
176
     1
 90
       50
176
     1
290
     0
176
     1
 90
       50
176
     1
 62
   256
176
     0
 40
1.0
176
     0
 90
        2
176
     1
  1
strokes_ogs.tif
176
     1
290
     0
176
     1
 40
1.0
176
     1
 40
1.0
176
     1
  0
VISUALSTYLE
  5
DDD
102
{ACAD_REACTORS
330
CD0
102
}
330
CD0
100
AcDbVisualStyle
  2
OverhangOff
 70
    21
177
     3
291
     1
 70
    58
 90
        2
176
     0
 90
        2
176
     0
 90
        0
176
     0
 90
        0
176
     0
 40
0.6
176
     0
 40
30.0
176
     0
 62
     7
420
 16777215
176
     0
 90
        1
176
     0
 90
        4
176
     0
 62
     7
176
     0
 62
   257
176
     0
 90
        1
176
     0
 90
        1
176
     0
 40
1.0
176
     0
 90
        9
176
     2
 62
     7
176
     0
 40
1.0
176
     0
 90
        1
176
     0
 90
        6
176
     0
 90
        2
176
     0
 62
     7
176
     0
 90
        5
176
     0
 90
        0
176
     0
 90
        0
176
     0
290
     0
176
     0
 90
        1
176
     0
 40
0.0
176
     0
 90
        0
176
     0
290
     0
176
     0
290
     1
176
     0
290
     1
176
     0
290
     0
176
     0
290
     0
176
     0
290
     0
176
     0
290
     0
176
     0
290
     0
176
     0
290
     0
176
     0
 90
       50
176
     0
 40
0.0
176
     0
 40
1.0
176
     0
 90
        0
176
     0
 62
    18
420
        0
176
     0
 90
       50
176
     0
 90
        3
176
     0
 62
     5
420
      255
176
     0
290
     0
176
     0
 90
       50
176
     0
 90
       50
176
     0
 90
       50
176
     0
290
     0
176
     0
 90
       50
176
     0
 62
   256
176
     0
 40
1.0
176
     0
 90
        2
176
     0
  1
strokes_ogs.tif
176
     0
290
     0
176
     0
 40
1.0
176
     0
 40
1.0
176
     0
  0
VISUALSTYLE
  5
CD9
102
{ACAD_REACTORS
330
CD0
102
}
330
CD0
100
AcDbVisualStyle
  2
Realistic
 70
     8
177
     3
291
     0
 70
    58
 90
        2
176
     1
 90
        2
176
     1
 90
        0
176
     1
 90
        0
176
     1
 40
-0.6
176
     1
 40
-30.0
176
     1
 62
     7
420
 16777215
176
     1
 90
        1
176
     1
 90
        0
176
     1
 62
     7
176
     1
 62
   257
176
     1
 90
        1
176
     1
 90
        1
176
     1
 40
1.0
176
     1
 90
        8
176
     1
 62
     8
420
  7895160
176
     1
 40
1.0
176
     1
 90
        1
176
     1
 90
        6
176
     1
 90
        2
176
     1
 62
     7
176
     1
 90
        5
176
     1
 90
        0
176
     1
 90
        0
176
     1
290
     0
176
     1
 90
       13
176
     1
 40
0.0
176
     1
 90
        0
176
     1
290
     0
176
     1
290
     1
176
     1
290
     1
176
     1
290
     0
176
     1
290
     0
176
     1
290
     0
176
     1
290
     0
176
     1
290
     0
176
     1
290
     0
176
     1
 90
       50
176
     1
 40
0.0
176
     1
 40
1.0
176
     1
 90
        0
176
     1
 62
    18
420
        0
176
     1
 90
       50
176
     1
 90
        3
176
     1
 62
     5
420
      255
176
     1
290
     0
176
     1
 90
       50
176
     1
 90
       50
176
     1
 90
       50
176
     1
290
     0
176
     1
 90
       50
176
     1
 62
   256
176
     0
 40
1.0
176
     0
 90
        2
176
     1
  1
strokes_ogs.tif
176
     1
290
     0
176
     1
 40
1.0
176
     1
 40
1.0
176
     1
  0
VISUALSTYLE
  5
DE3
102
{ACAD_REACTORS
330
CD0
102
}
330
CD0
100
AcDbVisualStyle
  2
Shaded
 70
    27
177
     3
291
     0
 70
    58
 90
        2
176
     1
 90
        2
176
     1
 90
        1
176
     1
 90
        2
176
     1
 40
0.6
176
     1
 40
30.0
176
     1
 62
     7
420
 16777215
176
     1
 90
        0
176
     1
 90
        4
176
     1
 62
     7
176
     1
 62
   257
176
     1
 90
        1
176
     1
 90
        1
176
     1
 40
1.0
176
     1
 90
        8
176
     1
 62
   257
176
     1
 40
1.0
176
     1
 90
        1
176
     1
 90
        6
176
     1
 90
        2
176
     1
 62
     8
420
  7895160
176
     1
 90
        3
176
     1
 90
        0
176
     1
 90
        0
176
     1
290
     0
176
     1
 90
        5
176
     1
 40
0.0
176
     1
 90
        0
176
     1
290
     0
176
     1
290
     1
176
     1
290
     1
176
     1
290
     0
176
     1
290
     0
176
     1
290
     0
176
     1
290
     0
176
     1
290
     0
176
     1
290
     0
176
     1
 90
       50
176
     1
 40
0.0
176
     1
 40
1.0
176
     1
 90
        0
176
     1
 62
    18
420
        0
176
     1
 90
       50
176
     1
 90
        3
176
     1
 62
     5
420
      255
176
     1
290
     0
176
     1
 90
       50
176
     1
 90
       50
176
     1
 90
       50
176
     1
290
     0
176
     1
 90
       50
176
     1
 62
   256
176
     0
 40
1.0
176
     0
 90
        2
176
     1
  1
strokes_ogs.tif
176
     1
290
     0
176
     1
 40
1.0
176
     1
 40
1.0
176
     1
  0
VISUALSTYLE
  5
DE2
102
{ACAD_REACTORS
330
CD0
102
}
330
CD0
100
AcDbVisualStyle
  2
Shaded with edges
 70
    26
177
     3
291
     0
 70
    58
 90
        2
176
     1
 90
        2
176
     1
 90
        1
176
     1
 90
        2
176
     1
 40
0.6
176
     1
 40
30.0
176
     1
 62
     7
420
 16777215
176
     1
 90
        1
176
     1
 90
       10
176
     1
 62
     7
176
     1
 62
   257
176
     1
 90
        2
176
     1
 90
        1
176
     1
 40
1.0
176
     1
 90
        8
176
     1
 62
   257
176
     1
 40
1.0
176
     1
 90
        1
176
     1
 90
        6
176
     1
 90
        2
176
     1
 62
     7
176
     1
 90
        3
176
     1
 90
        0
176
     1
 90
        0
176
     1
290
     0
176
     1
 90
        5
176
     1
 40
0.0
176
     1
 90
        0
176
     1
290
     0
176
     1
290
     1
176
     1
290
     1
176
     1
290
     0
176
     1
290
     0
176
     1
290
     0
176
     1
290
     0
176
     1
290
     0
176
     1
290
     0
176
     1
 90
       50
176
     1
 40
0.0
176
     1
 40
1.0
176
     1
 90
        0
176
     1
 62
    18
420
        0
176
     1
 90
       50
176
     1
 90
        3
176
     1
 62
     5
420
      255
176
     1
290
     0
176
     1
 90
       50
176
     1
 90
       50
176
     1
 90
       50
176
     1
290
     0
176
     1
 90
       50
176
     1
 62
   256
176
     0
 40
1.0
176
     0
 90
        2
176
     1
  1
strokes_ogs.tif
176
     1
290
     0
176
     1
 40
1.0
176
     1
 40
1.0
176
     1
  0
VISUALSTYLE
  5
DDF
102
{ACAD_REACTORS
330
CD0
102
}
330
CD0
100
AcDbVisualStyle
  2
Shades of Gray
 70
    23
177
     3
291
     0
 70
    58
 90
        2
176
     1
 90
        2
176
     1
 90
        3
176
     1
 90
        0
176
     1
 40
0.6
176
     1
 40
30.0
176
     1
 62
     7
420
 16777215
176
     1
 90
        2
176
     1
 90
        2
176
     1
 62
     7
176
     1
 62
     7
176
     1
 90
        1
176
     1
 90
        1
176
     1
 40
40.0
176
     1
 90
        8
176
     1
 62
     7
176
     1
 40
1.0
176
     1
 90
        1
176
     1
 90
        6
176
     1
 90
        2
176
     1
 62
     7
176
     1
 90
        3
176
     1
 90
        0
176
     1
 90
        0
176
     1
290
     0
176
     1
 90
        1
176
     1
 40
0.0
176
     1
 90
        0
176
     1
290
     0
176
     1
290
     1
176
     1
290
     1
176
     1
290
     0
176
     1
290
     0
176
     1
290
     0
176
     1
290
     0
176
     1
290
     0
176
     1
290
     0
176
     1
 90
       50
176
     1
 40
0.0
176
     1
 40
1.0
176
     1
 90
        0
176
     1
 62
    18
420
        0
176
     1
 90
       50
176
     1
 90
        3
176
     1
 62
     5
420
      255
176
     1
290
     0
176
     1
 90
       50
176
     1
 90
       50
176
     1
 90
       50
176
     1
290
     0
176
     1
 90
       50
176
     1
 62
   256
176
     0
 40
1.0
176
     0
 90
        2
176
     1
  1
strokes_ogs.tif
176
     1
290
     0
176
     1
 40
1.0
176
     1
 40
1.0
176
     1
  0
VISUALSTYLE
  5
DE0
102
{ACAD_REACTORS
330
CD0
102
}
330
CD0
100
AcDbVisualStyle
  2
Sketchy
 70
    24
177
     3
291
     0
 70
    58
 90
        1
176
     1
 90
        2
176
     1
 90
        2
176
     1
 90
        0
176
     1
 40
0.6
176
     1
 40
30.0
176
     1
 62
     7
420
 16777215
176
     1
 90
        2
176
     1
 90
        2
176
     1
 62
     7
176
     1
 62
     7
176
     1
 90
        1
176
     1
 90
        1
176
     1
 40
40.0
176
     1
 90
       11
176
     1
 62
     7
176
     1
 40
1.0
176
     1
 90
        1
176
     1
 90
        6
176
     1
 90
        2
176
     1
 62
     7
176
     1
 90
        6
176
     1
 90
        0
176
     1
 90
        0
176
     1
290
     0
176
     1
 90
        1
176
     1
 40
0.0
176
     1
 90
        0
176
     1
290
     0
176
     1
290
     1
176
     1
290
     1
176
     1
290
     0
176
     1
290
     0
176
     1
290
     0
176
     1
290
     0
176
     1
290
     0
176
     1
290
     0
176
     1
 90
       50
176
     1
 40
0.0
176
     1
 40
1.0
176
     1
 90
        0
176
     1
 62
    18
420
        0
176
     1
 90
       50
176
     1
 90
        3
176
     1
 62
     5
420
      255
176
     1
290
     0
176
     1
 90
       50
176
     1
 90
       50
176
     1
 90
       50
176
     1
290
     0
176
     1
 90
       50
176
     1
 62
   256
176
     0
 40
1.0
176
     0
 90
        2
176
     1
  1
strokes_ogs.tif
176
     1
290
     0
176
     1
 40
1.0
176
     1
 40
1.0
176
     1
  0
VISUALSTYLE
  5
CDD
102
{ACAD_REACTORS
330
CD0
102
}
330
CD0
100
AcDbVisualStyle
  2
Thicken
 70
    13
177
     3
291
     1
 70
    58
 90
        2
176
     1
 90
        2
176
     1
 90
        0
176
     1
 90
        0
176
     1
 40
-0.6
176
     1
 40
-30.0
176
     1
 62
     7
420
 16777215
176
     1
 90
        1
176
     1
 90
        4
176
     1
 62
     7
176
     1
 62
   257
176
     1
 90
        1
176
     1
 90
        1
176
     1
 40
1.0
176
     1
 90
       12
176
     1
 62
     7
176
     1
 40
1.0
176
     1
 90
        1
176
     1
 90
        6
176
     1
 90
        2
176
     1
 62
     7
176
     1
 90
        5
176
     1
 90
        0
176
     1
 90
        0
176
     1
290
     0
176
     1
 90
        1
176
     1
 40
0.0
176
     1
 90
        0
176
     1
290
     0
176
     1
290
     1
176
     1
290
     1
176
     1
290
     0
176
     1
290
     0
176
     1
290
     0
176
     1
290
     0
176
     1
290
     0
176
     1
290
     0
176
     1
 90
       50
176
     1
 40
0.0
176
     1
 40
1.0
176
     1
 90
        0
176
     1
 62
    18
420
        0
176
     1
 90
       50
176
     1
 90
        3
176
     1
 62
     5
420
      255
176
     1
290
     0
176
     1
 90
       50
176
     1
 90
       50
176
     1
 90
       50
176
     1
290
     0
176
     1
 90
       50
176
     1
 62
   256
176
     0
 40
1.0
176
     0
 90
        2
176
     1
  1
strokes_ogs.tif
176
     1
290
     0
176
     1
 40
1.0
176
     1
 40
1.0
176
     1
  0
VISUALSTYLE
  5
DDA
102
{ACAD_REACTORS
330
CD0
102
}
330
CD0
100
AcDbVisualStyle
  2
Wireframe
 70
     5
177
     3
291
     0
 70
    58
 90
        0
176
     1
 90
        2
176
     1
 90
        0
176
     1
 90
        0
176
     1
 40
0.6
176
     1
 40
30.0
176
     1
 62
     7
420
 16777215
176
     1
 90
        1
176
     1
 90
        4
176
     1
 62
     7
176
     1
 62
   257
176
     1
 90
        1
176
     1
 90
        1
176
     1
 40
1.0
176
     1
 90
        0
176
     1
 62
   257
176
     1
 40
1.0
176
     1
 90
        1
176
     1
 90
        6
176
     1
 90
        2
176
     1
 62
     7
176
     1
 90
        3
176
     1
 90
        0
176
     1
 90
        0
176
     1
290
     0
176
     1
 90
        1
176
     1
 40
0.0
176
     1
 90
        0
176
     1
290
     0
176
     1
290
     1
176
     1
290
     1
176
     1
290
     0
176
     1
290
     0
176
     1
290
     0
176
     1
290
     0
176
     1
290
     0
176
     1
290
     0
176
     1
 90
       50
176
     1
 40
0.0
176
     1
 40
1.0
176
     1
 90
        0
176
     1
 62
    18
420
        0
176
     1
 90
       50
176
     1
 90
        3
176
     1
 62
     5
420
      255
176
     1
290
     0
176
     1
 90
       50
176
     1
 90
       50
176
     1
 90
       50
176
     1
290
     0
176
     1
 90
       50
176
     1
 62
   256
176
     0
 40
1.0
176
     0
 90
        2
176
     1
  1
strokes_ogs.tif
176
     1
290
     0
176
     1
 40
1.0
176
     1
 40
1.0
176
     1
  0
VISUALSTYLE
  5
DE1
102
{ACAD_REACTORS
330
CD0
102
}
330
CD0
100
AcDbVisualStyle
  2
X-Ray
 70
    25
177
     3
291
     0
 70
    58
 90
        2
176
     1
 90
        2
176
     1
 90
        1
176
     1
 90
        1
176
     1
 40
0.5
176
     1
 40
30.0
176
     1
 62
     7
420
 16777215
176
     1
 90
        1
176
     1
 90
        0
176
     1
 62
     7
176
     1
 62
   257
176
     1
 90
        1
176
     1
 90
        1
176
     1
 40
1.0
176
     1
 90
        8
176
     1
 62
     7
176
     1
 40
1.0
176
     1
 90
        1
176
     1
 90
        6
176
     1
 90
        2
176
     1
 62
     7
176
     1
 90
        3
176
     1
 90
        0
176
     1
 90
        0
176
     1
290
     0
176
     1
 90
       13
176
     1
 40
0.0
176
     1
 90
        0
176
     1
290
     0
176
     1
290
     1
176
     1
290
     1
176
     1
290
     0
176
     1
290
     0
176
     1
290
     0
176
     1
290
     0
176
     1
290
     0
176
     1
290
     0
176
     1
 90
       50
176
     1
 40
0.0
176
     1
 40
1.0
176
     1
 90
        0
176
     1
 62
    18
420
        0
176
     1
 90
       50
176
     1
 90
        3
176
     1
 62
     5
420
      255
176
     1
290
     0
176
     1
 90
       50
176
     1
 90
       50
176
     1
 90
       50
176
     1
290
     0
176
     1
 90
       50
176
     1
 62
   256
176
     0
 40
1.0
176
     0
 90
        2
176
     1
  1
strokes_ogs.tif
176
     1
290
     0
176
     1
 40
1.0
176
     1
 40
1.0
176
     1
  0
DICTIONARYVAR
  5
DD8
102
{ACAD_REACTORS
330
DD7
102
}
330
DD7
100
DictionaryVariables
280
     0
  1
1:1
  0
DICTIONARYVAR
  5
E6A
102
{ACAD_REACTORS
330
DD7
102
}
330
DD7
100
DictionaryVariables
280
     0
  1
Standard
  0
DICTIONARYVAR
  5
DD9
102
{ACAD_REACTORS
330
DD7
102
}
330
DD7
100
DictionaryVariables
280
     0
  1
Standard
  0
DICTIONARYVAR
  5
FAD
102
{ACAD_REACTORS
330
DD7
102
}
330
DD7
100
DictionaryVariables
280
     0
  1
ByLayer
  0
DICTIONARYVAR
  5
1607F
102
{ACAD_REACTORS
330
84AB
102
}
330
84AB
100
DictionaryVariables
280
     0
  1
0.250000
  0
DICTIONARYVAR
  5
1607D
102
{ACAD_REACTORS
330
84A6
102
}
330
84A6
100
DictionaryVariables
280
     0
  1
0.261799
  0
DICTIONARYVAR
  5
1607B
102
{ACAD_REACTORS
330
84A6
102
}
330
84A6
100
DictionaryVariables
280
     0
  1
0.400000
  0
DICTIONARYVAR
  5
1607C
102
{ACAD_REACTORS
330
84A6
102
}
330
84A6
100
DictionaryVariables
280
     0
  1
0.250000
  0
DICTIONARYVAR
  5
1607E
102
{ACAD_REACTORS
330
84A6
102
}
330
84A6
100
DictionaryVariables
280
     0
  1
0
  0
DICTIONARY
  5
A5010
330
CE2
100
AcDbDictionary
280
     1
281
     1
  3
ACAD_ROUNDTRIP_2008_TABLESTYLE_CELLSTYLEMAP
360
A5011
  0
CELLSTYLEMAP
  5
A5011
102
{ACAD_REACTORS
330
A5010
102
}
330
A5010
100
AcDbCellStyleMap
 90
        3
300
CELLSTYLE
  1
TABLEFORMAT_BEGIN
 90
        5
170
     1
 91
        0
 92
        0
 62
   257
 93
        1
300
CONTENTFORMAT
  1
CONTENTFORMAT_BEGIN
 90
        0
 91
        0
 92
        4
 93
        0
300

 40
0.0
140
1.0
 94
        5
 62
     0
340
10
144
0.25
309
CONTENTFORMAT_END
171
     1
301
MARGIN
  1
CELLMARGIN_BEGIN
 40
0.06
 40
0.06
 40
0.06
 40
0.06
 40
0.06
 40
0.06
309
CELLMARGIN_END
 94
        6
 95
        1
302
GRIDFORMAT
  1
GRIDFORMAT_BEGIN
 90
        0
 91
        1
 62
     0
 92
       -2
340
12
 93
        0
 40
0.045
309
GRIDFORMAT_END
 95
        2
302
GRIDFORMAT
  1
GRIDFORMAT_BEGIN
 90
        0
 91
        1
 62
     0
 92
       -2
340
12
 93
        0
 40
0.045
309
GRIDFORMAT_END
 95
        4
302
GRIDFORMAT
  1
GRIDFORMAT_BEGIN
 90
        0
 91
        1
 62
     0
 92
       -2
340
12
 93
        0
 40
0.045
309
GRIDFORMAT_END
 95
        8
302
GRIDFORMAT
  1
GRIDFORMAT_BEGIN
 90
        0
 91
        1
 62
     0
 92
       -2
340
12
 93
        0
 40
0.045
309
GRIDFORMAT_END
 95
       16
302
GRIDFORMAT
  1
GRIDFORMAT_BEGIN
 90
        0
 91
        1
 62
     0
 92
       -2
340
12
 93
        0
 40
0.045
309
GRIDFORMAT_END
 95
       32
302
GRIDFORMAT
  1
GRIDFORMAT_BEGIN
 90
        0
 91
        1
 62
     0
 92
       -2
340
12
 93
        0
 40
0.045
309
GRIDFORMAT_END
309
TABLEFORMAT_END
  1
CELLSTYLE_BEGIN
 90
        1
 91
        1
300
_TITLE
309
CELLSTYLE_END
300
CELLSTYLE
  1
TABLEFORMAT_BEGIN
 90
        5
170
     1
 91
        0
 92
        0
 62
   257
 93
        1
300
CONTENTFORMAT
  1
CONTENTFORMAT_BEGIN
 90
        0
 91
        0
 92
        4
 93
        0
300

 40
0.0
140
1.0
 94
        5
 62
     0
340
10
144
0.18
309
CONTENTFORMAT_END
171
     1
301
MARGIN
  1
CELLMARGIN_BEGIN
 40
0.06
 40
0.06
 40
0.06
 40
0.06
 40
0.06
 40
0.06
309
CELLMARGIN_END
 94
        6
 95
        1
302
GRIDFORMAT
  1
GRIDFORMAT_BEGIN
 90
        0
 91
        1
 62
     0
 92
       -2
340
12
 93
        0
 40
0.045
309
GRIDFORMAT_END
 95
        2
302
GRIDFORMAT
  1
GRIDFORMAT_BEGIN
 90
        0
 91
        1
 62
     0
 92
       -2
340
12
 93
        0
 40
0.045
309
GRIDFORMAT_END
 95
        4
302
GRIDFORMAT
  1
GRIDFORMAT_BEGIN
 90
        0
 91
        1
 62
     0
 92
       -2
340
12
 93
        0
 40
0.045
309
GRIDFORMAT_END
 95
        8
302
GRIDFORMAT
  1
GRIDFORMAT_BEGIN
 90
        0
 91
        1
 62
     0
 92
       -2
340
12
 93
        0
 40
0.045
309
GRIDFORMAT_END
 95
       16
302
GRIDFORMAT
  1
GRIDFORMAT_BEGIN
 90
        0
 91
        1
 62
     0
 92
       -2
340
12
 93
        0
 40
0.045
309
GRIDFORMAT_END
 95
       32
302
GRIDFORMAT
  1
GRIDFORMAT_BEGIN
 90
        0
 91
        1
 62
     0
 92
       -2
340
12
 93
        0
 40
0.045
309
GRIDFORMAT_END
309
TABLEFORMAT_END
  1
CELLSTYLE_BEGIN
 90
        2
 91
        1
300
_HEADER
309
CELLSTYLE_END
300
CELLSTYLE
  1
TABLEFORMAT_BEGIN
 90
        5
170
     1
 91
        0
 92
        0
 62
   257
 93
        1
300
CONTENTFORMAT
  1
CONTENTFORMAT_BEGIN
 90
        0
 91
        0
 92
        4
 93
        0
300

 40
0.0
140
1.0
 94
        2
 62
     0
340
10
144
0.18
309
CONTENTFORMAT_END
171
     1
301
MARGIN
  1
CELLMARGIN_BEGIN
 40
0.06
 40
0.06
 40
0.06
 40
0.06
 40
0.06
 40
0.06
309
CELLMARGIN_END
 94
        6
 95
        1
302
GRIDFORMAT
  1
GRIDFORMAT_BEGIN
 90
        0
 91
        1
 62
     0
 92
       -2
340
12
 93
        0
 40
0.045
309
GRIDFORMAT_END
 95
        2
302
GRIDFORMAT
  1
GRIDFORMAT_BEGIN
 90
        0
 91
        1
 62
     0
 92
       -2
340
12
 93
        0
 40
0.045
309
GRIDFORMAT_END
 95
        4
302
GRIDFORMAT
  1
GRIDFORMAT_BEGIN
 90
        0
 91
        1
 62
     0
 92
       -2
340
12
 93
        0
 40
0.045
309
GRIDFORMAT_END
 95
        8
302
GRIDFORMAT
  1
GRIDFORMAT_BEGIN
 90
        0
 91
        1
 62
     0
 92
       -2
340
12
 93
        0
 40
0.045
309
GRIDFORMAT_END
 95
       16
302
GRIDFORMAT
  1
GRIDFORMAT_BEGIN
 90
        0
 91
        1
 62
     0
 92
       -2
340
12
 93
        0
 40
0.045
309
GRIDFORMAT_END
 95
       32
302
GRIDFORMAT
  1
GRIDFORMAT_BEGIN
 90
        0
 91
        1
 62
     0
 92
       -2
340
12
 93
        0
 40
0.045
309
GRIDFORMAT_END
309
TABLEFORMAT_END
  1
CELLSTYLE_BEGIN
 90
        3
 91
        2
300
_DATA
309
CELLSTYLE_END
  0
ENDSEC
  0
SECTION
  2
ACDSDATA
 70
     2
 71
     2
  0
ACDSSCHEMA
 90
        0
  1
AcDb_Thumbnail_Schema
  2
AcDbDs::ID
280
    10
 91
        8
  2
Thumbnail_Data
280
    15
 91
        0
101
ACDSRECORD
 95
        0
 90
        2
  2
AcDbDs::TreatedAsObjectData
280
     1
291
     1
101
ACDSRECORD
 95
        0
 90
        3
  2
AcDbDs::Legacy
280
     1
291
     1
101
ACDSRECORD
  1
AcDbDs::ID
 90
        4
  2
AcDs:Indexable
280
     1
291
     1
101
ACDSRECORD
  1
AcDbDs::ID
 90
        5
  2
AcDbDs::HandleAttribute
280
     7
282
     1
  0
ACDSSCHEMA
 90
        1
  1
AcDb3DSolid_ASM_Data
  2
AcDbDs::ID
280
    10
 91
        8
  2
ASM_Data
280
    15
 91
        0
101
ACDSRECORD
 95
        1
 90
        2
  2
AcDbDs::TreatedAsObjectData
280
     1
291
     1
101
ACDSRECORD
 95
        1
 90
        3
  2
AcDbDs::Legacy
280
     1
291
     1
101
ACDSRECORD
  1
AcDbDs::ID
 90
        4
  2
AcDs:Indexable
280
     1
291
     1
101
ACDSRECORD
  1
AcDbDs::ID
 90
        5
  2
AcDbDs::HandleAttribute
280
     7
282
     1
  0
ACDSSCHEMA
 90
        2
  1
AcDbDs::TreatedAsObjectDataSchema
  2
AcDbDs::TreatedAsObjectData
280
     1
 91
        0
  0
ACDSSCHEMA
 90
        3
  1
AcDbDs::LegacySchema
  2
AcDbDs::Legacy
280
     1
 91
        0
  0
ACDSSCHEMA
 90
        4
  1
AcDbDs::IndexedPropertySchema
  2
AcDs:Indexable
280
     1
 91
        0
  0
ACDSSCHEMA
 90
        5
  1
AcDbDs::HandleAttributeSchema
  2
AcDbDs::HandleAttribute
280
     7
 91
        1
284
     1
  0
ACDSRECORD
 90
        0
  2
AcDbDs::ID
280
    10
320
CA8
  2
Thumbnail_Data
280
    15
 94
     4769
310
89504E470D0A1A0A0000000D49484452000001000000007A0802000000DFDE1A22000000097048597300000EC400000EC401952B0E1B0000125349444154789CED9DDB6FDB46F6C7CFF0A28B65C9B2E48BEC24B6DB3897266DD26E0B74775F7E58A001FAB2FFE5FE0BFBB0E84317BBC0029BC289D316BD78EDDAB1125992AD
310
3B49F13AF37B60C3D21CDAA25DD196CCF37908A8E15C0E9D391C726678BEE4871F7E0004492AC2751B8020D7093A009268D0019044830E80241A740024D1A0032089061D004934E80048A2410740120D3A009268A498EA253A914E249AA62000CD525111ED923DB2353224524B02064C64CE8223F4049AA36C868D28A512A9
310
233189B13463221334C12ED9901ADBB59C6A4B2352DBD7962A008033EF480DC95AB5408EA551243EE21A018481408624BD9F2636916B727A272DB5473B9BD817894EE49A4C2C22D764B929B3D488DE0F00E240243A491DA68041E6A74CAA9A1207E2382EE24C0B5387290048EFA6E5862C1D4BE9BD3471487C8D22F141AE72
310
339CD46CCAB51AD134EDCF7FBEB246E363E6F97300D03EFB0C9800D8F9A793B81E81C4E363B95EB7CB657F22B16D268A6C6E4EAAD5FCE982AE13D3341E3E8CC9983122D5EB72BD6E2D2D01009D9961B22CD5EB0020B5DBCEFCBC75EBD6751B885C8C181CC0B6B3AF5E1DDFB9F3AFC343FAFA3577D2962409F6F7FD8994D247
310
1B1B9B00ED76FBC58B17BAAE074A31C656575703898EE3148BC5FBF7EFB75AADDDDD5D490A5E4BA7D3E1AB722CEBF3F5F5DB950ACB649C52E9A217D706F8EFF1B1F1E64D205D96E53F96CB735CFE9393936AB54A290DA4534A3FFAE8A34C2673510390F112830388A2BDB0A050BAB4BCFCD9679F054E6E6D6D7DFAE9A781C4
310
7ABD5EAD560140D7F5478F1EF17DFD9B6FBEB977EF9E3F8531669A66A3D10000C330161717CBE53221C49FE7FBEFBFFFE28B2F0255753A9D76BB6DAFAE665EBDBA840328943E7EFC98B7B056ABA98CF10E609AE6F2F2329FFFA79F7E721CE7A2AD23632706072084C9639E0D218488E2A9A76CC698FF962F08023F0208C279
310
AFF8F6E2E2182D44A694E95807602C381714B8D9472C852001E27A091E3BEE63B4DBEFDD9EED7FB0668CF119106424D3310220484C4CCD08E07FA0776FF381143E03828C643A4600BE434779C84137404612EF08B0BBBBDBEBF5BC9FF97C1E005AADD6C1C1813F5BA552F1FFDCDBDBEB76BBDECFB9B9B962B1B8BBBBBB7F7A
310
F5E0C30F3FF48E55553D3C3C6CB7DB5E4AA9542A168BED76DB5F8A10F2DE7BEF0140EEDFFF3637362E7D5D010B8BC562369BBD746D1E5F7DF5D5B367CF7E7F3D4874C6EF0033CF9F9BB76FBBC79B9B9B81B35B5B5BE572B97C7A85B85EAFFB7FDEBD7B3750AA56AB6D6E6E3E7DFAD49FA8EBFAEEEEAE7B3C3F3FFFF8F163BE
310
54A9542A9D9EECEF743A00200E06C4B2A25F5480500B2F5D9B47E9E2EB12C8EF64FC0E903A3CF41C6062D1FEF00772DDEB50F57ADD3F6E1C1F1F2B8A728DF62493F1BF0398D3B01FC6AE54D875BF2148A7711CC7B6EDEB3529818C7F04D0FEF427691CCF03379E62B1383333E3FDCCE57218A6F2EA999A69D09B872449B26F
310
CF882CCBE7EFDD40E2001DE0DAD8DEDEF6EF06751C0717B0AF1E74806BA352A904264FDFBE7D7B5DC6241674806BA352A9E472397FCAD1D1D1751993586274004551F8D9F15EAFC727FA17B0FAFD3E5FD5C9C9099F689AA6BFDA88A5947E7F763090B2D9D4C181CD6DD38F42A885DD6EB7582C86E677571E02689A16980605
310
80803F2057408C0EB018B6E1FE61D8778FA552E9FC9BDFC2C2C2250C082D450186A592BDBA7AB9DE7F09E4B0AF236459E64700FEBB19246E62748062B118FD7FD4738042A110B1947F25786E6E2E62A96C36EB1F702E41740B5D666767F9FCA1C30872F58CDF01145D99DFF9B9F7FE9A63DA597D4081894400008751001089
310
400028FB2DD1CD30D0D513BDDF3554D334668C39CAA89BC1669485D44028A39669A943ADA5F7BB862252D231142F8300C4F9AD0687017835F40DE564D05930542F0305E61DBB79242210F875998C01305F8681A30F0D7DC698F356D1DC0C2D639092E48EA1B835C8E4D7EFD73AFA409265D736AF09CAA8E2183D53B525700D
310
704B8944C8CB5949C0081357C795864541904903575E9044830E80241A740024D1A0032089061D004934E80048A2410740120D3A009268D0019044830E80241A740024D1C42692A711E94402062CCB688A8A7DD15EB25966C4277F822A882D91D88489CC293BBFCADD8DB2515004B12D0203966140800C8975CB1A2DC8E759
310
98613443A59664DDB6A24892213789D844F20C0128089A0000A2228A3D91E8A3C3901083000362109666C240906BB2301C6D21D10930100722CD50E9442234925E9DA00BC07EB3503A968886A11413C7D58AE4D56AA96A556A36FB7FFDEB95358A20E710D72390D46CCAD5AAB5B2E24F24943AC5A2B5B212081C24F6FB40A9
310
F1E8514CC620C859C4229237F3FCF9DBCDCDAD4E679E3B39180CDC10B97E1CD39C1B0C1E178BCD66F34755E5A5E3068381FBF9AC5FFFC2B6ED7C3EFFE4C9937ABDBEB3B3934EA70319344D2B140A81AA344D5B5E5EBE7FFF7EB3D9FCF1C71F33998CBF08214455D55C2EE7FDF44EA552A94F3EF9E4A27F8CA3A3A36AB51AD0
310
770200D3349F3E7DEA0F8C855C0B31388024991B1B06A5C56291D7C33B4724CF5E5E66FFFBDF7BF7EE858AE43DE2C607D334DD382294D2B5B535FE13E4EFBEFB8E6FCB15C90300DBB6D7D7D7171717092194522F96FAB7DF7ECBC7D9A594EEECEC8CBC741EC6D8EDDBB74345F2300AD0243049D3A0A248676743CF10421863
310
5E8F61EFF03204520267CFC2155672737A45789125BF7B20378C49890B444C53E644853DBCEE18D005E3B3799D38A20F044AD177B8C75E1E5EE817B9194CD00890FDEEBB9179888F73CEC245E461FCF903FF9ED51072639814076092A471AADA1E84033819603ECFC858B3FE9CA1C7D1AB42A6944979040241A0DCE48F0763
310
2CA0ABCE18F347D3A794F219464AB1BBA5DC3701EF4EEF380E5F15BEB0DE54627400C3305EBE7C19D008D334EDE0E020A011766B652557AD660D43EE749452697B7B3BA011A6699AA66981FAFDA1112DCBE233E8BAFEFAF5EB8046D8FBEFBFEFB770381C066681745DE7ABA294A6745DE8F74114E9980218B6DBED406438C3
310
30DCC95CE4CA887704083C439FF5044F0831F379613874FB165FEAD6AD5BA6690644F21E3F7EECC5574BA7D3CD66D31F85737E7E7E6D6D2DD400EF67B7DB350CC3EFA28542219D4EBB9EE36FABE22ACA1092F9FE7BEDF3CF2FF5C708C22B827DFDF5D75F7EF9E5582A4722327E0798FDE73FF5FBF701209D4E7FFCF1C781B3
310
5B5B5BEBEBEBEBEBEBFEC47ABDDE2916D50F3E707EFE399D4E07C4F000A056ABADAEAEAEADADF913755DF78ED3E9B42BFF38B254A7D3310CC33D4EA552A1166E6C6C6C9CD690ACD56A8AA2D07CDEBC73E7CC2BFFDD844653456265FC0E201D1FC3FDFB972878D622C04D25101DFAE8E82834C635122BE39FDC187EF4D1D8EB
310
9C1088A6C5A72DE92DC92157C9F84700E3E1C39B2A9237B3BD6D9F2102700902E1D19797975FBE7C39AECA91884CCAF43631CDC2DFFF7EDD568CC05A5C64B1CDD288A2888B6E57CF04AD0338DC2ED149C3BC776F8C835B4024CF344D5C6EBB7A26C50198281A1B1B70439F9D424191BC4960521C0008B1575626DF0188658D
310
AB2A14C99B04E25D09E6F5F04CD3E413FD7A41A1DA41A1F3832345F24213FBFDBE27DA156A21D5343E516DB532AD9654ABC9CDA6757A116324A162819665F12279FCD2181237F16A84F189EB61BDA75028A8AA7A4E5573737397306064A9500BEFE6F3EE025BF6D52B613834EEDEB51717CB8EB35F2E5F4E5ACFBF67C9C3B2
310
2C7E0440AE9E181C8031C2185C42248F3160EC2A45F2422D946D5B6CB7ED524978F8101873B7E8A57BBDFDCBAED385B682227913420C2279863ABFBFA7BDBFE130DA8E2C92976576EA975F1C5DED18CA8CA14611C9736CDB499196DE57C1120521A2489EEAE87D7BD833D401352422F40C352892B75494964B4191BCF94F9C
310
BD3D4F034F226240242F20B3E789E4298E2E49212279B60C037B681B00289277ADA0481E926870E2194934E80048A2410740120D3AC0980899EA44A680F842234AA9BD14A1C4BC6D8A8A080CCC3B269D1B115C443A9252AF53C420F692CD2426188255B19C85113B90E5B7B25C950925E61D536A48524752FE4F1919E7596A
310
48A9FD147188B56A09AA400C626C1AA32DAC49A9C3143189537668864A4D0900EC255B5004E39EC166703FF39411DB2C90050020E802131971083189937788AD89DD2E009CB99CE496520510010088439CBC032367052D000062121040180A3443237544DEC23967F40DC167A1D86E8903C35AB9C5240604E82CC50175EA88
310
4D1FC0D2D2BBBBF6C2C26F2D1920F67AD2F131709F7D88838193CFDBABAB200300D0E205A350C900004C6600E064237FB0E2B62553006010F5CE2D184A6A7FDF2E970120F3E3B74C969D79871122B5DBE6DA1AE5429122134E2CC171E55A4DCF640EB25939706A6E0EC2B627906C36AD2825004DD39ACD662A958AD20E634C
310
108495951555558F8F8F2396B26D3B9BCD2E2E2E5EA82D001004A152A9988AB2EF5DD79327DE592B9B5D51D514E7008AA2842EFA3A8EB3B2B2224913B31931A9C430668BA2D8EF1F537A10B6B53334C46C7B30D8EBF500A0DBEDFA3F75F768B55A7CA265596E7AAFD71B0E87114B699AE6F6C86EB77B787818D1C256ABE5EE
310
556E523A0CDBDB636A9AD26848B55AEE3FFFF1A7F7FB7D7F88178F939313EFDB7CE41A89E10E44885D2A01402E97E3F7C01C1D1DF189822078A178CEDA0BC42746D90BC427FAF70245B7107C7B95432DAC01E867BCDBE05EA04906DFDA9044830E80241A740024D1A0032089666AA6E1DAED762036684034E9975F7E09C406
310
E5B5C67876777703B14101E0E4E424101B746969298A91A9DDDDE87153F8E0B8C8D5331D0ED06EB7676767CBE5B23FB15AAD7AC7AD562B9FCFF319CEFF4CCC344D511403A51A8D46B95C0E24460C5A281F1DD9D15C05F00BE0C9603A1C40D775375A2DF10978F9BFAF9F9D9D5D58580864A8D7EBE7575BA9541616160441F0
310
C7242C954A0BEF16B0C93BA9A572B91C4524CF78F080E0ECFE54311DEF008C317F64733EC67A2025A2B491A707E3AFC16BCB4B8F1EAFCA5E5A629C222A32C94CC708E0F64B387D83E75522031946E26AC3B8FDDB2BE2B505BE11608CD7824C14D3E1005E2F0C74FAE819A254EEE28FD2CC1F20378CF13F0265BFF966EC7542
310
9806DE59DA33A12234E7D70CA71FA22E5D1532758C7F0448EFED59B76EB9C78AA258BE58826E4836D3340361B002F7574DD3FC1BC56459E67BA1FBA4EE4FE1BBA9200881B6F8222EFEA77CEFADC0DF56E0354055557F5C3A6F4BA9D46C92C88AC2A669E234E8B5337E0770DE4D20F6FBFD9D9D1DBFE05C369B6DB55A070707
310
CD66D35F64D61773AADFEFD7EB757FA99999994EA7C3C7CD0C8446E435213B9DCEEBD7AF1B8D869742082997CB5E68C4939313DBB6C96991BCE3E363BE2DBF1BF316E672B959495A6E347283815D2A59B76F87FD6182F0BB415BAD5660FA15899BF13BC0E0D933378678A15028140AFEBB7B3E9F078072B93C180CFC451617
310
17BD09CD42A120CBB2BF54A150A8542A994C865F08DBDBDB738F979696745D0F2C843D79F22493C9F8F75D1242969797BDDDA06EA7F76F5776777A168B457E21CCBF5F95B7309BCD2AE5B2D968B0C81F18E4B970F02F5EBC78F6EC59C4E2C85888F7257873733390B2B5B5C52F330526ECEFDEBD1B2855ABD54AA55260E528
310
F0E5805FFFF49C527E2739CBC285858505DFB76C6E55232D0400FD830FC477DE75512CCB0A8D558AC4CA74CC024D0B2CC2E60B8F4074E8B76FDFE24702570F3AC03891DFBCE1BF788E882449A81073F5A0038C93D4FEBE55A944CC1C088FBEBABABAB5B5158F5DC899A0038C13736D0D22DFC51B8D46402083469E4245C605
310
8EB9E3C45A5F8FBE17889E26341A001237E8009767FE6F7FCBFFE31F977EE80F2C36A763136045CE011F812ECC66B56A9B264DA5067FF90B10221D1D0986B1D968ECAEAD0180E05B203B1F14C99B046274806EB7BBBDBD1D486CB7DB7CE27038F456676BB55A609D18DE05CC0A245A96E53D43BF79F326622945515656562E
310
6AA1AAAADEF7652F0441E742FDA41CA7D26C4A00848B1A147A45A12279B7DE6D2141AE8C181DE0C183075E571BC9AB57AFDC834AA552893691621886B736BCBABA1AB154B7DBF53EEF7AF0E041C4527E0B67575636B952F57A5D17845015BDD02BDAD9D94191BC492016913C41D761664610844B84FE8B5ECAAFBE18BD94E8
310
7B498D5ECABFF121B4D43953F817CD8F5C25B188E41594BE99CF5002D145F252C5DC89DE376566EA66379A481E75A85CC8B6F4BE293391881145F274621982D333545D7444228688E4312A112128924769AA98EB188A23C150D7BB861A10C91B522B25CB9E8A9E279267104792255E244F9CCDA8D44091BC6B0745F2904483
310
03319268D0019044830E80241A740024D1A0032089061D004934E80048A2410740120D3A009268D0019044830E80249AFF071DC0F6364D1C9FAC0000000049454E44AE426082
  0
ENDSEC
  0
EOF
