  0
SECTION
  2
HEADER
  9
$ACADVER
  1
AC1009
  9
$DWGCODEPAGE
  3
ansi_1252
  9
$INSBASE
 10
0.0
 20
0.0
 30
0.0
  9
$EXTMIN
 10
-4012.685974119231
 20
-987.6576470269356
 30
0.0
  9
$EXTMAX
 10
4012.685974119231
 20
12632.10992617533
 30
0.0
  9
$LIMMIN
 10
0.0
 20
0.0
  9
$LIMMAX
 10
12.0
 20
9.0
  9
$ORTHOMODE
 70
     1
  9
$REGENMODE
 70
     1
  9
$FILLMODE
 70
     1
  9
$QTEXTMODE
 70
     0
  9
$MIRRTEXT
 70
     0
  9
$DRAGMODE
 70
     2
  9
$LTSCALE
 40
5.0
  9
$OSMODE
 70
 16383
  9
$ATTMODE
 70
     1
  9
$TEXTSIZE
 40
19.0
  9
$TRACEWID
 40
0.05
  9
$TEXTSTYLE
  7
STILE1
  9
$CLAYER
  8
0
  9
$CELTYPE
  6
BYLAYER
  9
$CECOLOR
 62
   256
  9
$DIMSCALE
 40
50.0
  9
$DIMASZ
 40
2.5
  9
$DIMEXO
 40
1.0
  9
$DIMDLI
 40
0.0
  9
$DIMRND
 40
0.0
  9
$DIMDLE
 40
0.0
  9
$DIMEXE
 40
1.0
  9
$DIMTP
 40
0.0
  9
$DIMTM
 40
0.0
  9
$DIMTXT
 40
2.5
  9
$DIMCEN
 40
1.0
  9
$DIMTSZ
 40
0.0
  9
$DIMTOL
 70
     0
  9
$DIMLIM
 70
     0
  9
$DIMTIH
 70
     0
  9
$DIMTOH
 70
     0
  9
$DIMSE1
 70
     0
  9
$DIMSE2
 70
     0
  9
$DIMTAD
 70
     1
  9
$DIMZIN
 70
     8
  9
$DIMBLK
  1

  9
$DIMASO
 70
     1
  9
$DIMSHO
 70
     0
  9
$DIMPOST
  1

  9
$DIMAPOST
  1

  9
$DIMALT
 70
     0
  9
$DIMALTD
 70
     2
  9
$DIMALTF
 40
25.4
  9
$DIMLFAC
 40
1.0
  9
$DIMTOFL
 70
     1
  9
$DIMTVP
 40
0.0
  9
$DIMTIX
 70
     1
  9
$DIMSOXD
 70
     0
  9
$DIMSAH
 70
     0
  9
$DIMBLK1
  1

  9
$DIMBLK2
  1

  9
$DIMSTYLE
  2
STANDARD
  9
$DIMCLRD
 70
     0
  9
$DIMCLRE
 70
     0
  9
$DIMCLRT
 70
     0
  9
$DIMTFAC
 40
1.0
  9
$DIMGAP
 40
1.5
  9
$LUNITS
 70
     2
  9
$LUPREC
 70
     4
  9
$SKETCHINC
 40
0.1
  9
$FILLETRAD
 40
20.0
  9
$AUNITS
 70
     0
  9
$AUPREC
 70
     0
  9
$MENU
  1
acad
  9
$ELEVATION
 40
0.0
  9
$PELEVATION
 40
0.0
  9
$THICKNESS
 40
0.0
  9
$LIMCHECK
 70
     0
  9
$CHAMFERA
 40
1200.0
  9
$CHAMFERB
 40
1200.0
  9
$SKPOLY
 70
     0
  9
$TDCREATE
 40
2450277.504307755
  9
$TDUPDATE
 40
2459748.769427373
  9
$TDINDWG
 40
26.2116891319
  9
$TDUSRTIMER
 40
0.0003972106
  9
$USRTIMER
 70
     1
  9
$ANGBASE
 50
0.0
  9
$ANGDIR
 70
     0
  9
$PDMODE
 70
     0
  9
$PDSIZE
 40
0.0
  9
$PLINEWID
 40
0.0
  9
$COORDS
 70
     1
  9
$SPLFRAME
 70
     0
  9
$SPLINETYPE
 70
     6
  9
$SPLINESEGS
 70
     8
  9
$ATTDIA
 70
     0
  9
$ATTREQ
 70
     1
  9
$HANDLING
 70
     1
  9
$HANDSEED
  5
DF317
  9
$SURFTAB1
 70
     6
  9
$SURFTAB2
 70
     6
  9
$SURFTYPE
 70
     6
  9
$SURFU
 70
     6
  9
$SURFV
 70
     6
  9
$UCSNAME
  2

  9
$UCSORG
 10
0.0
 20
0.0
 30
0.0
  9
$UCSXDIR
 10
1.0
 20
0.0
 30
0.0
  9
$UCSYDIR
 10
0.0
 20
1.0
 30
0.0
  9
$PUCSNAME
  2

  9
$PUCSORG
 10
0.0
 20
0.0
 30
0.0
  9
$PUCSXDIR
 10
1.0
 20
0.0
 30
0.0
  9
$PUCSYDIR
 10
0.0
 20
1.0
 30
0.0
  9
$USERI1
 70
     0
  9
$USERI2
 70
     0
  9
$USERI3
 70
     0
  9
$USERI4
 70
     0
  9
$USERI5
 70
     0
  9
$USERR1
 40
0.0
  9
$USERR2
 40
0.0
  9
$USERR3
 40
0.0
  9
$USERR4
 40
0.0
  9
$USERR5
 40
0.0
  9
$WORLDVIEW
 70
     0
  9
$SHADEDGE
 70
     3
  9
$SHADEDIF
 70
    70
  9
$TILEMODE
 70
     1
  9
$MAXACTVP
 70
    16
  9
$PLIMCHECK
 70
     0
  9
$PEXTMIN
 10
0.0
 20
0.0
 30
0.0
  9
$PEXTMAX
 10
0.0
 20
0.0
 30
0.0
  9
$PLIMMIN
 10
0.0
 20
0.0
  9
$PLIMMAX
 10
0.0
 20
0.0
  9
$UNITMODE
 70
     0
  9
$VISRETAIN
 70
     0
  9
$PLINEGEN
 70
     0
  9
$PSLTSCALE
 70
     1
  0
ENDSEC
  0
SECTION
  2
TABLES
  0
TABLE
  2
VPORT
 70
     1
  0
VPORT
  2
*ACTIVE
 70
     0
 10
0.0
 20
0.0
 11
1.0
 21
1.0
 12
-0.1086825266356755
 22
5822.16571841686
 13
0.0
 23
0.0
 14
1.0
 24
1.0
 15
0.0
 25
0.0
 16
0.0
 26
0.0
 36
1.0
 17
0.0
 27
0.0
 37
0.0
 40
13768.12873138733
 41
2.221621621621621
 42
50.0
 43
0.0
 44
0.0
 50
0.0
 51
0.0
 71
    16
 72
   100
 73
     1
 74
     1
 75
     0
 76
     1
 77
     0
 78
     0
  0
ENDTAB
  0
TABLE
  2
LTYPE
 70
     1
  0
LTYPE
  2
CONTINUOUS
 70
     0
  3
Solid line
 72
    65
 73
     0
 40
0.0
  0
ENDTAB
  0
TABLE
  2
LAYER
 70
     1
  0
LAYER
  2
0
 70
     0
 62
     7
  6
CONTINUOUS
  0
ENDTAB
  0
TABLE
  2
STYLE
 70
     2
  0
STYLE
  2
STANDARD
 70
     0
 40
0.0
 41
1.0
 50
0.0
 71
     0
 42
2.5
  3
txt
  4

  0
STYLE
  2
STILE1
 70
     0
 40
0.0
 41
1.0
 50
0.0
 71
     0
 42
19.0
  3
ROMANS.SHX
  4

  0
ENDTAB
  0
TABLE
  2
VIEW
 70
     0
  0
ENDTAB
  0
TABLE
  2
UCS
 70
     0
  0
ENDTAB
  0
TABLE
  2
APPID
 70
    40
  0
APPID
  2
ACAD
 70
     0
  0
APPID
  2
DCO15
 70
     0
  0
APPID
  2
ACAECLAYERSTANDARD
 70
     0
  0
APPID
  2
ACDBDYNAMICBLOCKGUID
 70
     0
  0
APPID
  2
ACDBBLOCKREPETAG
 70
     0
  0
APPID
  2
ACAD_PSEXT
 70
     0
  0
APPID
  2
ACAD_DSTYLE_DIMJAG
 70
     0
  0
APPID
  2
ACAD_DSTYLE_DIMTALN
 70
     0
  0
APPID
  2
ACAD_DSTYLE_DIMRADIAL_EXTE
 70
     0
  0
APPID
  2
RAK
 70
     0
  0
APPID
  2
ACLAYERTOOLS
 70
     0
  0
APPID
  2
REVIT
 70
     0
  0
APPID
  2
ACAD_MLEADERVER
 70
     0
  0
APPID
  2
ACAD_DSTYLE_DIMBREAK
 70
     0
  0
APPID
  2
ACCMTRANSPARENCY
 70
     0
  0
APPID
  2
ACAD_NAV_VCDISPLAY
 70
     0
  0
APPID
  2
GRADIENTCOLOR1ACI
 70
     0
  0
APPID
  2
GRADIENTCOLOR2ACI
 70
     0
  0
APPID
  2
PROGE_PRINT_SETTINGS
 70
     0
  0
APPID
  2
AA_WLPR
 70
     0
  0
APPID
  2
AA_WLENT
 70
     0
  0
APPID
  2
AA_WLTP
 70
     0
  0
APPID
  2
AA_WLBK
 70
     0
  0
APPID
  2
ACAD_DSTYLE_DIMJOGGED_JOGA
 70
     0
  0
APPID
  2
$DDT_AUDIT_GENERATED__2CAF
 70
     0
  0
APPID
  2
ACAD_DSTYLE_DIMEXT_LENGTH
 70
     0
  0
APPID
  2
ACAD_DSTYLE_DIMEXT_ENABLED
 70
     0
  0
APPID
  2
ACAD_DSTYLE_DIMJOGGED_JOG0
 70
     0
  0
APPID
  2
ACAD_DSTYLE_DIMARC_LENGTH_
 70
     0
  0
APPID
  2
C_AND_O
 70
     0
  0
APPID
  2
AVE_FINISH
 70
     0
  0
APPID
  2
AVE_RENDER
 70
     0
  0
APPID
  2
AVE_ENTITY_MATERIAL
 70
     0
  0
APPID
  2
AVE_MATERIAL
 70
     0
  0
APPID
  2
ADDC5$_$SETUP-
 70
     0
  0
APPID
  2
ADDC4$_$SETUP-
 70
     0
  0
APPID
  2
ADDC4$_$ARTSETUP-
 70
     0
  0
APPID
  2
GENIUS_GENODEF_13
 70
     0
  0
APPID
  2
GENIUS_GENOBJ-N-REC_13
 70
     0
  0
APPID
  2
GENIUS_GENREC_14
 70
     0
  0
ENDTAB
  0
TABLE
  2
DIMSTYLE
 70
     1
  0
DIMSTYLE
  2
STANDARD
 70
     0
  3

  4

  5

  6

  7

 40
1.0
 41
0.18
 42
0.0625
 43
0.38
 44
0.18
 45
0.0
 46
0.0
 47
0.0
 48
0.0
140
0.18
141
0.09
142
0.0
143
25.4
144
1.0
145
0.0
146
1.0
147
0.09
 71
     0
 72
     0
 73
     1
 74
     1
 75
     0
 76
     0
 77
     0
 78
     0
170
     0
171
     2
172
     0
173
     0
174
     0
175
     0
176
     0
177
     0
178
     0
  0
ENDTAB
  0
ENDSEC
  0
SECTION
  2
BLOCKS
  0
BLOCK
  8
0
  2
$MODEL_SPACE
 70
     0
 10
0.0
 20
0.0
 30
0.0
  3
$MODEL_SPACE
  1

  0
ENDBLK
  5
DE780
  8
0
  0
BLOCK
 67
     1
  8
0
  2
$PAPER_SPACE
 70
     0
 10
0.0
 20
0.0
 30
0.0
  3
$PAPER_SPACE
  1

  0
ENDBLK
  5
DE77C
 67
     1
  8
0
  0
ENDSEC
  0
SECTION
  2
ENTITIES
  0
POLYLINE
  5
DB88B
  8
0
 66
     1
 10
0.0
 20
0.0
 30
0.0
  0
VERTEX
  5
DEDB7
  8
0
 10
3214.835155079316
 20
8263.073284116886
 30
0.0
  0
VERTEX
  5
DEDB8
  8
0
 10
3564.835155079316
 20
8263.073284116886
 30
0.0
  0
VERTEX
  5
DEDB9
  8
0
 10
3564.835155079316
 20
7848.073284116884
 30
0.0
  0
VERTEX
  5
DEDBA
  8
0
 10
3534.835155079316
 20
7848.073284116884
 30
0.0
  0
VERTEX
  5
DEDBB
  8
0
 10
3534.835155079316
 20
8233.073284116886
 30
0.0
  0
VERTEX
  5
DEDBC
  8
0
 10
3244.835155079317
 20
8233.073284116886
 30
0.0
  0
VERTEX
  5
DEDBD
  8
0
 10
3244.835155079317
 20
7848.073284116884
 30
0.0
  0
VERTEX
  5
DEDBE
  8
0
 10
3214.835155079316
 20
7848.073284116884
 30
0.0
  0
VERTEX
  5
DEDBF
  8
0
 10
3214.835155079316
 20
8263.073284116886
 30
0.0
  0
SEQEND
  5
DF236
  8
0
  0
POLYLINE
  5
DB88C
  8
0
 66
     1
 10
0.0
 20
0.0
 30
0.0
 70
     1
  0
VERTEX
  5
DEDC0
  8
0
 10
3214.835155079316
 20
8263.073284116886
 30
0.0
  0
VERTEX
  5
DEDC1
  8
0
 10
3214.835155079316
 20
8288.073284116886
 30
0.0
  0
VERTEX
  5
DEDC2
  8
0
 10
3294.835155079316
 20
8288.073284116886
 30
0.0
  0
VERTEX
  5
DEDC3
  8
0
 10
3294.835155079316
 20
8263.073284116886
 30
0.0
  0
SEQEND
  5
DF237
  8
0
  0
POLYLINE
  5
DB88D
  8
0
 66
     1
 10
0.0
 20
0.0
 30
0.0
 70
     1
  0
VERTEX
  5
DEDC4
  8
0
 10
3484.835155079316
 20
8263.073284116886
 30
0.0
  0
VERTEX
  5
DEDC5
  8
0
 10
3484.835155079316
 20
8288.073284116886
 30
0.0
  0
VERTEX
  5
DEDC6
  8
0
 10
3564.835155079316
 20
8288.073284116886
 30
0.0
  0
VERTEX
  5
DEDC7
  8
0
 10
3564.835155079316
 20
8263.073284116886
 30
0.0
  0
SEQEND
  5
DF238
  8
0
  0
POLYLINE
  5
DB88E
  8
0
 66
     1
 10
0.0
 20
0.0
 30
0.0
 70
     1
  0
VERTEX
  5
DEDC8
  8
0
 10
3304.835155079316
 20
8263.073284116886
 30
0.0
  0
VERTEX
  5
DEDC9
  8
0
 10
3304.835155079316
 20
8288.073284116886
 30
0.0
  0
VERTEX
  5
DEDCA
  8
0
 10
3384.835155079316
 20
8288.073284116886
 30
0.0
  0
VERTEX
  5
DEDCB
  8
0
 10
3384.835155079316
 20
8263.073284116886
 30
0.0
  0
SEQEND
  5
DF239
  8
0
  0
POLYLINE
  5
DB88F
  8
0
 66
     1
 10
0.0
 20
0.0
 30
0.0
 70
     1
  0
VERTEX
  5
DEDCC
  8
0
 10
3394.835155079316
 20
8263.073284116886
 30
0.0
  0
VERTEX
  5
DEDCD
  8
0
 10
3394.835155079316
 20
8288.073284116886
 30
0.0
  0
VERTEX
  5
DEDCE
  8
0
 10
3474.835155079316
 20
8288.073284116886
 30
0.0
  0
VERTEX
  5
DEDCF
  8
0
 10
3474.835155079316
 20
8263.073284116886
 30
0.0
  0
SEQEND
  5
DF23A
  8
0
  0
POLYLINE
  5
DB890
  8
0
 66
     1
 10
0.0
 20
0.0
 30
0.0
 70
     1
  0
VERTEX
  5
DEDD0
  8
0
 10
-2594.835155079316
 20
6378.073284116888
 30
0.0
  0
VERTEX
  5
DEDD1
  8
0
 10
-2594.835155079316
 20
6298.073284116886
 30
0.0
  0
VERTEX
  5
DEDD2
  8
0
 10
-3594.835155079316
 20
6298.073284116886
 30
0.0
  0
VERTEX
  5
DEDD3
  8
0
 10
-3594.835155079316
 20
6378.073284116888
 30
0.0
  0
SEQEND
  5
DF23B
  8
0
  0
POLYLINE
  5
DB891
  8
0
 66
     1
 10
0.0
 20
0.0
 30
0.0
 70
     1
  0
VERTEX
  5
DEDD4
  8
0
 10
-2594.835155079316
 20
6648.073284116889
 30
0.0
  0
VERTEX
  5
DEDD5
  8
0
 10
-2594.835155079316
 20
6568.073284116886
 30
0.0
  0
VERTEX
  5
DEDD6
  8
0
 10
-3594.835155079316
 20
6568.073284116886
 30
0.0
  0
VERTEX
  5
DEDD7
  8
0
 10
-3594.835155079316
 20
6648.073284116889
 30
0.0
  0
SEQEND
  5
DF23C
  8
0
  0
POLYLINE
  5
DB892
  8
0
 66
     1
 10
0.0
 20
0.0
 30
0.0
 70
     1
  0
VERTEX
  5
DEDD8
  8
0
 10
-2594.835155079316
 20
6468.073284116886
 30
0.0
  0
VERTEX
  5
DEDD9
  8
0
 10
-2594.835155079316
 20
6388.073284116885
 30
0.0
  0
VERTEX
  5
DEDDA
  8
0
 10
-3594.835155079316
 20
6388.073284116885
 30
0.0
  0
VERTEX
  5
DEDDB
  8
0
 10
-3594.835155079316
 20
6468.073284116886
 30
0.0
  0
SEQEND
  5
DF23D
  8
0
  0
POLYLINE
  5
DB893
  8
0
 66
     1
 10
0.0
 20
0.0
 30
0.0
 70
     1
  0
VERTEX
  5
DEDDC
  8
0
 10
-2594.835155079316
 20
6558.073284116885
 30
0.0
  0
VERTEX
  5
DEDDD
  8
0
 10
-2594.835155079316
 20
6478.073284116888
 30
0.0
  0
VERTEX
  5
DEDDE
  8
0
 10
-3594.835155079316
 20
6478.073284116888
 30
0.0
  0
VERTEX
  5
DEDDF
  8
0
 10
-3594.835155079316
 20
6558.073284116885
 30
0.0
  0
SEQEND
  5
DF23E
  8
0
  0
POLYLINE
  5
DB894
  8
0
 66
     1
 10
0.0
 20
0.0
 30
0.0
 70
     1
  0
VERTEX
  5
DEDE0
  8
0
 10
-2594.835155079316
 20
6558.073284116885
 30
0.0
  0
VERTEX
  5
DEDE1
  8
0
 10
-2624.835155079316
 20
6558.073284116885
 30
0.0
  0
VERTEX
  5
DEDE2
  8
0
 10
-2624.835155079316
 20
6568.073284116886
 30
0.0
  0
VERTEX
  5
DEDE3
  8
0
 10
-2594.835155079316
 20
6568.073284116886
 30
0.0
  0
SEQEND
  5
DF23F
  8
0
  0
POLYLINE
  5
DB895
  8
0
 66
     1
 10
0.0
 20
0.0
 30
0.0
 70
     1
  0
VERTEX
  5
DEDE4
  8
0
 10
-3564.835155079316
 20
6378.073284116888
 30
0.0
  0
VERTEX
  5
DEDE5
  8
0
 10
-3594.835155079316
 20
6378.073284116888
 30
0.0
  0
VERTEX
  5
DEDE6
  8
0
 10
-3594.835155079316
 20
6388.073284116885
 30
0.0
  0
VERTEX
  5
DEDE7
  8
0
 10
-3564.835155079316
 20
6388.073284116885
 30
0.0
  0
SEQEND
  5
DF240
  8
0
  0
POLYLINE
  5
DB896
  8
0
 66
     1
 10
0.0
 20
0.0
 30
0.0
 70
     1
  0
VERTEX
  5
DEDE8
  8
0
 10
-3564.835155079316
 20
6468.073284116886
 30
0.0
  0
VERTEX
  5
DEDE9
  8
0
 10
-3594.835155079316
 20
6468.073284116886
 30
0.0
  0
VERTEX
  5
DEDEA
  8
0
 10
-3594.835155079316
 20
6478.073284116888
 30
0.0
  0
VERTEX
  5
DEDEB
  8
0
 10
-3564.835155079316
 20
6478.073284116888
 30
0.0
  0
SEQEND
  5
DF241
  8
0
  0
POLYLINE
  5
DB897
  8
0
 66
     1
 10
0.0
 20
0.0
 30
0.0
 70
     1
  0
VERTEX
  5
DEDEC
  8
0
 10
-3564.835155079316
 20
6558.073284116885
 30
0.0
  0
VERTEX
  5
DEDED
  8
0
 10
-3594.835155079316
 20
6558.073284116885
 30
0.0
  0
VERTEX
  5
DEDEE
  8
0
 10
-3594.835155079316
 20
6568.073284116886
 30
0.0
  0
VERTEX
  5
DEDEF
  8
0
 10
-3564.835155079316
 20
6568.073284116886
 30
0.0
  0
SEQEND
  5
DF242
  8
0
  0
POLYLINE
  5
DB898
  8
0
 66
     1
 10
0.0
 20
0.0
 30
0.0
 70
     1
  0
VERTEX
  5
DEDF0
  8
0
 10
-2594.835155079316
 20
6468.073284116886
 30
0.0
  0
VERTEX
  5
DEDF1
  8
0
 10
-2624.835155079316
 20
6468.073284116886
 30
0.0
  0
VERTEX
  5
DEDF2
  8
0
 10
-2624.835155079316
 20
6478.073284116888
 30
0.0
  0
VERTEX
  5
DEDF3
  8
0
 10
-2594.835155079316
 20
6478.073284116888
 30
0.0
  0
SEQEND
  5
DF243
  8
0
  0
POLYLINE
  5
DB899
  8
0
 66
     1
 10
0.0
 20
0.0
 30
0.0
 70
     1
  0
VERTEX
  5
DEDF4
  8
0
 10
-2594.835155079316
 20
6378.073284116888
 30
0.0
  0
VERTEX
  5
DEDF5
  8
0
 10
-2624.835155079316
 20
6378.073284116888
 30
0.0
  0
VERTEX
  5
DEDF6
  8
0
 10
-2624.835155079316
 20
6388.073284116885
 30
0.0
  0
VERTEX
  5
DEDF7
  8
0
 10
-2594.835155079316
 20
6388.073284116885
 30
0.0
  0
SEQEND
  5
DF244
  8
0
  0
POLYLINE
  5
DB89A
  8
0
 66
     1
 10
0.0
 20
0.0
 30
0.0
 70
     1
  0
VERTEX
  5
DEDF8
  8
0
 10
-3594.835155079316
 20
8263.073284116886
 30
0.0
  0
VERTEX
  5
DEDF9
  8
0
 10
-3594.835155079316
 20
8288.073284116886
 30
0.0
  0
VERTEX
  5
DEDFA
  8
0
 10
-2594.835155079316
 20
8288.073284116886
 30
0.0
  0
VERTEX
  5
DEDFB
  8
0
 10
-2594.835155079316
 20
8263.073284116886
 30
0.0
  0
SEQEND
  5
DF245
  8
0
  0
POLYLINE
  5
DB89B
  8
0
 66
     1
 10
0.0
 20
0.0
 30
0.0
 70
     1
  0
VERTEX
  5
DEDFC
  8
0
 10
-394.3917534743084
 20
6378.073284116888
 30
0.0
  0
VERTEX
  5
DEDFD
  8
0
 10
-394.3917534743084
 20
6298.073284116886
 30
0.0
  0
VERTEX
  5
DEDFE
  8
0
 10
-1894.391753474308
 20
6298.073284116886
 30
0.0
  0
VERTEX
  5
DEDFF
  8
0
 10
-1894.391753474308
 20
6378.073284116888
 30
0.0
  0
SEQEND
  5
DF246
  8
0
  0
POLYLINE
  5
DB89C
  8
0
 66
     1
 10
0.0
 20
0.0
 30
0.0
 70
     1
  0
VERTEX
  5
DEE00
  8
0
 10
-394.3917534743084
 20
6648.073284116889
 30
0.0
  0
VERTEX
  5
DEE01
  8
0
 10
-394.3917534743084
 20
6568.073284116886
 30
0.0
  0
VERTEX
  5
DEE02
  8
0
 10
-1894.391753474308
 20
6568.073284116886
 30
0.0
  0
VERTEX
  5
DEE03
  8
0
 10
-1894.391753474308
 20
6648.073284116889
 30
0.0
  0
SEQEND
  5
DF247
  8
0
  0
POLYLINE
  5
DB89D
  8
0
 66
     1
 10
0.0
 20
0.0
 30
0.0
 70
     1
  0
VERTEX
  5
DEE04
  8
0
 10
-394.3917534743084
 20
6468.073284116886
 30
0.0
  0
VERTEX
  5
DEE05
  8
0
 10
-394.3917534743084
 20
6388.073284116885
 30
0.0
  0
VERTEX
  5
DEE06
  8
0
 10
-1894.391753474308
 20
6388.073284116885
 30
0.0
  0
VERTEX
  5
DEE07
  8
0
 10
-1894.391753474308
 20
6468.073284116886
 30
0.0
  0
SEQEND
  5
DF248
  8
0
  0
POLYLINE
  5
DB89E
  8
0
 66
     1
 10
0.0
 20
0.0
 30
0.0
 70
     1
  0
VERTEX
  5
DEE08
  8
0
 10
-394.3917534743084
 20
6558.073284116885
 30
0.0
  0
VERTEX
  5
DEE09
  8
0
 10
-394.3917534743084
 20
6478.073284116888
 30
0.0
  0
VERTEX
  5
DEE0A
  8
0
 10
-1894.391753474308
 20
6478.073284116888
 30
0.0
  0
VERTEX
  5
DEE0B
  8
0
 10
-1894.391753474308
 20
6558.073284116885
 30
0.0
  0
SEQEND
  5
DF249
  8
0
  0
POLYLINE
  5
DB89F
  8
0
 66
     1
 10
0.0
 20
0.0
 30
0.0
 70
     1
  0
VERTEX
  5
DEE0C
  8
0
 10
-394.3917534743084
 20
6558.073284116885
 30
0.0
  0
VERTEX
  5
DEE0D
  8
0
 10
-424.3917534743084
 20
6558.073284116885
 30
0.0
  0
VERTEX
  5
DEE0E
  8
0
 10
-424.3917534743084
 20
6568.073284116886
 30
0.0
  0
VERTEX
  5
DEE0F
  8
0
 10
-394.3917534743084
 20
6568.073284116886
 30
0.0
  0
SEQEND
  5
DF24A
  8
0
  0
POLYLINE
  5
DB8A0
  8
0
 66
     1
 10
0.0
 20
0.0
 30
0.0
 70
     1
  0
VERTEX
  5
DEE10
  8
0
 10
-1864.391753474308
 20
6378.073284116888
 30
0.0
  0
VERTEX
  5
DEE11
  8
0
 10
-1894.391753474308
 20
6378.073284116888
 30
0.0
  0
VERTEX
  5
DEE12
  8
0
 10
-1894.391753474308
 20
6388.073284116885
 30
0.0
  0
VERTEX
  5
DEE13
  8
0
 10
-1864.391753474308
 20
6388.073284116885
 30
0.0
  0
SEQEND
  5
DF24B
  8
0
  0
POLYLINE
  5
DB8A1
  8
0
 66
     1
 10
0.0
 20
0.0
 30
0.0
 70
     1
  0
VERTEX
  5
DEE14
  8
0
 10
-1864.391753474308
 20
6468.073284116886
 30
0.0
  0
VERTEX
  5
DEE15
  8
0
 10
-1894.391753474308
 20
6468.073284116886
 30
0.0
  0
VERTEX
  5
DEE16
  8
0
 10
-1894.391753474308
 20
6478.073284116888
 30
0.0
  0
VERTEX
  5
DEE17
  8
0
 10
-1864.391753474308
 20
6478.073284116888
 30
0.0
  0
SEQEND
  5
DF24C
  8
0
  0
POLYLINE
  5
DB8A2
  8
0
 66
     1
 10
0.0
 20
0.0
 30
0.0
 70
     1
  0
VERTEX
  5
DEE18
  8
0
 10
-1864.391753474308
 20
6558.073284116885
 30
0.0
  0
VERTEX
  5
DEE19
  8
0
 10
-1894.391753474308
 20
6558.073284116885
 30
0.0
  0
VERTEX
  5
DEE1A
  8
0
 10
-1894.391753474308
 20
6568.073284116886
 30
0.0
  0
VERTEX
  5
DEE1B
  8
0
 10
-1864.391753474308
 20
6568.073284116886
 30
0.0
  0
SEQEND
  5
DF24D
  8
0
  0
POLYLINE
  5
DB8A3
  8
0
 66
     1
 10
0.0
 20
0.0
 30
0.0
 70
     1
  0
VERTEX
  5
DEE1C
  8
0
 10
-394.3917534743084
 20
6468.073284116886
 30
0.0
  0
VERTEX
  5
DEE1D
  8
0
 10
-424.3917534743084
 20
6468.073284116886
 30
0.0
  0
VERTEX
  5
DEE1E
  8
0
 10
-424.3917534743084
 20
6478.073284116888
 30
0.0
  0
VERTEX
  5
DEE1F
  8
0
 10
-394.3917534743084
 20
6478.073284116888
 30
0.0
  0
SEQEND
  5
DF24E
  8
0
  0
POLYLINE
  5
DB8A4
  8
0
 66
     1
 10
0.0
 20
0.0
 30
0.0
 70
     1
  0
VERTEX
  5
DEE20
  8
0
 10
-394.3917534743084
 20
6378.073284116888
 30
0.0
  0
VERTEX
  5
DEE21
  8
0
 10
-424.3917534743084
 20
6378.073284116888
 30
0.0
  0
VERTEX
  5
DEE22
  8
0
 10
-424.3917534743084
 20
6388.073284116885
 30
0.0
  0
VERTEX
  5
DEE23
  8
0
 10
-394.3917534743084
 20
6388.073284116885
 30
0.0
  0
SEQEND
  5
DF24F
  8
0
  0
POLYLINE
  5
DB8A5
  8
0
 66
     1
 10
0.0
 20
0.0
 30
0.0
 70
     1
  0
VERTEX
  5
DEE24
  8
0
 10
-1894.391753474308
 20
8263.073284116886
 30
0.0
  0
VERTEX
  5
DEE25
  8
0
 10
-1894.391753474308
 20
8288.073284116886
 30
0.0
  0
VERTEX
  5
DEE26
  8
0
 10
-394.3917534743084
 20
8288.073284116886
 30
0.0
  0
VERTEX
  5
DEE27
  8
0
 10
-394.3917534743084
 20
8263.073284116886
 30
0.0
  0
SEQEND
  5
DF250
  8
0
  0
POLYLINE
  5
DB8A6
  8
0
 66
     1
 10
0.0
 20
0.0
 30
0.0
 70
     1
  0
VERTEX
  5
DEE28
  8
0
 10
305.4035143812072
 20
8263.073284116886
 30
0.0
  0
VERTEX
  5
DEE29
  8
0
 10
305.4035143812072
 20
8288.073284116886
 30
0.0
  0
VERTEX
  5
DEE2A
  8
0
 10
2305.403514381207
 20
8288.073284116886
 30
0.0
  0
VERTEX
  5
DEE2B
  8
0
 10
2305.403514381207
 20
8263.073284116886
 30
0.0
  0
SEQEND
  5
DF251
  8
0
  0
POLYLINE
  5
DB8A7
  8
0
 66
     1
 10
0.0
 20
0.0
 30
0.0
 70
     1
  0
VERTEX
  5
DEE2C
  8
0
 10
2305.403514381207
 20
6378.073284116888
 30
0.0
  0
VERTEX
  5
DEE2D
  8
0
 10
2275.403514381207
 20
6378.073284116888
 30
0.0
  0
VERTEX
  5
DEE2E
  8
0
 10
2275.403514381207
 20
6388.073284116885
 30
0.0
  0
VERTEX
  5
DEE2F
  8
0
 10
2305.403514381207
 20
6388.073284116885
 30
0.0
  0
SEQEND
  5
DF252
  8
0
  0
POLYLINE
  5
DB8A8
  8
0
 66
     1
 10
0.0
 20
0.0
 30
0.0
 70
     1
  0
VERTEX
  5
DEE30
  8
0
 10
2305.403514381207
 20
6468.073284116886
 30
0.0
  0
VERTEX
  5
DEE31
  8
0
 10
2275.403514381207
 20
6468.073284116886
 30
0.0
  0
VERTEX
  5
DEE32
  8
0
 10
2275.403514381207
 20
6478.073284116888
 30
0.0
  0
VERTEX
  5
DEE33
  8
0
 10
2305.403514381207
 20
6478.073284116888
 30
0.0
  0
SEQEND
  5
DF253
  8
0
  0
POLYLINE
  5
DB8A9
  8
0
 66
     1
 10
0.0
 20
0.0
 30
0.0
 70
     1
  0
VERTEX
  5
DEE34
  8
0
 10
335.4035143812073
 20
6558.073284116885
 30
0.0
  0
VERTEX
  5
DEE35
  8
0
 10
305.4035143812072
 20
6558.073284116885
 30
0.0
  0
VERTEX
  5
DEE36
  8
0
 10
305.4035143812072
 20
6568.073284116886
 30
0.0
  0
VERTEX
  5
DEE37
  8
0
 10
335.4035143812073
 20
6568.073284116886
 30
0.0
  0
SEQEND
  5
DF254
  8
0
  0
POLYLINE
  5
DB8AA
  8
0
 66
     1
 10
0.0
 20
0.0
 30
0.0
 70
     1
  0
VERTEX
  5
DEE38
  8
0
 10
335.4035143812073
 20
6468.073284116886
 30
0.0
  0
VERTEX
  5
DEE39
  8
0
 10
305.4035143812072
 20
6468.073284116886
 30
0.0
  0
VERTEX
  5
DEE3A
  8
0
 10
305.4035143812072
 20
6478.073284116888
 30
0.0
  0
VERTEX
  5
DEE3B
  8
0
 10
335.4035143812073
 20
6478.073284116888
 30
0.0
  0
SEQEND
  5
DF255
  8
0
  0
POLYLINE
  5
DB8AB
  8
0
 66
     1
 10
0.0
 20
0.0
 30
0.0
 70
     1
  0
VERTEX
  5
DEE3C
  8
0
 10
335.4035143812073
 20
6378.073284116888
 30
0.0
  0
VERTEX
  5
DEE3D
  8
0
 10
305.4035143812072
 20
6378.073284116888
 30
0.0
  0
VERTEX
  5
DEE3E
  8
0
 10
305.4035143812072
 20
6388.073284116885
 30
0.0
  0
VERTEX
  5
DEE3F
  8
0
 10
335.4035143812073
 20
6388.073284116885
 30
0.0
  0
SEQEND
  5
DF256
  8
0
  0
POLYLINE
  5
DB8AC
  8
0
 66
     1
 10
0.0
 20
0.0
 30
0.0
 70
     1
  0
VERTEX
  5
DEE40
  8
0
 10
2305.403514381207
 20
6558.073284116885
 30
0.0
  0
VERTEX
  5
DEE41
  8
0
 10
2275.403514381207
 20
6558.073284116885
 30
0.0
  0
VERTEX
  5
DEE42
  8
0
 10
2275.403514381207
 20
6568.073284116886
 30
0.0
  0
VERTEX
  5
DEE43
  8
0
 10
2305.403514381207
 20
6568.073284116886
 30
0.0
  0
SEQEND
  5
DF257
  8
0
  0
POLYLINE
  5
DB8AD
  8
0
 66
     1
 10
0.0
 20
0.0
 30
0.0
 70
     1
  0
VERTEX
  5
DEE44
  8
0
 10
2305.403514381207
 20
6558.073284116885
 30
0.0
  0
VERTEX
  5
DEE45
  8
0
 10
2305.403514381207
 20
6478.073284116888
 30
0.0
  0
VERTEX
  5
DEE46
  8
0
 10
305.4035143812072
 20
6478.073284116888
 30
0.0
  0
VERTEX
  5
DEE47
  8
0
 10
305.4035143812072
 20
6558.073284116885
 30
0.0
  0
SEQEND
  5
DF258
  8
0
  0
POLYLINE
  5
DB8AE
  8
0
 66
     1
 10
0.0
 20
0.0
 30
0.0
 70
     1
  0
VERTEX
  5
DEE48
  8
0
 10
2305.403514381207
 20
6468.073284116886
 30
0.0
  0
VERTEX
  5
DEE49
  8
0
 10
2305.403514381207
 20
6388.073284116885
 30
0.0
  0
VERTEX
  5
DEE4A
  8
0
 10
305.4035143812072
 20
6388.073284116885
 30
0.0
  0
VERTEX
  5
DEE4B
  8
0
 10
305.4035143812072
 20
6468.073284116886
 30
0.0
  0
SEQEND
  5
DF259
  8
0
  0
POLYLINE
  5
DB8AF
  8
0
 66
     1
 10
0.0
 20
0.0
 30
0.0
 70
     1
  0
VERTEX
  5
DEE4C
  8
0
 10
2305.403514381207
 20
6648.073284116889
 30
0.0
  0
VERTEX
  5
DEE4D
  8
0
 10
2305.403514381207
 20
6568.073284116886
 30
0.0
  0
VERTEX
  5
DEE4E
  8
0
 10
305.4035143812072
 20
6568.073284116886
 30
0.0
  0
VERTEX
  5
DEE4F
  8
0
 10
305.4035143812072
 20
6648.073284116889
 30
0.0
  0
SEQEND
  5
DF25A
  8
0
  0
POLYLINE
  5
DB8B0
  8
0
 66
     1
 10
0.0
 20
0.0
 30
0.0
 70
     1
  0
VERTEX
  5
DEE50
  8
0
 10
2305.403514381207
 20
6378.073284116888
 30
0.0
  0
VERTEX
  5
DEE51
  8
0
 10
2305.403514381207
 20
6298.073284116886
 30
0.0
  0
VERTEX
  5
DEE52
  8
0
 10
305.4035143812072
 20
6298.073284116886
 30
0.0
  0
VERTEX
  5
DEE53
  8
0
 10
305.4035143812072
 20
6378.073284116888
 30
0.0
  0
SEQEND
  5
DF25B
  8
0
  0
POLYLINE
  5
DB8B1
  8
0
 66
     1
 10
0.0
 20
0.0
 30
0.0
 70
     1
  0
VERTEX
  5
DEE54
  8
0
 10
-3594.835155079316
 20
3149.036642058444
 30
0.0
  0
VERTEX
  5
DEE55
  8
0
 10
-3594.835155079316
 20
3174.036642058445
 30
0.0
  0
VERTEX
  5
DEE56
  8
0
 10
-2594.835155079316
 20
3174.036642058445
 30
0.0
  0
VERTEX
  5
DEE57
  8
0
 10
-2594.835155079316
 20
3149.036642058444
 30
0.0
  0
SEQEND
  5
DF25C
  8
0
  0
POLYLINE
  5
DB8B2
  8
0
 66
     1
 10
0.0
 20
0.0
 30
0.0
 70
     1
  0
VERTEX
  5
DEE58
  8
0
 10
-1894.391753474308
 20
3149.036642058444
 30
0.0
  0
VERTEX
  5
DEE59
  8
0
 10
-1894.391753474308
 20
3174.036642058445
 30
0.0
  0
VERTEX
  5
DEE5A
  8
0
 10
-394.3917534743084
 20
3174.036642058445
 30
0.0
  0
VERTEX
  5
DEE5B
  8
0
 10
-394.3917534743084
 20
3149.036642058444
 30
0.0
  0
SEQEND
  5
DF25D
  8
0
  0
POLYLINE
  5
DB8B3
  8
0
 66
     1
 10
0.0
 20
0.0
 30
0.0
 70
     1
  0
VERTEX
  5
DEE5C
  8
0
 10
305.4035143812072
 20
3149.036642058444
 30
0.0
  0
VERTEX
  5
DEE5D
  8
0
 10
305.4035143812072
 20
3174.036642058445
 30
0.0
  0
VERTEX
  5
DEE5E
  8
0
 10
2305.403514381207
 20
3174.036642058445
 30
0.0
  0
VERTEX
  5
DEE5F
  8
0
 10
2305.403514381207
 20
3149.036642058444
 30
0.0
  0
SEQEND
  5
DF25E
  8
0
  0
POLYLINE
  5
DB8B4
  8
0
 66
     1
 10
0.0
 20
0.0
 30
0.0
 70
     1
  0
VERTEX
  5
DEE60
  8
0
 10
-2624.835155079316
 20
3174.036642058445
 30
0.0
  0
VERTEX
  5
DEE61
  8
0
 10
-2624.835155079316
 20
3374.036642058444
 30
0.0
  0
VERTEX
  5
DEE62
  8
0
 10
-2594.835155079316
 20
3374.036642058444
 30
0.0
  0
VERTEX
  5
DEE63
  8
0
 10
-2594.835155079316
 20
3174.036642058445
 30
0.0
  0
SEQEND
  5
DF25F
  8
0
  0
POLYLINE
  5
DB8B5
  8
0
 66
     1
 10
0.0
 20
0.0
 30
0.0
 70
     1
  0
VERTEX
  5
DEE64
  8
0
 10
-3594.835155079316
 20
4519.036642058443
 30
0.0
  0
VERTEX
  5
DEE65
  8
0
 10
-3594.835155079316
 20
4544.036642058443
 30
0.0
  0
VERTEX
  5
DEE66
  8
0
 10
-2594.835155079316
 20
4544.036642058443
 30
0.0
  0
VERTEX
  5
DEE67
  8
0
 10
-2594.835155079316
 20
4519.036642058443
 30
0.0
  0
SEQEND
  5
DF260
  8
0
  0
POLYLINE
  5
DB8B6
  8
0
 66
     1
 10
0.0
 20
0.0
 30
0.0
 70
     1
  0
VERTEX
  5
DEE68
  8
0
 10
-2624.835155079316
 20
4489.036642058443
 30
0.0
  0
VERTEX
  5
DEE69
  8
0
 10
-2624.835155079316
 20
4519.036642058443
 30
0.0
  0
VERTEX
  5
DEE6A
  8
0
 10
-2594.835155079316
 20
4519.036642058443
 30
0.0
  0
VERTEX
  5
DEE6B
  8
0
 10
-2594.835155079316
 20
4489.036642058443
 30
0.0
  0
SEQEND
  5
DF261
  8
0
  0
POLYLINE
  5
DB8B7
  8
0
 66
     1
 10
0.0
 20
0.0
 30
0.0
 70
     1
  0
VERTEX
  5
DEE6C
  8
0
 10
-3594.835155079316
 20
4489.036642058443
 30
0.0
  0
VERTEX
  5
DEE6D
  8
0
 10
-3594.835155079316
 20
4519.036642058443
 30
0.0
  0
VERTEX
  5
DEE6E
  8
0
 10
-3564.835155079316
 20
4519.036642058443
 30
0.0
  0
VERTEX
  5
DEE6F
  8
0
 10
-3564.835155079316
 20
4489.036642058443
 30
0.0
  0
SEQEND
  5
DF262
  8
0
  0
POLYLINE
  5
DB8B8
  8
0
 66
     1
 10
0.0
 20
0.0
 30
0.0
 70
     1
  0
VERTEX
  5
DEE70
  8
0
 10
-2594.835155079316
 20
3469.036642058444
 30
0.0
  0
VERTEX
  5
DEE71
  8
0
 10
-3594.835155079316
 20
3469.036642058444
 30
0.0
  0
VERTEX
  5
DEE72
  8
0
 10
-3594.835155079316
 20
3549.036642058445
 30
0.0
  0
VERTEX
  5
DEE73
  8
0
 10
-2594.835155079316
 20
3549.036642058445
 30
0.0
  0
SEQEND
  5
DF263
  8
0
  0
POLYLINE
  5
DB8B9
  8
0
 66
     1
 10
0.0
 20
0.0
 30
0.0
 70
     1
  0
VERTEX
  5
DEE74
  8
0
 10
-2624.835155079316
 20
3549.036642058445
 30
0.0
  0
VERTEX
  5
DEE75
  8
0
 10
-2624.835155079316
 20
4244.036642058443
 30
0.0
  0
VERTEX
  5
DEE76
  8
0
 10
-2594.835155079316
 20
4244.036642058443
 30
0.0
  0
VERTEX
  5
DEE77
  8
0
 10
-2594.835155079316
 20
3549.036642058445
 30
0.0
  0
SEQEND
  5
DF264
  8
0
  0
POLYLINE
  5
DB8BA
  8
0
 66
     1
 10
0.0
 20
0.0
 30
0.0
 70
     1
  0
VERTEX
  5
DEE78
  8
0
 10
-2624.835155079316
 20
4324.036642058444
 30
0.0
  0
VERTEX
  5
DEE79
  8
0
 10
-2624.835155079316
 20
4489.036642058443
 30
0.0
  0
VERTEX
  5
DEE7A
  8
0
 10
-2594.835155079316
 20
4489.036642058443
 30
0.0
  0
VERTEX
  5
DEE7B
  8
0
 10
-2594.835155079316
 20
4324.036642058444
 30
0.0
  0
SEQEND
  5
DF265
  8
0
  0
POLYLINE
  5
DB8BB
  8
0
 66
     1
 10
0.0
 20
0.0
 30
0.0
 70
     1
  0
VERTEX
  5
DEE7C
  8
0
 10
-3594.835155079316
 20
4324.036642058444
 30
0.0
  0
VERTEX
  5
DEE7D
  8
0
 10
-3594.835155079316
 20
4489.036642058443
 30
0.0
  0
VERTEX
  5
DEE7E
  8
0
 10
-3564.835155079316
 20
4489.036642058443
 30
0.0
  0
VERTEX
  5
DEE7F
  8
0
 10
-3564.835155079316
 20
4324.036642058444
 30
0.0
  0
SEQEND
  5
DF266
  8
0
  0
POLYLINE
  5
DB8BC
  8
0
 66
     1
 10
0.0
 20
0.0
 30
0.0
 70
     1
  0
VERTEX
  5
DEE80
  8
0
 10
-3594.835155079316
 20
3549.036642058445
 30
0.0
  0
VERTEX
  5
DEE81
  8
0
 10
-3594.835155079316
 20
4244.036642058443
 30
0.0
  0
VERTEX
  5
DEE82
  8
0
 10
-3564.835155079316
 20
4244.036642058443
 30
0.0
  0
VERTEX
  5
DEE83
  8
0
 10
-3564.835155079316
 20
3549.036642058445
 30
0.0
  0
SEQEND
  5
DF267
  8
0
  0
POLYLINE
  5
DB8BD
  8
0
 66
     1
 10
0.0
 20
0.0
 30
0.0
 70
     1
  0
VERTEX
  5
DEE84
  8
0
 10
-3594.835155079316
 20
3174.036642058445
 30
0.0
  0
VERTEX
  5
DEE85
  8
0
 10
-3594.835155079316
 20
3374.036642058444
 30
0.0
  0
VERTEX
  5
DEE86
  8
0
 10
-3564.835155079316
 20
3374.036642058444
 30
0.0
  0
VERTEX
  5
DEE87
  8
0
 10
-3564.835155079316
 20
3174.036642058445
 30
0.0
  0
SEQEND
  5
DF268
  8
0
  0
POLYLINE
  5
DB8BE
  8
0
 66
     1
 10
0.0
 20
0.0
 30
0.0
 70
     1
  0
VERTEX
  5
DEE88
  8
0
 10
-2784.835155079316
 20
4312.167091618201
 30
0.0
  0
VERTEX
  5
DEE89
  8
0
 10
-2784.835155079316
 20
4302.1670916182
 30
0.0
  0
VERTEX
  5
DEE8A
  8
0
 10
-2704.835155079316
 20
4302.1670916182
 30
0.0
  0
VERTEX
  5
DEE8B
  8
0
 10
-2704.835155079316
 20
4312.167091618201
 30
0.0
 42
0.7499999999999128
  0
SEQEND
  5
DF269
  8
0
  0
POLYLINE
  5
DB8BF
  8
0
 66
     1
 10
0.0
 20
0.0
 30
0.0
 70
     1
  0
VERTEX
  5
DEE8C
  8
0
 10
-2729.835155079316
 20
4264.036642058443
 30
0.0
  0
VERTEX
  5
DEE8D
  8
0
 10
-2729.835155079316
 20
4244.036642058443
 30
0.0
  0
VERTEX
  5
DEE8E
  8
0
 10
-2759.835155079316
 20
4244.036642058443
 30
0.0
  0
VERTEX
  5
DEE8F
  8
0
 10
-2759.835155079316
 20
4264.036642058443
 30
0.0
  0
SEQEND
  5
DF26A
  8
0
  0
POLYLINE
  5
DB8C0
  8
0
 66
     1
 10
0.0
 20
0.0
 30
0.0
 70
     1
  0
VERTEX
  5
DEE90
  8
0
 10
-2729.835155079316
 20
4302.1670916182
 30
0.0
  0
VERTEX
  5
DEE91
  8
0
 10
-2729.835155079316
 20
4264.036642058443
 30
0.0
  0
VERTEX
  5
DEE92
  8
0
 10
-2759.835155079316
 20
4264.036642058443
 30
0.0
  0
VERTEX
  5
DEE93
  8
0
 10
-2759.835155079316
 20
4302.1670916182
 30
0.0
  0
SEQEND
  5
DF26B
  8
0
  0
POLYLINE
  5
DB8C1
  8
0
 66
     1
 10
0.0
 20
0.0
 30
0.0
 70
     1
  0
VERTEX
  5
DEE94
  8
0
 10
-3404.835155079316
 20
4312.167091618113
 30
0.0
  0
VERTEX
  5
DEE95
  8
0
 10
-3404.835155079316
 20
4302.167091618112
 30
0.0
  0
VERTEX
  5
DEE96
  8
0
 10
-3484.835155079316
 20
4302.167091618112
 30
0.0
  0
VERTEX
  5
DEE97
  8
0
 10
-3484.835155079316
 20
4312.167091618113
 30
0.0
 42
-0.7499999999999128
  0
SEQEND
  5
DF26C
  8
0
  0
POLYLINE
  5
DB8C2
  8
0
 66
     1
 10
0.0
 20
0.0
 30
0.0
 70
     1
  0
VERTEX
  5
DEE98
  8
0
 10
-3459.835155079316
 20
4264.036642058356
 30
0.0
  0
VERTEX
  5
DEE99
  8
0
 10
-3459.835155079316
 20
4244.036642058356
 30
0.0
  0
VERTEX
  5
DEE9A
  8
0
 10
-3429.835155079316
 20
4244.036642058356
 30
0.0
  0
VERTEX
  5
DEE9B
  8
0
 10
-3429.835155079316
 20
4264.036642058356
 30
0.0
  0
SEQEND
  5
DF26D
  8
0
  0
POLYLINE
  5
DB8C3
  8
0
 66
     1
 10
0.0
 20
0.0
 30
0.0
 70
     1
  0
VERTEX
  5
DEE9C
  8
0
 10
-3459.835155079316
 20
4302.167091618112
 30
0.0
  0
VERTEX
  5
DEE9D
  8
0
 10
-3459.835155079316
 20
4264.036642058356
 30
0.0
  0
VERTEX
  5
DEE9E
  8
0
 10
-3429.835155079316
 20
4264.036642058356
 30
0.0
  0
VERTEX
  5
DEE9F
  8
0
 10
-3429.835155079316
 20
4302.167091618112
 30
0.0
  0
SEQEND
  5
DF26E
  8
0
  0
POLYLINE
  5
DB8C4
  8
0
 66
     1
 10
0.0
 20
0.0
 30
0.0
 70
     1
  0
VERTEX
  5
DEEA0
  8
0
 10
-3109.835155079316
 20
4302.167091618112
 30
0.0
  0
VERTEX
  5
DEEA1
  8
0
 10
-3109.835155079316
 20
4264.036642058356
 30
0.0
  0
VERTEX
  5
DEEA2
  8
0
 10
-3079.835155079316
 20
4264.036642058356
 30
0.0
  0
VERTEX
  5
DEEA3
  8
0
 10
-3079.835155079316
 20
4302.167091618112
 30
0.0
  0
SEQEND
  5
DF26F
  8
0
  0
POLYLINE
  5
DB8C5
  8
0
 66
     1
 10
0.0
 20
0.0
 30
0.0
 70
     1
  0
VERTEX
  5
DEEA4
  8
0
 10
-3109.835155079316
 20
4264.036642058356
 30
0.0
  0
VERTEX
  5
DEEA5
  8
0
 10
-3109.835155079316
 20
4244.036642058356
 30
0.0
  0
VERTEX
  5
DEEA6
  8
0
 10
-3079.835155079316
 20
4244.036642058356
 30
0.0
  0
VERTEX
  5
DEEA7
  8
0
 10
-3079.835155079316
 20
4264.036642058356
 30
0.0
  0
SEQEND
  5
DF270
  8
0
  0
POLYLINE
  5
DB8C6
  8
0
 66
     1
 10
0.0
 20
0.0
 30
0.0
 70
     1
  0
VERTEX
  5
DEEA8
  8
0
 10
-3054.835155079316
 20
4312.167091618113
 30
0.0
  0
VERTEX
  5
DEEA9
  8
0
 10
-3054.835155079316
 20
4302.167091618112
 30
0.0
  0
VERTEX
  5
DEEAA
  8
0
 10
-3134.835155079316
 20
4302.167091618112
 30
0.0
  0
VERTEX
  5
DEEAB
  8
0
 10
-3134.835155079316
 20
4312.167091618113
 30
0.0
 42
-0.7499999999999128
  0
SEQEND
  5
DF271
  8
0
  0
POLYLINE
  5
DB8C7
  8
0
 66
     1
 10
0.0
 20
0.0
 30
0.0
  0
VERTEX
  5
DEEAC
  8
0
 10
-3479.217673826556
 20
4324.036642058529
 30
0.0
 42
0.079285671292372
  0
VERTEX
  5
DEEAD
  8
0
 10
-3484.835155079316
 20
4312.167091618201
 30
0.0
  0
VERTEX
  5
DEEAE
  8
0
 10
-3484.835155079316
 20
4302.1670916182
 30
0.0
  0
VERTEX
  5
DEEAF
  8
0
 10
-3459.835155079316
 20
4302.1670916182
 30
0.0
  0
VERTEX
  5
DEEB0
  8
0
 10
-3459.835155079316
 20
4264.036642058443
 30
0.0
  0
VERTEX
  5
DEEB1
  8
0
 10
-3459.835155079316
 20
4244.036642058531
 30
0.0
  0
VERTEX
  5
DEEB2
  8
0
 10
-3594.835155079316
 20
4244.036642058531
 30
0.0
  0
VERTEX
  5
DEEB3
  8
0
 10
-3594.835155079316
 20
4324.036642058529
 30
0.0
  0
VERTEX
  5
DEEB4
  8
0
 10
-3479.217673826556
 20
4324.036642058529
 30
0.0
  0
VERTEX
  5
DEEB5
  8
0
 10
-3594.835155079316
 20
4324.036642058444
 30
0.0
  0
VERTEX
  5
DEEB6
  8
0
 10
-3594.835155079316
 20
4244.036642058443
 30
0.0
  0
VERTEX
  5
DEEB7
  8
0
 10
-3459.835155079316
 20
4244.036642058443
 30
0.0
  0
SEQEND
  5
DF272
  8
0
  0
POLYLINE
  5
DB8C8
  8
0
 66
     1
 10
0.0
 20
0.0
 30
0.0
  0
VERTEX
  5
DEEB8
  8
0
 10
-3429.835155079316
 20
4244.036642058356
 30
0.0
  0
VERTEX
  5
DEEB9
  8
0
 10
-3429.835155079316
 20
4302.167091618112
 30
0.0
  0
VERTEX
  5
DEEBA
  8
0
 10
-3404.835155079316
 20
4302.167091618112
 30
0.0
  0
VERTEX
  5
DEEBB
  8
0
 10
-3404.835155079316
 20
4312.167091618113
 30
0.0
 42
0.0792856712932764
  0
VERTEX
  5
DEEBC
  8
0
 10
-3410.452636332193
 20
4324.036642058557
 30
0.0
  0
VERTEX
  5
DEEBD
  8
0
 10
-3129.217673826672
 20
4324.036642058444
 30
0.0
 42
0.0792856712920094
  0
VERTEX
  5
DEEBE
  8
0
 10
-3134.835155079316
 20
4312.167091618288
 30
0.0
  0
VERTEX
  5
DEEBF
  8
0
 10
-3134.835155079316
 20
4302.167091618288
 30
0.0
  0
VERTEX
  5
DEEC0
  8
0
 10
-3109.835155079316
 20
4302.167091618288
 30
0.0
  0
VERTEX
  5
DEEC1
  8
0
 10
-3109.835155079316
 20
4244.036642058531
 30
0.0
  0
VERTEX
  5
DEEC2
  8
0
 10
-3429.835155079316
 20
4244.036642058531
 30
0.0
  0
VERTEX
  5
DEEC3
  8
0
 10
-3109.835155079316
 20
4244.036642058531
 30
0.0
  0
SEQEND
  5
DF273
  8
0
  0
POLYLINE
  5
DB8C9
  8
0
 66
     1
 10
0.0
 20
0.0
 30
0.0
  0
VERTEX
  5
DEEC4
  8
0
 10
-2710.452636332077
 20
4324.036642058444
 30
0.0
 42
-0.079285671292372
  0
VERTEX
  5
DEEC5
  8
0
 10
-2704.835155079316
 20
4312.167091618113
 30
0.0
  0
VERTEX
  5
DEEC6
  8
0
 10
-2704.835155079316
 20
4302.167091618112
 30
0.0
  0
VERTEX
  5
DEEC7
  8
0
 10
-2729.835155079316
 20
4302.167091618112
 30
0.0
  0
VERTEX
  5
DEEC8
  8
0
 10
-2729.835155079316
 20
4264.036642058356
 30
0.0
  0
VERTEX
  5
DEEC9
  8
0
 10
-2729.835155079316
 20
4244.036642058443
 30
0.0
  0
VERTEX
  5
DEECA
  8
0
 10
-2594.835155079316
 20
4244.036642058443
 30
0.0
  0
VERTEX
  5
DEECB
  8
0
 10
-2594.835155079316
 20
4324.036642058444
 30
0.0
  0
VERTEX
  5
DEECC
  8
0
 10
-2710.452636332077
 20
4324.036642058444
 30
0.0
  0
VERTEX
  5
DEECD
  8
0
 10
-2594.835155079316
 20
4324.036642058356
 30
0.0
  0
VERTEX
  5
DEECE
  8
0
 10
-2594.835155079316
 20
4244.036642058356
 30
0.0
  0
VERTEX
  5
DEECF
  8
0
 10
-2729.835155079316
 20
4244.036642058356
 30
0.0
  0
SEQEND
  5
DF274
  8
0
  0
POLYLINE
  5
DB8CA
  8
0
 66
     1
 10
0.0
 20
0.0
 30
0.0
  0
VERTEX
  5
DEED0
  8
0
 10
-2759.835155079316
 20
4244.036642058443
 30
0.0
  0
VERTEX
  5
DEED1
  8
0
 10
-2759.835155079316
 20
4302.1670916182
 30
0.0
  0
VERTEX
  5
DEED2
  8
0
 10
-2784.835155079316
 20
4302.1670916182
 30
0.0
  0
VERTEX
  5
DEED3
  8
0
 10
-2784.835155079316
 20
4312.167091618201
 30
0.0
 42
-0.0792856712932764
  0
VERTEX
  5
DEED4
  8
0
 10
-2779.21767382644
 20
4324.036642058646
 30
0.0
  0
VERTEX
  5
DEED5
  8
0
 10
-3060.45263633196
 20
4324.036642058529
 30
0.0
 42
-0.0792856712920094
  0
VERTEX
  5
DEED6
  8
0
 10
-3054.835155079316
 20
4312.167091618376
 30
0.0
  0
VERTEX
  5
DEED7
  8
0
 10
-3054.835155079316
 20
4302.167091618373
 30
0.0
  0
VERTEX
  5
DEED8
  8
0
 10
-3079.835155079316
 20
4302.167091618373
 30
0.0
  0
VERTEX
  5
DEED9
  8
0
 10
-3079.835155079316
 20
4244.036642058618
 30
0.0
  0
VERTEX
  5
DEEDA
  8
0
 10
-2759.835155079316
 20
4244.036642058618
 30
0.0
  0
VERTEX
  5
DEEDB
  8
0
 10
-3079.835155079316
 20
4244.036642058618
 30
0.0
  0
SEQEND
  5
DF275
  8
0
  0
POLYLINE
  5
DB8CB
  8
0
 66
     1
 10
0.0
 20
0.0
 30
0.0
 70
     1
  0
VERTEX
  5
DEEDC
  8
0
 10
-1894.391753474308
 20
4519.036642058443
 30
0.0
  0
VERTEX
  5
DEEDD
  8
0
 10
-1894.391753474308
 20
4544.036642058443
 30
0.0
  0
VERTEX
  5
DEEDE
  8
0
 10
-394.3917534743084
 20
4544.036642058443
 30
0.0
  0
VERTEX
  5
DEEDF
  8
0
 10
-394.3917534743084
 20
4519.036642058443
 30
0.0
  0
SEQEND
  5
DF276
  8
0
  0
POLYLINE
  5
DB8CC
  8
0
 66
     1
 10
0.0
 20
0.0
 30
0.0
 70
     1
  0
VERTEX
  5
DEEE0
  8
0
 10
-424.3917534743084
 20
3174.036642058445
 30
0.0
  0
VERTEX
  5
DEEE1
  8
0
 10
-424.3917534743084
 20
3374.036642058444
 30
0.0
  0
VERTEX
  5
DEEE2
  8
0
 10
-394.3917534743084
 20
3374.036642058444
 30
0.0
  0
VERTEX
  5
DEEE3
  8
0
 10
-394.3917534743084
 20
3174.036642058445
 30
0.0
  0
SEQEND
  5
DF277
  8
0
  0
POLYLINE
  5
DB8CD
  8
0
 66
     1
 10
0.0
 20
0.0
 30
0.0
 70
     1
  0
VERTEX
  5
DEEE4
  8
0
 10
-424.3917534743084
 20
4489.036642058443
 30
0.0
  0
VERTEX
  5
DEEE5
  8
0
 10
-424.3917534743084
 20
4519.036642058443
 30
0.0
  0
VERTEX
  5
DEEE6
  8
0
 10
-394.3917534743084
 20
4519.036642058443
 30
0.0
  0
VERTEX
  5
DEEE7
  8
0
 10
-394.3917534743084
 20
4489.036642058443
 30
0.0
  0
SEQEND
  5
DF278
  8
0
  0
POLYLINE
  5
DB8CE
  8
0
 66
     1
 10
0.0
 20
0.0
 30
0.0
 70
     1
  0
VERTEX
  5
DEEE8
  8
0
 10
-1894.391753474308
 20
4489.036642058443
 30
0.0
  0
VERTEX
  5
DEEE9
  8
0
 10
-1894.391753474308
 20
4519.036642058443
 30
0.0
  0
VERTEX
  5
DEEEA
  8
0
 10
-1864.391753474308
 20
4519.036642058443
 30
0.0
  0
VERTEX
  5
DEEEB
  8
0
 10
-1864.391753474308
 20
4489.036642058443
 30
0.0
  0
SEQEND
  5
DF279
  8
0
  0
POLYLINE
  5
DB8CF
  8
0
 66
     1
 10
0.0
 20
0.0
 30
0.0
 70
     1
  0
VERTEX
  5
DEEEC
  8
0
 10
-424.3917534743084
 20
3549.036642058445
 30
0.0
  0
VERTEX
  5
DEEED
  8
0
 10
-424.3917534743084
 20
4244.036642058443
 30
0.0
  0
VERTEX
  5
DEEEE
  8
0
 10
-394.3917534743084
 20
4244.036642058443
 30
0.0
  0
VERTEX
  5
DEEEF
  8
0
 10
-394.3917534743084
 20
3549.036642058445
 30
0.0
  0
SEQEND
  5
DF27A
  8
0
  0
POLYLINE
  5
DB8D0
  8
0
 66
     1
 10
0.0
 20
0.0
 30
0.0
 70
     1
  0
VERTEX
  5
DEEF0
  8
0
 10
-424.3917534743084
 20
4324.036642058444
 30
0.0
  0
VERTEX
  5
DEEF1
  8
0
 10
-424.3917534743084
 20
4489.036642058443
 30
0.0
  0
VERTEX
  5
DEEF2
  8
0
 10
-394.3917534743084
 20
4489.036642058443
 30
0.0
  0
VERTEX
  5
DEEF3
  8
0
 10
-394.3917534743084
 20
4324.036642058444
 30
0.0
  0
SEQEND
  5
DF27B
  8
0
  0
POLYLINE
  5
DB8D1
  8
0
 66
     1
 10
0.0
 20
0.0
 30
0.0
 70
     1
  0
VERTEX
  5
DEEF4
  8
0
 10
-1894.391753474308
 20
3174.036642058445
 30
0.0
  0
VERTEX
  5
DEEF5
  8
0
 10
-1894.391753474308
 20
3374.036642058444
 30
0.0
  0
VERTEX
  5
DEEF6
  8
0
 10
-1864.391753474308
 20
3374.036642058444
 30
0.0
  0
VERTEX
  5
DEEF7
  8
0
 10
-1864.391753474308
 20
3174.036642058445
 30
0.0
  0
SEQEND
  5
DF27C
  8
0
  0
POLYLINE
  5
DB8D2
  8
0
 66
     1
 10
0.0
 20
0.0
 30
0.0
 70
     1
  0
VERTEX
  5
DEEF8
  8
0
 10
-1894.391753474308
 20
3549.036642058445
 30
0.0
  0
VERTEX
  5
DEEF9
  8
0
 10
-1894.391753474308
 20
4244.036642058443
 30
0.0
  0
VERTEX
  5
DEEFA
  8
0
 10
-1864.391753474308
 20
4244.036642058443
 30
0.0
  0
VERTEX
  5
DEEFB
  8
0
 10
-1864.391753474308
 20
3549.036642058445
 30
0.0
  0
SEQEND
  5
DF27D
  8
0
  0
POLYLINE
  5
DB8D3
  8
0
 66
     1
 10
0.0
 20
0.0
 30
0.0
 70
     1
  0
VERTEX
  5
DEEFC
  8
0
 10
-1894.391753474308
 20
4324.036642058444
 30
0.0
  0
VERTEX
  5
DEEFD
  8
0
 10
-1894.391753474308
 20
4489.036642058443
 30
0.0
  0
VERTEX
  5
DEEFE
  8
0
 10
-1864.391753474308
 20
4489.036642058443
 30
0.0
  0
VERTEX
  5
DEEFF
  8
0
 10
-1864.391753474308
 20
4324.036642058444
 30
0.0
  0
SEQEND
  5
DF27E
  8
0
  0
POLYLINE
  5
DB8D4
  8
0
 66
     1
 10
0.0
 20
0.0
 30
0.0
 70
     1
  0
VERTEX
  5
DEF00
  8
0
 10
-584.3917534743081
 20
4312.167091618201
 30
0.0
  0
VERTEX
  5
DEF01
  8
0
 10
-584.3917534743081
 20
4302.1670916182
 30
0.0
  0
VERTEX
  5
DEF02
  8
0
 10
-504.3917534743084
 20
4302.1670916182
 30
0.0
  0
VERTEX
  5
DEF03
  8
0
 10
-504.3917534743084
 20
4312.167091618201
 30
0.0
 42
0.7499999999999128
  0
SEQEND
  5
DF27F
  8
0
  0
POLYLINE
  5
DB8D5
  8
0
 66
     1
 10
0.0
 20
0.0
 30
0.0
 70
     1
  0
VERTEX
  5
DEF04
  8
0
 10
-529.3917534743084
 20
4264.036642058443
 30
0.0
  0
VERTEX
  5
DEF05
  8
0
 10
-529.3917534743084
 20
4244.036642058443
 30
0.0
  0
VERTEX
  5
DEF06
  8
0
 10
-559.3917534743082
 20
4244.036642058443
 30
0.0
  0
VERTEX
  5
DEF07
  8
0
 10
-559.3917534743082
 20
4264.036642058443
 30
0.0
  0
SEQEND
  5
DF280
  8
0
  0
POLYLINE
  5
DB8D6
  8
0
 66
     1
 10
0.0
 20
0.0
 30
0.0
 70
     1
  0
VERTEX
  5
DEF08
  8
0
 10
-529.3917534743084
 20
4302.1670916182
 30
0.0
  0
VERTEX
  5
DEF09
  8
0
 10
-529.3917534743084
 20
4264.036642058443
 30
0.0
  0
VERTEX
  5
DEF0A
  8
0
 10
-559.3917534743082
 20
4264.036642058443
 30
0.0
  0
VERTEX
  5
DEF0B
  8
0
 10
-559.3917534743082
 20
4302.1670916182
 30
0.0
  0
SEQEND
  5
DF281
  8
0
  0
POLYLINE
  5
DB8D7
  8
0
 66
     1
 10
0.0
 20
0.0
 30
0.0
 70
     1
  0
VERTEX
  5
DEF0C
  8
0
 10
-1759.391753474308
 20
4302.167091618112
 30
0.0
  0
VERTEX
  5
DEF0D
  8
0
 10
-1759.391753474308
 20
4264.036642058356
 30
0.0
  0
VERTEX
  5
DEF0E
  8
0
 10
-1729.391753474308
 20
4264.036642058356
 30
0.0
  0
VERTEX
  5
DEF0F
  8
0
 10
-1729.391753474308
 20
4302.167091618112
 30
0.0
  0
SEQEND
  5
DF282
  8
0
  0
POLYLINE
  5
DB8D8
  8
0
 66
     1
 10
0.0
 20
0.0
 30
0.0
 70
     1
  0
VERTEX
  5
DEF10
  8
0
 10
-1759.391753474308
 20
4264.036642058356
 30
0.0
  0
VERTEX
  5
DEF11
  8
0
 10
-1759.391753474308
 20
4244.036642058356
 30
0.0
  0
VERTEX
  5
DEF12
  8
0
 10
-1729.391753474308
 20
4244.036642058356
 30
0.0
  0
VERTEX
  5
DEF13
  8
0
 10
-1729.391753474308
 20
4264.036642058356
 30
0.0
  0
SEQEND
  5
DF283
  8
0
  0
POLYLINE
  5
DB8D9
  8
0
 66
     1
 10
0.0
 20
0.0
 30
0.0
 70
     1
  0
VERTEX
  5
DEF14
  8
0
 10
-1704.391753474308
 20
4312.167091618113
 30
0.0
  0
VERTEX
  5
DEF15
  8
0
 10
-1704.391753474308
 20
4302.167091618112
 30
0.0
  0
VERTEX
  5
DEF16
  8
0
 10
-1784.391753474308
 20
4302.167091618112
 30
0.0
  0
VERTEX
  5
DEF17
  8
0
 10
-1784.391753474308
 20
4312.167091618113
 30
0.0
 42
-0.7499999999999128
  0
SEQEND
  5
DF284
  8
0
  0
POLYLINE
  5
DB8DA
  8
0
 66
     1
 10
0.0
 20
0.0
 30
0.0
 70
     1
  0
VERTEX
  5
DEF18
  8
0
 10
-1304.391753474308
 20
4312.167091618288
 30
0.0
  0
VERTEX
  5
DEF19
  8
0
 10
-1304.391753474308
 20
4302.167091618288
 30
0.0
  0
VERTEX
  5
DEF1A
  8
0
 10
-1384.391753474308
 20
4302.167091618288
 30
0.0
  0
VERTEX
  5
DEF1B
  8
0
 10
-1384.391753474308
 20
4312.167091618288
 30
0.0
 42
-0.7499999999999128
  0
SEQEND
  5
DF285
  8
0
  0
POLYLINE
  5
DB8DB
  8
0
 66
     1
 10
0.0
 20
0.0
 30
0.0
 70
     1
  0
VERTEX
  5
DEF1C
  8
0
 10
-1359.391753474308
 20
4264.036642058528
 30
0.0
  0
VERTEX
  5
DEF1D
  8
0
 10
-1359.391753474308
 20
4244.036642058531
 30
0.0
  0
VERTEX
  5
DEF1E
  8
0
 10
-1329.391753474308
 20
4244.036642058531
 30
0.0
  0
VERTEX
  5
DEF1F
  8
0
 10
-1329.391753474308
 20
4264.036642058528
 30
0.0
  0
SEQEND
  5
DF286
  8
0
  0
POLYLINE
  5
DB8DC
  8
0
 66
     1
 10
0.0
 20
0.0
 30
0.0
 70
     1
  0
VERTEX
  5
DEF20
  8
0
 10
-1359.391753474308
 20
4302.167091618288
 30
0.0
  0
VERTEX
  5
DEF21
  8
0
 10
-1359.391753474308
 20
4264.036642058528
 30
0.0
  0
VERTEX
  5
DEF22
  8
0
 10
-1329.391753474308
 20
4264.036642058528
 30
0.0
  0
VERTEX
  5
DEF23
  8
0
 10
-1329.391753474308
 20
4302.167091618288
 30
0.0
  0
SEQEND
  5
DF287
  8
0
  0
POLYLINE
  5
DB8DD
  8
0
 66
     1
 10
0.0
 20
0.0
 30
0.0
  0
VERTEX
  5
DEF24
  8
0
 10
-1778.774272221548
 20
4324.036642058529
 30
0.0
 42
0.079285671292372
  0
VERTEX
  5
DEF25
  8
0
 10
-1784.391753474308
 20
4312.167091618201
 30
0.0
  0
VERTEX
  5
DEF26
  8
0
 10
-1784.391753474308
 20
4302.1670916182
 30
0.0
  0
VERTEX
  5
DEF27
  8
0
 10
-1759.391753474308
 20
4302.1670916182
 30
0.0
  0
VERTEX
  5
DEF28
  8
0
 10
-1759.391753474308
 20
4264.036642058443
 30
0.0
  0
VERTEX
  5
DEF29
  8
0
 10
-1759.391753474308
 20
4244.036642058531
 30
0.0
  0
VERTEX
  5
DEF2A
  8
0
 10
-1894.391753474308
 20
4244.036642058531
 30
0.0
  0
VERTEX
  5
DEF2B
  8
0
 10
-1894.391753474308
 20
4324.036642058529
 30
0.0
  0
VERTEX
  5
DEF2C
  8
0
 10
-1778.774272221548
 20
4324.036642058529
 30
0.0
  0
VERTEX
  5
DEF2D
  8
0
 10
-1894.391753474308
 20
4324.036642058444
 30
0.0
  0
VERTEX
  5
DEF2E
  8
0
 10
-1894.391753474308
 20
4244.036642058443
 30
0.0
  0
VERTEX
  5
DEF2F
  8
0
 10
-1759.391753474308
 20
4244.036642058443
 30
0.0
  0
SEQEND
  5
DF288
  8
0
  0
POLYLINE
  5
DB8DE
  8
0
 66
     1
 10
0.0
 20
0.0
 30
0.0
  0
VERTEX
  5
DEF30
  8
0
 10
-1329.391753474308
 20
4244.036642058531
 30
0.0
  0
VERTEX
  5
DEF31
  8
0
 10
-1329.391753474308
 20
4302.167091618288
 30
0.0
  0
VERTEX
  5
DEF32
  8
0
 10
-1304.391753474308
 20
4302.167091618288
 30
0.0
  0
VERTEX
  5
DEF33
  8
0
 10
-1304.391753474308
 20
4312.167091618288
 30
0.0
 42
0.0792856712932764
  0
VERTEX
  5
DEF34
  8
0
 10
-1310.009234727185
 20
4324.036642058734
 30
0.0
  0
VERTEX
  5
DEF35
  8
0
 10
-978.7742722216641
 20
4324.036642058792
 30
0.0
 42
0.0792856712920094
  0
VERTEX
  5
DEF36
  8
0
 10
-984.3917534743084
 20
4312.167091618635
 30
0.0
  0
VERTEX
  5
DEF37
  8
0
 10
-984.3917534743084
 20
4302.167091618636
 30
0.0
  0
VERTEX
  5
DEF38
  8
0
 10
-959.3917534743084
 20
4302.167091618636
 30
0.0
  0
VERTEX
  5
DEF39
  8
0
 10
-959.3917534743084
 20
4244.03664205888
 30
0.0
  0
VERTEX
  5
DEF3A
  8
0
 10
-1329.391753474308
 20
4244.036642058705
 30
0.0
  0
VERTEX
  5
DEF3B
  8
0
 10
-959.3917534743084
 20
4244.03664205888
 30
0.0
  0
SEQEND
  5
DF289
  8
0
  0
POLYLINE
  5
DB8DF
  8
0
 66
     1
 10
0.0
 20
0.0
 30
0.0
  0
VERTEX
  5
DEF3C
  8
0
 10
-510.0092347270685
 20
4324.036642058444
 30
0.0
 42
-0.079285671292372
  0
VERTEX
  5
DEF3D
  8
0
 10
-504.3917534743084
 20
4312.167091618113
 30
0.0
  0
VERTEX
  5
DEF3E
  8
0
 10
-504.3917534743084
 20
4302.167091618112
 30
0.0
  0
VERTEX
  5
DEF3F
  8
0
 10
-529.3917534743084
 20
4302.167091618112
 30
0.0
  0
VERTEX
  5
DEF40
  8
0
 10
-529.3917534743084
 20
4264.036642058356
 30
0.0
  0
VERTEX
  5
DEF41
  8
0
 10
-529.3917534743084
 20
4244.036642058443
 30
0.0
  0
VERTEX
  5
DEF42
  8
0
 10
-394.3917534743084
 20
4244.036642058443
 30
0.0
  0
VERTEX
  5
DEF43
  8
0
 10
-394.3917534743084
 20
4324.036642058444
 30
0.0
  0
VERTEX
  5
DEF44
  8
0
 10
-510.0092347270685
 20
4324.036642058444
 30
0.0
  0
VERTEX
  5
DEF45
  8
0
 10
-394.3917534743084
 20
4324.036642058356
 30
0.0
  0
VERTEX
  5
DEF46
  8
0
 10
-394.3917534743084
 20
4244.036642058356
 30
0.0
  0
VERTEX
  5
DEF47
  8
0
 10
-529.3917534743084
 20
4244.036642058356
 30
0.0
  0
SEQEND
  5
DF28A
  8
0
  0
POLYLINE
  5
DB8E0
  8
0
 66
     1
 10
0.0
 20
0.0
 30
0.0
  0
VERTEX
  5
DEF48
  8
0
 10
-559.3917534743082
 20
4244.036642058268
 30
0.0
  0
VERTEX
  5
DEF49
  8
0
 10
-559.3917534743082
 20
4302.167091618025
 30
0.0
  0
VERTEX
  5
DEF4A
  8
0
 10
-584.3917534743081
 20
4302.167091618025
 30
0.0
  0
VERTEX
  5
DEF4B
  8
0
 10
-584.3917534743081
 20
4312.167091618024
 30
0.0
 42
-0.0792856712932764
  0
VERTEX
  5
DEF4C
  8
0
 10
-578.7742722214311
 20
4324.036642058472
 30
0.0
  0
VERTEX
  5
DEF4D
  8
0
 10
-910.0092347269526
 20
4324.036642058529
 30
0.0
 42
-0.0792856712920094
  0
VERTEX
  5
DEF4E
  8
0
 10
-904.3917534743084
 20
4312.167091618376
 30
0.0
  0
VERTEX
  5
DEF4F
  8
0
 10
-904.3917534743084
 20
4302.167091618373
 30
0.0
  0
VERTEX
  5
DEF50
  8
0
 10
-929.3917534743084
 20
4302.167091618373
 30
0.0
  0
VERTEX
  5
DEF51
  8
0
 10
-929.3917534743084
 20
4244.036642058618
 30
0.0
  0
VERTEX
  5
DEF52
  8
0
 10
-559.3917534743082
 20
4244.036642058443
 30
0.0
  0
VERTEX
  5
DEF53
  8
0
 10
-929.3917534743084
 20
4244.036642058618
 30
0.0
  0
SEQEND
  5
DF28B
  8
0
  0
POLYLINE
  5
DB8E1
  8
0
 66
     1
 10
0.0
 20
0.0
 30
0.0
 70
     1
  0
VERTEX
  5
DEF54
  8
0
 10
-929.3917534743084
 20
4302.1670916182
 30
0.0
  0
VERTEX
  5
DEF55
  8
0
 10
-929.3917534743084
 20
4264.036642058443
 30
0.0
  0
VERTEX
  5
DEF56
  8
0
 10
-959.3917534743084
 20
4264.036642058443
 30
0.0
  0
VERTEX
  5
DEF57
  8
0
 10
-959.3917534743084
 20
4302.1670916182
 30
0.0
  0
SEQEND
  5
DF28C
  8
0
  0
POLYLINE
  5
DB8E2
  8
0
 66
     1
 10
0.0
 20
0.0
 30
0.0
 70
     1
  0
VERTEX
  5
DEF58
  8
0
 10
-929.3917534743084
 20
4264.036642058443
 30
0.0
  0
VERTEX
  5
DEF59
  8
0
 10
-929.3917534743084
 20
4244.036642058443
 30
0.0
  0
VERTEX
  5
DEF5A
  8
0
 10
-959.3917534743084
 20
4244.036642058443
 30
0.0
  0
VERTEX
  5
DEF5B
  8
0
 10
-959.3917534743084
 20
4264.036642058443
 30
0.0
  0
SEQEND
  5
DF28D
  8
0
  0
POLYLINE
  5
DB8E3
  8
0
 66
     1
 10
0.0
 20
0.0
 30
0.0
 70
     1
  0
VERTEX
  5
DEF5C
  8
0
 10
-984.3917534743084
 20
4312.167091618201
 30
0.0
  0
VERTEX
  5
DEF5D
  8
0
 10
-984.3917534743084
 20
4302.1670916182
 30
0.0
  0
VERTEX
  5
DEF5E
  8
0
 10
-904.3917534743084
 20
4302.1670916182
 30
0.0
  0
VERTEX
  5
DEF5F
  8
0
 10
-904.3917534743084
 20
4312.167091618201
 30
0.0
 42
0.7499999999999128
  0
SEQEND
  5
DF28E
  8
0
  0
POLYLINE
  5
DB8E4
  8
0
 66
     1
 10
0.0
 20
0.0
 30
0.0
  0
VERTEX
  5
DEF60
  8
0
 10
-1729.391753474308
 20
4244.036642058531
 30
0.0
  0
VERTEX
  5
DEF61
  8
0
 10
-1729.391753474308
 20
4302.167091618288
 30
0.0
  0
VERTEX
  5
DEF62
  8
0
 10
-1704.391753474308
 20
4302.167091618288
 30
0.0
  0
VERTEX
  5
DEF63
  8
0
 10
-1704.391753474308
 20
4312.167091618288
 30
0.0
 42
0.0792856712932764
  0
VERTEX
  5
DEF64
  8
0
 10
-1710.009234727185
 20
4324.036642058734
 30
0.0
  0
VERTEX
  5
DEF65
  8
0
 10
-1378.774272221664
 20
4324.036642058792
 30
0.0
 42
0.0792856712920094
  0
VERTEX
  5
DEF66
  8
0
 10
-1384.391753474308
 20
4312.167091618635
 30
0.0
  0
VERTEX
  5
DEF67
  8
0
 10
-1384.391753474308
 20
4302.167091618636
 30
0.0
  0
VERTEX
  5
DEF68
  8
0
 10
-1359.391753474308
 20
4302.167091618636
 30
0.0
  0
VERTEX
  5
DEF69
  8
0
 10
-1359.391753474308
 20
4244.03664205888
 30
0.0
  0
VERTEX
  5
DEF6A
  8
0
 10
-1729.391753474308
 20
4244.036642058705
 30
0.0
  0
VERTEX
  5
DEF6B
  8
0
 10
-1359.391753474308
 20
4244.03664205888
 30
0.0
  0
SEQEND
  5
DF28F
  8
0
  0
POLYLINE
  5
DB8E5
  8
0
 66
     1
 10
0.0
 20
0.0
 30
0.0
 70
     1
  0
VERTEX
  5
DEF6C
  8
0
 10
305.4035143812072
 20
4324.036642058444
 30
0.0
  0
VERTEX
  5
DEF6D
  8
0
 10
305.4035143812072
 20
4489.036642058443
 30
0.0
  0
VERTEX
  5
DEF6E
  8
0
 10
335.4035143812073
 20
4489.036642058443
 30
0.0
  0
VERTEX
  5
DEF6F
  8
0
 10
335.4035143812073
 20
4324.036642058444
 30
0.0
  0
SEQEND
  5
DF290
  8
0
  0
POLYLINE
  5
DB8E6
  8
0
 66
     1
 10
0.0
 20
0.0
 30
0.0
 70
     1
  0
VERTEX
  5
DEF70
  8
0
 10
305.4035143812072
 20
3549.036642058445
 30
0.0
  0
VERTEX
  5
DEF71
  8
0
 10
305.4035143812072
 20
4244.036642058443
 30
0.0
  0
VERTEX
  5
DEF72
  8
0
 10
335.4035143812073
 20
4244.036642058443
 30
0.0
  0
VERTEX
  5
DEF73
  8
0
 10
335.4035143812073
 20
3549.036642058445
 30
0.0
  0
SEQEND
  5
DF291
  8
0
  0
POLYLINE
  5
DB8E7
  8
0
 66
     1
 10
0.0
 20
0.0
 30
0.0
 70
     1
  0
VERTEX
  5
DEF74
  8
0
 10
305.4035143812072
 20
3174.036642058445
 30
0.0
  0
VERTEX
  5
DEF75
  8
0
 10
305.4035143812072
 20
3374.036642058444
 30
0.0
  0
VERTEX
  5
DEF76
  8
0
 10
335.4035143812073
 20
3374.036642058444
 30
0.0
  0
VERTEX
  5
DEF77
  8
0
 10
335.4035143812073
 20
3174.036642058445
 30
0.0
  0
SEQEND
  5
DF292
  8
0
  0
POLYLINE
  5
DB8E8
  8
0
 66
     1
 10
0.0
 20
0.0
 30
0.0
 70
     1
  0
VERTEX
  5
DEF78
  8
0
 10
2275.403514381207
 20
4324.036642058444
 30
0.0
  0
VERTEX
  5
DEF79
  8
0
 10
2275.403514381207
 20
4489.036642058443
 30
0.0
  0
VERTEX
  5
DEF7A
  8
0
 10
2305.403514381207
 20
4489.036642058443
 30
0.0
  0
VERTEX
  5
DEF7B
  8
0
 10
2305.403514381207
 20
4324.036642058444
 30
0.0
  0
SEQEND
  5
DF293
  8
0
  0
POLYLINE
  5
DB8E9
  8
0
 66
     1
 10
0.0
 20
0.0
 30
0.0
 70
     1
  0
VERTEX
  5
DEF7C
  8
0
 10
2275.403514381207
 20
3549.036642058445
 30
0.0
  0
VERTEX
  5
DEF7D
  8
0
 10
2275.403514381207
 20
4244.036642058443
 30
0.0
  0
VERTEX
  5
DEF7E
  8
0
 10
2305.403514381207
 20
4244.036642058443
 30
0.0
  0
VERTEX
  5
DEF7F
  8
0
 10
2305.403514381207
 20
3549.036642058445
 30
0.0
  0
SEQEND
  5
DF294
  8
0
  0
POLYLINE
  5
DB8EA
  8
0
 66
     1
 10
0.0
 20
0.0
 30
0.0
 70
     1
  0
VERTEX
  5
DEF80
  8
0
 10
305.4035143812072
 20
4489.036642058443
 30
0.0
  0
VERTEX
  5
DEF81
  8
0
 10
305.4035143812072
 20
4519.036642058443
 30
0.0
  0
VERTEX
  5
DEF82
  8
0
 10
335.4035143812073
 20
4519.036642058443
 30
0.0
  0
VERTEX
  5
DEF83
  8
0
 10
335.4035143812073
 20
4489.036642058443
 30
0.0
  0
SEQEND
  5
DF295
  8
0
  0
POLYLINE
  5
DB8EB
  8
0
 66
     1
 10
0.0
 20
0.0
 30
0.0
 70
     1
  0
VERTEX
  5
DEF84
  8
0
 10
2275.403514381207
 20
4489.036642058443
 30
0.0
  0
VERTEX
  5
DEF85
  8
0
 10
2275.403514381207
 20
4519.036642058443
 30
0.0
  0
VERTEX
  5
DEF86
  8
0
 10
2305.403514381207
 20
4519.036642058443
 30
0.0
  0
VERTEX
  5
DEF87
  8
0
 10
2305.403514381207
 20
4489.036642058443
 30
0.0
  0
SEQEND
  5
DF296
  8
0
  0
POLYLINE
  5
DB8EC
  8
0
 66
     1
 10
0.0
 20
0.0
 30
0.0
 70
     1
  0
VERTEX
  5
DEF88
  8
0
 10
2275.403514381207
 20
3174.036642058445
 30
0.0
  0
VERTEX
  5
DEF89
  8
0
 10
2275.403514381207
 20
3374.036642058444
 30
0.0
  0
VERTEX
  5
DEF8A
  8
0
 10
2305.403514381207
 20
3374.036642058444
 30
0.0
  0
VERTEX
  5
DEF8B
  8
0
 10
2305.403514381207
 20
3174.036642058445
 30
0.0
  0
SEQEND
  5
DF297
  8
0
  0
POLYLINE
  5
DB8ED
  8
0
 66
     1
 10
0.0
 20
0.0
 30
0.0
 70
     1
  0
VERTEX
  5
DEF8C
  8
0
 10
305.4035143812072
 20
4519.036642058443
 30
0.0
  0
VERTEX
  5
DEF8D
  8
0
 10
305.4035143812072
 20
4544.036642058443
 30
0.0
  0
VERTEX
  5
DEF8E
  8
0
 10
2305.403514381207
 20
4544.036642058443
 30
0.0
  0
VERTEX
  5
DEF8F
  8
0
 10
2305.403514381207
 20
4519.036642058443
 30
0.0
  0
SEQEND
  5
DF298
  8
0
  0
POLYLINE
  5
DB8EE
  8
0
 66
     1
 10
0.0
 20
0.0
 30
0.0
 70
     1
  0
VERTEX
  5
DEF90
  8
0
 10
305.4035143812072
 20
1344.036642058443
 30
0.0
  0
VERTEX
  5
DEF91
  8
0
 10
335.4035143812073
 20
1344.036642058443
 30
0.0
  0
VERTEX
  5
DEF92
  8
0
 10
335.4035143812073
 20
1329.036642058444
 30
0.0
  0
VERTEX
  5
DEF93
  8
0
 10
305.4035143812072
 20
1329.036642058444
 30
0.0
  0
SEQEND
  5
DF299
  8
0
  0
POLYLINE
  5
DB8EF
  8
0
 66
     1
 10
0.0
 20
0.0
 30
0.0
 70
     1
  0
VERTEX
  5
DEF94
  8
0
 10
2275.403514381207
 20
1249.036642058444
 30
0.0
  0
VERTEX
  5
DEF95
  8
0
 10
2305.403514381207
 20
1249.036642058444
 30
0.0
  0
VERTEX
  5
DEF96
  8
0
 10
2305.403514381207
 20
1234.036642058444
 30
0.0
  0
VERTEX
  5
DEF97
  8
0
 10
2275.403514381207
 20
1234.036642058444
 30
0.0
  0
SEQEND
  5
DF29A
  8
0
  0
POLYLINE
  5
DB8F0
  8
0
 66
     1
 10
0.0
 20
0.0
 30
0.0
 70
     1
  0
VERTEX
  5
DEF98
  8
0
 10
2275.403514381207
 20
1344.036642058443
 30
0.0
  0
VERTEX
  5
DEF99
  8
0
 10
2305.403514381207
 20
1344.036642058443
 30
0.0
  0
VERTEX
  5
DEF9A
  8
0
 10
2305.403514381207
 20
1329.036642058444
 30
0.0
  0
VERTEX
  5
DEF9B
  8
0
 10
2275.403514381207
 20
1329.036642058444
 30
0.0
  0
SEQEND
  5
DF29B
  8
0
  0
POLYLINE
  5
DB8F1
  8
0
 66
     1
 10
0.0
 20
0.0
 30
0.0
 70
     1
  0
VERTEX
  5
DEF9C
  8
0
 10
305.4035143812072
 20
1249.036642058444
 30
0.0
  0
VERTEX
  5
DEF9D
  8
0
 10
335.4035143812073
 20
1249.036642058444
 30
0.0
  0
VERTEX
  5
DEF9E
  8
0
 10
335.4035143812073
 20
1234.036642058444
 30
0.0
  0
VERTEX
  5
DEF9F
  8
0
 10
305.4035143812072
 20
1234.036642058444
 30
0.0
  0
SEQEND
  5
DF29C
  8
0
  0
POLYLINE
  5
DB8F2
  8
0
 66
     1
 10
0.0
 20
0.0
 30
0.0
 70
     1
  0
VERTEX
  5
DEFA0
  8
0
 10
305.4035143812072
 20
1249.036642058444
 30
0.0
  0
VERTEX
  5
DEFA1
  8
0
 10
305.4035143812072
 20
1329.036642058444
 30
0.0
  0
VERTEX
  5
DEFA2
  8
0
 10
2305.403514381207
 20
1329.036642058444
 30
0.0
  0
VERTEX
  5
DEFA3
  8
0
 10
2305.403514381207
 20
1249.036642058444
 30
0.0
  0
SEQEND
  5
DF29D
  8
0
  0
POLYLINE
  5
DB8F3
  8
0
 66
     1
 10
0.0
 20
0.0
 30
0.0
 70
     1
  0
VERTEX
  5
DEFA4
  8
0
 10
305.4035143812072
 20
1154.036642058444
 30
0.0
  0
VERTEX
  5
DEFA5
  8
0
 10
305.4035143812072
 20
1234.036642058444
 30
0.0
  0
VERTEX
  5
DEFA6
  8
0
 10
2305.403514381207
 20
1234.036642058444
 30
0.0
  0
VERTEX
  5
DEFA7
  8
0
 10
2305.403514381207
 20
1154.036642058444
 30
0.0
  0
SEQEND
  5
DF29E
  8
0
  0
POLYLINE
  5
DB8F4
  8
0
 66
     1
 10
0.0
 20
0.0
 30
0.0
 70
     1
  0
VERTEX
  5
DEFA8
  8
0
 10
305.4035143812072
 20
1454.036642058444
 30
0.0
  0
VERTEX
  5
DEFA9
  8
0
 10
305.4035143812072
 20
1534.036642058444
 30
0.0
  0
VERTEX
  5
DEFAA
  8
0
 10
2305.403514381207
 20
1534.036642058444
 30
0.0
  0
VERTEX
  5
DEFAB
  8
0
 10
2305.403514381207
 20
1454.036642058444
 30
0.0
  0
SEQEND
  5
DF29F
  8
0
  0
POLYLINE
  5
DB8F5
  8
0
 66
     1
 10
0.0
 20
0.0
 30
0.0
 70
     1
  0
VERTEX
  5
DEFAC
  8
0
 10
305.4035143812072
 20
1344.036642058443
 30
0.0
  0
VERTEX
  5
DEFAD
  8
0
 10
305.4035143812072
 20
1424.036642058444
 30
0.0
  0
VERTEX
  5
DEFAE
  8
0
 10
2305.403514381207
 20
1424.036642058444
 30
0.0
  0
VERTEX
  5
DEFAF
  8
0
 10
2305.403514381207
 20
1344.036642058443
 30
0.0
  0
SEQEND
  5
DF2A0
  8
0
  0
POLYLINE
  5
DB8F6
  8
0
 66
     1
 10
0.0
 20
0.0
 30
0.0
 70
     1
  0
VERTEX
  5
DEFB0
  8
0
 10
1320.403514381207
 20
6378.073284116888
 30
0.0
  0
VERTEX
  5
DEFB1
  8
0
 10
1290.403514381207
 20
6378.073284116888
 30
0.0
  0
VERTEX
  5
DEFB2
  8
0
 10
1290.403514381207
 20
6388.073284116885
 30
0.0
  0
VERTEX
  5
DEFB3
  8
0
 10
1320.403514381207
 20
6388.073284116885
 30
0.0
  0
SEQEND
  5
DF2A1
  8
0
  0
POLYLINE
  5
DB8F7
  8
0
 66
     1
 10
0.0
 20
0.0
 30
0.0
 70
     1
  0
VERTEX
  5
DEFB4
  8
0
 10
1320.403514381207
 20
6468.073284116886
 30
0.0
  0
VERTEX
  5
DEFB5
  8
0
 10
1290.403514381207
 20
6468.073284116886
 30
0.0
  0
VERTEX
  5
DEFB6
  8
0
 10
1290.403514381207
 20
6478.073284116888
 30
0.0
  0
VERTEX
  5
DEFB7
  8
0
 10
1320.403514381207
 20
6478.073284116888
 30
0.0
  0
SEQEND
  5
DF2A2
  8
0
  0
POLYLINE
  5
DB8F8
  8
0
 66
     1
 10
0.0
 20
0.0
 30
0.0
 70
     1
  0
VERTEX
  5
DEFB8
  8
0
 10
1320.403514381207
 20
6558.073284116885
 30
0.0
  0
VERTEX
  5
DEFB9
  8
0
 10
1290.403514381207
 20
6558.073284116885
 30
0.0
  0
VERTEX
  5
DEFBA
  8
0
 10
1290.403514381207
 20
6568.073284116886
 30
0.0
  0
VERTEX
  5
DEFBB
  8
0
 10
1320.403514381207
 20
6568.073284116886
 30
0.0
  0
SEQEND
  5
DF2A3
  8
0
  0
POLYLINE
  5
DB8F9
  8
0
 66
     1
 10
0.0
 20
0.0
 30
0.0
 70
     1
  0
VERTEX
  5
DEFBC
  8
0
 10
1290.403514381207
 20
3549.036642058445
 30
0.0
  0
VERTEX
  5
DEFBD
  8
0
 10
1290.403514381207
 20
4244.036642058137
 30
0.0
  0
VERTEX
  5
DEFBE
  8
0
 10
1320.403514381207
 20
4244.036642058137
 30
0.0
  0
VERTEX
  5
DEFBF
  8
0
 10
1320.403514381207
 20
3549.036642058445
 30
0.0
  0
SEQEND
  5
DF2A4
  8
0
  0
POLYLINE
  5
DB8FA
  8
0
 66
     1
 10
0.0
 20
0.0
 30
0.0
 70
     1
  0
VERTEX
  5
DEFC0
  8
0
 10
1290.403514381207
 20
4489.036642058443
 30
0.0
  0
VERTEX
  5
DEFC1
  8
0
 10
1290.403514381207
 20
4519.036642058443
 30
0.0
  0
VERTEX
  5
DEFC2
  8
0
 10
1320.403514381207
 20
4519.036642058443
 30
0.0
  0
VERTEX
  5
DEFC3
  8
0
 10
1320.403514381207
 20
4489.036642058443
 30
0.0
  0
SEQEND
  5
DF2A5
  8
0
  0
POLYLINE
  5
DB8FB
  8
0
 66
     1
 10
0.0
 20
0.0
 30
0.0
 70
     1
  0
VERTEX
  5
DEFC4
  8
0
 10
1290.403514381207
 20
1249.036642058444
 30
0.0
  0
VERTEX
  5
DEFC5
  8
0
 10
1320.403514381207
 20
1249.036642058444
 30
0.0
  0
VERTEX
  5
DEFC6
  8
0
 10
1320.403514381207
 20
1234.036642058444
 30
0.0
  0
VERTEX
  5
DEFC7
  8
0
 10
1290.403514381207
 20
1234.036642058444
 30
0.0
  0
SEQEND
  5
DF2A6
  8
0
  0
POLYLINE
  5
DB8FC
  8
0
 66
     1
 10
0.0
 20
0.0
 30
0.0
 70
     1
  0
VERTEX
  5
DEFC8
  8
0
 10
1290.403514381207
 20
1344.036642058443
 30
0.0
  0
VERTEX
  5
DEFC9
  8
0
 10
1320.403514381207
 20
1344.036642058443
 30
0.0
  0
VERTEX
  5
DEFCA
  8
0
 10
1320.403514381207
 20
1329.036642058444
 30
0.0
  0
VERTEX
  5
DEFCB
  8
0
 10
1290.403514381207
 20
1329.036642058444
 30
0.0
  0
SEQEND
  5
DF2A7
  8
0
  0
POLYLINE
  5
DB8FD
  8
0
 66
     1
 10
0.0
 20
0.0
 30
0.0
  0
VERTEX
  5
DEFCC
  8
0
 10
-3594.835155079316
 20
8263.073284116886
 30
0.0
  0
VERTEX
  5
DEFCD
  8
0
 10
-3594.835155079316
 20
7848.073284116884
 30
0.0
  0
VERTEX
  5
DEFCE
  8
0
 10
-3564.835155079316
 20
7848.073284116884
 30
0.0
  0
VERTEX
  5
DEFCF
  8
0
 10
-3564.835155079316
 20
8233.073284116886
 30
0.0
  0
VERTEX
  5
DEFD0
  8
0
 10
-2624.835155079316
 20
8233.073284116886
 30
0.0
  0
VERTEX
  5
DEFD1
  8
0
 10
-2624.835155079316
 20
7848.073284116884
 30
0.0
  0
VERTEX
  5
DEFD2
  8
0
 10
-2594.835155079316
 20
7848.073284116884
 30
0.0
  0
VERTEX
  5
DEFD3
  8
0
 10
-2594.835155079316
 20
8263.073284116886
 30
0.0
  0
VERTEX
  5
DEFD4
  8
0
 10
-3594.835155079316
 20
8263.073284116886
 30
0.0
  0
SEQEND
  5
DF2A8
  8
0
  0
POLYLINE
  5
DB8FE
  8
0
 66
     1
 10
0.0
 20
0.0
 30
0.0
  0
VERTEX
  5
DEFD5
  8
0
 10
-1894.391753474308
 20
8263.073284116886
 30
0.0
  0
VERTEX
  5
DEFD6
  8
0
 10
-1894.391753474308
 20
7848.073284116884
 30
0.0
  0
VERTEX
  5
DEFD7
  8
0
 10
-1864.391753474308
 20
7848.073284116884
 30
0.0
  0
VERTEX
  5
DEFD8
  8
0
 10
-1864.391753474308
 20
8233.073284116886
 30
0.0
  0
VERTEX
  5
DEFD9
  8
0
 10
-424.3917534743084
 20
8233.073284116886
 30
0.0
  0
VERTEX
  5
DEFDA
  8
0
 10
-424.3917534743084
 20
7848.073284116884
 30
0.0
  0
VERTEX
  5
DEFDB
  8
0
 10
-394.3917534743084
 20
7848.073284116884
 30
0.0
  0
VERTEX
  5
DEFDC
  8
0
 10
-394.3917534743084
 20
8263.073284116886
 30
0.0
  0
VERTEX
  5
DEFDD
  8
0
 10
-1894.391753474308
 20
8263.073284116886
 30
0.0
  0
SEQEND
  5
DF2A9
  8
0
  0
POLYLINE
  5
DB8FF
  8
0
 66
     1
 10
0.0
 20
0.0
 30
0.0
  0
VERTEX
  5
DEFDE
  8
0
 10
305.4035143812072
 20
8263.073284116886
 30
0.0
  0
VERTEX
  5
DEFDF
  8
0
 10
305.4035143812072
 20
7848.073284116884
 30
0.0
  0
VERTEX
  5
DEFE0
  8
0
 10
335.4035143812073
 20
7848.073284116884
 30
0.0
  0
VERTEX
  5
DEFE1
  8
0
 10
335.4035143812073
 20
8233.073284116886
 30
0.0
  0
VERTEX
  5
DEFE2
  8
0
 10
1290.403514381207
 20
8233.073284116886
 30
0.0
  0
VERTEX
  5
DEFE3
  8
0
 10
1290.403514381207
 20
7848.073284116884
 30
0.0
  0
VERTEX
  5
DEFE4
  8
0
 10
1320.403514381207
 20
7848.073284116884
 30
0.0
  0
VERTEX
  5
DEFE5
  8
0
 10
1320.403514381207
 20
8233.073284116886
 30
0.0
  0
VERTEX
  5
DEFE6
  8
0
 10
2275.403514381207
 20
8233.073284116886
 30
0.0
  0
VERTEX
  5
DEFE7
  8
0
 10
2275.403514381207
 20
7848.073284116884
 30
0.0
  0
VERTEX
  5
DEFE8
  8
0
 10
2305.403514381207
 20
7848.073284116884
 30
0.0
  0
VERTEX
  5
DEFE9
  8
0
 10
2305.403514381207
 20
8263.073284116886
 30
0.0
  0
VERTEX
  5
DEFEA
  8
0
 10
305.4035143812072
 20
8263.073284116886
 30
0.0
  0
SEQEND
  5
DF2AA
  8
0
  0
POLYLINE
  5
DB900
  8
0
 66
     1
 10
0.0
 20
0.0
 30
0.0
  0
VERTEX
  5
DEFEB
  8
0
 10
-3594.835155079316
 20
3149.036642058444
 30
0.0
  0
VERTEX
  5
DEFEC
  8
0
 10
-3594.835155079316
 20
2734.036642058444
 30
0.0
  0
VERTEX
  5
DEFED
  8
0
 10
-3564.835155079316
 20
2734.036642058444
 30
0.0
  0
VERTEX
  5
DEFEE
  8
0
 10
-3564.835155079316
 20
3119.036642058444
 30
0.0
  0
VERTEX
  5
DEFEF
  8
0
 10
-2624.835155079316
 20
3119.036642058444
 30
0.0
  0
VERTEX
  5
DEFF0
  8
0
 10
-2624.835155079316
 20
2734.036642058444
 30
0.0
  0
VERTEX
  5
DEFF1
  8
0
 10
-2594.835155079316
 20
2734.036642058444
 30
0.0
  0
VERTEX
  5
DEFF2
  8
0
 10
-2594.835155079316
 20
3149.036642058444
 30
0.0
  0
VERTEX
  5
DEFF3
  8
0
 10
-3594.835155079316
 20
3149.036642058444
 30
0.0
  0
SEQEND
  5
DF2AB
  8
0
  0
POLYLINE
  5
DB901
  8
0
 66
     1
 10
0.0
 20
0.0
 30
0.0
  0
VERTEX
  5
DEFF4
  8
0
 10
-1894.391753474308
 20
3149.036642058444
 30
0.0
  0
VERTEX
  5
DEFF5
  8
0
 10
-1894.391753474308
 20
2734.036642058444
 30
0.0
  0
VERTEX
  5
DEFF6
  8
0
 10
-1864.391753474308
 20
2734.036642058444
 30
0.0
  0
VERTEX
  5
DEFF7
  8
0
 10
-1864.391753474308
 20
3119.036642058444
 30
0.0
  0
VERTEX
  5
DEFF8
  8
0
 10
-424.3917534743084
 20
3119.036642058444
 30
0.0
  0
VERTEX
  5
DEFF9
  8
0
 10
-424.3917534743084
 20
2734.036642058444
 30
0.0
  0
VERTEX
  5
DEFFA
  8
0
 10
-394.3917534743084
 20
2734.036642058444
 30
0.0
  0
VERTEX
  5
DEFFB
  8
0
 10
-394.3917534743084
 20
3149.036642058444
 30
0.0
  0
VERTEX
  5
DEFFC
  8
0
 10
-1894.391753474308
 20
3149.036642058444
 30
0.0
  0
SEQEND
  5
DF2AC
  8
0
  0
POLYLINE
  5
DB902
  8
0
 66
     1
 10
0.0
 20
0.0
 30
0.0
  0
VERTEX
  5
DEFFD
  8
0
 10
305.4035143812072
 20
3149.036642058444
 30
0.0
  0
VERTEX
  5
DEFFE
  8
0
 10
305.4035143812072
 20
2734.036642058444
 30
0.0
  0
VERTEX
  5
DEFFF
  8
0
 10
335.4035143812073
 20
2734.036642058444
 30
0.0
  0
VERTEX
  5
DF000
  8
0
 10
335.4035143812073
 20
3119.036642058444
 30
0.0
  0
VERTEX
  5
DF001
  8
0
 10
1290.403514381207
 20
3119.036642058444
 30
0.0
  0
VERTEX
  5
DF002
  8
0
 10
1290.403514381207
 20
2734.036642058444
 30
0.0
  0
VERTEX
  5
DF003
  8
0
 10
1320.403514381207
 20
2734.036642058444
 30
0.0
  0
VERTEX
  5
DF004
  8
0
 10
1320.403514381207
 20
3119.036642058444
 30
0.0
  0
VERTEX
  5
DF005
  8
0
 10
2275.403514381207
 20
3119.036642058444
 30
0.0
  0
VERTEX
  5
DF006
  8
0
 10
2275.403514381207
 20
2734.036642058444
 30
0.0
  0
VERTEX
  5
DF007
  8
0
 10
2305.403514381207
 20
2734.036642058444
 30
0.0
  0
VERTEX
  5
DF008
  8
0
 10
2305.403514381207
 20
3149.036642058444
 30
0.0
  0
VERTEX
  5
DF009
  8
0
 10
305.4035143812072
 20
3149.036642058444
 30
0.0
  0
SEQEND
  5
DF2AD
  8
0
  0
POLYLINE
  5
DB903
  8
0
 66
     1
 10
0.0
 20
0.0
 30
0.0
 70
     1
  0
VERTEX
  5
DF00A
  8
0
 10
-2594.835155079316
 20
3374.036642058444
 30
0.0
  0
VERTEX
  5
DF00B
  8
0
 10
-3594.835155079316
 20
3374.036642058444
 30
0.0
  0
VERTEX
  5
DF00C
  8
0
 10
-3594.835155079316
 20
3454.036642058444
 30
0.0
  0
VERTEX
  5
DF00D
  8
0
 10
-2594.835155079316
 20
3454.036642058444
 30
0.0
  0
SEQEND
  5
DF2AE
  8
0
  0
POLYLINE
  5
DB904
  8
0
 66
     1
 10
0.0
 20
0.0
 30
0.0
 70
     1
  0
VERTEX
  5
DF00E
  8
0
 10
-3594.835155079316
 20
3469.036642058444
 30
0.0
  0
VERTEX
  5
DF00F
  8
0
 10
-3594.835155079316
 20
3454.036642058444
 30
0.0
  0
VERTEX
  5
DF010
  8
0
 10
-3564.835155079316
 20
3454.036642058444
 30
0.0
  0
VERTEX
  5
DF011
  8
0
 10
-3564.835155079316
 20
3469.036642058444
 30
0.0
  0
SEQEND
  5
DF2AF
  8
0
  0
POLYLINE
  5
DB905
  8
0
 66
     1
 10
0.0
 20
0.0
 30
0.0
 70
     1
  0
VERTEX
  5
DF012
  8
0
 10
-2624.835155079316
 20
3469.036642058444
 30
0.0
  0
VERTEX
  5
DF013
  8
0
 10
-2624.835155079316
 20
3454.036642058444
 30
0.0
  0
VERTEX
  5
DF014
  8
0
 10
-2594.835155079316
 20
3454.036642058444
 30
0.0
  0
VERTEX
  5
DF015
  8
0
 10
-2594.835155079316
 20
3469.036642058444
 30
0.0
  0
SEQEND
  5
DF2B0
  8
0
  0
POLYLINE
  5
DB906
  8
0
 66
     1
 10
0.0
 20
0.0
 30
0.0
 70
     1
  0
VERTEX
  5
DF016
  8
0
 10
-394.3917534743084
 20
3469.036642058444
 30
0.0
  0
VERTEX
  5
DF017
  8
0
 10
-1894.391753474308
 20
3469.036642058444
 30
0.0
  0
VERTEX
  5
DF018
  8
0
 10
-1894.391753474308
 20
3549.036642058445
 30
0.0
  0
VERTEX
  5
DF019
  8
0
 10
-394.3917534743084
 20
3549.036642058445
 30
0.0
  0
SEQEND
  5
DF2B1
  8
0
  0
POLYLINE
  5
DB907
  8
0
 66
     1
 10
0.0
 20
0.0
 30
0.0
 70
     1
  0
VERTEX
  5
DF01A
  8
0
 10
-394.3917534743084
 20
3374.036642058444
 30
0.0
  0
VERTEX
  5
DF01B
  8
0
 10
-1894.391753474308
 20
3374.036642058444
 30
0.0
  0
VERTEX
  5
DF01C
  8
0
 10
-1894.391753474308
 20
3454.036642058444
 30
0.0
  0
VERTEX
  5
DF01D
  8
0
 10
-394.3917534743084
 20
3454.036642058444
 30
0.0
  0
SEQEND
  5
DF2B2
  8
0
  0
POLYLINE
  5
DB908
  8
0
 66
     1
 10
0.0
 20
0.0
 30
0.0
 70
     1
  0
VERTEX
  5
DF01E
  8
0
 10
-1894.391753474308
 20
3469.036642058444
 30
0.0
  0
VERTEX
  5
DF01F
  8
0
 10
-1894.391753474308
 20
3454.036642058444
 30
0.0
  0
VERTEX
  5
DF020
  8
0
 10
-1864.391753474308
 20
3454.036642058444
 30
0.0
  0
VERTEX
  5
DF021
  8
0
 10
-1864.391753474308
 20
3469.036642058444
 30
0.0
  0
SEQEND
  5
DF2B3
  8
0
  0
POLYLINE
  5
DB909
  8
0
 66
     1
 10
0.0
 20
0.0
 30
0.0
 70
     1
  0
VERTEX
  5
DF022
  8
0
 10
-424.3917534743084
 20
3469.036642058444
 30
0.0
  0
VERTEX
  5
DF023
  8
0
 10
-424.3917534743084
 20
3454.036642058444
 30
0.0
  0
VERTEX
  5
DF024
  8
0
 10
-394.3917534743084
 20
3454.036642058444
 30
0.0
  0
VERTEX
  5
DF025
  8
0
 10
-394.3917534743084
 20
3469.036642058444
 30
0.0
  0
SEQEND
  5
DF2B4
  8
0
  0
POLYLINE
  5
DB90A
  8
0
 66
     1
 10
0.0
 20
0.0
 30
0.0
 70
     1
  0
VERTEX
  5
DF026
  8
0
 10
2305.403514381207
 20
3469.036642058444
 30
0.0
  0
VERTEX
  5
DF027
  8
0
 10
305.4035143812072
 20
3469.036642058444
 30
0.0
  0
VERTEX
  5
DF028
  8
0
 10
305.4035143812072
 20
3549.036642058445
 30
0.0
  0
VERTEX
  5
DF029
  8
0
 10
2305.403514381207
 20
3549.036642058445
 30
0.0
  0
SEQEND
  5
DF2B5
  8
0
  0
POLYLINE
  5
DB90B
  8
0
 66
     1
 10
0.0
 20
0.0
 30
0.0
 70
     1
  0
VERTEX
  5
DF02A
  8
0
 10
2305.403514381207
 20
3374.036642058444
 30
0.0
  0
VERTEX
  5
DF02B
  8
0
 10
305.4035143812072
 20
3374.036642058444
 30
0.0
  0
VERTEX
  5
DF02C
  8
0
 10
305.4035143812072
 20
3454.036642058444
 30
0.0
  0
VERTEX
  5
DF02D
  8
0
 10
2305.403514381207
 20
3454.036642058444
 30
0.0
  0
SEQEND
  5
DF2B6
  8
0
  0
POLYLINE
  5
DB90C
  8
0
 66
     1
 10
0.0
 20
0.0
 30
0.0
 70
     1
  0
VERTEX
  5
DF02E
  8
0
 10
305.4035143812072
 20
3469.036642058444
 30
0.0
  0
VERTEX
  5
DF02F
  8
0
 10
305.4035143812072
 20
3454.036642058444
 30
0.0
  0
VERTEX
  5
DF030
  8
0
 10
335.4035143812073
 20
3454.036642058444
 30
0.0
  0
VERTEX
  5
DF031
  8
0
 10
335.4035143812073
 20
3469.036642058444
 30
0.0
  0
SEQEND
  5
DF2B7
  8
0
  0
POLYLINE
  5
DB90D
  8
0
 66
     1
 10
0.0
 20
0.0
 30
0.0
 70
     1
  0
VERTEX
  5
DF032
  8
0
 10
2275.403514381207
 20
3469.036642058444
 30
0.0
  0
VERTEX
  5
DF033
  8
0
 10
2275.403514381207
 20
3454.036642058444
 30
0.0
  0
VERTEX
  5
DF034
  8
0
 10
2305.403514381207
 20
3454.036642058444
 30
0.0
  0
VERTEX
  5
DF035
  8
0
 10
2305.403514381207
 20
3469.036642058444
 30
0.0
  0
SEQEND
  5
DF2B8
  8
0
  0
POLYLINE
  5
DB90E
  8
0
 66
     1
 10
0.0
 20
0.0
 30
0.0
 70
     1
  0
VERTEX
  5
DF036
  8
0
 10
1290.403514381207
 20
3469.036642058444
 30
0.0
  0
VERTEX
  5
DF037
  8
0
 10
1290.403514381207
 20
3454.036642058444
 30
0.0
  0
VERTEX
  5
DF038
  8
0
 10
1320.403514381207
 20
3454.036642058444
 30
0.0
  0
VERTEX
  5
DF039
  8
0
 10
1320.403514381207
 20
3469.036642058444
 30
0.0
  0
SEQEND
  5
DF2B9
  8
0
  0
POLYLINE
  5
DB90F
  8
0
 66
     1
 10
0.0
 20
0.0
 30
0.0
 70
     1
  0
VERTEX
  5
DF03A
  8
0
 10
1290.403514381207
 20
3374.036642058444
 30
0.0
  0
VERTEX
  5
DF03B
  8
0
 10
1290.403514381207
 20
3174.036642058445
 30
0.0
  0
VERTEX
  5
DF03C
  8
0
 10
1320.403514381207
 20
3174.036642058445
 30
0.0
  0
VERTEX
  5
DF03D
  8
0
 10
1320.403514381207
 20
3374.036642058444
 30
0.0
  0
SEQEND
  5
DF2BA
  8
0
  0
POLYLINE
  5
DB910
  8
0
 66
     1
 10
0.0
 20
0.0
 30
0.0
 70
     1
  0
VERTEX
  5
DF03E
  8
0
 10
2305.403514381207
 20
1424.036642058444
 30
0.0
  0
VERTEX
  5
DF03F
  8
0
 10
305.4035143812072
 20
1424.036642058444
 30
0.0
  0
VERTEX
  5
DF040
  8
0
 10
305.4035143812072
 20
1444.036642058444
 30
0.0
  0
VERTEX
  5
DF041
  8
0
 10
2305.403514381207
 20
1444.036642058444
 30
0.0
  0
SEQEND
  5
DF2BB
  8
0
  0
POLYLINE
  5
DB911
  8
0
 66
     1
 10
0.0
 20
0.0
 30
0.0
 70
     1
  0
VERTEX
  5
DF042
  8
0
 10
2275.403514381207
 20
1454.036642058444
 30
0.0
  0
VERTEX
  5
DF043
  8
0
 10
2305.403514381207
 20
1454.036642058444
 30
0.0
  0
VERTEX
  5
DF044
  8
0
 10
2305.403514381207
 20
1444.036642058444
 30
0.0
  0
VERTEX
  5
DF045
  8
0
 10
2275.403514381207
 20
1444.036642058444
 30
0.0
  0
SEQEND
  5
DF2BC
  8
0
  0
POLYLINE
  5
DB912
  8
0
 66
     1
 10
0.0
 20
0.0
 30
0.0
 70
     1
  0
VERTEX
  5
DF046
  8
0
 10
305.4035143812072
 20
1454.036642058444
 30
0.0
  0
VERTEX
  5
DF047
  8
0
 10
335.4035143812073
 20
1454.036642058444
 30
0.0
  0
VERTEX
  5
DF048
  8
0
 10
335.4035143812073
 20
1444.036642058444
 30
0.0
  0
VERTEX
  5
DF049
  8
0
 10
305.4035143812072
 20
1444.036642058444
 30
0.0
  0
SEQEND
  5
DF2BD
  8
0
  0
POLYLINE
  5
DB913
  8
0
 66
     1
 10
0.0
 20
0.0
 30
0.0
 70
     1
  0
VERTEX
  5
DF04A
  8
0
 10
1290.403514381207
 20
1454.036642058444
 30
0.0
  0
VERTEX
  5
DF04B
  8
0
 10
1320.403514381207
 20
1454.036642058444
 30
0.0
  0
VERTEX
  5
DF04C
  8
0
 10
1320.403514381207
 20
1444.036642058444
 30
0.0
  0
VERTEX
  5
DF04D
  8
0
 10
1290.403514381207
 20
1444.036642058444
 30
0.0
  0
SEQEND
  5
DF2BE
  8
0
  0
POLYLINE
  5
DB914
  8
0
 66
     1
 10
0.0
 20
0.0
 30
0.0
 70
     1
  0
VERTEX
  5
DF04E
  8
0
 10
-1894.391753474308
 20
1344.036642058443
 30
0.0
  0
VERTEX
  5
DF04F
  8
0
 10
-1864.391753474308
 20
1344.036642058443
 30
0.0
  0
VERTEX
  5
DF050
  8
0
 10
-1864.391753474308
 20
1329.036642058444
 30
0.0
  0
VERTEX
  5
DF051
  8
0
 10
-1894.391753474308
 20
1329.036642058444
 30
0.0
  0
SEQEND
  5
DF2BF
  8
0
  0
POLYLINE
  5
DB915
  8
0
 66
     1
 10
0.0
 20
0.0
 30
0.0
 70
     1
  0
VERTEX
  5
DF052
  8
0
 10
-424.3917534743084
 20
1249.036642058444
 30
0.0
  0
VERTEX
  5
DF053
  8
0
 10
-394.3917534743084
 20
1249.036642058444
 30
0.0
  0
VERTEX
  5
DF054
  8
0
 10
-394.3917534743084
 20
1234.036642058444
 30
0.0
  0
VERTEX
  5
DF055
  8
0
 10
-424.3917534743084
 20
1234.036642058444
 30
0.0
  0
SEQEND
  5
DF2C0
  8
0
  0
POLYLINE
  5
DB916
  8
0
 66
     1
 10
0.0
 20
0.0
 30
0.0
 70
     1
  0
VERTEX
  5
DF056
  8
0
 10
-424.3917534743084
 20
1344.036642058443
 30
0.0
  0
VERTEX
  5
DF057
  8
0
 10
-394.3917534743084
 20
1344.036642058443
 30
0.0
  0
VERTEX
  5
DF058
  8
0
 10
-394.3917534743084
 20
1329.036642058444
 30
0.0
  0
VERTEX
  5
DF059
  8
0
 10
-424.3917534743084
 20
1329.036642058444
 30
0.0
  0
SEQEND
  5
DF2C1
  8
0
  0
POLYLINE
  5
DB917
  8
0
 66
     1
 10
0.0
 20
0.0
 30
0.0
 70
     1
  0
VERTEX
  5
DF05A
  8
0
 10
-1894.391753474308
 20
1249.036642058444
 30
0.0
  0
VERTEX
  5
DF05B
  8
0
 10
-1864.391753474308
 20
1249.036642058444
 30
0.0
  0
VERTEX
  5
DF05C
  8
0
 10
-1864.391753474308
 20
1234.036642058444
 30
0.0
  0
VERTEX
  5
DF05D
  8
0
 10
-1894.391753474308
 20
1234.036642058444
 30
0.0
  0
SEQEND
  5
DF2C2
  8
0
  0
POLYLINE
  5
DB918
  8
0
 66
     1
 10
0.0
 20
0.0
 30
0.0
 70
     1
  0
VERTEX
  5
DF05E
  8
0
 10
-1894.391753474308
 20
1249.036642058444
 30
0.0
  0
VERTEX
  5
DF05F
  8
0
 10
-1894.391753474308
 20
1329.036642058444
 30
0.0
  0
VERTEX
  5
DF060
  8
0
 10
-394.3917534743084
 20
1329.036642058444
 30
0.0
  0
VERTEX
  5
DF061
  8
0
 10
-394.3917534743084
 20
1249.036642058444
 30
0.0
  0
SEQEND
  5
DF2C3
  8
0
  0
POLYLINE
  5
DB919
  8
0
 66
     1
 10
0.0
 20
0.0
 30
0.0
 70
     1
  0
VERTEX
  5
DF062
  8
0
 10
-1894.391753474308
 20
1154.036642058444
 30
0.0
  0
VERTEX
  5
DF063
  8
0
 10
-1894.391753474308
 20
1234.036642058444
 30
0.0
  0
VERTEX
  5
DF064
  8
0
 10
-394.3917534743084
 20
1234.036642058444
 30
0.0
  0
VERTEX
  5
DF065
  8
0
 10
-394.3917534743084
 20
1154.036642058444
 30
0.0
  0
SEQEND
  5
DF2C4
  8
0
  0
POLYLINE
  5
DB91A
  8
0
 66
     1
 10
0.0
 20
0.0
 30
0.0
 70
     1
  0
VERTEX
  5
DF066
  8
0
 10
-1894.391753474308
 20
1454.036642058444
 30
0.0
  0
VERTEX
  5
DF067
  8
0
 10
-1894.391753474308
 20
1534.036642058444
 30
0.0
  0
VERTEX
  5
DF068
  8
0
 10
-394.3917534743084
 20
1534.036642058444
 30
0.0
  0
VERTEX
  5
DF069
  8
0
 10
-394.3917534743084
 20
1454.036642058444
 30
0.0
  0
SEQEND
  5
DF2C5
  8
0
  0
POLYLINE
  5
DB91B
  8
0
 66
     1
 10
0.0
 20
0.0
 30
0.0
 70
     1
  0
VERTEX
  5
DF06A
  8
0
 10
-1894.391753474308
 20
1344.036642058443
 30
0.0
  0
VERTEX
  5
DF06B
  8
0
 10
-1894.391753474308
 20
1424.036642058444
 30
0.0
  0
VERTEX
  5
DF06C
  8
0
 10
-394.3917534743084
 20
1424.036642058444
 30
0.0
  0
VERTEX
  5
DF06D
  8
0
 10
-394.3917534743084
 20
1344.036642058443
 30
0.0
  0
SEQEND
  5
DF2C6
  8
0
  0
POLYLINE
  5
DB91C
  8
0
 66
     1
 10
0.0
 20
0.0
 30
0.0
 70
     1
  0
VERTEX
  5
DF06E
  8
0
 10
-394.3917534743084
 20
1424.036642058444
 30
0.0
  0
VERTEX
  5
DF06F
  8
0
 10
-1894.391753474308
 20
1424.036642058444
 30
0.0
  0
VERTEX
  5
DF070
  8
0
 10
-1894.391753474308
 20
1444.036642058444
 30
0.0
  0
VERTEX
  5
DF071
  8
0
 10
-394.3917534743084
 20
1444.036642058444
 30
0.0
  0
SEQEND
  5
DF2C7
  8
0
  0
POLYLINE
  5
DB91D
  8
0
 66
     1
 10
0.0
 20
0.0
 30
0.0
 70
     1
  0
VERTEX
  5
DF072
  8
0
 10
-424.3917534743084
 20
1454.036642058444
 30
0.0
  0
VERTEX
  5
DF073
  8
0
 10
-394.3917534743084
 20
1454.036642058444
 30
0.0
  0
VERTEX
  5
DF074
  8
0
 10
-394.3917534743084
 20
1444.036642058444
 30
0.0
  0
VERTEX
  5
DF075
  8
0
 10
-424.3917534743084
 20
1444.036642058444
 30
0.0
  0
SEQEND
  5
DF2C8
  8
0
  0
POLYLINE
  5
DB91E
  8
0
 66
     1
 10
0.0
 20
0.0
 30
0.0
 70
     1
  0
VERTEX
  5
DF076
  8
0
 10
-1894.391753474308
 20
1454.036642058444
 30
0.0
  0
VERTEX
  5
DF077
  8
0
 10
-1864.391753474308
 20
1454.036642058444
 30
0.0
  0
VERTEX
  5
DF078
  8
0
 10
-1864.391753474308
 20
1444.036642058444
 30
0.0
  0
VERTEX
  5
DF079
  8
0
 10
-1894.391753474308
 20
1444.036642058444
 30
0.0
  0
SEQEND
  5
DF2C9
  8
0
  0
POLYLINE
  5
DB91F
  8
0
 66
     1
 10
0.0
 20
0.0
 30
0.0
 70
     1
  0
VERTEX
  5
DF07A
  8
0
 10
-3594.835155079316
 20
1454.036642058444
 30
0.0
  0
VERTEX
  5
DF07B
  8
0
 10
-3564.835155079316
 20
1454.036642058444
 30
0.0
  0
VERTEX
  5
DF07C
  8
0
 10
-3564.835155079316
 20
1444.036642058444
 30
0.0
  0
VERTEX
  5
DF07D
  8
0
 10
-3594.835155079316
 20
1444.036642058444
 30
0.0
  0
SEQEND
  5
DF2CA
  8
0
  0
POLYLINE
  5
DB920
  8
0
 66
     1
 10
0.0
 20
0.0
 30
0.0
 70
     1
  0
VERTEX
  5
DF07E
  8
0
 10
-2624.835155079316
 20
1454.036642058444
 30
0.0
  0
VERTEX
  5
DF07F
  8
0
 10
-2594.835155079316
 20
1454.036642058444
 30
0.0
  0
VERTEX
  5
DF080
  8
0
 10
-2594.835155079316
 20
1444.036642058444
 30
0.0
  0
VERTEX
  5
DF081
  8
0
 10
-2624.835155079316
 20
1444.036642058444
 30
0.0
  0
SEQEND
  5
DF2CB
  8
0
  0
POLYLINE
  5
DB921
  8
0
 66
     1
 10
0.0
 20
0.0
 30
0.0
 70
     1
  0
VERTEX
  5
DF082
  8
0
 10
-2594.835155079316
 20
1424.036642058444
 30
0.0
  0
VERTEX
  5
DF083
  8
0
 10
-3594.835155079316
 20
1424.036642058444
 30
0.0
  0
VERTEX
  5
DF084
  8
0
 10
-3594.835155079316
 20
1444.036642058444
 30
0.0
  0
VERTEX
  5
DF085
  8
0
 10
-2594.835155079316
 20
1444.036642058444
 30
0.0
  0
SEQEND
  5
DF2CC
  8
0
  0
POLYLINE
  5
DB922
  8
0
 66
     1
 10
0.0
 20
0.0
 30
0.0
 70
     1
  0
VERTEX
  5
DF086
  8
0
 10
-3594.835155079316
 20
1344.036642058443
 30
0.0
  0
VERTEX
  5
DF087
  8
0
 10
-3594.835155079316
 20
1424.036642058444
 30
0.0
  0
VERTEX
  5
DF088
  8
0
 10
-2594.835155079316
 20
1424.036642058444
 30
0.0
  0
VERTEX
  5
DF089
  8
0
 10
-2594.835155079316
 20
1344.036642058443
 30
0.0
  0
SEQEND
  5
DF2CD
  8
0
  0
POLYLINE
  5
DB923
  8
0
 66
     1
 10
0.0
 20
0.0
 30
0.0
 70
     1
  0
VERTEX
  5
DF08A
  8
0
 10
-3594.835155079316
 20
1454.036642058444
 30
0.0
  0
VERTEX
  5
DF08B
  8
0
 10
-3594.835155079316
 20
1534.036642058444
 30
0.0
  0
VERTEX
  5
DF08C
  8
0
 10
-2594.835155079316
 20
1534.036642058444
 30
0.0
  0
VERTEX
  5
DF08D
  8
0
 10
-2594.835155079316
 20
1454.036642058444
 30
0.0
  0
SEQEND
  5
DF2CE
  8
0
  0
POLYLINE
  5
DB924
  8
0
 66
     1
 10
0.0
 20
0.0
 30
0.0
 70
     1
  0
VERTEX
  5
DF08E
  8
0
 10
-3594.835155079316
 20
1154.036642058444
 30
0.0
  0
VERTEX
  5
DF08F
  8
0
 10
-3594.835155079316
 20
1234.036642058444
 30
0.0
  0
VERTEX
  5
DF090
  8
0
 10
-2594.835155079316
 20
1234.036642058444
 30
0.0
  0
VERTEX
  5
DF091
  8
0
 10
-2594.835155079316
 20
1154.036642058444
 30
0.0
  0
SEQEND
  5
DF2CF
  8
0
  0
POLYLINE
  5
DB925
  8
0
 66
     1
 10
0.0
 20
0.0
 30
0.0
 70
     1
  0
VERTEX
  5
DF092
  8
0
 10
-3594.835155079316
 20
1249.036642058444
 30
0.0
  0
VERTEX
  5
DF093
  8
0
 10
-3594.835155079316
 20
1329.036642058444
 30
0.0
  0
VERTEX
  5
DF094
  8
0
 10
-2594.835155079316
 20
1329.036642058444
 30
0.0
  0
VERTEX
  5
DF095
  8
0
 10
-2594.835155079316
 20
1249.036642058444
 30
0.0
  0
SEQEND
  5
DF2D0
  8
0
  0
POLYLINE
  5
DB926
  8
0
 66
     1
 10
0.0
 20
0.0
 30
0.0
 70
     1
  0
VERTEX
  5
DF096
  8
0
 10
-3594.835155079316
 20
1249.036642058444
 30
0.0
  0
VERTEX
  5
DF097
  8
0
 10
-3564.835155079316
 20
1249.036642058444
 30
0.0
  0
VERTEX
  5
DF098
  8
0
 10
-3564.835155079316
 20
1234.036642058444
 30
0.0
  0
VERTEX
  5
DF099
  8
0
 10
-3594.835155079316
 20
1234.036642058444
 30
0.0
  0
SEQEND
  5
DF2D1
  8
0
  0
POLYLINE
  5
DB927
  8
0
 66
     1
 10
0.0
 20
0.0
 30
0.0
 70
     1
  0
VERTEX
  5
DF09A
  8
0
 10
-2624.835155079316
 20
1344.036642058443
 30
0.0
  0
VERTEX
  5
DF09B
  8
0
 10
-2594.835155079316
 20
1344.036642058443
 30
0.0
  0
VERTEX
  5
DF09C
  8
0
 10
-2594.835155079316
 20
1329.036642058444
 30
0.0
  0
VERTEX
  5
DF09D
  8
0
 10
-2624.835155079316
 20
1329.036642058444
 30
0.0
  0
SEQEND
  5
DF2D2
  8
0
  0
POLYLINE
  5
DB928
  8
0
 66
     1
 10
0.0
 20
0.0
 30
0.0
 70
     1
  0
VERTEX
  5
DF09E
  8
0
 10
-2624.835155079316
 20
1249.036642058444
 30
0.0
  0
VERTEX
  5
DF09F
  8
0
 10
-2594.835155079316
 20
1249.036642058444
 30
0.0
  0
VERTEX
  5
DF0A0
  8
0
 10
-2594.835155079316
 20
1234.036642058444
 30
0.0
  0
VERTEX
  5
DF0A1
  8
0
 10
-2624.835155079316
 20
1234.036642058444
 30
0.0
  0
SEQEND
  5
DF2D3
  8
0
  0
POLYLINE
  5
DB929
  8
0
 66
     1
 10
0.0
 20
0.0
 30
0.0
 70
     1
  0
VERTEX
  5
DF0A2
  8
0
 10
-3594.835155079316
 20
1344.036642058443
 30
0.0
  0
VERTEX
  5
DF0A3
  8
0
 10
-3564.835155079316
 20
1344.036642058443
 30
0.0
  0
VERTEX
  5
DF0A4
  8
0
 10
-3564.835155079316
 20
1329.036642058444
 30
0.0
  0
VERTEX
  5
DF0A5
  8
0
 10
-3594.835155079316
 20
1329.036642058444
 30
0.0
  0
SEQEND
  5
DF2D4
  8
0
  0
POLYLINE
  5
DB92A
  8
0
 66
     1
 10
0.0
 20
0.0
 30
0.0
 70
     1
  0
VERTEX
  5
DF0A6
  8
0
 10
-2594.835155079316
 20
10392.10992617533
 30
0.0
  0
VERTEX
  5
DF0A7
  8
0
 10
-2594.835155079316
 20
10042.10992617533
 30
0.0
  0
VERTEX
  5
DF0A8
  8
0
 10
-3594.835155079316
 20
10042.10992617533
 30
0.0
  0
VERTEX
  5
DF0A9
  8
0
 10
-3594.835155079316
 20
10392.10992617533
 30
0.0
  0
SEQEND
  5
DF2D5
  8
0
  0
POLYLINE
  5
DB92B
  8
0
 66
     1
 10
0.0
 20
0.0
 30
0.0
 70
     1
  0
VERTEX
  5
DF0AA
  8
0
 10
-3594.835155079316
 20
12007.10992617533
 30
0.0
  0
VERTEX
  5
DF0AB
  8
0
 10
-3594.835155079316
 20
12018.10992617533
 30
0.0
  0
VERTEX
  5
DF0AC
  8
0
 10
-2594.835155079316
 20
12018.10992617533
 30
0.0
  0
VERTEX
  5
DF0AD
  8
0
 10
-2594.835155079316
 20
12007.10992617533
 30
0.0
  0
SEQEND
  5
DF2D6
  8
0
  0
POLYLINE
  5
DB92C
  8
0
 66
     1
 10
0.0
 20
0.0
 30
0.0
 70
     1
  0
VERTEX
  5
DF0AE
  8
0
 10
-394.3917534743087
 20
10392.10992617533
 30
0.0
  0
VERTEX
  5
DF0AF
  8
0
 10
-394.3917534743087
 20
10042.10992617533
 30
0.0
  0
VERTEX
  5
DF0B0
  8
0
 10
-1894.391753474308
 20
10042.10992617533
 30
0.0
  0
VERTEX
  5
DF0B1
  8
0
 10
-1894.391753474308
 20
10392.10992617533
 30
0.0
  0
SEQEND
  5
DF2D7
  8
0
  0
POLYLINE
  5
DB92D
  8
0
 66
     1
 10
0.0
 20
0.0
 30
0.0
 70
     1
  0
VERTEX
  5
DF0B2
  8
0
 10
-1894.391753474308
 20
12007.10992617533
 30
0.0
  0
VERTEX
  5
DF0B3
  8
0
 10
-1894.391753474308
 20
12018.10992617533
 30
0.0
  0
VERTEX
  5
DF0B4
  8
0
 10
-394.3917534743087
 20
12018.10992617533
 30
0.0
  0
VERTEX
  5
DF0B5
  8
0
 10
-394.3917534743087
 20
12007.10992617533
 30
0.0
  0
SEQEND
  5
DF2D8
  8
0
  0
POLYLINE
  5
DB92E
  8
0
 66
     1
 10
0.0
 20
0.0
 30
0.0
 70
     1
  0
VERTEX
  5
DF0B6
  8
0
 10
305.403514381207
 20
12007.10992617533
 30
0.0
  0
VERTEX
  5
DF0B7
  8
0
 10
305.403514381207
 20
12018.10992617533
 30
0.0
  0
VERTEX
  5
DF0B8
  8
0
 10
2305.403514381207
 20
12018.10992617533
 30
0.0
  0
VERTEX
  5
DF0B9
  8
0
 10
2305.403514381207
 20
12007.10992617533
 30
0.0
  0
SEQEND
  5
DF2D9
  8
0
  0
POLYLINE
  5
DB92F
  8
0
 66
     1
 10
0.0
 20
0.0
 30
0.0
 70
     1
  0
VERTEX
  5
DF0BA
  8
0
 10
2305.403514381207
 20
10392.10992617533
 30
0.0
  0
VERTEX
  5
DF0BB
  8
0
 10
2305.403514381207
 20
10042.10992617533
 30
0.0
  0
VERTEX
  5
DF0BC
  8
0
 10
305.403514381207
 20
10042.10992617533
 30
0.0
  0
VERTEX
  5
DF0BD
  8
0
 10
305.403514381207
 20
10392.10992617533
 30
0.0
  0
SEQEND
  5
DF2DA
  8
0
  0
POLYLINE
  5
DB930
  8
0
 66
     1
 10
0.0
 20
0.0
 30
0.0
  0
VERTEX
  5
DF0BE
  8
0
 10
-3594.835155079316
 20
12007.10992617533
 30
0.0
  0
VERTEX
  5
DF0BF
  8
0
 10
-3594.835155079316
 20
11592.10992617533
 30
0.0
  0
VERTEX
  5
DF0C0
  8
0
 10
-3564.835155079316
 20
11592.10992617533
 30
0.0
  0
VERTEX
  5
DF0C1
  8
0
 10
-3564.835155079316
 20
11977.10992617533
 30
0.0
  0
VERTEX
  5
DF0C2
  8
0
 10
-2624.835155079316
 20
11977.10992617533
 30
0.0
  0
VERTEX
  5
DF0C3
  8
0
 10
-2624.835155079316
 20
11592.10992617533
 30
0.0
  0
VERTEX
  5
DF0C4
  8
0
 10
-2594.835155079316
 20
11592.10992617533
 30
0.0
  0
VERTEX
  5
DF0C5
  8
0
 10
-2594.835155079316
 20
12007.10992617533
 30
0.0
  0
VERTEX
  5
DF0C6
  8
0
 10
-3594.835155079316
 20
12007.10992617533
 30
0.0
  0
SEQEND
  5
DF2DB
  8
0
  0
POLYLINE
  5
DB931
  8
0
 66
     1
 10
0.0
 20
0.0
 30
0.0
  0
VERTEX
  5
DF0C7
  8
0
 10
3214.835155079316
 20
12007.10992617533
 30
0.0
  0
VERTEX
  5
DF0C8
  8
0
 10
3564.835155079316
 20
12007.10992617533
 30
0.0
  0
VERTEX
  5
DF0C9
  8
0
 10
3564.835155079316
 20
11592.10992617533
 30
0.0
  0
VERTEX
  5
DF0CA
  8
0
 10
3534.835155079316
 20
11592.10992617533
 30
0.0
  0
VERTEX
  5
DF0CB
  8
0
 10
3534.835155079316
 20
11977.10992617533
 30
0.0
  0
VERTEX
  5
DF0CC
  8
0
 10
3244.835155079317
 20
11977.10992617533
 30
0.0
  0
VERTEX
  5
DF0CD
  8
0
 10
3244.835155079317
 20
11592.10992617533
 30
0.0
  0
VERTEX
  5
DF0CE
  8
0
 10
3214.835155079316
 20
11592.10992617533
 30
0.0
  0
VERTEX
  5
DF0CF
  8
0
 10
3214.835155079316
 20
12007.10992617533
 30
0.0
  0
SEQEND
  5
DF2DC
  8
0
  0
POLYLINE
  5
DB932
  8
0
 66
     1
 10
0.0
 20
0.0
 30
0.0
  0
VERTEX
  5
DF0D0
  8
0
 10
-1894.391753474308
 20
12007.10992617533
 30
0.0
  0
VERTEX
  5
DF0D1
  8
0
 10
-1894.391753474308
 20
11592.10992617533
 30
0.0
  0
VERTEX
  5
DF0D2
  8
0
 10
-1864.391753474308
 20
11592.10992617533
 30
0.0
  0
VERTEX
  5
DF0D3
  8
0
 10
-1864.391753474308
 20
11977.10992617533
 30
0.0
  0
VERTEX
  5
DF0D4
  8
0
 10
-424.3917534743085
 20
11977.10992617533
 30
0.0
  0
VERTEX
  5
DF0D5
  8
0
 10
-424.3917534743085
 20
11592.10992617533
 30
0.0
  0
VERTEX
  5
DF0D6
  8
0
 10
-394.3917534743087
 20
11592.10992617533
 30
0.0
  0
VERTEX
  5
DF0D7
  8
0
 10
-394.3917534743087
 20
12007.10992617533
 30
0.0
  0
VERTEX
  5
DF0D8
  8
0
 10
-1894.391753474308
 20
12007.10992617533
 30
0.0
  0
SEQEND
  5
DF2DD
  8
0
  0
POLYLINE
  5
DB933
  8
0
 66
     1
 10
0.0
 20
0.0
 30
0.0
  0
VERTEX
  5
DF0D9
  8
0
 10
305.403514381207
 20
12007.10992617533
 30
0.0
  0
VERTEX
  5
DF0DA
  8
0
 10
305.403514381207
 20
11592.10992617533
 30
0.0
  0
VERTEX
  5
DF0DB
  8
0
 10
335.4035143812071
 20
11592.10992617533
 30
0.0
  0
VERTEX
  5
DF0DC
  8
0
 10
335.4035143812071
 20
11977.10992617533
 30
0.0
  0
VERTEX
  5
DF0DD
  8
0
 10
1290.403514381207
 20
11977.10992617533
 30
0.0
  0
VERTEX
  5
DF0DE
  8
0
 10
1290.403514381207
 20
11592.10992617533
 30
0.0
  0
VERTEX
  5
DF0DF
  8
0
 10
1320.403514381207
 20
11592.10992617533
 30
0.0
  0
VERTEX
  5
DF0E0
  8
0
 10
1320.403514381207
 20
11977.10992617533
 30
0.0
  0
VERTEX
  5
DF0E1
  8
0
 10
2275.403514381207
 20
11977.10992617533
 30
0.0
  0
VERTEX
  5
DF0E2
  8
0
 10
2275.403514381207
 20
11592.10992617533
 30
0.0
  0
VERTEX
  5
DF0E3
  8
0
 10
2305.403514381207
 20
11592.10992617533
 30
0.0
  0
VERTEX
  5
DF0E4
  8
0
 10
2305.403514381207
 20
12007.10992617533
 30
0.0
  0
VERTEX
  5
DF0E5
  8
0
 10
305.403514381207
 20
12007.10992617533
 30
0.0
  0
SEQEND
  5
DF2DE
  8
0
  0
POLYLINE
  5
DB934
  8
0
 66
     1
 10
0.0
 20
0.0
 30
0.0
 70
     1
  0
VERTEX
  5
DF0E6
  8
0
 10
3214.835155079316
 20
12007.10992617533
 30
0.0
  0
VERTEX
  5
DF0E7
  8
0
 10
3214.835155079316
 20
12018.10992617533
 30
0.0
  0
VERTEX
  5
DF0E8
  8
0
 10
3564.835155079316
 20
12018.10992617533
 30
0.0
  0
VERTEX
  5
DF0E9
  8
0
 10
3564.835155079316
 20
12007.10992617533
 30
0.0
  0
SEQEND
  5
DF2DF
  8
0
  0
POLYLINE
  5
DB935
  8
0
 66
     1
 10
0.0
 20
0.0
 30
0.0
  0
VERTEX
  5
DF0EA
  8
0
 10
1120.403514381207
 20
4244.036642058356
 30
0.0
  0
VERTEX
  5
DF0EB
  8
0
 10
1120.403514381207
 20
4302.167091618112
 30
0.0
  0
VERTEX
  5
DF0EC
  8
0
 10
1095.403514381207
 20
4302.167091618112
 30
0.0
  0
VERTEX
  5
DF0ED
  8
0
 10
1095.403514381207
 20
4312.167091618113
 30
0.0
 42
-0.0792856712932764
  0
VERTEX
  5
DF0EE
  8
0
 10
1101.020995634084
 20
4324.036642058557
 30
0.0
  0
VERTEX
  5
DF0EF
  8
0
 10
829.786033128563
 20
4324.036642058444
 30
0.0
 42
-0.0792856712920094
  0
VERTEX
  5
DF0F0
  8
0
 10
835.4035143812074
 20
4312.167091618288
 30
0.0
  0
VERTEX
  5
DF0F1
  8
0
 10
835.4035143812074
 20
4302.167091618288
 30
0.0
  0
VERTEX
  5
DF0F2
  8
0
 10
810.4035143812074
 20
4302.167091618288
 30
0.0
  0
VERTEX
  5
DF0F3
  8
0
 10
810.4035143812074
 20
4244.036642058531
 30
0.0
  0
VERTEX
  5
DF0F4
  8
0
 10
1120.403514381207
 20
4244.036642058531
 30
0.0
  0
VERTEX
  5
DF0F5
  8
0
 10
810.4035143812074
 20
4244.036642058531
 30
0.0
  0
SEQEND
  5
DF2E0
  8
0
  0
POLYLINE
  5
DB936
  8
0
 66
     1
 10
0.0
 20
0.0
 30
0.0
  0
VERTEX
  5
DF0F6
  8
0
 10
470.4035143812069
 20
4244.036642058268
 30
0.0
  0
VERTEX
  5
DF0F7
  8
0
 10
470.4035143812069
 20
4302.167091618025
 30
0.0
  0
VERTEX
  5
DF0F8
  8
0
 10
495.4035143812069
 20
4302.167091618025
 30
0.0
  0
VERTEX
  5
DF0F9
  8
0
 10
495.4035143812069
 20
4312.167091618024
 30
0.0
 42
0.0792856712932764
  0
VERTEX
  5
DF0FA
  8
0
 10
489.78603312833
 20
4324.036642058472
 30
0.0
  0
VERTEX
  5
DF0FB
  8
0
 10
761.0209956338515
 20
4324.036642058356
 30
0.0
 42
0.0792856712920094
  0
VERTEX
  5
DF0FC
  8
0
 10
755.4035143812074
 20
4312.167091618201
 30
0.0
  0
VERTEX
  5
DF0FD
  8
0
 10
755.4035143812074
 20
4302.1670916182
 30
0.0
  0
VERTEX
  5
DF0FE
  8
0
 10
780.4035143812074
 20
4302.1670916182
 30
0.0
  0
VERTEX
  5
DF0FF
  8
0
 10
780.4035143812074
 20
4244.036642058443
 30
0.0
  0
VERTEX
  5
DF100
  8
0
 10
470.4035143812069
 20
4244.036642058443
 30
0.0
  0
VERTEX
  5
DF101
  8
0
 10
780.4035143812074
 20
4244.036642058443
 30
0.0
  0
SEQEND
  5
DF2E1
  8
0
  0
POLYLINE
  5
DB937
  8
0
 66
     1
 10
0.0
 20
0.0
 30
0.0
  0
VERTEX
  5
DF102
  8
0
 10
421.020995633968
 20
4324.036642058444
 30
0.0
 42
0.079285671292372
  0
VERTEX
  5
DF103
  8
0
 10
415.4035143812071
 20
4312.167091618113
 30
0.0
  0
VERTEX
  5
DF104
  8
0
 10
415.4035143812071
 20
4302.167091618112
 30
0.0
  0
VERTEX
  5
DF105
  8
0
 10
440.4035143812071
 20
4302.167091618112
 30
0.0
  0
VERTEX
  5
DF106
  8
0
 10
440.4035143812071
 20
4264.036642058356
 30
0.0
  0
VERTEX
  5
DF107
  8
0
 10
440.4035143812071
 20
4244.036642058443
 30
0.0
  0
VERTEX
  5
DF108
  8
0
 10
305.4035143812072
 20
4244.036642058443
 30
0.0
  0
VERTEX
  5
DF109
  8
0
 10
305.4035143812072
 20
4324.036642058444
 30
0.0
  0
VERTEX
  5
DF10A
  8
0
 10
421.020995633968
 20
4324.036642058444
 30
0.0
  0
VERTEX
  5
DF10B
  8
0
 10
305.4035143812072
 20
4324.036642058356
 30
0.0
  0
VERTEX
  5
DF10C
  8
0
 10
305.4035143812072
 20
4244.036642058356
 30
0.0
  0
VERTEX
  5
DF10D
  8
0
 10
440.4035143812071
 20
4244.036642058356
 30
0.0
  0
SEQEND
  5
DF2E2
  8
0
  0
POLYLINE
  5
DB938
  8
0
 66
     1
 10
0.0
 20
0.0
 30
0.0
 70
     1
  0
VERTEX
  5
DF10E
  8
0
 10
835.4035143812074
 20
4312.167091618024
 30
0.0
  0
VERTEX
  5
DF10F
  8
0
 10
835.4035143812074
 20
4302.167091618025
 30
0.0
  0
VERTEX
  5
DF110
  8
0
 10
755.4035143812074
 20
4302.167091618025
 30
0.0
  0
VERTEX
  5
DF111
  8
0
 10
755.4035143812074
 20
4312.167091618024
 30
0.0
 42
-0.7499999999999128
  0
SEQEND
  5
DF2E3
  8
0
  0
POLYLINE
  5
DB939
  8
0
 66
     1
 10
0.0
 20
0.0
 30
0.0
 70
     1
  0
VERTEX
  5
DF112
  8
0
 10
780.4035143812074
 20
4264.036642058265
 30
0.0
  0
VERTEX
  5
DF113
  8
0
 10
780.4035143812074
 20
4244.036642058268
 30
0.0
  0
VERTEX
  5
DF114
  8
0
 10
810.4035143812074
 20
4244.036642058268
 30
0.0
  0
VERTEX
  5
DF115
  8
0
 10
810.4035143812074
 20
4264.036642058265
 30
0.0
  0
SEQEND
  5
DF2E4
  8
0
  0
POLYLINE
  5
DB93A
  8
0
 66
     1
 10
0.0
 20
0.0
 30
0.0
 70
     1
  0
VERTEX
  5
DF116
  8
0
 10
780.4035143812074
 20
4302.167091618025
 30
0.0
  0
VERTEX
  5
DF117
  8
0
 10
780.4035143812074
 20
4264.036642058265
 30
0.0
  0
VERTEX
  5
DF118
  8
0
 10
810.4035143812074
 20
4264.036642058265
 30
0.0
  0
VERTEX
  5
DF119
  8
0
 10
810.4035143812074
 20
4302.167091618025
 30
0.0
  0
SEQEND
  5
DF2E5
  8
0
  0
POLYLINE
  5
DB93B
  8
0
 66
     1
 10
0.0
 20
0.0
 30
0.0
 70
     1
  0
VERTEX
  5
DF11A
  8
0
 10
440.4035143812071
 20
4302.167091618025
 30
0.0
  0
VERTEX
  5
DF11B
  8
0
 10
440.4035143812071
 20
4264.036642058265
 30
0.0
  0
VERTEX
  5
DF11C
  8
0
 10
470.4035143812069
 20
4264.036642058265
 30
0.0
  0
VERTEX
  5
DF11D
  8
0
 10
470.4035143812069
 20
4302.167091618025
 30
0.0
  0
SEQEND
  5
DF2E6
  8
0
  0
POLYLINE
  5
DB93C
  8
0
 66
     1
 10
0.0
 20
0.0
 30
0.0
 70
     1
  0
VERTEX
  5
DF11E
  8
0
 10
440.4035143812071
 20
4264.036642058265
 30
0.0
  0
VERTEX
  5
DF11F
  8
0
 10
440.4035143812071
 20
4244.036642058268
 30
0.0
  0
VERTEX
  5
DF120
  8
0
 10
470.4035143812069
 20
4244.036642058268
 30
0.0
  0
VERTEX
  5
DF121
  8
0
 10
470.4035143812069
 20
4264.036642058265
 30
0.0
  0
SEQEND
  5
DF2E7
  8
0
  0
POLYLINE
  5
DB93D
  8
0
 66
     1
 10
0.0
 20
0.0
 30
0.0
 70
     1
  0
VERTEX
  5
DF122
  8
0
 10
495.4035143812069
 20
4312.167091618024
 30
0.0
  0
VERTEX
  5
DF123
  8
0
 10
495.4035143812069
 20
4302.167091618025
 30
0.0
  0
VERTEX
  5
DF124
  8
0
 10
415.4035143812071
 20
4302.167091618025
 30
0.0
  0
VERTEX
  5
DF125
  8
0
 10
415.4035143812071
 20
4312.167091618024
 30
0.0
 42
-0.7499999999999128
  0
SEQEND
  5
DF2E8
  8
0
  0
POLYLINE
  5
DB93E
  8
0
 66
     1
 10
0.0
 20
0.0
 30
0.0
 70
     1
  0
VERTEX
  5
DF126
  8
0
 10
1150.403514381207
 20
4302.167091618112
 30
0.0
  0
VERTEX
  5
DF127
  8
0
 10
1150.403514381207
 20
4264.036642058356
 30
0.0
  0
VERTEX
  5
DF128
  8
0
 10
1120.403514381207
 20
4264.036642058356
 30
0.0
  0
VERTEX
  5
DF129
  8
0
 10
1120.403514381207
 20
4302.167091618112
 30
0.0
  0
SEQEND
  5
DF2E9
  8
0
  0
POLYLINE
  5
DB93F
  8
0
 66
     1
 10
0.0
 20
0.0
 30
0.0
 70
     1
  0
VERTEX
  5
DF12A
  8
0
 10
1150.403514381207
 20
4264.036642058356
 30
0.0
  0
VERTEX
  5
DF12B
  8
0
 10
1150.403514381207
 20
4244.036642058356
 30
0.0
  0
VERTEX
  5
DF12C
  8
0
 10
1120.403514381207
 20
4244.036642058356
 30
0.0
  0
VERTEX
  5
DF12D
  8
0
 10
1120.403514381207
 20
4264.036642058356
 30
0.0
  0
SEQEND
  5
DF2EA
  8
0
  0
POLYLINE
  5
DB940
  8
0
 66
     1
 10
0.0
 20
0.0
 30
0.0
 70
     1
  0
VERTEX
  5
DF12E
  8
0
 10
1095.403514381207
 20
4312.167091618113
 30
0.0
  0
VERTEX
  5
DF12F
  8
0
 10
1095.403514381207
 20
4302.167091618112
 30
0.0
  0
VERTEX
  5
DF130
  8
0
 10
1175.403514381207
 20
4302.167091618112
 30
0.0
  0
VERTEX
  5
DF131
  8
0
 10
1175.403514381207
 20
4312.167091618113
 30
0.0
 42
0.7499999999999128
  0
SEQEND
  5
DF2EB
  8
0
  0
POLYLINE
  5
DB941
  8
0
 66
     1
 10
0.0
 20
0.0
 30
0.0
  0
VERTEX
  5
DF132
  8
0
 10
2140.403514381207
 20
4244.036642058268
 30
0.0
  0
VERTEX
  5
DF133
  8
0
 10
2140.403514381207
 20
4302.167091618025
 30
0.0
  0
VERTEX
  5
DF134
  8
0
 10
2115.403514381207
 20
4302.167091618025
 30
0.0
  0
VERTEX
  5
DF135
  8
0
 10
2115.403514381207
 20
4312.167091618024
 30
0.0
 42
-0.0792856712932764
  0
VERTEX
  5
DF136
  8
0
 10
2121.020995634084
 20
4324.036642058472
 30
0.0
  0
VERTEX
  5
DF137
  8
0
 10
1849.786033128563
 20
4324.036642058356
 30
0.0
 42
-0.0792856712920094
  0
VERTEX
  5
DF138
  8
0
 10
1855.403514381207
 20
4312.167091618201
 30
0.0
  0
VERTEX
  5
DF139
  8
0
 10
1855.403514381207
 20
4302.1670916182
 30
0.0
  0
VERTEX
  5
DF13A
  8
0
 10
1830.403514381207
 20
4302.1670916182
 30
0.0
  0
VERTEX
  5
DF13B
  8
0
 10
1830.403514381207
 20
4244.036642058443
 30
0.0
  0
VERTEX
  5
DF13C
  8
0
 10
2140.403514381207
 20
4244.036642058443
 30
0.0
  0
VERTEX
  5
DF13D
  8
0
 10
1830.403514381207
 20
4244.036642058443
 30
0.0
  0
SEQEND
  5
DF2EC
  8
0
  0
POLYLINE
  5
DB942
  8
0
 66
     1
 10
0.0
 20
0.0
 30
0.0
  0
VERTEX
  5
DF13E
  8
0
 10
2189.786033128447
 20
4324.036642058269
 30
0.0
 42
-0.079285671292372
  0
VERTEX
  5
DF13F
  8
0
 10
2195.403514381207
 20
4312.167091617939
 30
0.0
  0
VERTEX
  5
DF140
  8
0
 10
2195.403514381207
 20
4302.167091617939
 30
0.0
  0
VERTEX
  5
DF141
  8
0
 10
2170.403514381207
 20
4302.167091617939
 30
0.0
  0
VERTEX
  5
DF142
  8
0
 10
2170.403514381207
 20
4264.036642058181
 30
0.0
  0
VERTEX
  5
DF143
  8
0
 10
2170.403514381207
 20
4244.036642058268
 30
0.0
  0
VERTEX
  5
DF144
  8
0
 10
2305.403514381207
 20
4244.036642058268
 30
0.0
  0
VERTEX
  5
DF145
  8
0
 10
2305.403514381207
 20
4324.036642058269
 30
0.0
  0
VERTEX
  5
DF146
  8
0
 10
2189.786033128447
 20
4324.036642058269
 30
0.0
  0
VERTEX
  5
DF147
  8
0
 10
2305.403514381207
 20
4324.036642058181
 30
0.0
  0
VERTEX
  5
DF148
  8
0
 10
2305.403514381207
 20
4244.036642058182
 30
0.0
  0
VERTEX
  5
DF149
  8
0
 10
2170.403514381207
 20
4244.036642058182
 30
0.0
  0
SEQEND
  5
DF2ED
  8
0
  0
POLYLINE
  5
DB943
  8
0
 66
     1
 10
0.0
 20
0.0
 30
0.0
  0
VERTEX
  5
DF14A
  8
0
 10
1490.403514381207
 20
4244.036642058182
 30
0.0
  0
VERTEX
  5
DF14B
  8
0
 10
1490.403514381207
 20
4302.167091617939
 30
0.0
  0
VERTEX
  5
DF14C
  8
0
 10
1515.403514381207
 20
4302.167091617939
 30
0.0
  0
VERTEX
  5
DF14D
  8
0
 10
1515.403514381207
 20
4312.167091617939
 30
0.0
 42
0.0792856712932764
  0
VERTEX
  5
DF14E
  8
0
 10
1509.78603312833
 20
4324.036642058385
 30
0.0
  0
VERTEX
  5
DF14F
  8
0
 10
1781.020995633851
 20
4324.036642058269
 30
0.0
 42
0.0792856712920094
  0
VERTEX
  5
DF150
  8
0
 10
1775.403514381207
 20
4312.167091618113
 30
0.0
  0
VERTEX
  5
DF151
  8
0
 10
1775.403514381207
 20
4302.167091618112
 30
0.0
  0
VERTEX
  5
DF152
  8
0
 10
1800.403514381207
 20
4302.167091618112
 30
0.0
  0
VERTEX
  5
DF153
  8
0
 10
1800.403514381207
 20
4244.036642058356
 30
0.0
  0
VERTEX
  5
DF154
  8
0
 10
1490.403514381207
 20
4244.036642058356
 30
0.0
  0
VERTEX
  5
DF155
  8
0
 10
1800.403514381207
 20
4244.036642058356
 30
0.0
  0
SEQEND
  5
DF2EE
  8
0
  0
POLYLINE
  5
DB944
  8
0
 66
     1
 10
0.0
 20
0.0
 30
0.0
 70
     1
  0
VERTEX
  5
DF156
  8
0
 10
1855.403514381207
 20
4312.167091617939
 30
0.0
  0
VERTEX
  5
DF157
  8
0
 10
1855.403514381207
 20
4302.167091617939
 30
0.0
  0
VERTEX
  5
DF158
  8
0
 10
1775.403514381207
 20
4302.167091617939
 30
0.0
  0
VERTEX
  5
DF159
  8
0
 10
1775.403514381207
 20
4312.167091617939
 30
0.0
 42
-0.7499999999999128
  0
SEQEND
  5
DF2EF
  8
0
  0
POLYLINE
  5
DB945
  8
0
 66
     1
 10
0.0
 20
0.0
 30
0.0
 70
     1
  0
VERTEX
  5
DF15A
  8
0
 10
1800.403514381207
 20
4264.036642058181
 30
0.0
  0
VERTEX
  5
DF15B
  8
0
 10
1800.403514381207
 20
4244.036642058182
 30
0.0
  0
VERTEX
  5
DF15C
  8
0
 10
1830.403514381207
 20
4244.036642058182
 30
0.0
  0
VERTEX
  5
DF15D
  8
0
 10
1830.403514381207
 20
4264.036642058181
 30
0.0
  0
SEQEND
  5
DF2F0
  8
0
  0
POLYLINE
  5
DB946
  8
0
 66
     1
 10
0.0
 20
0.0
 30
0.0
 70
     1
  0
VERTEX
  5
DF15E
  8
0
 10
1800.403514381207
 20
4302.167091617939
 30
0.0
  0
VERTEX
  5
DF15F
  8
0
 10
1800.403514381207
 20
4264.036642058181
 30
0.0
  0
VERTEX
  5
DF160
  8
0
 10
1830.403514381207
 20
4264.036642058181
 30
0.0
  0
VERTEX
  5
DF161
  8
0
 10
1830.403514381207
 20
4302.167091617939
 30
0.0
  0
SEQEND
  5
DF2F1
  8
0
  0
POLYLINE
  5
DB947
  8
0
 66
     1
 10
0.0
 20
0.0
 30
0.0
 70
     1
  0
VERTEX
  5
DF162
  8
0
 10
1460.403514381207
 20
4302.167091617939
 30
0.0
  0
VERTEX
  5
DF163
  8
0
 10
1460.403514381207
 20
4264.036642058181
 30
0.0
  0
VERTEX
  5
DF164
  8
0
 10
1490.403514381207
 20
4264.036642058181
 30
0.0
  0
VERTEX
  5
DF165
  8
0
 10
1490.403514381207
 20
4302.167091617939
 30
0.0
  0
SEQEND
  5
DF2F2
  8
0
  0
POLYLINE
  5
DB948
  8
0
 66
     1
 10
0.0
 20
0.0
 30
0.0
 70
     1
  0
VERTEX
  5
DF166
  8
0
 10
1460.403514381207
 20
4264.036642058181
 30
0.0
  0
VERTEX
  5
DF167
  8
0
 10
1460.403514381207
 20
4244.036642058182
 30
0.0
  0
VERTEX
  5
DF168
  8
0
 10
1490.403514381207
 20
4244.036642058182
 30
0.0
  0
VERTEX
  5
DF169
  8
0
 10
1490.403514381207
 20
4264.036642058181
 30
0.0
  0
SEQEND
  5
DF2F3
  8
0
  0
POLYLINE
  5
DB949
  8
0
 66
     1
 10
0.0
 20
0.0
 30
0.0
 70
     1
  0
VERTEX
  5
DF16A
  8
0
 10
1515.403514381207
 20
4312.167091617939
 30
0.0
  0
VERTEX
  5
DF16B
  8
0
 10
1515.403514381207
 20
4302.167091617939
 30
0.0
  0
VERTEX
  5
DF16C
  8
0
 10
1435.403514381207
 20
4302.167091617939
 30
0.0
  0
VERTEX
  5
DF16D
  8
0
 10
1435.403514381207
 20
4312.167091617939
 30
0.0
 42
-0.7499999999999128
  0
SEQEND
  5
DF2F4
  8
0
  0
POLYLINE
  5
DB94A
  8
0
 66
     1
 10
0.0
 20
0.0
 30
0.0
 70
     1
  0
VERTEX
  5
DF16E
  8
0
 10
2170.403514381207
 20
4302.167091618025
 30
0.0
  0
VERTEX
  5
DF16F
  8
0
 10
2170.403514381207
 20
4264.036642058265
 30
0.0
  0
VERTEX
  5
DF170
  8
0
 10
2140.403514381207
 20
4264.036642058265
 30
0.0
  0
VERTEX
  5
DF171
  8
0
 10
2140.403514381207
 20
4302.167091618025
 30
0.0
  0
SEQEND
  5
DF2F5
  8
0
  0
POLYLINE
  5
DB94B
  8
0
 66
     1
 10
0.0
 20
0.0
 30
0.0
 70
     1
  0
VERTEX
  5
DF172
  8
0
 10
2170.403514381207
 20
4264.036642058265
 30
0.0
  0
VERTEX
  5
DF173
  8
0
 10
2170.403514381207
 20
4244.036642058268
 30
0.0
  0
VERTEX
  5
DF174
  8
0
 10
2140.403514381207
 20
4244.036642058268
 30
0.0
  0
VERTEX
  5
DF175
  8
0
 10
2140.403514381207
 20
4264.036642058265
 30
0.0
  0
SEQEND
  5
DF2F6
  8
0
  0
POLYLINE
  5
DB94C
  8
0
 66
     1
 10
0.0
 20
0.0
 30
0.0
 70
     1
  0
VERTEX
  5
DF176
  8
0
 10
2115.403514381207
 20
4312.167091618024
 30
0.0
  0
VERTEX
  5
DF177
  8
0
 10
2115.403514381207
 20
4302.167091618025
 30
0.0
  0
VERTEX
  5
DF178
  8
0
 10
2195.403514381207
 20
4302.167091618025
 30
0.0
  0
VERTEX
  5
DF179
  8
0
 10
2195.403514381207
 20
4312.167091618024
 30
0.0
 42
0.7499999999999128
  0
SEQEND
  5
DF2F7
  8
0
  0
POLYLINE
  5
DB94D
  8
0
 66
     1
 10
0.0
 20
0.0
 30
0.0
 70
     1
  0
VERTEX
  5
DF17A
  8
0
 10
1290.403514381207
 20
4324.036642058444
 30
0.0
  0
VERTEX
  5
DF17B
  8
0
 10
1290.403514381207
 20
4489.036642058443
 30
0.0
  0
VERTEX
  5
DF17C
  8
0
 10
1320.403514381207
 20
4489.036642058443
 30
0.0
  0
VERTEX
  5
DF17D
  8
0
 10
1320.403514381207
 20
4324.036642058444
 30
0.0
  0
SEQEND
  5
DF2F8
  8
0
  0
POLYLINE
  5
DB94E
  8
0
 66
     1
 10
0.0
 20
0.0
 30
0.0
  0
VERTEX
  5
DF17E
  8
0
 10
1460.403514381207
 20
4244.036642058182
 30
0.0
  0
VERTEX
  5
DF17F
  8
0
 10
1460.403514381207
 20
4302.167091617939
 30
0.0
  0
VERTEX
  5
DF180
  8
0
 10
1435.403514381207
 20
4302.167091617939
 30
0.0
  0
VERTEX
  5
DF181
  8
0
 10
1435.403514381207
 20
4312.167091617939
 30
0.0
 42
-0.0792856712932764
  0
VERTEX
  5
DF182
  8
0
 10
1441.020995634084
 20
4324.036642058385
 30
0.0
  0
VERTEX
  5
DF183
  8
0
 10
1169.786033128563
 20
4324.036642058269
 30
0.0
 42
-0.0792856712920094
  0
VERTEX
  5
DF184
  8
0
 10
1175.403514381207
 20
4312.167091618113
 30
0.0
  0
VERTEX
  5
DF185
  8
0
 10
1175.403514381207
 20
4302.167091618112
 30
0.0
  0
VERTEX
  5
DF186
  8
0
 10
1150.403514381207
 20
4302.167091618112
 30
0.0
  0
VERTEX
  5
DF187
  8
0
 10
1150.403514381207
 20
4244.036642058356
 30
0.0
  0
VERTEX
  5
DF188
  8
0
 10
1460.403514381207
 20
4244.036642058356
 30
0.0
  0
VERTEX
  5
DF189
  8
0
 10
1150.403514381207
 20
4244.036642058356
 30
0.0
  0
SEQEND
  5
DF2F9
  8
0
  0
POLYLINE
  5
DB94F
  8
0
 66
     1
 10
0.0
 20
0.0
 30
0.0
 70
     1
  0
VERTEX
  5
DF18A
  8
0
 10
3594.835155079316
 20
3149.036642058444
 30
0.0
  0
VERTEX
  5
DF18B
  8
0
 10
3594.835155079316
 20
3174.036642058445
 30
0.0
  0
VERTEX
  5
DF18C
  8
0
 10
3514.835155079316
 20
3174.036642058445
 30
0.0
  0
VERTEX
  5
DF18D
  8
0
 10
3514.835155079316
 20
3149.036642058444
 30
0.0
  0
SEQEND
  5
DF2FA
  8
0
  0
POLYLINE
  5
DB950
  8
0
 66
     1
 10
0.0
 20
0.0
 30
0.0
 70
     1
  0
VERTEX
  5
DF18E
  8
0
 10
3324.835155079316
 20
3149.036642058444
 30
0.0
  0
VERTEX
  5
DF18F
  8
0
 10
3324.835155079316
 20
3174.036642058445
 30
0.0
  0
VERTEX
  5
DF190
  8
0
 10
3244.835155079317
 20
3174.036642058445
 30
0.0
  0
VERTEX
  5
DF191
  8
0
 10
3244.835155079317
 20
3149.036642058444
 30
0.0
  0
SEQEND
  5
DF2FB
  8
0
  0
POLYLINE
  5
DB951
  8
0
 66
     1
 10
0.0
 20
0.0
 30
0.0
 70
     1
  0
VERTEX
  5
DF192
  8
0
 10
3504.835155079316
 20
3149.036642058444
 30
0.0
  0
VERTEX
  5
DF193
  8
0
 10
3504.835155079316
 20
3174.036642058445
 30
0.0
  0
VERTEX
  5
DF194
  8
0
 10
3424.835155079316
 20
3174.036642058445
 30
0.0
  0
VERTEX
  5
DF195
  8
0
 10
3424.835155079316
 20
3149.036642058444
 30
0.0
  0
SEQEND
  5
DF2FC
  8
0
  0
POLYLINE
  5
DB952
  8
0
 66
     1
 10
0.0
 20
0.0
 30
0.0
 70
     1
  0
VERTEX
  5
DF196
  8
0
 10
3414.835155079316
 20
3149.036642058444
 30
0.0
  0
VERTEX
  5
DF197
  8
0
 10
3414.835155079316
 20
3174.036642058445
 30
0.0
  0
VERTEX
  5
DF198
  8
0
 10
3334.835155079316
 20
3174.036642058445
 30
0.0
  0
VERTEX
  5
DF199
  8
0
 10
3334.835155079316
 20
3149.036642058444
 30
0.0
  0
SEQEND
  5
DF2FD
  8
0
  0
POLYLINE
  5
DB953
  8
0
 66
     1
 10
0.0
 20
0.0
 30
0.0
 70
     1
  0
VERTEX
  5
DF19A
  8
0
 10
3214.835155079316
 20
4489.036642058443
 30
0.0
  0
VERTEX
  5
DF19B
  8
0
 10
3214.835155079316
 20
2734.036642058444
 30
0.0
  0
VERTEX
  5
DF19C
  8
0
 10
3244.835155079317
 20
2734.036642058444
 30
0.0
  0
VERTEX
  5
DF19D
  8
0
 10
3244.835155079317
 20
4489.036642058443
 30
0.0
  0
VERTEX
  5
DF19E
  8
0
 10
3482.835155079316
 20
4489.036642058443
 30
0.0
  0
VERTEX
  5
DF19F
  8
0
 10
3482.835155079316
 20
4519.036642058443
 30
0.0
  0
VERTEX
  5
DF1A0
  8
0
 10
3214.835155079316
 20
4519.036642058443
 30
0.0
  0
SEQEND
  5
DF2FE
  8
0
  0
POLYLINE
  5
DB954
  8
0
 66
     1
 10
0.0
 20
0.0
 30
0.0
 70
     1
  0
VERTEX
  5
DF1A1
  8
0
 10
3244.835155079317
 20
3374.036642058444
 30
0.0
  0
VERTEX
  5
DF1A2
  8
0
 10
3269.835155079316
 20
3374.036642058444
 30
0.0
  0
VERTEX
  5
DF1A3
  8
0
 10
3269.835155079316
 20
3454.036642058444
 30
0.0
  0
VERTEX
  5
DF1A4
  8
0
 10
3244.835155079317
 20
3454.036642058444
 30
0.0
  0
SEQEND
  5
DF2FF
  8
0
  0
POLYLINE
  5
DB955
  8
0
 66
     1
 10
0.0
 20
0.0
 30
0.0
 70
     1
  0
VERTEX
  5
DF1A5
  8
0
 10
3484.835155079316
 20
4489.036642058443
 30
0.0
  0
VERTEX
  5
DF1A6
  8
0
 10
3484.835155079316
 20
4519.036642058443
 30
0.0
  0
VERTEX
  5
DF1A7
  8
0
 10
3482.835155079316
 20
4519.036642058443
 30
0.0
  0
VERTEX
  5
DF1A8
  8
0
 10
3482.835155079316
 20
4489.036642058443
 30
0.0
  0
SEQEND
  5
DF300
  8
0
  0
POLYLINE
  5
DB956
  8
0
 66
     1
 10
0.0
 20
0.0
 30
0.0
 70
     1
  0
VERTEX
  5
DF1A9
  8
0
 10
3389.835155079316
 20
4519.036642058443
 30
0.0
  0
VERTEX
  5
DF1AA
  8
0
 10
3389.835155079316
 20
4544.036642058443
 30
0.0
  0
VERTEX
  5
DF1AB
  8
0
 10
3309.835155079316
 20
4544.036642058443
 30
0.0
  0
VERTEX
  5
DF1AC
  8
0
 10
3309.835155079316
 20
4519.036642058443
 30
0.0
  0
SEQEND
  5
DF301
  8
0
  0
POLYLINE
  5
DB957
  8
0
 66
     1
 10
0.0
 20
0.0
 30
0.0
 70
     1
  0
VERTEX
  5
DF1AD
  8
0
 10
3294.835155079316
 20
4519.036642058443
 30
0.0
  0
VERTEX
  5
DF1AE
  8
0
 10
3294.835155079316
 20
4544.036642058443
 30
0.0
  0
VERTEX
  5
DF1AF
  8
0
 10
3214.835155079316
 20
4544.036642058443
 30
0.0
  0
VERTEX
  5
DF1B0
  8
0
 10
3214.835155079316
 20
4519.036642058443
 30
0.0
  0
SEQEND
  5
DF302
  8
0
  0
POLYLINE
  5
DB958
  8
0
 66
     1
 10
0.0
 20
0.0
 30
0.0
 70
     1
  0
VERTEX
  5
DF1B1
  8
0
 10
3244.835155079317
 20
4244.036642058443
 30
0.0
  0
VERTEX
  5
DF1B2
  8
0
 10
3269.835155079316
 20
4244.036642058443
 30
0.0
  0
VERTEX
  5
DF1B3
  8
0
 10
3269.835155079316
 20
4324.036642058444
 30
0.0
  0
VERTEX
  5
DF1B4
  8
0
 10
3244.835155079317
 20
4324.036642058444
 30
0.0
  0
SEQEND
  5
DF303
  8
0
  0
POLYLINE
  5
DB959
  8
0
 66
     1
 10
0.0
 20
0.0
 30
0.0
 70
     1
  0
VERTEX
  5
DF1B5
  8
0
 10
3484.835155079316
 20
4519.036642058443
 30
0.0
  0
VERTEX
  5
DF1B6
  8
0
 10
3484.835155079316
 20
4544.036642058443
 30
0.0
  0
VERTEX
  5
DF1B7
  8
0
 10
3404.835155079316
 20
4544.036642058443
 30
0.0
  0
VERTEX
  5
DF1B8
  8
0
 10
3404.835155079316
 20
4519.036642058443
 30
0.0
  0
SEQEND
  5
DF304
  8
0
  0
POLYLINE
  5
DB95A
  8
0
 66
     1
 10
0.0
 20
0.0
 30
0.0
  0
VERTEX
  5
DF1B9
  8
0
 10
3279.835155079316
 20
4244.036642058443
 30
0.0
  0
VERTEX
  5
DF1BA
  8
0
 10
3294.835155079316
 20
4244.036642058443
 30
0.0
  0
VERTEX
  5
DF1BB
  8
0
 10
3294.835155079316
 20
4264.036642058443
 30
0.0
  0
VERTEX
  5
DF1BC
  8
0
 10
3289.835155079316
 20
4264.036642058443
 30
0.0
  0
VERTEX
  5
DF1BD
  8
0
 10
3289.835155079316
 20
4249.036642058444
 30
0.0
  0
VERTEX
  5
DF1BE
  8
0
 10
3279.835155079316
 20
4249.036642058444
 30
0.0
  0
VERTEX
  5
DF1BF
  8
0
 10
3279.835155079316
 20
4244.036642058443
 30
0.0
  0
SEQEND
  5
DF305
  8
0
  0
POLYLINE
  5
DB95B
  8
0
 66
     1
 10
0.0
 20
0.0
 30
0.0
 70
     1
  0
VERTEX
  5
DF1C0
  8
0
 10
3279.835155079316
 20
4244.036642058443
 30
0.0
  0
VERTEX
  5
DF1C1
  8
0
 10
3279.835155079316
 20
4324.036642058444
 30
0.0
  0
VERTEX
  5
DF1C2
  8
0
 10
3269.835155079316
 20
4324.036642058444
 30
0.0
  0
VERTEX
  5
DF1C3
  8
0
 10
3269.835155079316
 20
4244.036642058443
 30
0.0
  0
SEQEND
  5
DF306
  8
0
  0
POLYLINE
  5
DB95C
  8
0
 66
     1
 10
0.0
 20
0.0
 30
0.0
 70
     1
  0
VERTEX
  5
DF1C4
  8
0
 10
3286.627222209296
 20
4324.036642058444
 30
0.0
  0
VERTEX
  5
DF1C5
  8
0
 10
3286.627222209296
 20
4320.158111921259
 30
0.0
  0
VERTEX
  5
DF1C6
  8
0
 10
3279.835155079316
 20
4320.158111921259
 30
0.0
  0
VERTEX
  5
DF1C7
  8
0
 10
3279.835155079316
 20
4324.036642058444
 30
0.0
  0
SEQEND
  5
DF307
  8
0
  0
POLYLINE
  5
DB95D
  8
0
 66
     1
 10
0.0
 20
0.0
 30
0.0
 70
     1
  0
VERTEX
  5
DF1C8
  8
0
 10
3296.627222209296
 20
4342.1670916182
 30
0.0
  0
VERTEX
  5
DF1C9
  8
0
 10
3296.627222209296
 20
4302.1670916182
 30
0.0
  0
VERTEX
  5
DF1CA
  8
0
 10
3286.627222209296
 20
4302.1670916182
 30
0.0
  0
VERTEX
  5
DF1CB
  8
0
 10
3286.627222209296
 20
4342.1670916182
 30
0.0
  0
SEQEND
  5
DF308
  8
0
  0
POLYLINE
  5
DB95E
  8
0
 66
     1
 10
0.0
 20
0.0
 30
0.0
  0
VERTEX
  5
DF1CC
  8
0
 10
3594.835155079316
 20
3149.036642058444
 30
0.0
  0
VERTEX
  5
DF1CD
  8
0
 10
3244.835155079317
 20
3149.036642058444
 30
0.0
  0
VERTEX
  5
DF1CE
  8
0
 10
3244.835155079317
 20
2734.036642058444
 30
0.0
  0
VERTEX
  5
DF1CF
  8
0
 10
3274.835155079316
 20
2734.036642058444
 30
0.0
  0
VERTEX
  5
DF1D0
  8
0
 10
3274.835155079316
 20
3119.036642058444
 30
0.0
  0
VERTEX
  5
DF1D1
  8
0
 10
3564.835155079316
 20
3119.036642058444
 30
0.0
  0
VERTEX
  5
DF1D2
  8
0
 10
3564.835155079316
 20
2734.036642058444
 30
0.0
  0
VERTEX
  5
DF1D3
  8
0
 10
3594.835155079316
 20
2734.036642058444
 30
0.0
  0
VERTEX
  5
DF1D4
  8
0
 10
3594.835155079316
 20
3149.036642058444
 30
0.0
  0
SEQEND
  5
DF309
  8
0
  0
LINE
  5
DB95F
  8
0
 10
3244.835155079317
 20
3174.036642058357
 30
0.0
 11
3244.835155079317
 21
3374.036642058356
 31
0.0
  0
POLYLINE
  5
DB960
  8
0
 66
     1
 10
0.0
 20
0.0
 30
0.0
 70
     1
  0
VERTEX
  5
DF1D5
  8
0
 10
3244.835155079317
 20
3469.036642058444
 30
0.0
  0
VERTEX
  5
DF1D6
  8
0
 10
3269.835155079316
 20
3469.036642058444
 30
0.0
  0
VERTEX
  5
DF1D7
  8
0
 10
3269.835155079316
 20
3549.036642058445
 30
0.0
  0
VERTEX
  5
DF1D8
  8
0
 10
3244.835155079317
 20
3549.036642058445
 30
0.0
  0
SEQEND
  5
DF30A
  8
0
  0
TEXT
  5
DBF1A
  8
0
 10
-838.7791374978221
 20
-555.4096502962035
 30
0.0
 40
125.0
  1
Questo disegno è di proprietà di Fantin S.r.l.   
  7
STILE1
 72
     1
 11
1583.839910121225
 21
-555.4096502962035
 31
0.0
  0
TEXT
  5
DBF1B
  8
0
 10
-278.0653885912585
 20
-208.9254166234014
 30
0.0
 40
125.0
  1
Panck
  7
STILE1
 72
     1
 11
7.741903075408115
 21
-208.9254166234014
 31
0.0
  0
POLYLINE
  5
DBF1C
  8
0
  6
CONTINUOUS
 66
     1
 10
0.0
 20
0.0
 30
0.0
  0
VERTEX
  5
DF1D9
  8
0
  6
CONTINUOUS
 10
-2005.844421386719
 20
-687.6576470269355
 30
0.0
  0
VERTEX
  5
DF1DA
  8
0
  6
CONTINUOUS
 10
-2005.844421386719
 20
-299.9965549039189
 30
0.0
  0
VERTEX
  5
DF1DB
  8
0
  6
CONTINUOUS
 10
-1904.494879823178
 20
-299.9965549039189
 30
0.0
 42
-0.316444976687396
  0
VERTEX
  5
DF1DC
  8
0
  6
CONTINUOUS
 10
-1853.547085234894
 20
-328.2411702477839
 30
0.0
  0
VERTEX
  5
DF1DD
  8
0
  6
CONTINUOUS
 10
-1752.753926590085
 20
-498.2600775826719
 30
0.0
  0
VERTEX
  5
DF1DE
  8
0
  6
CONTINUOUS
 10
-1749.985792371444
 20
-498.2600775826719
 30
0.0
  0
VERTEX
  5
DF1DF
  8
0
  6
CONTINUOUS
 10
-1749.985792371444
 20
-299.9965549039189
 30
0.0
  0
VERTEX
  5
DF1E0
  8
0
  6
CONTINUOUS
 10
-1637.561991373077
 20
-299.9965549039189
 30
0.0
  0
VERTEX
  5
DF1E1
  8
0
  6
CONTINUOUS
 10
-1637.561991373077
 20
-687.6576470269355
 30
0.0
  0
VERTEX
  5
DF1E2
  8
0
  6
CONTINUOUS
 10
-1720.084086097777
 20
-687.6576470269355
 30
0.0
 42
-0.312959769389874
  0
VERTEX
  5
DF1E3
  8
0
  6
CONTINUOUS
 10
-1771.031880690716
 20
-659.4147542316932
 30
0.0
  0
VERTEX
  5
DF1E4
  8
0
  6
CONTINUOUS
 10
-1890.652486160398
 20
-466.1380072694737
 30
0.0
  0
VERTEX
  5
DF1E5
  8
0
  6
CONTINUOUS
 10
-1893.417175291106
 20
-466.1380072694737
 30
0.0
  0
VERTEX
  5
DF1E6
  8
0
  6
CONTINUOUS
 10
-1893.417175291106
 20
-687.6576470269355
 30
0.0
  0
VERTEX
  5
DF1E7
  8
0
  6
CONTINUOUS
 10
-2005.844421386719
 20
-687.6576470269355
 30
0.0
  0
SEQEND
  5
DF30B
  8
0
  6
CONTINUOUS
  0
POLYLINE
  5
DBF1D
  8
0
  6
CONTINUOUS
 66
     1
 10
0.0
 20
0.0
 30
0.0
  0
VERTEX
  5
DF1E8
  8
0
  6
CONTINUOUS
 10
-2982.206875272095
 20
-687.6576470269355
 30
0.0
  0
VERTEX
  5
DF1E9
  8
0
  6
CONTINUOUS
 10
-2982.206875272095
 20
-299.9965549039189
 30
0.0
  0
VERTEX
  5
DF1EA
  8
0
  6
CONTINUOUS
 10
-2880.857333708556
 20
-299.9965549039189
 30
0.0
 42
-0.316444976687396
  0
VERTEX
  5
DF1EB
  8
0
  6
CONTINUOUS
 10
-2829.909539115615
 20
-328.2411702477839
 30
0.0
  0
VERTEX
  5
DF1EC
  8
0
  6
CONTINUOUS
 10
-2729.116380475462
 20
-498.2600775826719
 30
0.0
  0
VERTEX
  5
DF1ED
  8
0
  6
CONTINUOUS
 10
-2726.348246252165
 20
-498.2600775826719
 30
0.0
  0
VERTEX
  5
DF1EE
  8
0
  6
CONTINUOUS
 10
-2726.348246252165
 20
-299.9965549039189
 30
0.0
  0
VERTEX
  5
DF1EF
  8
0
  6
CONTINUOUS
 10
-2613.924445258454
 20
-299.9965549039189
 30
0.0
  0
VERTEX
  5
DF1F0
  8
0
  6
CONTINUOUS
 10
-2613.924445258454
 20
-687.6576470269355
 30
0.0
  0
VERTEX
  5
DF1F1
  8
0
  6
CONTINUOUS
 10
-2696.446539983154
 20
-687.6576470269355
 30
0.0
 42
-0.312959769389874
  0
VERTEX
  5
DF1F2
  8
0
  6
CONTINUOUS
 10
-2747.39433458075
 20
-659.4147542316932
 30
0.0
  0
VERTEX
  5
DF1F3
  8
0
  6
CONTINUOUS
 10
-2867.014940045774
 20
-466.1380072694737
 30
0.0
  0
VERTEX
  5
DF1F4
  8
0
  6
CONTINUOUS
 10
-2869.779629176483
 20
-466.1380072694737
 30
0.0
  0
VERTEX
  5
DF1F5
  8
0
  6
CONTINUOUS
 10
-2869.779629176483
 20
-687.6576470269355
 30
0.0
  0
VERTEX
  5
DF1F6
  8
0
  6
CONTINUOUS
 10
-2982.206875272095
 20
-687.6576470269355
 30
0.0
  0
SEQEND
  5
DF30C
  8
0
  6
CONTINUOUS
  0
POLYLINE
  5
DBF1E
  8
0
  6
CONTINUOUS
 66
     1
 10
0.0
 20
0.0
 30
0.0
  0
VERTEX
  5
DF1F7
  8
0
  6
CONTINUOUS
 10
-2229.582702633925
 20
-299.9982774525415
 30
0.0
  0
VERTEX
  5
DF1F8
  8
0
  6
CONTINUOUS
 10
-2229.582702633925
 20
-390.8213297522161
 30
0.0
  0
VERTEX
  5
DF1F9
  8
0
  6
CONTINUOUS
 10
-2345.878790956922
 20
-390.8213297522161
 30
0.0
  0
VERTEX
  5
DF1FA
  8
0
  6
CONTINUOUS
 10
-2345.878790956922
 20
-687.6576470269355
 30
0.0
  0
VERTEX
  5
DF1FB
  8
0
  6
CONTINUOUS
 10
-2464.948181146756
 20
-687.6576470269355
 30
0.0
  0
VERTEX
  5
DF1FC
  8
0
  6
CONTINUOUS
 10
-2464.948181146756
 20
-390.8213297522161
 30
0.0
  0
VERTEX
  5
DF1FD
  8
0
  6
CONTINUOUS
 10
-2578.481302894652
 20
-390.8213297522161
 30
0.0
  0
VERTEX
  5
DF1FE
  8
0
  6
CONTINUOUS
 10
-2578.481302894652
 20
-299.9982774525415
 30
0.0
  0
VERTEX
  5
DF1FF
  8
0
  6
CONTINUOUS
 10
-2229.582702633925
 20
-299.9982774525415
 30
0.0
  0
SEQEND
  5
DF30D
  8
0
  6
CONTINUOUS
  0
POLYLINE
  5
DBF1F
  8
0
  6
CONTINUOUS
 66
     1
 10
0.0
 20
0.0
 30
0.0
 70
     1
  0
VERTEX
  5
DF200
  8
0
  6
CONTINUOUS
 10
-2192.47902425006
 20
-299.9982774525415
 30
0.0
  0
VERTEX
  5
DF201
  8
0
  6
CONTINUOUS
 10
-2073.409634060226
 20
-299.9982774525415
 30
0.0
  0
VERTEX
  5
DF202
  8
0
  6
CONTINUOUS
 10
-2073.409634060226
 20
-687.6576470269355
 30
0.0
  0
VERTEX
  5
DF203
  8
0
  6
CONTINUOUS
 10
-2192.47902425006
 20
-687.6576470269355
 30
0.0
  0
SEQEND
  5
DF30E
  8
0
  6
CONTINUOUS
  0
POLYLINE
  5
DBF20
  8
0
  6
CONTINUOUS
 66
     1
 10
0.0
 20
0.0
 30
0.0
  0
VERTEX
  5
DF204
  8
0
  6
CONTINUOUS
 10
-3407.540086535738
 20
-300.0
 30
0.0
  0
VERTEX
  5
DF205
  8
0
  6
CONTINUOUS
 10
-3407.540086535738
 20
-389.1607937274967
 30
0.0
  0
VERTEX
  5
DF206
  8
0
  6
CONTINUOUS
 10
-3593.616583929397
 20
-389.1607937274967
 30
0.0
  0
VERTEX
  5
DF207
  8
0
  6
CONTINUOUS
 10
-3593.616583929397
 20
-466.1362847220151
 30
0.0
  0
VERTEX
  5
DF208
  8
0
  6
CONTINUOUS
 10
-3463.47293430008
 20
-466.1362847220151
 30
0.0
  0
VERTEX
  5
DF209
  8
0
  6
CONTINUOUS
 10
-3463.47293430008
 20
-549.2095947265625
 30
0.0
  0
VERTEX
  5
DF20A
  8
0
  6
CONTINUOUS
 10
-3593.616583929397
 20
-549.2095947265625
 30
0.0
  0
VERTEX
  5
DF20B
  8
0
  6
CONTINUOUS
 10
-3593.616583929397
 20
-687.6576470269355
 30
0.0
  0
VERTEX
  5
DF20C
  8
0
  6
CONTINUOUS
 10
-3712.685974119231
 20
-687.6576470269355
 30
0.0
  0
VERTEX
  5
DF20D
  8
0
  6
CONTINUOUS
 10
-3712.685974119231
 20
-300.0
 30
0.0
  0
VERTEX
  5
DF20E
  8
0
  6
CONTINUOUS
 10
-3407.540086535738
 20
-300.0
 30
0.0
  0
SEQEND
  5
DF30F
  8
0
  6
CONTINUOUS
  0
POLYLINE
  5
DBF21
  8
0
  6
CONTINUOUS
 66
     1
 10
0.0
 20
0.0
 30
0.0
  0
VERTEX
  5
DF20F
  8
0
  6
CONTINUOUS
 10
-3221.454976396636
 20
-406.8789198133162
 30
0.0
  0
VERTEX
  5
DF210
  8
0
  6
CONTINUOUS
 10
-3188.227030434647
 20
-520.96670193132
 30
0.0
  0
VERTEX
  5
DF211
  8
0
  6
CONTINUOUS
 10
-3260.775573728607
 20
-520.96670193132
 30
0.0
  0
VERTEX
  5
DF212
  8
0
  6
CONTINUOUS
 10
-3227.547627761961
 20
-406.8789198133162
 30
0.0
  0
VERTEX
  5
DF213
  8
0
  6
CONTINUOUS
 10
-3221.454976396636
 20
-406.8789198133162
 30
0.0
  0
SEQEND
  5
DF310
  8
0
  6
CONTINUOUS
  0
POLYLINE
  5
DBF22
  8
0
  6
CONTINUOUS
 66
     1
 10
0.0
 20
0.0
 30
0.0
 70
     1
  0
VERTEX
  5
DF214
  8
0
  6
CONTINUOUS
 10
-3164.963312949987
 20
-604.0348442923276
 30
0.0
  0
VERTEX
  5
DF215
  8
0
  6
CONTINUOUS
 10
-3164.963312949987
 20
-604.0348442923276
 30
0.0
  0
VERTEX
  5
DF216
  8
0
  6
CONTINUOUS
 10
-3140.60203043744
 20
-687.6576470269355
 30
0.0
  0
VERTEX
  5
DF217
  8
0
  6
CONTINUOUS
 10
-3014.885328505188
 20
-687.6576470269355
 30
0.0
  0
VERTEX
  5
DF218
  8
0
  6
CONTINUOUS
 10
-3132.294182670303
 20
-334.8833143443335
 30
0.0
 42
0.1089385125692126
  0
VERTEX
  5
DF219
  8
0
  6
CONTINUOUS
 10
-3145.036042486318
 20
-307.2121766244527
 30
0.0
 42
0.1589313772246072
  0
VERTEX
  5
DF21A
  8
0
  6
CONTINUOUS
 10
-3157.031867676415
 20
-299.9273046676535
 30
0.0
 42
0.058673645385263
  0
VERTEX
  5
DF21B
  8
0
  6
CONTINUOUS
 10
-3173.277038573287
 20
-298.3360188803636
 30
0.0
  0
VERTEX
  5
DF21C
  8
0
  6
CONTINUOUS
 10
-3173.277038573287
 20
-298.3360188803636
 30
0.0
  0
VERTEX
  5
DF21D
  8
0
  6
CONTINUOUS
 10
-3268.525316026062
 20
-298.3360188803636
 30
0.0
 42
0.058673645385263
  0
VERTEX
  5
DF21E
  8
0
  6
CONTINUOUS
 10
-3284.770486922936
 20
-299.9273046676535
 30
0.0
 42
0.1589313772246072
  0
VERTEX
  5
DF21F
  8
0
  6
CONTINUOUS
 10
-3296.766312113032
 20
-307.2121766244527
 30
0.0
 42
0.1089385125692126
  0
VERTEX
  5
DF220
  8
0
  6
CONTINUOUS
 10
-3309.508171929046
 20
-334.8833143443335
 30
0.0
  0
VERTEX
  5
DF221
  8
0
  6
CONTINUOUS
 10
-3426.917026089505
 20
-687.6576470269355
 30
0.0
  0
VERTEX
  5
DF222
  8
0
  6
CONTINUOUS
 10
-3307.851080996916
 20
-687.6576470269355
 30
0.0
  0
VERTEX
  5
DF223
  8
0
  6
CONTINUOUS
 10
-3284.038581000641
 20
-604.0348442923276
 30
0.0
  0
SEQEND
  5
DF311
  8
0
  6
CONTINUOUS
  0
TEXT
  5
DBF23
  8
0
 10
-527.8452372835668
 20
-817.4938565844182
 30
0.0
 40
125.0
  1
This drawing is property of Fantin S.r.l. 
  7
STILE1
 72
     1
 11
1487.035715097386
 21
-817.4938565844182
 31
0.0
  0
POLYLINE
  5
DBF24
  8
0
 66
     1
 10
0.0
 20
0.0
 30
0.0
  0
VERTEX
  5
DF224
  8
0
 10
-1337.561991373077
 20
-299.9965549039189
 30
0.0
  0
VERTEX
  5
DF225
  8
0
 10
4012.685974119231
 20
-299.9965549039186
 30
0.0
  0
SEQEND
  5
DF312
  8
0
  0
POLYLINE
  5
DBF25
  8
0
 66
     1
 10
0.0
 20
0.0
 30
0.0
 70
     1
  0
VERTEX
  5
DF226
  8
0
 10
-4012.685974119231
 20
0.0
 30
0.0
  0
VERTEX
  5
DF227
  8
0
 10
4012.685974119231
 20
0.0
 30
0.0
  0
VERTEX
  5
DF228
  8
0
 10
4012.685974119231
 20
-987.6576470269353
 30
0.0
  0
VERTEX
  5
DF229
  8
0
 10
-4012.685974119231
 20
-987.6576470269353
 30
0.0
  0
SEQEND
  5
DF313
  8
0
  0
LINE
  5
DBF26
  8
0
 10
-1337.561991373077
 20
0.0
 30
0.0
 11
-1337.561991373077
 21
-987.6576470269353
 31
0.0
  0
LINE
  5
DBF27
  8
0
 10
1337.561991373077
 20
-299.9965549039189
 30
0.0
 11
1337.561991373077
 21
0.0
 31
0.0
  0
TEXT
  5
DBF28
  8
0
 10
2240.022522568668
 20
-208.9254166234015
 30
0.0
 40
125.0
  1
2022-06
  7
STILE1
 72
     1
 11
2674.918355902001
 21
-208.9254166234015
 31
0.0
  0
LINE
  5
DBF29
  8
0
 10
4012.685974119231
 20
0.0000000000002274
 30
0.0
 11
4012.685974119231
 21
-987.6576470269353
 31
0.0
  0
POLYLINE
  5
DBF2A
  8
0
 66
     1
 10
0.0
 20
0.0
 30
0.0
 70
     1
  0
VERTEX
  5
DF22A
  8
0
 10
-4012.685974119231
 20
554.0366420584437
 30
0.0
  0
VERTEX
  5
DF22B
  8
0
 10
4012.685974119231
 20
554.0366420584437
 30
0.0
  0
VERTEX
  5
DF22C
  8
0
 10
4012.685974119231
 20
5144.036642058443
 30
0.0
  0
VERTEX
  5
DF22D
  8
0
 10
-4012.685974119231
 20
5144.036642058443
 30
0.0
  0
SEQEND
  5
DF314
  8
0
  0
POLYLINE
  5
DBF38
  8
0
 66
     1
 10
0.0
 20
0.0
 30
0.0
 70
     1
  0
VERTEX
  5
DF22E
  8
0
 10
-4012.685974119231
 20
5698.073284116889
 30
0.0
  0
VERTEX
  5
DF22F
  8
0
 10
4012.685974119231
 20
5698.073284116889
 30
0.0
  0
VERTEX
  5
DF230
  8
0
 10
4012.685974119231
 20
8888.073284116886
 30
0.0
  0
VERTEX
  5
DF231
  8
0
 10
-4012.685974119231
 20
8888.073284116886
 30
0.0
  0
SEQEND
  5
DF315
  8
0
  0
POLYLINE
  5
DBF3D
  8
0
 66
     1
 10
0.0
 20
0.0
 30
0.0
 70
     1
  0
VERTEX
  5
DF232
  8
0
 10
-4012.685974119231
 20
9442.10992617533
 30
0.0
  0
VERTEX
  5
DF233
  8
0
 10
4012.685974119231
 20
9442.10992617533
 30
0.0
  0
VERTEX
  5
DF234
  8
0
 10
4012.685974119231
 20
12632.10992617533
 30
0.0
  0
VERTEX
  5
DF235
  8
0
 10
-4012.685974119231
 20
12632.10992617533
 30
0.0
  0
SEQEND
  5
DF316
  8
0
  0
VIEWPORT
  5
DAB74
 67
     1
  8
0
 10
0.0
 20
0.0
 30
0.0
 40
10.87270777479893
 41
8.16
 68
     1
 69
     1
1001
ACAD
1000
MVIEW
1002
{
1070
    16
1010
0.0
1020
0.0
1030
0.0
1010
0.0
1020
0.0
1030
1.0
1040
0.0
1040
8.16
1040
6.065999999999998
1040
3.851238605898123
1040
50.0
1040
0.0
1040
0.0
1070
    16
1070
   100
1070
     1
1070
     3
1070
     0
1070
     0
1070
     0
1070
     0
1040
0.0
1040
0.0
1040
0.0
1040
0.5
1040
0.5
1040
0.0
1040
0.0
1070
     0
1002
{
1002
}
1002
}
  0
VIEWPORT
  5
DAB75
 67
     1
  8
0
 10
5.25
 20
4.0
 30
0.0
 40
8.4
 41
6.4
 68
     2
 69
     2
1001
ACAD
1000
MVIEW
1002
{
1070
    16
1010
0.0
1020
0.0
1030
0.0
1010
0.0
1020
0.0
1030
1.0
1040
0.0
1040
12730.99251508979
1040
-238.8342129778575
1040
5240.682605436173
1040
50.0
1040
0.0
1040
0.0
1070
     0
1070
   100
1070
     1
1070
     3
1070
     0
1070
     0
1070
     0
1070
     0
1040
0.0
1040
0.0
1040
0.0
1040
0.5
1040
0.5
1040
0.0
1040
0.0
1070
     0
1002
{
1002
}
1002
}
  0
ENDSEC
  0
EOF
