  0
SECTION
  2
HEADER
  9
$ACADVER
  1
AC1009
  9
$DWGCODEPAGE
  3
ansi_1252
  9
$INSBASE
 10
0.0
 20
0.0
 30
0.0
  9
$EXTMIN
 10
-4012.685974119231
 20
-987.6576470269356
 30
0.0
  9
$EXTMAX
 10
6541.350667939212
 20
5514.036642058335
 30
0.0
  9
$LIMMIN
 10
0.0
 20
0.0
  9
$LIMMAX
 10
12.0
 20
9.0
  9
$ORTHOMODE
 70
     1
  9
$REGENMODE
 70
     1
  9
$FILLMODE
 70
     1
  9
$QTEXTMODE
 70
     0
  9
$MIRRTEXT
 70
     0
  9
$DRAGMODE
 70
     2
  9
$LTSCALE
 40
5.0
  9
$OSMODE
 70
 16383
  9
$ATTMODE
 70
     1
  9
$TEXTSIZE
 40
19.0
  9
$TRACEWID
 40
0.05
  9
$TEXTSTYLE
  7
STILE1
  9
$CLAYER
  8
0
  9
$CELTYPE
  6
BYLAYER
  9
$CECOLOR
 62
   256
  9
$DIMSCALE
 40
50.0
  9
$DIMASZ
 40
2.5
  9
$DIMEXO
 40
1.0
  9
$DIMDLI
 40
0.0
  9
$DIMRND
 40
0.0
  9
$DIMDLE
 40
0.0
  9
$DIMEXE
 40
1.0
  9
$DIMTP
 40
0.0
  9
$DIMTM
 40
0.0
  9
$DIMTXT
 40
2.5
  9
$DIMCEN
 40
1.0
  9
$DIMTSZ
 40
0.0
  9
$DIMTOL
 70
     0
  9
$DIMLIM
 70
     0
  9
$DIMTIH
 70
     0
  9
$DIMTOH
 70
     0
  9
$DIMSE1
 70
     0
  9
$DIMSE2
 70
     0
  9
$DIMTAD
 70
     1
  9
$DIMZIN
 70
     8
  9
$DIMBLK
  1

  9
$DIMASO
 70
     1
  9
$DIMSHO
 70
     0
  9
$DIMPOST
  1

  9
$DIMAPOST
  1

  9
$DIMALT
 70
     0
  9
$DIMALTD
 70
     2
  9
$DIMALTF
 40
25.4
  9
$DIMLFAC
 40
1.0
  9
$DIMTOFL
 70
     1
  9
$DIMTVP
 40
0.0
  9
$DIMTIX
 70
     1
  9
$DIMSOXD
 70
     0
  9
$DIMSAH
 70
     0
  9
$DIMBLK1
  1

  9
$DIMBLK2
  1

  9
$DIMSTYLE
  2
STANDARD
  9
$DIMCLRD
 70
     0
  9
$DIMCLRE
 70
     0
  9
$DIMCLRT
 70
     0
  9
$DIMTFAC
 40
1.0
  9
$DIMGAP
 40
1.5
  9
$LUNITS
 70
     2
  9
$LUPREC
 70
     4
  9
$SKETCHINC
 40
0.1
  9
$FILLETRAD
 40
20.0
  9
$AUNITS
 70
     0
  9
$AUPREC
 70
     0
  9
$MENU
  1
acad
  9
$ELEVATION
 40
0.0
  9
$PELEVATION
 40
0.0
  9
$THICKNESS
 40
0.0
  9
$LIMCHECK
 70
     0
  9
$CHAMFERA
 40
1200.0
  9
$CHAMFERB
 40
1200.0
  9
$SKPOLY
 70
     0
  9
$TDCREATE
 40
2450277.587641065
  9
$TDUPDATE
 40
2459749.654192199
  9
$TDINDWG
 40
26.3010669792
  9
$TDUSRTIMER
 40
0.0037892824
  9
$USRTIMER
 70
     1
  9
$ANGBASE
 50
0.0
  9
$ANGDIR
 70
     0
  9
$PDMODE
 70
     0
  9
$PDSIZE
 40
0.0
  9
$PLINEWID
 40
0.0
  9
$COORDS
 70
     1
  9
$SPLFRAME
 70
     0
  9
$SPLINETYPE
 70
     6
  9
$SPLINESEGS
 70
     8
  9
$ATTDIA
 70
     0
  9
$ATTREQ
 70
     1
  9
$HANDLING
 70
     1
  9
$HANDSEED
  5
DFFCF
  9
$SURFTAB1
 70
     6
  9
$SURFTAB2
 70
     6
  9
$SURFTYPE
 70
     6
  9
$SURFU
 70
     6
  9
$SURFV
 70
     6
  9
$UCSNAME
  2

  9
$UCSORG
 10
0.0
 20
0.0
 30
0.0
  9
$UCSXDIR
 10
1.0
 20
0.0
 30
0.0
  9
$UCSYDIR
 10
0.0
 20
1.0
 30
0.0
  9
$PUCSNAME
  2

  9
$PUCSORG
 10
0.0
 20
0.0
 30
0.0
  9
$PUCSXDIR
 10
1.0
 20
0.0
 30
0.0
  9
$PUCSYDIR
 10
0.0
 20
1.0
 30
0.0
  9
$USERI1
 70
     0
  9
$USERI2
 70
     0
  9
$USERI3
 70
     0
  9
$USERI4
 70
     0
  9
$USERI5
 70
     0
  9
$USERR1
 40
0.0
  9
$USERR2
 40
0.0
  9
$USERR3
 40
0.0
  9
$USERR4
 40
0.0
  9
$USERR5
 40
0.0
  9
$WORLDVIEW
 70
     1
  9
$SHADEDGE
 70
     3
  9
$SHADEDIF
 70
    70
  9
$TILEMODE
 70
     1
  9
$MAXACTVP
 70
    16
  9
$PLIMCHECK
 70
     0
  9
$PEXTMIN
 10
0.0
 20
0.0
 30
0.0
  9
$PEXTMAX
 10
0.0
 20
0.0
 30
0.0
  9
$PLIMMIN
 10
0.0
 20
0.0
  9
$PLIMMAX
 10
0.0
 20
0.0
  9
$UNITMODE
 70
     0
  9
$VISRETAIN
 70
     0
  9
$PLINEGEN
 70
     0
  9
$PSLTSCALE
 70
     1
  0
ENDSEC
  0
SECTION
  2
TABLES
  0
TABLE
  2
VPORT
 70
     1
  0
VPORT
  2
*ACTIVE
 70
     0
 10
0.0
 20
0.0
 11
1.0
 21
1.0
 12
1264.33234690999
 22
2263.1894975157
 13
0.0
 23
0.0
 14
1.0
 24
1.0
 15
0.0
 25
0.0
 16
0.0
 26
0.0
 36
1.0
 17
0.0
 27
0.0
 37
0.0
 40
6631.728174866975
 41
2.040114613180516
 42
50.0
 43
0.0
 44
0.0
 50
0.0
 51
0.0
 71
    16
 72
   100
 73
     1
 74
     1
 75
     0
 76
     1
 77
     0
 78
     0
  0
ENDTAB
  0
TABLE
  2
LTYPE
 70
     1
  0
LTYPE
  2
CONTINUOUS
 70
     0
  3
Solid line
 72
    65
 73
     0
 40
0.0
  0
ENDTAB
  0
TABLE
  2
LAYER
 70
     2
  0
LAYER
  2
0
 70
     0
 62
     7
  6
CONTINUOUS
  0
ENDTAB
  0
TABLE
  2
STYLE
 70
     3
  0
STYLE
  2
STANDARD
 70
     0
 40
0.0
 41
1.0
 50
0.0
 71
     0
 42
2.5
  3
txt
  4

  0
STYLE
  2
STILE1
 70
     0
 40
0.0
 41
1.0
 50
0.0
 71
     0
 42
19.0
  3
ROMANS.SHX
  4

  0
ENDTAB
  0
TABLE
  2
VIEW
 70
     0
  0
ENDTAB
  0
TABLE
  2
UCS
 70
     0
  0
ENDTAB
  0
TABLE
  2
APPID
 70
    42
  0
APPID
  2
ACAD
 70
     0
  0
APPID
  2
DCO15
 70
     0
  0
APPID
  2
ACAECLAYERSTANDARD
 70
     0
  0
APPID
  2
ACDBDYNAMICBLOCKGUID
 70
     0
  0
APPID
  2
ACDBBLOCKREPETAG
 70
     0
  0
APPID
  2
ACAD_PSEXT
 70
     0
  0
APPID
  2
ACAD_DSTYLE_DIMJAG
 70
     0
  0
APPID
  2
ACAD_DSTYLE_DIMTALN
 70
     0
  0
APPID
  2
ACAD_DSTYLE_DIMRADIAL_EXTE
 70
     0
  0
APPID
  2
RAK
 70
     0
  0
APPID
  2
ACLAYERTOOLS
 70
     0
  0
APPID
  2
REVIT
 70
     0
  0
APPID
  2
ACAD_MLEADERVER
 70
     0
  0
APPID
  2
ACAD_DSTYLE_DIMBREAK
 70
     0
  0
APPID
  2
ACCMTRANSPARENCY
 70
     0
  0
APPID
  2
ACAD_NAV_VCDISPLAY
 70
     0
  0
APPID
  2
GRADIENTCOLOR1ACI
 70
     0
  0
APPID
  2
GRADIENTCOLOR2ACI
 70
     0
  0
APPID
  2
PROGE_PRINT_SETTINGS
 70
     0
  0
APPID
  2
AA_WLPR
 70
     0
  0
APPID
  2
AA_WLENT
 70
     0
  0
APPID
  2
AA_WLTP
 70
     0
  0
APPID
  2
AA_WLBK
 70
     0
  0
APPID
  2
ACAD_DSTYLE_DIMJOGGED_JOGA
 70
     0
  0
APPID
  2
$DDT_AUDIT_GENERATED__2CAF
 70
     0
  0
APPID
  2
ACAD_DSTYLE_DIMEXT_LENGTH
 70
     0
  0
APPID
  2
ACAD_DSTYLE_DIMEXT_ENABLED
 70
     0
  0
APPID
  2
ACAD_DSTYLE_DIMJOGGED_JOG0
 70
     0
  0
APPID
  2
ACAD_DSTYLE_DIMARC_LENGTH_
 70
     0
  0
APPID
  2
C_AND_O
 70
     0
  0
APPID
  2
AVE_FINISH
 70
     0
  0
APPID
  2
AVE_RENDER
 70
     0
  0
APPID
  2
AVE_ENTITY_MATERIAL
 70
     0
  0
APPID
  2
AVE_MATERIAL
 70
     0
  0
APPID
  2
ADDC5$_$SETUP-
 70
     0
  0
APPID
  2
ADDC4$_$SETUP-
 70
     0
  0
APPID
  2
ADDC4$_$ARTSETUP-
 70
     0
  0
APPID
  2
GENIUS_GENODEF_13
 70
     0
  0
APPID
  2
GENIUS_GENOBJ-N-REC_13
 70
     0
  0
APPID
  2
GENIUS_GENREC_14
 70
     0
  0
APPID
  2
PE_URL
 70
     0
  0
APPID
  2
ACAD_DSTYLE_DIMRADIAL_EXT0
 70
     0
  0
ENDTAB
  0
TABLE
  2
DIMSTYLE
 70
     6
  0
DIMSTYLE
  2
STANDARD
 70
     0
  3

  4

  5

  6

  7

 40
1.0
 41
0.18
 42
0.0625
 43
0.38
 44
0.18
 45
0.0
 46
0.0
 47
0.0
 48
0.0
140
0.18
141
0.09
142
0.0
143
25.4
144
1.0
145
0.0
146
1.0
147
0.09
 71
     0
 72
     0
 73
     1
 74
     1
 75
     0
 76
     0
 77
     0
 78
     0
170
     0
171
     2
172
     0
173
     0
174
     0
175
     0
176
     0
177
     0
178
     0
  0
ENDTAB
  0
ENDSEC
  0
SECTION
  2
BLOCKS
  0
BLOCK
  8
0
  2
$MODEL_SPACE
 70
     0
 10
0.0
 20
0.0
 30
0.0
  3
$MODEL_SPACE
  1

  0
ENDBLK
  5
DEF0B
  8
0
  0
BLOCK
 67
     1
  8
0
  2
$PAPER_SPACE
 70
     0
 10
0.0
 20
0.0
 30
0.0
  3
$PAPER_SPACE
  1

  0
ENDBLK
  5
DEF07
 67
     1
  8
0
  0
ENDSEC
  0
SECTION
  2
ENTITIES
  0
TEXT
  5
DAB3C
  8
0
 10
-838.7791374978212
 20
-555.4096502962035
 30
0.0
 40
125.0
  1
Questo disegno è di proprietà di Fantin S.r.l.   
  7
STILE1
 72
     1
 11
1583.839910121226
 21
-555.4096502962035
 31
0.0
  0
TEXT
  5
DAB3D
  8
0
 10
-172.5803232177516
 20
-208.9254166234014
 30
0.0
 40
125.0
  1
Run
  7
STILE1
 72
     1
 11
3.107920829867452
 21
-208.9254166234014
 31
0.0
  0
POLYLINE
  5
DAB4C
  8
0
  6
CONTINUOUS
 66
     1
 10
0.0
 20
0.0
 30
0.0
  0
VERTEX
  5
DFE24
  8
0
  6
CONTINUOUS
 10
-2005.844421386719
 20
-687.6576470269355
 30
0.0
  0
VERTEX
  5
DFE25
  8
0
  6
CONTINUOUS
 10
-2005.844421386719
 20
-299.9965549039189
 30
0.0
  0
VERTEX
  5
DFE26
  8
0
  6
CONTINUOUS
 10
-1904.494879823178
 20
-299.9965549039189
 30
0.0
 42
-0.316444976687396
  0
VERTEX
  5
DFE27
  8
0
  6
CONTINUOUS
 10
-1853.547085234895
 20
-328.2411702477839
 30
0.0
  0
VERTEX
  5
DFE28
  8
0
  6
CONTINUOUS
 10
-1752.753926590085
 20
-498.2600775826719
 30
0.0
  0
VERTEX
  5
DFE29
  8
0
  6
CONTINUOUS
 10
-1749.985792371444
 20
-498.2600775826719
 30
0.0
  0
VERTEX
  5
DFE2A
  8
0
  6
CONTINUOUS
 10
-1749.985792371444
 20
-299.9965549039189
 30
0.0
  0
VERTEX
  5
DFE2B
  8
0
  6
CONTINUOUS
 10
-1637.561991373077
 20
-299.9965549039189
 30
0.0
  0
VERTEX
  5
DFE2C
  8
0
  6
CONTINUOUS
 10
-1637.561991373077
 20
-687.6576470269355
 30
0.0
  0
VERTEX
  5
DFE2D
  8
0
  6
CONTINUOUS
 10
-1720.084086097777
 20
-687.6576470269355
 30
0.0
 42
-0.312959769389874
  0
VERTEX
  5
DFE2E
  8
0
  6
CONTINUOUS
 10
-1771.031880690716
 20
-659.4147542316932
 30
0.0
  0
VERTEX
  5
DFE2F
  8
0
  6
CONTINUOUS
 10
-1890.652486160398
 20
-466.1380072694737
 30
0.0
  0
VERTEX
  5
DFE30
  8
0
  6
CONTINUOUS
 10
-1893.417175291106
 20
-466.1380072694737
 30
0.0
  0
VERTEX
  5
DFE31
  8
0
  6
CONTINUOUS
 10
-1893.417175291106
 20
-687.6576470269355
 30
0.0
  0
VERTEX
  5
DFE32
  8
0
  6
CONTINUOUS
 10
-2005.844421386719
 20
-687.6576470269355
 30
0.0
  0
SEQEND
  5
DFF8D
  8
0
  6
CONTINUOUS
  0
POLYLINE
  5
DAB4D
  8
0
  6
CONTINUOUS
 66
     1
 10
0.0
 20
0.0
 30
0.0
  0
VERTEX
  5
DFE33
  8
0
  6
CONTINUOUS
 10
-2982.206875272095
 20
-687.6576470269355
 30
0.0
  0
VERTEX
  5
DFE34
  8
0
  6
CONTINUOUS
 10
-2982.206875272095
 20
-299.9965549039189
 30
0.0
  0
VERTEX
  5
DFE35
  8
0
  6
CONTINUOUS
 10
-2880.857333708556
 20
-299.9965549039189
 30
0.0
 42
-0.316444976687396
  0
VERTEX
  5
DFE36
  8
0
  6
CONTINUOUS
 10
-2829.909539115615
 20
-328.2411702477839
 30
0.0
  0
VERTEX
  5
DFE37
  8
0
  6
CONTINUOUS
 10
-2729.116380475462
 20
-498.2600775826719
 30
0.0
  0
VERTEX
  5
DFE38
  8
0
  6
CONTINUOUS
 10
-2726.348246252165
 20
-498.2600775826719
 30
0.0
  0
VERTEX
  5
DFE39
  8
0
  6
CONTINUOUS
 10
-2726.348246252165
 20
-299.9965549039189
 30
0.0
  0
VERTEX
  5
DFE3A
  8
0
  6
CONTINUOUS
 10
-2613.924445258454
 20
-299.9965549039189
 30
0.0
  0
VERTEX
  5
DFE3B
  8
0
  6
CONTINUOUS
 10
-2613.924445258454
 20
-687.6576470269355
 30
0.0
  0
VERTEX
  5
DFE3C
  8
0
  6
CONTINUOUS
 10
-2696.446539983154
 20
-687.6576470269355
 30
0.0
 42
-0.312959769389874
  0
VERTEX
  5
DFE3D
  8
0
  6
CONTINUOUS
 10
-2747.39433458075
 20
-659.4147542316932
 30
0.0
  0
VERTEX
  5
DFE3E
  8
0
  6
CONTINUOUS
 10
-2867.014940045774
 20
-466.1380072694737
 30
0.0
  0
VERTEX
  5
DFE3F
  8
0
  6
CONTINUOUS
 10
-2869.779629176483
 20
-466.1380072694737
 30
0.0
  0
VERTEX
  5
DFE40
  8
0
  6
CONTINUOUS
 10
-2869.779629176483
 20
-687.6576470269355
 30
0.0
  0
VERTEX
  5
DFE41
  8
0
  6
CONTINUOUS
 10
-2982.206875272095
 20
-687.6576470269355
 30
0.0
  0
SEQEND
  5
DFF8E
  8
0
  6
CONTINUOUS
  0
POLYLINE
  5
DAB4E
  8
0
  6
CONTINUOUS
 66
     1
 10
0.0
 20
0.0
 30
0.0
  0
VERTEX
  5
DFE42
  8
0
  6
CONTINUOUS
 10
-2229.582702633925
 20
-299.9982774525415
 30
0.0
  0
VERTEX
  5
DFE43
  8
0
  6
CONTINUOUS
 10
-2229.582702633925
 20
-390.8213297522161
 30
0.0
  0
VERTEX
  5
DFE44
  8
0
  6
CONTINUOUS
 10
-2345.878790956922
 20
-390.8213297522161
 30
0.0
  0
VERTEX
  5
DFE45
  8
0
  6
CONTINUOUS
 10
-2345.878790956922
 20
-687.6576470269355
 30
0.0
  0
VERTEX
  5
DFE46
  8
0
  6
CONTINUOUS
 10
-2464.948181146756
 20
-687.6576470269355
 30
0.0
  0
VERTEX
  5
DFE47
  8
0
  6
CONTINUOUS
 10
-2464.948181146756
 20
-390.8213297522161
 30
0.0
  0
VERTEX
  5
DFE48
  8
0
  6
CONTINUOUS
 10
-2578.481302894652
 20
-390.8213297522161
 30
0.0
  0
VERTEX
  5
DFE49
  8
0
  6
CONTINUOUS
 10
-2578.481302894652
 20
-299.9982774525415
 30
0.0
  0
VERTEX
  5
DFE4A
  8
0
  6
CONTINUOUS
 10
-2229.582702633925
 20
-299.9982774525415
 30
0.0
  0
SEQEND
  5
DFF8F
  8
0
  6
CONTINUOUS
  0
POLYLINE
  5
DAB4F
  8
0
  6
CONTINUOUS
 66
     1
 10
0.0
 20
0.0
 30
0.0
 70
     1
  0
VERTEX
  5
DFE4B
  8
0
  6
CONTINUOUS
 10
-2192.47902425006
 20
-299.9982774525415
 30
0.0
  0
VERTEX
  5
DFE4C
  8
0
  6
CONTINUOUS
 10
-2073.409634060226
 20
-299.9982774525415
 30
0.0
  0
VERTEX
  5
DFE4D
  8
0
  6
CONTINUOUS
 10
-2073.409634060226
 20
-687.6576470269355
 30
0.0
  0
VERTEX
  5
DFE4E
  8
0
  6
CONTINUOUS
 10
-2192.47902425006
 20
-687.6576470269355
 30
0.0
  0
SEQEND
  5
DFF90
  8
0
  6
CONTINUOUS
  0
POLYLINE
  5
DAB50
  8
0
  6
CONTINUOUS
 66
     1
 10
0.0
 20
0.0
 30
0.0
  0
VERTEX
  5
DFE4F
  8
0
  6
CONTINUOUS
 10
-3407.540086535738
 20
-300.0
 30
0.0
  0
VERTEX
  5
DFE50
  8
0
  6
CONTINUOUS
 10
-3407.540086535738
 20
-389.1607937274967
 30
0.0
  0
VERTEX
  5
DFE51
  8
0
  6
CONTINUOUS
 10
-3593.616583929397
 20
-389.1607937274967
 30
0.0
  0
VERTEX
  5
DFE52
  8
0
  6
CONTINUOUS
 10
-3593.616583929397
 20
-466.1362847220151
 30
0.0
  0
VERTEX
  5
DFE53
  8
0
  6
CONTINUOUS
 10
-3463.47293430008
 20
-466.1362847220151
 30
0.0
  0
VERTEX
  5
DFE54
  8
0
  6
CONTINUOUS
 10
-3463.47293430008
 20
-549.2095947265625
 30
0.0
  0
VERTEX
  5
DFE55
  8
0
  6
CONTINUOUS
 10
-3593.616583929397
 20
-549.2095947265625
 30
0.0
  0
VERTEX
  5
DFE56
  8
0
  6
CONTINUOUS
 10
-3593.616583929397
 20
-687.6576470269355
 30
0.0
  0
VERTEX
  5
DFE57
  8
0
  6
CONTINUOUS
 10
-3712.685974119231
 20
-687.6576470269355
 30
0.0
  0
VERTEX
  5
DFE58
  8
0
  6
CONTINUOUS
 10
-3712.685974119231
 20
-300.0
 30
0.0
  0
VERTEX
  5
DFE59
  8
0
  6
CONTINUOUS
 10
-3407.540086535738
 20
-300.0
 30
0.0
  0
SEQEND
  5
DFF91
  8
0
  6
CONTINUOUS
  0
POLYLINE
  5
DAB51
  8
0
  6
CONTINUOUS
 66
     1
 10
0.0
 20
0.0
 30
0.0
  0
VERTEX
  5
DFE5A
  8
0
  6
CONTINUOUS
 10
-3221.454976396636
 20
-406.8789198133162
 30
0.0
  0
VERTEX
  5
DFE5B
  8
0
  6
CONTINUOUS
 10
-3188.227030434647
 20
-520.96670193132
 30
0.0
  0
VERTEX
  5
DFE5C
  8
0
  6
CONTINUOUS
 10
-3260.775573728607
 20
-520.96670193132
 30
0.0
  0
VERTEX
  5
DFE5D
  8
0
  6
CONTINUOUS
 10
-3227.547627761961
 20
-406.8789198133162
 30
0.0
  0
VERTEX
  5
DFE5E
  8
0
  6
CONTINUOUS
 10
-3221.454976396636
 20
-406.8789198133162
 30
0.0
  0
SEQEND
  5
DFF92
  8
0
  6
CONTINUOUS
  0
POLYLINE
  5
DAB52
  8
0
  6
CONTINUOUS
 66
     1
 10
0.0
 20
0.0
 30
0.0
 70
     1
  0
VERTEX
  5
DFE5F
  8
0
  6
CONTINUOUS
 10
-3164.963312949987
 20
-604.0348442923276
 30
0.0
  0
VERTEX
  5
DFE60
  8
0
  6
CONTINUOUS
 10
-3164.963312949987
 20
-604.0348442923276
 30
0.0
  0
VERTEX
  5
DFE61
  8
0
  6
CONTINUOUS
 10
-3140.60203043744
 20
-687.6576470269355
 30
0.0
  0
VERTEX
  5
DFE62
  8
0
  6
CONTINUOUS
 10
-3014.885328505188
 20
-687.6576470269355
 30
0.0
  0
VERTEX
  5
DFE63
  8
0
  6
CONTINUOUS
 10
-3132.294182670303
 20
-334.8833143443335
 30
0.0
 42
0.1089385125692126
  0
VERTEX
  5
DFE64
  8
0
  6
CONTINUOUS
 10
-3145.036042486318
 20
-307.2121766244527
 30
0.0
 42
0.1589313772246072
  0
VERTEX
  5
DFE65
  8
0
  6
CONTINUOUS
 10
-3157.031867676415
 20
-299.9273046676535
 30
0.0
 42
0.058673645385263
  0
VERTEX
  5
DFE66
  8
0
  6
CONTINUOUS
 10
-3173.277038573287
 20
-298.3360188803636
 30
0.0
  0
VERTEX
  5
DFE67
  8
0
  6
CONTINUOUS
 10
-3173.277038573287
 20
-298.3360188803636
 30
0.0
  0
VERTEX
  5
DFE68
  8
0
  6
CONTINUOUS
 10
-3268.525316026062
 20
-298.3360188803636
 30
0.0
 42
0.058673645385263
  0
VERTEX
  5
DFE69
  8
0
  6
CONTINUOUS
 10
-3284.770486922936
 20
-299.9273046676535
 30
0.0
 42
0.1589313772246072
  0
VERTEX
  5
DFE6A
  8
0
  6
CONTINUOUS
 10
-3296.766312113032
 20
-307.2121766244527
 30
0.0
 42
0.1089385125692126
  0
VERTEX
  5
DFE6B
  8
0
  6
CONTINUOUS
 10
-3309.508171929046
 20
-334.8833143443335
 30
0.0
  0
VERTEX
  5
DFE6C
  8
0
  6
CONTINUOUS
 10
-3426.917026089505
 20
-687.6576470269355
 30
0.0
  0
VERTEX
  5
DFE6D
  8
0
  6
CONTINUOUS
 10
-3307.851080996916
 20
-687.6576470269355
 30
0.0
  0
VERTEX
  5
DFE6E
  8
0
  6
CONTINUOUS
 10
-3284.038581000641
 20
-604.0348442923276
 30
0.0
  0
SEQEND
  5
DFF93
  8
0
  6
CONTINUOUS
  0
TEXT
  5
DBD1C
  8
0
 10
-527.8452372835668
 20
-817.4938565844182
 30
0.0
 40
125.0
  1
This drawing is property of Fantin S.r.l. 
  7
STILE1
 72
     1
 11
1487.035715097386
 21
-817.4938565844182
 31
0.0
  0
POLYLINE
  5
DBD35
  8
0
 66
     1
 10
0.0
 20
0.0
 30
0.0
  0
VERTEX
  5
DFE6F
  8
0
 10
-1337.561991373077
 20
-299.9965549039189
 30
0.0
  0
VERTEX
  5
DFE70
  8
0
 10
4012.685974119231
 20
-299.9965549039186
 30
0.0
  0
SEQEND
  5
DFF94
  8
0
  0
POLYLINE
  5
DBD3D
  8
0
 66
     1
 10
0.0
 20
0.0
 30
0.0
 70
     1
  0
VERTEX
  5
DFE71
  8
0
 10
-4012.685974119231
 20
0.0
 30
0.0
  0
VERTEX
  5
DFE72
  8
0
 10
4012.685974119231
 20
0.0
 30
0.0
  0
VERTEX
  5
DFE73
  8
0
 10
4012.685974119231
 20
-987.6576470269353
 30
0.0
  0
VERTEX
  5
DFE74
  8
0
 10
-4012.685974119231
 20
-987.6576470269353
 30
0.0
  0
SEQEND
  5
DFF95
  8
0
  0
LINE
  5
DBD3E
  8
0
 10
-1337.561991373077
 20
0.0
 30
0.0
 11
-1337.561991373077
 21
-987.6576470269353
 31
0.0
  0
LINE
  5
DBD3F
  8
0
 10
1337.561991373077
 20
-299.9965549039188
 30
0.0
 11
1337.561991373077
 21
0.0000000000000284
 31
0.0
  0
TEXT
  5
DBD40
  8
0
 10
2240.022522568668
 20
-208.9254166234015
 30
0.0
 40
125.0
  1
2022-06
  7
STILE1
 72
     1
 11
2674.918355902001
 21
-208.9254166234015
 31
0.0
  0
LINE
  5
DBD42
  8
0
 10
4012.685974119231
 20
0.0000000000002274
 30
0.0
 11
4012.685974119231
 21
-987.6576470269353
 31
0.0
  0
POLYLINE
  5
DE552
  8
0
 66
     1
 10
0.0
 20
0.0
 30
0.0
 70
     1
  0
VERTEX
  5
DFE75
  8
0
 10
-2645.984305365126
 20
1154.036642058442
 30
0.0
  0
VERTEX
  5
DFE76
  8
0
 10
-3395.984305365125
 20
1154.036642058442
 30
0.0
  0
VERTEX
  5
DFE77
  8
0
 10
-3395.984305365125
 20
1654.036642058442
 30
0.0
  0
VERTEX
  5
DFE78
  8
0
 10
-2645.984305365126
 20
1654.036642058442
 30
0.0
  0
SEQEND
  5
DFF96
  8
0
  0
POLYLINE
  5
DE55D
  8
0
 66
     1
 10
0.0
 20
0.0
 30
0.0
 70
     1
  0
VERTEX
  5
DFE79
  8
0
 10
-3493.484305365126
 20
3064.036642058441
 30
0.0
  0
VERTEX
  5
DFE7A
  8
0
 10
-3395.984305365125
 20
3064.036642058441
 30
0.0
  0
VERTEX
  5
DFE7B
  8
0
 10
-3395.984305365125
 20
3039.036642058441
 30
0.0
  0
VERTEX
  5
DFE7C
  8
0
 10
-3493.484305365126
 20
3039.036642058441
 30
0.0
 42
-0.9999999999999998
  0
SEQEND
  5
DFF97
  8
0
  0
POLYLINE
  5
DE55E
  8
0
 66
     1
 10
0.0
 20
0.0
 30
0.0
 70
     1
  0
VERTEX
  5
DFE7D
  8
0
 10
-3395.984305365125
 20
1179.036642058442
 30
0.0
  0
VERTEX
  5
DFE7E
  8
0
 10
-3425.984305365126
 20
1179.036642058442
 30
0.0
 42
-0.4142135623730951
  0
VERTEX
  5
DFE7F
  8
0
 10
-3480.984305365126
 20
1234.036642058442
 30
0.0
  0
VERTEX
  5
DFE80
  8
0
 10
-3480.984305365126
 20
1574.036642058442
 30
0.0
 42
-0.4142135623730951
  0
VERTEX
  5
DFE81
  8
0
 10
-3425.984305365126
 20
1629.036642058442
 30
0.0
  0
VERTEX
  5
DFE82
  8
0
 10
-3395.984305365125
 20
1629.036642058442
 30
0.0
  0
VERTEX
  5
DFE83
  8
0
 10
-3395.984305365125
 20
1654.036642058442
 30
0.0
  0
VERTEX
  5
DFE84
  8
0
 10
-3425.984305365126
 20
1654.036642058442
 30
0.0
 42
0.4142135623730951
  0
VERTEX
  5
DFE85
  8
0
 10
-3505.984305365126
 20
1574.036642058442
 30
0.0
  0
VERTEX
  5
DFE86
  8
0
 10
-3505.984305365126
 20
1234.036642058442
 30
0.0
 42
0.4142135623730951
  0
VERTEX
  5
DFE87
  8
0
 10
-3425.984305365126
 20
1154.036642058442
 30
0.0
  0
VERTEX
  5
DFE88
  8
0
 10
-3395.984305365125
 20
1154.036642058442
 30
0.0
  0
SEQEND
  5
DFF98
  8
0
  0
POLYLINE
  5
DE55F
  8
0
 66
     1
 10
0.0
 20
0.0
 30
0.0
 70
     1
  0
VERTEX
  5
DFE89
  8
0
 10
-2645.984305365126
 20
1179.036642058442
 30
0.0
  0
VERTEX
  5
DFE8A
  8
0
 10
-2615.984305365126
 20
1179.036642058442
 30
0.0
 42
0.4142135623730951
  0
VERTEX
  5
DFE8B
  8
0
 10
-2560.984305365126
 20
1234.036642058442
 30
0.0
  0
VERTEX
  5
DFE8C
  8
0
 10
-2560.984305365242
 20
1574.036642058442
 30
0.0
 42
0.4142135623730951
  0
VERTEX
  5
DFE8D
  8
0
 10
-2615.984305365126
 20
1629.036642058442
 30
0.0
  0
VERTEX
  5
DFE8E
  8
0
 10
-2645.984305365126
 20
1629.036642058442
 30
0.0
  0
VERTEX
  5
DFE8F
  8
0
 10
-2645.984305365126
 20
1654.036642058442
 30
0.0
  0
VERTEX
  5
DFE90
  8
0
 10
-2615.984305365126
 20
1654.036642058442
 30
0.0
 42
-0.4142135623730951
  0
VERTEX
  5
DFE91
  8
0
 10
-2535.984305365242
 20
1574.036642058442
 30
0.0
  0
VERTEX
  5
DFE92
  8
0
 10
-2535.984305365126
 20
1234.036642058442
 30
0.0
 42
-0.4142135623730951
  0
VERTEX
  5
DFE93
  8
0
 10
-2615.984305365126
 20
1154.036642058442
 30
0.0
  0
VERTEX
  5
DFE94
  8
0
 10
-2645.984305365126
 20
1154.036642058442
 30
0.0
  0
SEQEND
  5
DFF99
  8
0
  0
POLYLINE
  5
DE560
  8
0
 66
     1
 10
0.0
 20
0.0
 30
0.0
 70
     1
  0
VERTEX
  5
DFE95
  8
0
 10
-2548.484305365124
 20
3064.036642058356
 30
0.0
  0
VERTEX
  5
DFE96
  8
0
 10
-2645.984305365126
 20
3064.036642058356
 30
0.0
  0
VERTEX
  5
DFE97
  8
0
 10
-2645.984305365126
 20
3039.036642058355
 30
0.0
  0
VERTEX
  5
DFE98
  8
0
 10
-2548.484305365124
 20
3039.036642058355
 30
0.0
 42
0.9999999999999998
  0
SEQEND
  5
DFF9A
  8
0
  0
POLYLINE
  5
DE9F3
  8
0
 66
     1
 10
0.0
 20
0.0
 30
0.0
 70
     1
  0
VERTEX
  5
DFE99
  8
0
 10
-4012.68597411923
 20
5514.036642058335
 30
0.0
  0
VERTEX
  5
DFE9A
  8
0
 10
6541.350667939211
 20
5514.036642058335
 30
0.0
  0
VERTEX
  5
DFE9B
  8
0
 10
6541.35066793921
 20
554.0366420584423
 30
0.0
  0
VERTEX
  5
DFE9C
  8
0
 10
-4012.685974119231
 20
554.0366420584423
 30
0.0
  0
SEQEND
  5
DFF9B
  8
0
  0
POLYLINE
  5
DEA00
  8
0
 66
     1
 10
0.0
 20
0.0
 30
0.0
 70
     1
  0
VERTEX
  5
DFE9D
  8
0
 10
2420.850667939209
 20
2254.036642058355
 30
0.0
  0
VERTEX
  5
DFE9E
  8
0
 10
2420.850667939209
 20
2334.03664205824
 30
0.0
  0
VERTEX
  5
DFE9F
  8
0
 10
2400.85066793921
 20
2334.03664205824
 30
0.0
  0
VERTEX
  5
DFEA0
  8
0
 10
2400.85066793921
 20
2254.036642058355
 30
0.0
  0
SEQEND
  5
DFF9C
  8
0
  0
POLYLINE
  5
DEA01
  8
0
 66
     1
 10
0.0
 20
0.0
 30
0.0
 70
     1
  0
VERTEX
  5
DFEA1
  8
0
 10
2423.850667939208
 20
2284.555786075094
 30
0.0
  0
VERTEX
  5
DFEA2
  8
0
 10
2425.85066793921
 20
2284.555786075094
 30
0.0
  0
VERTEX
  5
DFEA3
  8
0
 10
2425.85066793921
 20
2359.036642058327
 30
0.0
  0
VERTEX
  5
DFEA4
  8
0
 10
2395.850667939209
 20
2359.036642058327
 30
0.0
  0
VERTEX
  5
DFEA5
  8
0
 10
2395.850667939209
 20
2284.555786075094
 30
0.0
  0
VERTEX
  5
DFEA6
  8
0
 10
2397.850667939209
 20
2284.555786075094
 30
0.0
  0
VERTEX
  5
DFEA7
  8
0
 10
2397.850667939209
 20
2337.036642058239
 30
0.0
  0
VERTEX
  5
DFEA8
  8
0
 10
2423.850667939208
 20
2337.036642058239
 30
0.0
  0
SEQEND
  5
DFF9D
  8
0
  0
POLYLINE
  5
DEA02
  8
0
 66
     1
 10
0.0
 20
0.0
 30
0.0
 70
     1
  0
VERTEX
  5
DFEA9
  8
0
 10
2418.353036973432
 20
2359.036642058327
 30
0.0
  0
VERTEX
  5
DFEAA
  8
0
 10
2418.353036973432
 20
2364.036642058269
 30
0.0
  0
VERTEX
  5
DFEAB
  8
0
 10
2403.348298905106
 20
2364.036642058269
 30
0.0
  0
VERTEX
  5
DFEAC
  8
0
 10
2403.348298905106
 20
2359.036642058327
 30
0.0
  0
SEQEND
  5
DFF9E
  8
0
  0
POLYLINE
  5
DEA03
  8
0
 66
     1
 10
0.0
 20
0.0
 30
0.0
 70
     1
  0
VERTEX
  5
DFEAD
  8
0
 10
2798.348298904989
 20
2359.036642058327
 30
0.0
  0
VERTEX
  5
DFEAE
  8
0
 10
2798.348298904989
 20
2364.036642058355
 30
0.0
  0
VERTEX
  5
DFEAF
  8
0
 10
2813.353036973314
 20
2364.036642058355
 30
0.0
  0
VERTEX
  5
DFEB0
  8
0
 10
2813.353036973314
 20
2359.036642058327
 30
0.0
  0
SEQEND
  5
DFF9F
  8
0
  0
POLYLINE
  5
DEA04
  8
0
 66
     1
 10
0.0
 20
0.0
 30
0.0
 70
     1
  0
VERTEX
  5
DFEB1
  8
0
 10
2792.850667939209
 20
2284.555786075094
 30
0.0
  0
VERTEX
  5
DFEB2
  8
0
 10
2790.850667939209
 20
2284.555786075094
 30
0.0
  0
VERTEX
  5
DFEB3
  8
0
 10
2790.850667939209
 20
2359.036642058327
 30
0.0
  0
VERTEX
  5
DFEB4
  8
0
 10
2820.85066793921
 20
2359.036642058327
 30
0.0
  0
VERTEX
  5
DFEB5
  8
0
 10
2820.85066793921
 20
2284.555786075094
 30
0.0
  0
VERTEX
  5
DFEB6
  8
0
 10
2818.85066793921
 20
2284.555786075094
 30
0.0
  0
VERTEX
  5
DFEB7
  8
0
 10
2818.85066793921
 20
2337.036642058325
 30
0.0
  0
VERTEX
  5
DFEB8
  8
0
 10
2792.850667939209
 20
2337.036642058325
 30
0.0
  0
SEQEND
  5
DFFA0
  8
0
  0
POLYLINE
  5
DEA05
  8
0
 66
     1
 10
0.0
 20
0.0
 30
0.0
 70
     1
  0
VERTEX
  5
DFEB9
  8
0
 10
2795.850667939209
 20
2254.036642058441
 30
0.0
  0
VERTEX
  5
DFEBA
  8
0
 10
2795.850667939209
 20
2334.036642058325
 30
0.0
  0
VERTEX
  5
DFEBB
  8
0
 10
2815.850667939209
 20
2334.036642058325
 30
0.0
  0
VERTEX
  5
DFEBC
  8
0
 10
2815.850667939209
 20
2254.036642058441
 30
0.0
  0
SEQEND
  5
DFFA1
  8
0
  0
POLYLINE
  5
DEA06
  8
0
 66
     1
 10
0.0
 20
0.0
 30
0.0
 70
     1
  0
VERTEX
  5
DFEBD
  8
0
 10
2370.85066793921
 20
3039.036642058398
 30
0.0
 42
-0.9999999999999998
  0
VERTEX
  5
DFEBE
  8
0
 10
2370.85066793921
 20
3064.036642058398
 30
0.0
  0
VERTEX
  5
DFEBF
  8
0
 10
2845.85066793921
 20
3064.036642058442
 30
0.0
 42
-0.9999999999999998
  0
VERTEX
  5
DFEC0
  8
0
 10
2845.85066793921
 20
3039.036642058442
 30
0.0
  0
SEQEND
  5
DFFA2
  8
0
  0
CIRCLE
  5
DEA07
  8
0
 10
2358.350667939209
 20
3051.536642058442
 30
0.0
 40
0.0
  0
CIRCLE
  5
DEA08
  8
0
 10
2358.350667939209
 20
3051.536642058442
 30
0.0
 40
0.0
  0
POLYLINE
  5
DEA0A
  8
0
 66
     1
 10
0.0
 20
0.0
 30
0.0
 70
     1
  0
VERTEX
  5
DFEC1
  8
0
 10
364.8667615681188
 20
1179.036642058442
 30
0.0
  0
VERTEX
  5
DFEC2
  8
0
 10
394.8667615681206
 20
1179.036642058442
 30
0.0
 42
0.4142135623730951
  0
VERTEX
  5
DFEC3
  8
0
 10
449.8667615681188
 20
1234.036642058442
 30
0.0
  0
VERTEX
  5
DFEC4
  8
0
 10
449.8667615680041
 20
1574.036642058442
 30
0.0
 42
0.4142135623730951
  0
VERTEX
  5
DFEC5
  8
0
 10
394.8667615681206
 20
1629.036642058442
 30
0.0
  0
VERTEX
  5
DFEC6
  8
0
 10
364.8667615681188
 20
1629.036642058442
 30
0.0
  0
VERTEX
  5
DFEC7
  8
0
 10
364.8667615681188
 20
1654.036642058442
 30
0.0
  0
VERTEX
  5
DFEC8
  8
0
 10
394.8667615681206
 20
1654.036642058442
 30
0.0
 42
-0.4142135623730951
  0
VERTEX
  5
DFEC9
  8
0
 10
474.8667615680041
 20
1574.036642058442
 30
0.0
  0
VERTEX
  5
DFECA
  8
0
 10
474.8667615681188
 20
1234.036642058442
 30
0.0
 42
-0.4142135623730951
  0
VERTEX
  5
DFECB
  8
0
 10
394.8667615681206
 20
1154.036642058442
 30
0.0
  0
VERTEX
  5
DFECC
  8
0
 10
364.8667615681188
 20
1154.036642058442
 30
0.0
  0
SEQEND
  5
DFFA3
  8
0
  0
POLYLINE
  5
DEA0B
  8
0
 66
     1
 10
0.0
 20
0.0
 30
0.0
 70
     1
  0
VERTEX
  5
DFECD
  8
0
 10
-635.133238431881
 20
1179.036642058442
 30
0.0
  0
VERTEX
  5
DFECE
  8
0
 10
-665.1332384318813
 20
1179.036642058442
 30
0.0
 42
-0.4142135623730951
  0
VERTEX
  5
DFECF
  8
0
 10
-720.1332384318813
 20
1234.036642058442
 30
0.0
  0
VERTEX
  5
DFED0
  8
0
 10
-720.1332384318813
 20
1574.036642058442
 30
0.0
 42
-0.4142135623730951
  0
VERTEX
  5
DFED1
  8
0
 10
-665.1332384318813
 20
1629.036642058442
 30
0.0
  0
VERTEX
  5
DFED2
  8
0
 10
-635.133238431881
 20
1629.036642058442
 30
0.0
  0
VERTEX
  5
DFED3
  8
0
 10
-635.133238431881
 20
1654.036642058442
 30
0.0
  0
VERTEX
  5
DFED4
  8
0
 10
-665.1332384318813
 20
1654.036642058442
 30
0.0
 42
0.4142135623730951
  0
VERTEX
  5
DFED5
  8
0
 10
-745.1332384318813
 20
1574.036642058442
 30
0.0
  0
VERTEX
  5
DFED6
  8
0
 10
-745.1332384318813
 20
1234.036642058442
 30
0.0
 42
0.4142135623730951
  0
VERTEX
  5
DFED7
  8
0
 10
-665.1332384318813
 20
1154.036642058442
 30
0.0
  0
VERTEX
  5
DFED8
  8
0
 10
-635.133238431881
 20
1154.036642058442
 30
0.0
  0
SEQEND
  5
DFFA4
  8
0
  0
POLYLINE
  5
DEA17
  8
0
 66
     1
 10
0.0
 20
0.0
 30
0.0
 70
     1
  0
VERTEX
  5
DFED9
  8
0
 10
364.8667615681188
 20
1154.036642058442
 30
0.0
  0
VERTEX
  5
DFEDA
  8
0
 10
-635.133238431881
 20
1154.036642058442
 30
0.0
  0
VERTEX
  5
DFEDB
  8
0
 10
-635.133238431881
 20
1654.036642058442
 30
0.0
  0
VERTEX
  5
DFEDC
  8
0
 10
364.8667615681188
 20
1654.036642058442
 30
0.0
  0
SEQEND
  5
DFFA5
  8
0
  0
POLYLINE
  5
DF8CF
  8
0
 66
     1
 10
0.0
 20
0.0
 30
0.0
 70
     1
  0
VERTEX
  5
DFEDD
  8
0
 10
-3395.984305365125
 20
3064.036642058441
 30
0.0
  0
VERTEX
  5
DFEDE
  8
0
 10
-3395.984305365125
 20
2364.036642058441
 30
0.0
  0
VERTEX
  5
DFEDF
  8
0
 10
-2645.984305365126
 20
2364.036642058441
 30
0.0
  0
VERTEX
  5
DFEE0
  8
0
 10
-2645.984305365126
 20
3064.036642058441
 30
0.0
  0
SEQEND
  5
DFFA6
  8
0
  0
POLYLINE
  5
DF8D0
  8
0
 66
     1
 10
0.0
 20
0.0
 30
0.0
 70
     1
  0
VERTEX
  5
DFEE1
  8
0
 10
-2675.984305365124
 20
2394.036642058441
 30
0.0
  0
VERTEX
  5
DFEE2
  8
0
 10
-2675.984305365124
 20
3039.036642058441
 30
0.0
  0
VERTEX
  5
DFEE3
  8
0
 10
-3365.984305365126
 20
3039.036642058441
 30
0.0
  0
VERTEX
  5
DFEE4
  8
0
 10
-3365.984305365126
 20
2394.036642058441
 30
0.0
  0
SEQEND
  5
DFFA7
  8
0
  0
POLYLINE
  5
DF8E1
  8
0
 66
     1
 10
0.0
 20
0.0
 30
0.0
 70
     1
  0
VERTEX
  5
DFEE5
  8
0
 10
-732.6332384318807
 20
3064.036642058441
 30
0.0
  0
VERTEX
  5
DFEE6
  8
0
 10
-635.1332384318794
 20
3064.036642058441
 30
0.0
  0
VERTEX
  5
DFEE7
  8
0
 10
-635.1332384318794
 20
3039.036642058441
 30
0.0
  0
VERTEX
  5
DFEE8
  8
0
 10
-732.6332384318807
 20
3039.036642058441
 30
0.0
 42
-0.9999999999999998
  0
SEQEND
  5
DFFA8
  8
0
  0
POLYLINE
  5
DF8E2
  8
0
 66
     1
 10
0.0
 20
0.0
 30
0.0
 70
     1
  0
VERTEX
  5
DFEE9
  8
0
 10
462.3667615681215
 20
3064.036642058356
 30
0.0
  0
VERTEX
  5
DFEEA
  8
0
 10
364.8667615681193
 20
3064.036642058356
 30
0.0
  0
VERTEX
  5
DFEEB
  8
0
 10
364.8667615681193
 20
3039.036642058355
 30
0.0
  0
VERTEX
  5
DFEEC
  8
0
 10
462.3667615681215
 20
3039.036642058355
 30
0.0
 42
0.9999999999999998
  0
SEQEND
  5
DFFA9
  8
0
  0
POLYLINE
  5
DF8ED
  8
0
 66
     1
 10
0.0
 20
0.0
 30
0.0
 70
     1
  0
VERTEX
  5
DFEED
  8
0
 10
-635.1332384318794
 20
3064.036642058441
 30
0.0
  0
VERTEX
  5
DFEEE
  8
0
 10
-635.1332384318794
 20
2364.036642058441
 30
0.0
  0
VERTEX
  5
DFEEF
  8
0
 10
364.8667615681193
 20
2364.036642058441
 30
0.0
  0
VERTEX
  5
DFEF0
  8
0
 10
364.8667615681193
 20
3064.036642058441
 30
0.0
  0
SEQEND
  5
DFFAA
  8
0
  0
POLYLINE
  5
DF8EE
  8
0
 66
     1
 10
0.0
 20
0.0
 30
0.0
 70
     1
  0
VERTEX
  5
DFEF1
  8
0
 10
334.8667615681215
 20
2394.036642058441
 30
0.0
  0
VERTEX
  5
DFEF2
  8
0
 10
334.8667615681215
 20
3039.036642058441
 30
0.0
  0
VERTEX
  5
DFEF3
  8
0
 10
-605.1332384318807
 20
3039.036642058441
 30
0.0
  0
VERTEX
  5
DFEF4
  8
0
 10
-605.1332384318807
 20
2394.036642058441
 30
0.0
  0
SEQEND
  5
DFFAB
  8
0
  0
POLYLINE
  5
DF8F0
  8
0
 66
     1
 10
0.0
 20
0.0
 30
0.0
 70
     1
  0
VERTEX
  5
DFEF5
  8
0
 10
2358.350667939209
 20
3064.036642058442
 30
0.0
  0
VERTEX
  5
DFEF6
  8
0
 10
2358.350667939209
 20
2364.036642058527
 30
0.0
  0
VERTEX
  5
DFEF7
  8
0
 10
2858.350667939209
 20
2364.036642058527
 30
0.0
  0
VERTEX
  5
DFEF8
  8
0
 10
2858.350667939209
 20
3064.036642058442
 30
0.0
  0
SEQEND
  5
DFFAC
  8
0
  0
POLYLINE
  5
DF8F3
  8
0
 66
     1
 10
0.0
 20
0.0
 30
0.0
 70
     1
  0
VERTEX
  5
DFEF9
  8
0
 10
2388.35066793921
 20
3034.036642058441
 30
0.0
  0
VERTEX
  5
DFEFA
  8
0
 10
2388.35066793921
 20
2394.036642058441
 30
0.0
  0
VERTEX
  5
DFEFB
  8
0
 10
2828.35066793921
 20
2394.036642058441
 30
0.0
  0
VERTEX
  5
DFEFC
  8
0
 10
2828.35066793921
 20
3034.036642058441
 30
0.0
  0
SEQEND
  5
DFFAD
  8
0
  0
POLYLINE
  5
DF906
  8
0
 66
     1
 10
0.0
 20
0.0
 30
0.0
 70
     1
  0
VERTEX
  5
DFEFD
  8
0
 10
-3493.484305365126
 20
4474.03664205844
 30
0.0
  0
VERTEX
  5
DFEFE
  8
0
 10
-3395.984305365125
 20
4474.03664205844
 30
0.0
  0
VERTEX
  5
DFEFF
  8
0
 10
-3395.984305365125
 20
4449.03664205844
 30
0.0
  0
VERTEX
  5
DFF00
  8
0
 10
-3493.484305365126
 20
4449.03664205844
 30
0.0
 42
-0.9999999999999998
  0
SEQEND
  5
DFFAE
  8
0
  0
POLYLINE
  5
DF907
  8
0
 66
     1
 10
0.0
 20
0.0
 30
0.0
 70
     1
  0
VERTEX
  5
DFF01
  8
0
 10
-2548.484305365124
 20
4474.036642058355
 30
0.0
  0
VERTEX
  5
DFF02
  8
0
 10
-2645.984305365126
 20
4474.036642058355
 30
0.0
  0
VERTEX
  5
DFF03
  8
0
 10
-2645.984305365126
 20
4449.036642058354
 30
0.0
  0
VERTEX
  5
DFF04
  8
0
 10
-2548.484305365124
 20
4449.036642058354
 30
0.0
 42
0.9999999999999998
  0
SEQEND
  5
DFFAF
  8
0
  0
POLYLINE
  5
DF918
  8
0
 66
     1
 10
0.0
 20
0.0
 30
0.0
 70
     1
  0
VERTEX
  5
DFF05
  8
0
 10
2370.85066793921
 20
4449.036642058397
 30
0.0
 42
-0.9999999999999998
  0
VERTEX
  5
DFF06
  8
0
 10
2370.85066793921
 20
4474.036642058397
 30
0.0
  0
VERTEX
  5
DFF07
  8
0
 10
2845.85066793921
 20
4474.036642058441
 30
0.0
 42
-0.9999999999999998
  0
VERTEX
  5
DFF08
  8
0
 10
2845.85066793921
 20
4449.036642058441
 30
0.0
  0
SEQEND
  5
DFFB0
  8
0
  0
CIRCLE
  5
DF919
  8
0
 10
2358.350667939209
 20
4461.536642058441
 30
0.0
 40
0.0
  0
CIRCLE
  5
DF91A
  8
0
 10
2358.350667939209
 20
4461.536642058441
 30
0.0
 40
0.0
  0
POLYLINE
  5
DF91B
  8
0
 66
     1
 10
0.0
 20
0.0
 30
0.0
 70
     1
  0
VERTEX
  5
DFF09
  8
0
 10
-3395.984305365125
 20
4474.03664205844
 30
0.0
  0
VERTEX
  5
DFF0A
  8
0
 10
-3395.984305365125
 20
3774.03664205844
 30
0.0
  0
VERTEX
  5
DFF0B
  8
0
 10
-2645.984305365126
 20
3774.03664205844
 30
0.0
  0
VERTEX
  5
DFF0C
  8
0
 10
-2645.984305365126
 20
4474.03664205844
 30
0.0
  0
SEQEND
  5
DFFB1
  8
0
  0
POLYLINE
  5
DF91C
  8
0
 66
     1
 10
0.0
 20
0.0
 30
0.0
 70
     1
  0
VERTEX
  5
DFF0D
  8
0
 10
-2675.984305365124
 20
3804.03664205844
 30
0.0
  0
VERTEX
  5
DFF0E
  8
0
 10
-2675.984305365124
 20
4449.03664205844
 30
0.0
  0
VERTEX
  5
DFF0F
  8
0
 10
-3365.984305365126
 20
4449.03664205844
 30
0.0
  0
VERTEX
  5
DFF10
  8
0
 10
-3365.984305365126
 20
3804.03664205844
 30
0.0
  0
SEQEND
  5
DFFB2
  8
0
  0
POLYLINE
  5
DF91D
  8
0
 66
     1
 10
0.0
 20
0.0
 30
0.0
 70
     1
  0
VERTEX
  5
DFF11
  8
0
 10
-732.6332384318807
 20
4474.03664205844
 30
0.0
  0
VERTEX
  5
DFF12
  8
0
 10
-635.1332384318794
 20
4474.03664205844
 30
0.0
  0
VERTEX
  5
DFF13
  8
0
 10
-635.1332384318794
 20
4449.03664205844
 30
0.0
  0
VERTEX
  5
DFF14
  8
0
 10
-732.6332384318807
 20
4449.03664205844
 30
0.0
 42
-0.9999999999999998
  0
SEQEND
  5
DFFB3
  8
0
  0
POLYLINE
  5
DF91E
  8
0
 66
     1
 10
0.0
 20
0.0
 30
0.0
 70
     1
  0
VERTEX
  5
DFF15
  8
0
 10
462.3667615681215
 20
4474.036642058355
 30
0.0
  0
VERTEX
  5
DFF16
  8
0
 10
364.8667615681193
 20
4474.036642058355
 30
0.0
  0
VERTEX
  5
DFF17
  8
0
 10
364.8667615681193
 20
4449.036642058354
 30
0.0
  0
VERTEX
  5
DFF18
  8
0
 10
462.3667615681215
 20
4449.036642058354
 30
0.0
 42
0.9999999999999998
  0
SEQEND
  5
DFFB4
  8
0
  0
POLYLINE
  5
DF929
  8
0
 66
     1
 10
0.0
 20
0.0
 30
0.0
 70
     1
  0
VERTEX
  5
DFF19
  8
0
 10
-635.1332384318794
 20
4474.03664205844
 30
0.0
  0
VERTEX
  5
DFF1A
  8
0
 10
-635.1332384318794
 20
3774.03664205844
 30
0.0
  0
VERTEX
  5
DFF1B
  8
0
 10
364.8667615681193
 20
3774.036642058441
 30
0.0
  0
VERTEX
  5
DFF1C
  8
0
 10
364.8667615681193
 20
4474.036642058441
 30
0.0
  0
SEQEND
  5
DFFB5
  8
0
  0
POLYLINE
  5
DF92A
  8
0
 66
     1
 10
0.0
 20
0.0
 30
0.0
 70
     1
  0
VERTEX
  5
DFF1D
  8
0
 10
334.8667615681215
 20
3804.036642058441
 30
0.0
  0
VERTEX
  5
DFF1E
  8
0
 10
334.8667615681215
 20
4449.036642058441
 30
0.0
  0
VERTEX
  5
DFF1F
  8
0
 10
-605.1332384318807
 20
4449.03664205844
 30
0.0
  0
VERTEX
  5
DFF20
  8
0
 10
-605.1332384318807
 20
3804.03664205844
 30
0.0
  0
SEQEND
  5
DFFB6
  8
0
  0
POLYLINE
  5
DF92B
  8
0
 66
     1
 10
0.0
 20
0.0
 30
0.0
 70
     1
  0
VERTEX
  5
DFF21
  8
0
 10
2358.350667939209
 20
4474.036642058441
 30
0.0
  0
VERTEX
  5
DFF22
  8
0
 10
2358.350667939209
 20
3774.036642058526
 30
0.0
  0
VERTEX
  5
DFF23
  8
0
 10
2858.350667939209
 20
3774.036642058526
 30
0.0
  0
VERTEX
  5
DFF24
  8
0
 10
2858.350667939209
 20
4474.036642058441
 30
0.0
  0
SEQEND
  5
DFFB7
  8
0
  0
POLYLINE
  5
DF92C
  8
0
 66
     1
 10
0.0
 20
0.0
 30
0.0
 70
     1
  0
VERTEX
  5
DFF25
  8
0
 10
2388.35066793921
 20
4444.03664205844
 30
0.0
  0
VERTEX
  5
DFF26
  8
0
 10
2388.35066793921
 20
3804.036642058441
 30
0.0
  0
VERTEX
  5
DFF27
  8
0
 10
2828.35066793921
 20
3804.036642058441
 30
0.0
  0
VERTEX
  5
DFF28
  8
0
 10
2828.35066793921
 20
4444.03664205844
 30
0.0
  0
SEQEND
  5
DFFB8
  8
0
  0
POLYLINE
  5
DF968
  8
0
 66
     1
 10
0.0
 20
0.0
 30
0.0
1001
PE_URL
1000

  0
VERTEX
  5
DFF29
  8
0
 10
-3351.984305365067
 20
3750.652835150369
 30
0.0
  0
VERTEX
  5
DFF2A
  8
0
 10
-3351.984305365067
 20
3774.03664205844
 30
0.0
  0
VERTEX
  5
DFF2B
  8
0
 10
-3329.984305365067
 20
3774.03664205844
 30
0.0
  0
VERTEX
  5
DFF2C
  8
0
 10
-3329.984305365067
 20
3723.23386109183
 30
0.0
  0
SEQEND
  5
DFFB9
  8
0
  0
CIRCLE
  5
DF969
  8
0
 10
-3369.234305365067
 20
3714.286642058429
 30
0.0
 40
38.00000000000004
1001
PE_URL
1000

  0
LINE
  5
DF96A
  8
0
 10
-3354.631093806367
 20
3751.813890072829
 30
0.0
 11
-3354.629679760968
 21
3751.813394392331
 31
0.0
1001
PE_URL
1000

  0
CIRCLE
  5
DF96B
  8
0
 10
-3369.234305365067
 20
3714.286642058429
 30
0.0
 40
40.25
1001
PE_URL
1000

  0
POLYLINE
  5
DF96C
  8
0
 66
     1
 10
0.0
 20
0.0
 30
0.0
  0
VERTEX
  5
DFF2D
  8
0
 10
-3397.68330060291
 20
3742.759737604175
 30
0.0
  0
VERTEX
  5
DFF2E
  8
0
 10
-3397.68330060291
 20
3744.286642058429
 30
0.0
  0
VERTEX
  5
DFF2F
  8
0
 10
-3419.484305365067
 20
3744.286642058429
 30
0.0
  0
VERTEX
  5
DFF30
  8
0
 10
-3419.484305365067
 20
3739.286642058429
 30
0.0
  0
VERTEX
  5
DFF31
  8
0
 10
-3409.484305365067
 20
3739.286642058429
 30
0.0
  0
VERTEX
  5
DFF32
  8
0
 10
-3409.484305365067
 20
3724.286642058429
 30
0.0
  0
VERTEX
  5
DFF33
  8
0
 10
-3408.296771265638
 20
3723.99160253062
 30
0.0
  0
SEQEND
  5
DFFBA
  8
0
  0
POLYLINE
  5
DF96F
  8
0
 66
     1
 10
0.0
 20
0.0
 30
0.0
1001
PE_URL
1000

  0
VERTEX
  5
DFF34
  8
0
 10
-2711.984305365068
 20
3750.652835150284
 30
0.0
  0
VERTEX
  5
DFF35
  8
0
 10
-2711.984305365068
 20
3774.036642058354
 30
0.0
  0
VERTEX
  5
DFF36
  8
0
 10
-2689.984305365068
 20
3774.036642058354
 30
0.0
  0
VERTEX
  5
DFF37
  8
0
 10
-2689.984305365068
 20
3723.233861091745
 30
0.0
  0
SEQEND
  5
DFFBB
  8
0
  0
CIRCLE
  5
DF970
  8
0
 10
-2729.234305365068
 20
3714.286642058343
 30
0.0
 40
38.00000000000004
1001
PE_URL
1000

  0
LINE
  5
DF971
  8
0
 10
-2714.631093806368
 20
3751.813890072744
 30
0.0
 11
-2714.629679760969
 21
3751.813394392246
 31
0.0
1001
PE_URL
1000

  0
CIRCLE
  5
DF972
  8
0
 10
-2729.234305365068
 20
3714.286642058343
 30
0.0
 40
40.25
1001
PE_URL
1000

  0
POLYLINE
  5
DF973
  8
0
 66
     1
 10
0.0
 20
0.0
 30
0.0
  0
VERTEX
  5
DFF38
  8
0
 10
-2757.683300602911
 20
3742.759737604089
 30
0.0
  0
VERTEX
  5
DFF39
  8
0
 10
-2757.683300602911
 20
3744.286642058343
 30
0.0
  0
VERTEX
  5
DFF3A
  8
0
 10
-2779.484305365068
 20
3744.286642058343
 30
0.0
  0
VERTEX
  5
DFF3B
  8
0
 10
-2779.484305365068
 20
3739.286642058343
 30
0.0
  0
VERTEX
  5
DFF3C
  8
0
 10
-2769.484305365068
 20
3739.286642058343
 30
0.0
  0
VERTEX
  5
DFF3D
  8
0
 10
-2769.484305365068
 20
3724.286642058343
 30
0.0
  0
VERTEX
  5
DFF3E
  8
0
 10
-2768.296771265638
 20
3723.991602530535
 30
0.0
  0
SEQEND
  5
DFFBC
  8
0
  0
POLYLINE
  5
DF974
  8
0
 66
     1
 10
0.0
 20
0.0
 30
0.0
1001
PE_URL
1000

  0
VERTEX
  5
DFF3F
  8
0
 10
-591.1332384318221
 20
3750.652835150369
 30
0.0
  0
VERTEX
  5
DFF40
  8
0
 10
-591.1332384318221
 20
3774.03664205844
 30
0.0
  0
VERTEX
  5
DFF41
  8
0
 10
-569.1332384318221
 20
3774.03664205844
 30
0.0
  0
VERTEX
  5
DFF42
  8
0
 10
-569.1332384318221
 20
3723.23386109183
 30
0.0
  0
SEQEND
  5
DFFBD
  8
0
  0
CIRCLE
  5
DF975
  8
0
 10
-608.3832384318221
 20
3714.286642058429
 30
0.0
 40
38.00000000000004
1001
PE_URL
1000

  0
LINE
  5
DF976
  8
0
 10
-593.7800268731216
 20
3751.813890072829
 30
0.0
 11
-593.778612827723
 21
3751.813394392331
 31
0.0
1001
PE_URL
1000

  0
CIRCLE
  5
DF977
  8
0
 10
-608.3832384318221
 20
3714.286642058429
 30
0.0
 40
40.25
1001
PE_URL
1000

  0
POLYLINE
  5
DF978
  8
0
 66
     1
 10
0.0
 20
0.0
 30
0.0
  0
VERTEX
  5
DFF43
  8
0
 10
-636.8322336696647
 20
3742.759737604175
 30
0.0
  0
VERTEX
  5
DFF44
  8
0
 10
-636.8322336696647
 20
3744.286642058429
 30
0.0
  0
VERTEX
  5
DFF45
  8
0
 10
-658.6332384318221
 20
3744.286642058429
 30
0.0
  0
VERTEX
  5
DFF46
  8
0
 10
-658.6332384318221
 20
3739.286642058429
 30
0.0
  0
VERTEX
  5
DFF47
  8
0
 10
-648.6332384318221
 20
3739.286642058429
 30
0.0
  0
VERTEX
  5
DFF48
  8
0
 10
-648.6332384318221
 20
3724.286642058429
 30
0.0
  0
VERTEX
  5
DFF49
  8
0
 10
-647.4457043323923
 20
3723.99160253062
 30
0.0
  0
SEQEND
  5
DFFBE
  8
0
  0
POLYLINE
  5
DF979
  8
0
 66
     1
 10
0.0
 20
0.0
 30
0.0
1001
PE_URL
1000

  0
VERTEX
  5
DFF4A
  8
0
 10
298.8667615681775
 20
3750.652835150285
 30
0.0
  0
VERTEX
  5
DFF4B
  8
0
 10
298.8667615681775
 20
3774.036642058355
 30
0.0
  0
VERTEX
  5
DFF4C
  8
0
 10
320.8667615681775
 20
3774.036642058355
 30
0.0
  0
VERTEX
  5
DFF4D
  8
0
 10
320.8667615681775
 20
3723.233861091746
 30
0.0
  0
SEQEND
  5
DFFBF
  8
0
  0
CIRCLE
  5
DF97A
  8
0
 10
281.6167615681775
 20
3714.286642058344
 30
0.0
 40
38.00000000000004
1001
PE_URL
1000

  0
LINE
  5
DF97B
  8
0
 10
296.2199731268779
 20
3751.813890072744
 30
0.0
 11
296.2213871722765
 21
3751.813394392247
 31
0.0
1001
PE_URL
1000

  0
CIRCLE
  5
DF97C
  8
0
 10
281.6167615681775
 20
3714.286642058344
 30
0.0
 40
40.25
1001
PE_URL
1000

  0
POLYLINE
  5
DF97D
  8
0
 66
     1
 10
0.0
 20
0.0
 30
0.0
  0
VERTEX
  5
DFF4E
  8
0
 10
253.1677663303349
 20
3742.75973760409
 30
0.0
  0
VERTEX
  5
DFF4F
  8
0
 10
253.1677663303349
 20
3744.286642058344
 30
0.0
  0
VERTEX
  5
DFF50
  8
0
 10
231.3667615681775
 20
3744.286642058344
 30
0.0
  0
VERTEX
  5
DFF51
  8
0
 10
231.3667615681775
 20
3739.286642058344
 30
0.0
  0
VERTEX
  5
DFF52
  8
0
 10
241.3667615681775
 20
3739.286642058344
 30
0.0
  0
VERTEX
  5
DFF53
  8
0
 10
241.3667615681775
 20
3724.286642058344
 30
0.0
  0
VERTEX
  5
DFF54
  8
0
 10
242.5542956676072
 20
3723.991602530536
 30
0.0
  0
SEQEND
  5
DFFC0
  8
0
  0
POLYLINE
  5
DF9BB
  8
0
 66
     1
 10
0.0
 20
0.0
 30
0.0
1001
PE_URL
1000

  0
VERTEX
  5
DFF55
  8
0
 10
2421.850667939269
 20
3754.503310942538
 30
0.0
  0
VERTEX
  5
DFF56
  8
0
 10
2421.850667939269
 20
3774.036642058268
 30
0.0
  0
VERTEX
  5
DFF57
  8
0
 10
2399.850667939269
 20
3774.036642058268
 30
0.0
  0
VERTEX
  5
DFF58
  8
0
 10
2399.850667939269
 20
3754.503310942538
 30
0.0
  0
SEQEND
  5
DFFC1
  8
0
  0
POLYLINE
  5
DF9BC
  8
0
 66
     1
 10
0.0
 20
0.0
 30
0.0
 70
     1
1001
PE_URL
1000

  0
VERTEX
  5
DFF59
  8
0
 10
2399.850667939269
 20
3754.503310942538
 30
0.0
  0
VERTEX
  5
DFF5A
  8
0
 10
2399.850667939269
 20
3674.036642058268
 30
0.0
  0
VERTEX
  5
DFF5B
  8
0
 10
2389.350667939269
 20
3674.036642058268
 30
0.0
  0
VERTEX
  5
DFF5C
  8
0
 10
2389.350667939269
 20
3754.503310942538
 30
0.0
  0
SEQEND
  5
DFFC2
  8
0
  0
POLYLINE
  5
DF9BD
  8
0
 66
     1
 10
0.0
 20
0.0
 30
0.0
 70
     1
1001
PE_URL
1000

  0
VERTEX
  5
DFF5D
  8
0
 10
2421.850667939269
 20
3754.503310942538
 30
0.0
  0
VERTEX
  5
DFF5E
  8
0
 10
2421.850667939269
 20
3674.036642058268
 30
0.0
  0
VERTEX
  5
DFF5F
  8
0
 10
2432.350667939269
 20
3674.036642058268
 30
0.0
  0
VERTEX
  5
DFF60
  8
0
 10
2432.350667939269
 20
3754.503310942538
 30
0.0
  0
SEQEND
  5
DFFC3
  8
0
  0
LINE
  5
DF9BE
  8
0
 10
2399.850667939269
 20
3752.503310942538
 30
0.0
 11
2421.850667939269
 21
3752.503310942538
 31
0.0
1001
PE_URL
1000

  0
POLYLINE
  5
DF9BF
  8
0
 66
     1
 10
0.0
 20
0.0
 30
0.0
1001
PE_URL
1000

  0
VERTEX
  5
DFF61
  8
0
 10
2816.850667939151
 20
3754.503310942624
 30
0.0
  0
VERTEX
  5
DFF62
  8
0
 10
2816.850667939151
 20
3774.036642058354
 30
0.0
  0
VERTEX
  5
DFF63
  8
0
 10
2794.850667939151
 20
3774.036642058354
 30
0.0
  0
VERTEX
  5
DFF64
  8
0
 10
2794.850667939151
 20
3754.503310942624
 30
0.0
  0
SEQEND
  5
DFFC4
  8
0
  0
POLYLINE
  5
DF9C0
  8
0
 66
     1
 10
0.0
 20
0.0
 30
0.0
 70
     1
1001
PE_URL
1000

  0
VERTEX
  5
DFF65
  8
0
 10
2794.850667939151
 20
3754.503310942624
 30
0.0
  0
VERTEX
  5
DFF66
  8
0
 10
2794.850667939151
 20
3674.036642058354
 30
0.0
  0
VERTEX
  5
DFF67
  8
0
 10
2784.350667939151
 20
3674.036642058354
 30
0.0
  0
VERTEX
  5
DFF68
  8
0
 10
2784.350667939151
 20
3754.503310942624
 30
0.0
  0
SEQEND
  5
DFFC5
  8
0
  0
POLYLINE
  5
DF9C1
  8
0
 66
     1
 10
0.0
 20
0.0
 30
0.0
 70
     1
1001
PE_URL
1000

  0
VERTEX
  5
DFF69
  8
0
 10
2816.850667939151
 20
3754.503310942624
 30
0.0
  0
VERTEX
  5
DFF6A
  8
0
 10
2816.850667939151
 20
3674.036642058354
 30
0.0
  0
VERTEX
  5
DFF6B
  8
0
 10
2827.350667939151
 20
3674.036642058354
 30
0.0
  0
VERTEX
  5
DFF6C
  8
0
 10
2827.350667939151
 20
3754.503310942624
 30
0.0
  0
SEQEND
  5
DFFC6
  8
0
  0
LINE
  5
DF9C2
  8
0
 10
2794.850667939151
 20
3752.503310942624
 30
0.0
 11
2816.850667939151
 21
3752.503310942624
 31
0.0
1001
PE_URL
1000

  0
LINE
  5
DF9C6
  8
0
 10
2399.850667939269
 20
3676.036642058268
 30
0.0
 11
2421.850667939269
 21
3676.036642058268
 31
0.0
1001
PE_URL
1000

  0
LINE
  5
DF9C7
  8
0
 10
2794.850667939151
 20
3676.036642058354
 30
0.0
 11
2816.850667939151
 21
3676.036642058354
 31
0.0
1001
PE_URL
1000

  0
LINE
  5
DFD43
  8
0
 10
-3430.83339436697
 20
2338.466642058379
 30
0.0
 11
-3385.83339436697
 21
2345.466642058379
 31
0.0
  0
LINE
  5
DFD44
  8
0
 10
-3430.83339436697
 20
2338.466642058379
 30
0.0
 11
-3440.83339436697
 21
2338.466642058379
 31
0.0
  0
LINE
  5
DFD45
  8
0
 10
-3440.83339436697
 20
2338.466642058379
 30
0.0
 11
-3440.83339436697
 21
2336.466642058379
 31
0.0
  0
LINE
  5
DFD46
  8
0
 10
-3440.83339436697
 20
2336.466642058379
 30
0.0
 11
-3425.83339436697
 21
2336.466642058379
 31
0.0
  0
LINE
  5
DFD48
  8
0
 10
-3425.83339436697
 20
2336.466642058379
 30
0.0
 11
-3386.910483363155
 21
2333.155458496719
 31
0.0
  0
LINE
  5
DFD50
  8
0
 10
-3307.984305365067
 20
2341.016283848979
 30
0.0
 11
-3307.984305365067
 21
2349.48664205838
 31
0.0
  0
LINE
  5
DFD51
  8
0
 10
-3373.984305365067
 20
2349.48664205838
 30
0.0
 11
-3373.984305365067
 21
2345.466642058379
 31
0.0
  0
LINE
  5
DFD7A
  8
0
 10
-3355.563227325167
 20
2292.000341595379
 30
0.0
 11
-3328.750537416867
 21
2327.581982891879
 31
0.0
  0
LINE
  5
DFD81
  8
0
 10
-3388.984305365067
 20
2309.451564548579
 30
0.0
 11
-3386.139604689261
 21
2341.966642058379
 31
0.0
  0
LINE
  5
DFD83
  8
0
 10
-3385.83339436697
 20
2345.466642058379
 30
0.0
 11
-3373.984305365067
 21
2345.466642058379
 31
0.0
  0
LINE
  5
DFD84
  8
0
 10
-3386.139604689261
 20
2341.966642058379
 30
0.0
 11
-3385.83339436697
 21
2345.466642058379
 31
0.0
  0
LINE
  5
DFD89
  8
0
 10
-3371.535937526174
 20
2284.036642058379
 30
0.0
 11
-3379.41430536506
 21
2284.036642058379
 31
0.0
  0
ARC
  5
DFD8A
  8
0
 10
-3379.41430536506
 20
2294.036642058379
 30
0.0
 40
9.999999999999892
 50
196.8632195997582
 51
270.0
  0
LINE
  5
DFD8B
  8
0
 10
-3388.984305365067
 20
2309.451564548579
 30
0.0
 11
-3388.984305365067
 21
2291.13576288128
 31
0.0
  0
ARC
  5
DFD9C
  8
0
 10
-3377.984305365067
 20
2294.036642058379
 30
0.0
 40
40.00000000000003
 50
102.9111031049041
 51
180.0
  0
ARC
  5
DFD9D
  8
0
 10
-3377.984305365067
 20
2294.036642058379
 30
0.0
 40
40.00000000000003
 50
180.0
 51
24.42598433980206
  0
ARC
  5
DFDA9
  8
0
 10
-3377.984305365067
 20
2294.036642058379
 30
0.0
 40
24.05045641402504
 50
115.7633306377843
 51
180.0
  0
ARC
  5
DFDAA
  8
0
 10
-3377.984305365067
 20
2294.036642058379
 30
0.0
 40
24.05045641402504
 50
180.0
 51
0.2990367185986669
  0
LINE
  5
DFDAD
  8
0
 10
-3328.750537416867
 20
2327.581982891879
 30
0.0
 11
-3307.984305365067
 21
2341.016283848979
 31
0.0
  0
CIRCLE
  5
DFDAE
  8
0
 10
-3377.984305365067
 20
2294.036642058379
 30
0.0
 40
6.5
  0
LINE
  5
DFDB6
  8
0
 10
-3371.535937526174
 20
2284.036642058379
 30
0.0
 11
-3355.563227325167
 21
2292.000341595379
 31
0.0
  0
ARC
  5
DFDB7
  8
0
 10
-3377.984305365067
 20
2294.036642058379
 30
0.0
 40
13.99999999999864
 50
141.786789298269
 51
328.8541418873026
  0
POLYLINE
  5
DFDBA
  8
0
 66
     1
 10
0.0
 20
0.0
 30
0.0
 70
     1
  0
VERTEX
  5
DFF6D
  8
0
 10
-3390.984305365067
 20
2364.036642058441
 30
0.0
  0
VERTEX
  5
DFF6E
  8
0
 10
-3290.984305365067
 20
2364.036642058441
 30
0.0
  0
VERTEX
  5
DFF6F
  8
0
 10
-3290.984305365067
 20
2361.536642058441
 30
0.0
  0
VERTEX
  5
DFF70
  8
0
 10
-3390.984305365067
 20
2361.536642058441
 30
0.0
  0
SEQEND
  5
DFFC7
  8
0
  0
POLYLINE
  5
DFDCD
  8
0
 66
     1
 10
0.0
 20
0.0
 30
0.0
 70
     1
  0
VERTEX
  5
DFF71
  8
0
 10
-3376.984305364369
 20
2361.536642058441
 30
0.0
  0
VERTEX
  5
DFF72
  8
0
 10
-3375.485526028364
 20
2349.48664205838
 30
0.0
  0
VERTEX
  5
DFF73
  8
0
 10
-3306.483084701771
 20
2349.48664205838
 30
0.0
  0
VERTEX
  5
DFF74
  8
0
 10
-3304.984305365766
 20
2361.536642058441
 30
0.0
  0
SEQEND
  5
DFFC8
  8
0
  0
LINE
  5
DFDE6
  8
0
 10
-2667.984305365068
 20
2341.016283848893
 30
0.0
 11
-2667.984305365068
 21
2349.486642058294
 31
0.0
  0
LINE
  5
DFDE7
  8
0
 10
-2733.984305365068
 20
2349.486642058294
 30
0.0
 11
-2733.984305365068
 21
2345.466642058293
 31
0.0
  0
LINE
  5
DFDE8
  8
0
 10
-2715.563227325167
 20
2292.000341595293
 30
0.0
 11
-2688.750537416867
 21
2327.581982891793
 31
0.0
  0
LINE
  5
DFDE9
  8
0
 10
-2748.984305365068
 20
2309.451564548493
 30
0.0
 11
-2746.139604689261
 21
2341.966642058293
 31
0.0
  0
LINE
  5
DFDEA
  8
0
 10
-2745.83339436697
 20
2345.466642058293
 30
0.0
 11
-2733.984305365068
 21
2345.466642058293
 31
0.0
  0
LINE
  5
DFDEB
  8
0
 10
-2746.139604689261
 20
2341.966642058293
 30
0.0
 11
-2745.83339436697
 21
2345.466642058293
 31
0.0
  0
LINE
  5
DFDEC
  8
0
 10
-2731.535937526175
 20
2284.036642058293
 30
0.0
 11
-2739.414305365061
 21
2284.036642058293
 31
0.0
  0
ARC
  5
DFDED
  8
0
 10
-2739.414305365061
 20
2294.036642058293
 30
0.0
 40
9.999999999999892
 50
196.8632195997582
 51
270.0
  0
LINE
  5
DFDEE
  8
0
 10
-2748.984305365068
 20
2309.451564548493
 30
0.0
 11
-2748.984305365068
 21
2291.135762881194
 31
0.0
  0
ARC
  5
DFDEF
  8
0
 10
-2737.984305365068
 20
2294.036642058293
 30
0.0
 40
40.00000000000003
 50
102.9111031049041
 51
180.0
  0
ARC
  5
DFDF0
  8
0
 10
-2737.984305365068
 20
2294.036642058293
 30
0.0
 40
40.00000000000003
 50
180.0
 51
24.42598433980206
  0
ARC
  5
DFDF1
  8
0
 10
-2737.984305365068
 20
2294.036642058293
 30
0.0
 40
24.05045641402504
 50
115.7633306377843
 51
180.0
  0
ARC
  5
DFDF2
  8
0
 10
-2737.984305365068
 20
2294.036642058293
 30
0.0
 40
24.05045641402504
 50
180.0
 51
0.2990367185986669
  0
LINE
  5
DFDF3
  8
0
 10
-2688.750537416867
 20
2327.581982891793
 30
0.0
 11
-2667.984305365068
 21
2341.016283848893
 31
0.0
  0
CIRCLE
  5
DFDF4
  8
0
 10
-2737.984305365068
 20
2294.036642058293
 30
0.0
 40
6.5
  0
LINE
  5
DFDF5
  8
0
 10
-2731.535937526175
 20
2284.036642058293
 30
0.0
 11
-2715.563227325167
 21
2292.000341595293
 31
0.0
  0
ARC
  5
DFDF6
  8
0
 10
-2737.984305365068
 20
2294.036642058293
 30
0.0
 40
13.99999999999864
 50
141.786789298269
 51
328.8541418873026
  0
POLYLINE
  5
DFDF7
  8
0
 66
     1
 10
0.0
 20
0.0
 30
0.0
 70
     1
  0
VERTEX
  5
DFF75
  8
0
 10
-2750.984305365068
 20
2364.036642058355
 30
0.0
  0
VERTEX
  5
DFF76
  8
0
 10
-2650.984305365068
 20
2364.036642058355
 30
0.0
  0
VERTEX
  5
DFF77
  8
0
 10
-2650.984305365068
 20
2361.536642058355
 30
0.0
  0
VERTEX
  5
DFF78
  8
0
 10
-2750.984305365068
 20
2361.536642058355
 30
0.0
  0
SEQEND
  5
DFFC9
  8
0
  0
POLYLINE
  5
DFDF8
  8
0
 66
     1
 10
0.0
 20
0.0
 30
0.0
 70
     1
  0
VERTEX
  5
DFF79
  8
0
 10
-2736.984305364369
 20
2361.536642058355
 30
0.0
  0
VERTEX
  5
DFF7A
  8
0
 10
-2735.485526028364
 20
2349.486642058294
 30
0.0
  0
VERTEX
  5
DFF7B
  8
0
 10
-2666.483084701772
 20
2349.486642058294
 30
0.0
  0
VERTEX
  5
DFF7C
  8
0
 10
-2664.984305365766
 20
2361.536642058355
 30
0.0
  0
SEQEND
  5
DFFCA
  8
0
  0
LINE
  5
DFDF9
  8
0
 10
-669.9823274337241
 20
2338.466642058379
 30
0.0
 11
-624.9823274337241
 21
2345.466642058379
 31
0.0
  0
LINE
  5
DFDFA
  8
0
 10
-669.9823274337241
 20
2338.466642058379
 30
0.0
 11
-679.9823274337241
 21
2338.466642058379
 31
0.0
  0
LINE
  5
DFDFB
  8
0
 10
-679.9823274337241
 20
2338.466642058379
 30
0.0
 11
-679.9823274337241
 21
2336.466642058379
 31
0.0
  0
LINE
  5
DFDFC
  8
0
 10
-679.9823274337241
 20
2336.466642058379
 30
0.0
 11
-664.9823274337241
 21
2336.466642058379
 31
0.0
  0
LINE
  5
DFDFD
  8
0
 10
-664.9823274337241
 20
2336.466642058379
 30
0.0
 11
-626.05941642991
 21
2333.155458496719
 31
0.0
  0
LINE
  5
DFDFE
  8
0
 10
-547.1332384318221
 20
2341.016283848979
 30
0.0
 11
-547.1332384318221
 21
2349.48664205838
 31
0.0
  0
LINE
  5
DFDFF
  8
0
 10
-613.1332384318221
 20
2349.48664205838
 30
0.0
 11
-613.1332384318221
 21
2345.466642058379
 31
0.0
  0
LINE
  5
DFE00
  8
0
 10
-594.7121603919213
 20
2292.000341595379
 30
0.0
 11
-567.8994704836214
 21
2327.581982891879
 31
0.0
  0
LINE
  5
DFE01
  8
0
 10
-628.1332384318221
 20
2309.451564548579
 30
0.0
 11
-625.2885377560151
 21
2341.966642058379
 31
0.0
  0
LINE
  5
DFE02
  8
0
 10
-624.9823274337241
 20
2345.466642058379
 30
0.0
 11
-613.1332384318221
 21
2345.466642058379
 31
0.0
  0
LINE
  5
DFE03
  8
0
 10
-625.2885377560151
 20
2341.966642058379
 30
0.0
 11
-624.9823274337241
 21
2345.466642058379
 31
0.0
  0
LINE
  5
DFE04
  8
0
 10
-610.6848705929287
 20
2284.036642058379
 30
0.0
 11
-618.5632384318151
 21
2284.036642058379
 31
0.0
  0
ARC
  5
DFE05
  8
0
 10
-618.5632384318151
 20
2294.036642058379
 30
0.0
 40
9.999999999999892
 50
196.8632195997582
 51
270.0
  0
LINE
  5
DFE06
  8
0
 10
-628.1332384318221
 20
2309.451564548579
 30
0.0
 11
-628.1332384318221
 21
2291.13576288128
 31
0.0
  0
ARC
  5
DFE07
  8
0
 10
-617.1332384318221
 20
2294.036642058379
 30
0.0
 40
40.00000000000003
 50
102.9111031049041
 51
180.0
  0
ARC
  5
DFE08
  8
0
 10
-617.1332384318221
 20
2294.036642058379
 30
0.0
 40
40.00000000000003
 50
180.0
 51
24.42598433980206
  0
ARC
  5
DFE09
  8
0
 10
-617.1332384318221
 20
2294.036642058379
 30
0.0
 40
24.05045641402504
 50
115.7633306377843
 51
180.0
  0
ARC
  5
DFE0A
  8
0
 10
-617.1332384318221
 20
2294.036642058379
 30
0.0
 40
24.05045641402504
 50
180.0
 51
0.2990367185986669
  0
LINE
  5
DFE0B
  8
0
 10
-567.8994704836214
 20
2327.581982891879
 30
0.0
 11
-547.1332384318221
 21
2341.016283848979
 31
0.0
  0
CIRCLE
  5
DFE0C
  8
0
 10
-617.1332384318221
 20
2294.036642058379
 30
0.0
 40
6.5
  0
LINE
  5
DFE0D
  8
0
 10
-610.6848705929287
 20
2284.036642058379
 30
0.0
 11
-594.7121603919213
 21
2292.000341595379
 31
0.0
  0
ARC
  5
DFE0E
  8
0
 10
-617.1332384318221
 20
2294.036642058379
 30
0.0
 40
13.99999999999864
 50
141.786789298269
 51
328.8541418873026
  0
POLYLINE
  5
DFE0F
  8
0
 66
     1
 10
0.0
 20
0.0
 30
0.0
 70
     1
  0
VERTEX
  5
DFF7D
  8
0
 10
-630.1332384318221
 20
2364.036642058441
 30
0.0
  0
VERTEX
  5
DFF7E
  8
0
 10
-530.1332384318221
 20
2364.036642058441
 30
0.0
  0
VERTEX
  5
DFF7F
  8
0
 10
-530.1332384318221
 20
2361.536642058441
 30
0.0
  0
VERTEX
  5
DFF80
  8
0
 10
-630.1332384318221
 20
2361.536642058441
 30
0.0
  0
SEQEND
  5
DFFCB
  8
0
  0
POLYLINE
  5
DFE10
  8
0
 66
     1
 10
0.0
 20
0.0
 30
0.0
 70
     1
  0
VERTEX
  5
DFF81
  8
0
 10
-616.1332384311236
 20
2361.536642058441
 30
0.0
  0
VERTEX
  5
DFF82
  8
0
 10
-614.6344590951185
 20
2349.48664205838
 30
0.0
  0
VERTEX
  5
DFF83
  8
0
 10
-545.6320177685257
 20
2349.48664205838
 30
0.0
  0
VERTEX
  5
DFF84
  8
0
 10
-544.1332384325206
 20
2361.536642058441
 30
0.0
  0
SEQEND
  5
DFFCC
  8
0
  0
LINE
  5
DFE11
  8
0
 10
342.8667615681775
 20
2341.016283848893
 30
0.0
 11
342.8667615681775
 21
2349.486642058294
 31
0.0
  0
LINE
  5
DFE12
  8
0
 10
276.8667615681775
 20
2349.486642058294
 30
0.0
 11
276.8667615681775
 21
2345.466642058293
 31
0.0
  0
LINE
  5
DFE13
  8
0
 10
295.2878396080782
 20
2292.000341595293
 30
0.0
 11
322.1005295163782
 21
2327.581982891793
 31
0.0
  0
LINE
  5
DFE14
  8
0
 10
261.8667615681775
 20
2309.451564548493
 30
0.0
 11
264.7114622439844
 21
2341.966642058293
 31
0.0
  0
LINE
  5
DFE15
  8
0
 10
265.0176725662755
 20
2345.466642058293
 30
0.0
 11
276.8667615681775
 21
2345.466642058293
 31
0.0
  0
LINE
  5
DFE16
  8
0
 10
264.7114622439844
 20
2341.966642058293
 30
0.0
 11
265.0176725662755
 21
2345.466642058293
 31
0.0
  0
LINE
  5
DFE17
  8
0
 10
279.3151294070708
 20
2284.036642058293
 30
0.0
 11
271.4367615681845
 21
2284.036642058293
 31
0.0
  0
ARC
  5
DFE18
  8
0
 10
271.4367615681845
 20
2294.036642058293
 30
0.0
 40
9.999999999999892
 50
196.8632195997583
 51
270.0
  0
LINE
  5
DFE19
  8
0
 10
261.8667615681775
 20
2309.451564548493
 30
0.0
 11
261.8667615681775
 21
2291.135762881194
 31
0.0
  0
ARC
  5
DFE1A
  8
0
 10
272.8667615681775
 20
2294.036642058293
 30
0.0
 40
40.00000000000003
 50
102.9111031049041
 51
180.0
  0
ARC
  5
DFE1B
  8
0
 10
272.8667615681775
 20
2294.036642058293
 30
0.0
 40
40.00000000000003
 50
180.0
 51
24.425984339802
  0
ARC
  5
DFE1C
  8
0
 10
272.8667615681775
 20
2294.036642058293
 30
0.0
 40
24.05045641402504
 50
115.7633306377843
 51
180.0
  0
ARC
  5
DFE1D
  8
0
 10
272.8667615681775
 20
2294.036642058293
 30
0.0
 40
24.05045641402504
 50
180.0
 51
0.2990367185986698
  0
LINE
  5
DFE1E
  8
0
 10
322.1005295163782
 20
2327.581982891793
 30
0.0
 11
342.8667615681775
 21
2341.016283848893
 31
0.0
  0
CIRCLE
  5
DFE1F
  8
0
 10
272.8667615681775
 20
2294.036642058293
 30
0.0
 40
6.5
  0
LINE
  5
DFE20
  8
0
 10
279.3151294070708
 20
2284.036642058293
 30
0.0
 11
295.2878396080782
 21
2292.000341595293
 31
0.0
  0
ARC
  5
DFE21
  8
0
 10
272.8667615681775
 20
2294.036642058293
 30
0.0
 40
13.99999999999864
 50
141.786789298269
 51
328.8541418873028
  0
POLYLINE
  5
DFE22
  8
0
 66
     1
 10
0.0
 20
0.0
 30
0.0
 70
     1
  0
VERTEX
  5
DFF85
  8
0
 10
259.8667615681775
 20
2364.036642058355
 30
0.0
  0
VERTEX
  5
DFF86
  8
0
 10
359.8667615681775
 20
2364.036642058355
 30
0.0
  0
VERTEX
  5
DFF87
  8
0
 10
359.8667615681775
 20
2361.536642058355
 30
0.0
  0
VERTEX
  5
DFF88
  8
0
 10
259.8667615681775
 20
2361.536642058355
 30
0.0
  0
SEQEND
  5
DFFCD
  8
0
  0
POLYLINE
  5
DFE23
  8
0
 66
     1
 10
0.0
 20
0.0
 30
0.0
 70
     1
  0
VERTEX
  5
DFF89
  8
0
 10
273.866761568876
 20
2361.536642058355
 30
0.0
  0
VERTEX
  5
DFF8A
  8
0
 10
275.3655409048811
 20
2349.486642058294
 30
0.0
  0
VERTEX
  5
DFF8B
  8
0
 10
344.3679822314739
 20
2349.486642058294
 30
0.0
  0
VERTEX
  5
DFF8C
  8
0
 10
345.866761567479
 20
2361.536642058355
 30
0.0
  0
SEQEND
  5
DFFCE
  8
0
  0
VIEWPORT
  5
DAB74
 67
     1
  8
0
 10
0.0
 20
0.0
 30
0.0
 40
10.87270777479893
 41
8.16
 68
     1
 69
     1
1001
ACAD
1000
MVIEW
1002
{
1070
    16
1010
0.0
1020
0.0
1030
0.0
1010
0.0
1020
0.0
1030
1.0
1040
0.0
1040
8.16
1040
6.065999999999998
1040
3.851238605898123
1040
50.0
1040
0.0
1040
0.0
1070
    16
1070
   100
1070
     1
1070
     3
1070
     0
1070
     0
1070
     0
1070
     0
1040
0.0
1040
0.0
1040
0.0
1040
0.5
1040
0.5
1040
0.0
1040
0.0
1070
     0
1002
{
1002
}
1002
}
  0
VIEWPORT
  5
DAB75
 67
     1
  8
0
 10
5.25
 20
4.0
 30
0.0
 40
8.4
 41
6.4
 68
     2
 69
     2
1001
ACAD
1000
MVIEW
1002
{
1070
    16
1010
0.0
1020
0.0
1030
0.0
1010
0.0
1020
0.0
1030
1.0
1040
0.0
1040
12730.99251508979
1040
-238.8342129778575
1040
5240.682605436173
1040
50.0
1040
0.0
1040
0.0
1070
     0
1070
   100
1070
     1
1070
     3
1070
     0
1070
     0
1070
     0
1070
     0
1040
0.0
1040
0.0
1040
0.0
1040
0.5
1040
0.5
1040
0.0
1040
0.0
1070
     0
1002
{
1002
}
1002
}
  0
ENDSEC
  0
EOF
