  0
SECTION
  2
HEADER
  9
$ACADVER
  1
AC1009
  9
$DWGCODEPAGE
  3
ansi_1252
  9
$INSBASE
 10
0.0
 20
0.0
 30
0.0
  9
$EXTMIN
 10
0.0
 20
0.0
 30
0.0
  9
$EXTMAX
 10
26813.80466002523
 20
20950.36389198218
 30
0.0
  9
$LIMMIN
 10
0.0
 20
0.0
  9
$LIMMAX
 10
12.0
 20
9.0
  9
$ORTHOMODE
 70
     1
  9
$REGENMODE
 70
     1
  9
$FILLMODE
 70
     1
  9
$QTEXTMODE
 70
     0
  9
$MIRRTEXT
 70
     0
  9
$DRAGMODE
 70
     2
  9
$LTSCALE
 40
1.0
  9
$OSMODE
 70
 16383
  9
$ATTMODE
 70
     1
  9
$TEXTSIZE
 40
0.2
  9
$TRACEWID
 40
0.05
  9
$TEXTSTYLE
  7
STANDARD
  9
$CLAYER
  8
0
  9
$CELTYPE
  6
BYLAYER
  9
$CECOLOR
 62
   256
  9
$DIMSCALE
 40
50.0
  9
$DIMASZ
 40
0.18
  9
$DIMEXO
 40
0.0625
  9
$DIMDLI
 40
0.38
  9
$DIMRND
 40
0.0
  9
$DIMDLE
 40
0.0
  9
$DIMEXE
 40
0.18
  9
$DIMTP
 40
0.0
  9
$DIMTM
 40
0.0
  9
$DIMTXT
 40
0.18
  9
$DIMCEN
 40
0.09
  9
$DIMTSZ
 40
0.0
  9
$DIMTOL
 70
     0
  9
$DIMLIM
 70
     0
  9
$DIMTIH
 70
     1
  9
$DIMTOH
 70
     1
  9
$DIMSE1
 70
     0
  9
$DIMSE2
 70
     0
  9
$DIMTAD
 70
     0
  9
$DIMZIN
 70
     0
  9
$DIMBLK
  1

  9
$DIMASO
 70
     1
  9
$DIMSHO
 70
     1
  9
$DIMPOST
  1

  9
$DIMAPOST
  1

  9
$DIMALT
 70
     0
  9
$DIMALTD
 70
     2
  9
$DIMALTF
 40
25.4
  9
$DIMLFAC
 40
1.0
  9
$DIMTOFL
 70
     0
  9
$DIMTVP
 40
0.0
  9
$DIMTIX
 70
     0
  9
$DIMSOXD
 70
     0
  9
$DIMSAH
 70
     0
  9
$DIMBLK1
  1

  9
$DIMBLK2
  1

  9
$DIMSTYLE
  2
STANDARD
  9
$DIMCLRD
 70
     0
  9
$DIMCLRE
 70
     0
  9
$DIMCLRT
 70
     0
  9
$DIMTFAC
 40
1.0
  9
$DIMGAP
 40
0.09
  9
$LUNITS
 70
     2
  9
$LUPREC
 70
     4
  9
$SKETCHINC
 40
0.1
  9
$FILLETRAD
 40
0.0
  9
$AUNITS
 70
     0
  9
$AUPREC
 70
     0
  9
$MENU
  1
.
  9
$ELEVATION
 40
0.0
  9
$PELEVATION
 40
0.0
  9
$THICKNESS
 40
0.0
  9
$LIMCHECK
 70
     0
  9
$CHAMFERA
 40
0.0
  9
$CHAMFERB
 40
0.0
  9
$SKPOLY
 70
     0
  9
$TDCREATE
 40
2456549.8185536
  9
$TDUPDATE
 40
2459749.657075972
  9
$TDINDWG
 40
0.2322758102
  9
$TDUSRTIMER
 40
0.0024215394
  9
$USRTIMER
 70
     1
  9
$ANGBASE
 50
0.0
  9
$ANGDIR
 70
     0
  9
$PDMODE
 70
     0
  9
$PDSIZE
 40
0.0
  9
$PLINEWID
 40
0.0
  9
$COORDS
 70
     1
  9
$SPLFRAME
 70
     0
  9
$SPLINETYPE
 70
     6
  9
$SPLINESEGS
 70
     8
  9
$ATTDIA
 70
     0
  9
$ATTREQ
 70
     1
  9
$HANDLING
 70
     1
  9
$HANDSEED
  5
3D4B
  9
$SURFTAB1
 70
     6
  9
$SURFTAB2
 70
     6
  9
$SURFTYPE
 70
     6
  9
$SURFU
 70
     6
  9
$SURFV
 70
     6
  9
$UCSNAME
  2

  9
$UCSORG
 10
0.0
 20
0.0
 30
0.0
  9
$UCSXDIR
 10
1.0
 20
0.0
 30
0.0
  9
$UCSYDIR
 10
0.0
 20
1.0
 30
0.0
  9
$PUCSNAME
  2

  9
$PUCSORG
 10
0.0
 20
0.0
 30
0.0
  9
$PUCSXDIR
 10
1.0
 20
0.0
 30
0.0
  9
$PUCSYDIR
 10
0.0
 20
1.0
 30
0.0
  9
$USERI1
 70
     0
  9
$USERI2
 70
     0
  9
$USERI3
 70
     0
  9
$USERI4
 70
     0
  9
$USERI5
 70
     0
  9
$USERR1
 40
0.0
  9
$USERR2
 40
0.0
  9
$USERR3
 40
0.0
  9
$USERR4
 40
0.0
  9
$USERR5
 40
0.0
  9
$WORLDVIEW
 70
     1
  9
$SHADEDGE
 70
     3
  9
$SHADEDIF
 70
    70
  9
$TILEMODE
 70
     1
  9
$MAXACTVP
 70
    64
  9
$PLIMCHECK
 70
     0
  9
$PEXTMIN
 10
0.0
 20
0.0
 30
0.0
  9
$PEXTMAX
 10
0.0
 20
0.0
 30
0.0
  9
$PLIMMIN
 10
0.0
 20
0.0
  9
$PLIMMAX
 10
0.0
 20
0.0
  9
$UNITMODE
 70
     0
  9
$VISRETAIN
 70
     1
  9
$PLINEGEN
 70
     0
  9
$PSLTSCALE
 70
     1
  0
ENDSEC
  0
SECTION
  2
TABLES
  0
TABLE
  2
VPORT
 70
     1
  0
VPORT
  2
*ACTIVE
 70
     0
 10
0.0
 20
0.0
 11
1.0
 21
1.0
 12
13406.90233001262
 22
10475.18194599109
 13
0.0
 23
0.0
 14
0.5
 24
0.5
 15
0.5
 25
0.5
 16
0.0
 26
0.0
 36
1.0
 17
0.0
 27
0.0
 37
0.0
 40
21369.37116982182
 41
2.040114613180516
 42
50.0
 43
0.0
 44
0.0
 50
0.0
 51
0.0
 71
    16
 72
  1000
 73
     1
 74
     3
 75
     1
 76
     0
 77
     0
 78
     0
  0
ENDTAB
  0
TABLE
  2
LTYPE
 70
     1
  0
LTYPE
  2
CONTINUOUS
 70
     0
  3
Solid line
 72
    65
 73
     0
 40
0.0
  0
ENDTAB
  0
TABLE
  2
LAYER
 70
     1
  0
LAYER
  2
0
 70
     0
 62
     7
  6
CONTINUOUS
  0
ENDTAB
  0
TABLE
  2
STYLE
 70
     2
  0
STYLE
  2
STANDARD
 70
     0
 40
0.0
 41
1.0
 50
0.0
 71
     0
 42
0.2
  3
txt
  4

  0
STYLE
  2
STILE1
 70
     0
 40
0.0
 41
1.0
 50
0.0
 71
     0
 42
19.0
  3
ROMANS.SHX
  4

  0
ENDTAB
  0
TABLE
  2
VIEW
 70
     0
  0
ENDTAB
  0
TABLE
  2
UCS
 70
     0
  0
ENDTAB
  0
TABLE
  2
APPID
 70
     2
  0
APPID
  2
ACAD
 70
     0
  0
APPID
  2
PE_URL
 70
     0
  0
ENDTAB
  0
TABLE
  2
DIMSTYLE
 70
     6
  0
DIMSTYLE
  2
STANDARD
 70
     0
  3

  4

  5

  6

  7

 40
1.0
 41
0.18
 42
0.0625
 43
0.38
 44
0.18
 45
0.0
 46
0.0
 47
0.0
 48
0.0
140
0.18
141
0.09
142
0.0
143
25.4
144
1.0
145
0.0
146
1.0
147
0.09
 71
     0
 72
     0
 73
     1
 74
     1
 75
     0
 76
     0
 77
     0
 78
     0
170
     0
171
     2
172
     0
173
     0
174
     0
175
     0
176
     0
177
     0
178
     0
  0
ENDTAB
  0
ENDSEC
  0
SECTION
  2
BLOCKS
  0
BLOCK
  8
0
  2
$MODEL_SPACE
 70
     0
 10
0.0
 20
0.0
 30
0.0
  3
$MODEL_SPACE
  1

  0
ENDBLK
  5
23B2
  8
0
  0
BLOCK
 67
     1
  8
0
  2
$PAPER_SPACE
 70
     0
 10
0.0
 20
0.0
 30
0.0
  3
$PAPER_SPACE
  1

  0
ENDBLK
  5
23AE
 67
     1
  8
0
  0
ENDSEC
  0
SECTION
  2
ENTITIES
  0
POLYLINE
  5
E5
  8
0
 66
     1
 10
0.0
 20
0.0
 30
0.0
 70
     1
  0
VERTEX
  5
392C
  8
0
 10
5617.685974119229
 20
8210.581200197554
 30
0.0
  0
VERTEX
  5
392D
  8
0
 10
7217.685974119229
 20
8210.581200197554
 30
0.0
  0
VERTEX
  5
392E
  8
0
 10
7217.685974119229
 20
7310.581200197553
 30
0.0
  0
VERTEX
  5
392F
  8
0
 10
5617.685974119229
 20
7310.581200197553
 30
0.0
  0
SEQEND
  5
3CA2
  8
0
  0
POLYLINE
  5
E6
  8
0
 66
     1
 10
0.0
 20
0.0
 30
0.0
 70
     1
  0
VERTEX
  5
3930
  8
0
 10
5617.685974119229
 20
6710.581200197553
 30
0.0
  0
VERTEX
  5
3931
  8
0
 10
7217.685974119229
 20
6710.581200197553
 30
0.0
  0
VERTEX
  5
3932
  8
0
 10
7217.685974119229
 20
5910.581200197557
 30
0.0
  0
VERTEX
  5
3933
  8
0
 10
5617.685974119229
 20
5910.581200197557
 30
0.0
  0
SEQEND
  5
3CA3
  8
0
  0
POLYLINE
  5
E7
  8
0
 66
     1
 10
0.0
 20
0.0
 30
0.0
 70
     1
  0
VERTEX
  5
3934
  8
0
 10
5617.685974119229
 20
5310.581200197557
 30
0.0
  0
VERTEX
  5
3935
  8
0
 10
7217.685974119229
 20
5310.581200197557
 30
0.0
  0
VERTEX
  5
3936
  8
0
 10
7217.685974119229
 20
4610.581200197554
 30
0.0
  0
VERTEX
  5
3937
  8
0
 10
5617.685974119229
 20
4610.581200197554
 30
0.0
  0
SEQEND
  5
3CA4
  8
0
  0
POLYLINE
  5
E8
  8
0
 66
     1
 10
0.0
 20
0.0
 30
0.0
 70
     1
  0
VERTEX
  5
3938
  8
0
 10
7717.685974119229
 20
5310.581200197557
 30
0.0
  0
VERTEX
  5
3939
  8
0
 10
9517.68597411923
 20
5310.581200197557
 30
0.0
  0
VERTEX
  5
393A
  8
0
 10
9517.68597411923
 20
4610.581200197554
 30
0.0
  0
VERTEX
  5
393B
  8
0
 10
7717.685974119229
 20
4610.581200197554
 30
0.0
  0
SEQEND
  5
3CA5
  8
0
  0
POLYLINE
  5
E9
  8
0
 66
     1
 10
0.0
 20
0.0
 30
0.0
 70
     1
  0
VERTEX
  5
393C
  8
0
 10
7717.685974119229
 20
6710.581200197553
 30
0.0
  0
VERTEX
  5
393D
  8
0
 10
9517.68597411923
 20
6710.581200197553
 30
0.0
  0
VERTEX
  5
393E
  8
0
 10
9517.68597411923
 20
5910.581200197557
 30
0.0
  0
VERTEX
  5
393F
  8
0
 10
7717.685974119229
 20
5910.581200197557
 30
0.0
  0
SEQEND
  5
3CA6
  8
0
  0
POLYLINE
  5
EA
  8
0
 66
     1
 10
0.0
 20
0.0
 30
0.0
 70
     1
  0
VERTEX
  5
3940
  8
0
 10
7717.685974119229
 20
8210.581200197554
 30
0.0
  0
VERTEX
  5
3941
  8
0
 10
9517.68597411923
 20
8210.581200197554
 30
0.0
  0
VERTEX
  5
3942
  8
0
 10
9517.68597411923
 20
7310.581200197553
 30
0.0
  0
VERTEX
  5
3943
  8
0
 10
7717.685974119229
 20
7310.581200197553
 30
0.0
  0
SEQEND
  5
3CA7
  8
0
  0
POLYLINE
  5
EB
  8
0
 66
     1
 10
0.0
 20
0.0
 30
0.0
 70
     1
  0
VERTEX
  5
3944
  8
0
 10
10017.68597411923
 20
8210.581200197554
 30
0.0
  0
VERTEX
  5
3945
  8
0
 10
12017.68597411922
 20
8210.581200197554
 30
0.0
  0
VERTEX
  5
3946
  8
0
 10
12017.68597411922
 20
7310.581200197553
 30
0.0
  0
VERTEX
  5
3947
  8
0
 10
10017.68597411923
 20
7310.581200197553
 30
0.0
  0
SEQEND
  5
3CA8
  8
0
  0
POLYLINE
  5
EC
  8
0
 66
     1
 10
0.0
 20
0.0
 30
0.0
 70
     1
  0
VERTEX
  5
3948
  8
0
 10
10017.68597411923
 20
6710.581200197553
 30
0.0
  0
VERTEX
  5
3949
  8
0
 10
12017.68597411922
 20
6710.581200197553
 30
0.0
  0
VERTEX
  5
394A
  8
0
 10
12017.68597411922
 20
5910.581200197557
 30
0.0
  0
VERTEX
  5
394B
  8
0
 10
10017.68597411923
 20
5910.581200197557
 30
0.0
  0
SEQEND
  5
3CA9
  8
0
  0
POLYLINE
  5
ED
  8
0
 66
     1
 10
0.0
 20
0.0
 30
0.0
 70
     1
  0
VERTEX
  5
394C
  8
0
 10
10017.68597411923
 20
5310.581200197557
 30
0.0
  0
VERTEX
  5
394D
  8
0
 10
12017.68597411922
 20
5310.581200197557
 30
0.0
  0
VERTEX
  5
394E
  8
0
 10
12017.68597411922
 20
4610.581200197554
 30
0.0
  0
VERTEX
  5
394F
  8
0
 10
10017.68597411923
 20
4610.581200197554
 30
0.0
  0
SEQEND
  5
3CAA
  8
0
  0
LINE
  5
EE
  8
0
 10
8025.371948238463
 20
987.6576470269353
 30
0.0
 11
8025.371948238463
 21
0.0
 31
0.0
  0
TEXT
  5
EF
  8
0
 10
6252.7084966879
 20
778.7322304035334
 30
0.0
 40
125.0
  1
2022-06
  7
STILE1
 72
     1
 11
6687.604330021233
 21
778.7322304035334
 31
0.0
  0
LINE
  5
F0
  8
0
 10
5350.247965492308
 20
687.661092123016
 30
0.0
 11
5350.247965492308
 21
987.6576470269353
 31
0.0
  0
LINE
  5
F1
  8
0
 10
2675.123982746154
 20
987.6576470269353
 30
0.0
 11
2675.123982746154
 21
0.0
 31
0.0
  0
POLYLINE
  5
F2
  8
0
 66
     1
 10
0.0
 20
0.0
 30
0.0
 70
     1
  0
VERTEX
  5
3950
  8
0
 10
0.0
 20
987.6576470269353
 30
0.0
  0
VERTEX
  5
3951
  8
0
 10
8025.371948238463
 20
987.6576470269353
 30
0.0
  0
VERTEX
  5
3952
  8
0
 10
8025.371948238463
 20
0.0
 30
0.0
  0
VERTEX
  5
3953
  8
0
 10
0.0
 20
0.0
 30
0.0
  0
SEQEND
  5
3CAB
  8
0
  0
POLYLINE
  5
F3
  8
0
 66
     1
 10
0.0
 20
0.0
 30
0.0
  0
VERTEX
  5
3954
  8
0
 10
2675.123982746154
 20
687.661092123016
 30
0.0
  0
VERTEX
  5
3955
  8
0
 10
8025.371948238463
 20
687.6610921230168
 30
0.0
  0
SEQEND
  5
3CAC
  8
0
  0
TEXT
  5
F4
  8
0
 10
3484.840736835664
 20
170.1637904425171
 30
0.0
 40
125.0
  1
This drawing is property of Fantin S.r.l. 
  7
STILE1
 72
     1
 11
5499.721689216617
 21
170.1637904425171
 31
0.0
  0
POLYLINE
  5
F5
  8
0
  6
CONTINUOUS
 66
     1
 10
0.0
 20
0.0
 30
0.0
 70
     1
  0
VERTEX
  5
3956
  8
0
  6
CONTINUOUS
 10
847.7226611692438
 20
383.6228027346076
 30
0.0
  0
VERTEX
  5
3957
  8
0
  6
CONTINUOUS
 10
847.7226611692438
 20
383.6228027346076
 30
0.0
  0
VERTEX
  5
3958
  8
0
  6
CONTINUOUS
 10
872.0839436817907
 20
299.9999999999997
 30
0.0
  0
VERTEX
  5
3959
  8
0
  6
CONTINUOUS
 10
997.8006456140432
 20
299.9999999999997
 30
0.0
  0
VERTEX
  5
395A
  8
0
  6
CONTINUOUS
 10
880.3917914489284
 20
652.7743326826017
 30
0.0
 42
0.1089385125692126
  0
VERTEX
  5
395B
  8
0
  6
CONTINUOUS
 10
867.6499316329131
 20
680.4454704024826
 30
0.0
 42
0.1589313772246072
  0
VERTEX
  5
395C
  8
0
  6
CONTINUOUS
 10
855.6541064428161
 20
687.7303423592817
 30
0.0
 42
0.058673645385263
  0
VERTEX
  5
395D
  8
0
  6
CONTINUOUS
 10
839.4089355459447
 20
689.3216281465718
 30
0.0
  0
VERTEX
  5
395E
  8
0
  6
CONTINUOUS
 10
839.4089355459447
 20
689.3216281465718
 30
0.0
  0
VERTEX
  5
395F
  8
0
  6
CONTINUOUS
 10
744.1606580931694
 20
689.3216281465718
 30
0.0
 42
0.058673645385263
  0
VERTEX
  5
3960
  8
0
  6
CONTINUOUS
 10
727.9154871962947
 20
687.7303423592817
 30
0.0
 42
0.1589313772246072
  0
VERTEX
  5
3961
  8
0
  6
CONTINUOUS
 10
715.9196620061985
 20
680.4454704024826
 30
0.0
 42
0.1089385125692126
  0
VERTEX
  5
3962
  8
0
  6
CONTINUOUS
 10
703.1778021901849
 20
652.7743326826017
 30
0.0
  0
VERTEX
  5
3963
  8
0
  6
CONTINUOUS
 10
585.768948029726
 20
299.9999999999997
 30
0.0
  0
VERTEX
  5
3964
  8
0
  6
CONTINUOUS
 10
704.8348931223154
 20
299.9999999999997
 30
0.0
  0
VERTEX
  5
3965
  8
0
  6
CONTINUOUS
 10
728.6473931185901
 20
383.6228027346076
 30
0.0
  0
SEQEND
  5
3CAD
  8
0
  6
CONTINUOUS
  0
POLYLINE
  5
F6
  8
0
  6
CONTINUOUS
 66
     1
 10
0.0
 20
0.0
 30
0.0
  0
VERTEX
  5
3966
  8
0
  6
CONTINUOUS
 10
791.2309977225952
 20
580.7787272136192
 30
0.0
  0
VERTEX
  5
3967
  8
0
  6
CONTINUOUS
 10
824.458943684584
 20
466.6909450956151
 30
0.0
  0
VERTEX
  5
3968
  8
0
  6
CONTINUOUS
 10
751.9104003906241
 20
466.6909450956151
 30
0.0
  0
VERTEX
  5
3969
  8
0
  6
CONTINUOUS
 10
785.13834635727
 20
580.7787272136192
 30
0.0
  0
VERTEX
  5
396A
  8
0
  6
CONTINUOUS
 10
791.2309977225952
 20
580.7787272136192
 30
0.0
  0
SEQEND
  5
3CAE
  8
0
  6
CONTINUOUS
  0
POLYLINE
  5
F7
  8
0
  6
CONTINUOUS
 66
     1
 10
0.0
 20
0.0
 30
0.0
  0
VERTEX
  5
396B
  8
0
  6
CONTINUOUS
 10
605.1458875834936
 20
687.6576470269353
 30
0.0
  0
VERTEX
  5
396C
  8
0
  6
CONTINUOUS
 10
605.1458875834936
 20
598.4968532994384
 30
0.0
  0
VERTEX
  5
396D
  8
0
  6
CONTINUOUS
 10
419.0693901898336
 20
598.4968532994384
 30
0.0
  0
VERTEX
  5
396E
  8
0
  6
CONTINUOUS
 10
419.0693901898336
 20
521.52136230492
 30
0.0
  0
VERTEX
  5
396F
  8
0
  6
CONTINUOUS
 10
549.2130398191512
 20
521.52136230492
 30
0.0
  0
VERTEX
  5
3970
  8
0
  6
CONTINUOUS
 10
549.2130398191512
 20
438.4480523003727
 30
0.0
  0
VERTEX
  5
3971
  8
0
  6
CONTINUOUS
 10
419.0693901898336
 20
438.4480523003727
 30
0.0
  0
VERTEX
  5
3972
  8
0
  6
CONTINUOUS
 10
419.0693901898336
 20
299.9999999999997
 30
0.0
  0
VERTEX
  5
3973
  8
0
  6
CONTINUOUS
 10
300.0
 20
299.9999999999997
 30
0.0
  0
VERTEX
  5
3974
  8
0
  6
CONTINUOUS
 10
300.0
 20
687.6576470269353
 30
0.0
  0
VERTEX
  5
3975
  8
0
  6
CONTINUOUS
 10
605.1458875834936
 20
687.6576470269353
 30
0.0
  0
SEQEND
  5
3CAF
  8
0
  6
CONTINUOUS
  0
POLYLINE
  5
F8
  8
0
  6
CONTINUOUS
 66
     1
 10
0.0
 20
0.0
 30
0.0
 70
     1
  0
VERTEX
  5
3976
  8
0
  6
CONTINUOUS
 10
1820.206949869171
 20
687.6593695743937
 30
0.0
  0
VERTEX
  5
3977
  8
0
  6
CONTINUOUS
 10
1939.276340059005
 20
687.6593695743937
 30
0.0
  0
VERTEX
  5
3978
  8
0
  6
CONTINUOUS
 10
1939.276340059005
 20
299.9999999999997
 30
0.0
  0
VERTEX
  5
3979
  8
0
  6
CONTINUOUS
 10
1820.206949869171
 20
299.9999999999997
 30
0.0
  0
SEQEND
  5
3CB0
  8
0
  6
CONTINUOUS
  0
POLYLINE
  5
F9
  8
0
  6
CONTINUOUS
 66
     1
 10
0.0
 20
0.0
 30
0.0
  0
VERTEX
  5
397A
  8
0
  6
CONTINUOUS
 10
1783.103271485306
 20
687.6593695743937
 30
0.0
  0
VERTEX
  5
397B
  8
0
  6
CONTINUOUS
 10
1783.103271485306
 20
596.8363172747192
 30
0.0
  0
VERTEX
  5
397C
  8
0
  6
CONTINUOUS
 10
1666.80718316231
 20
596.8363172747192
 30
0.0
  0
VERTEX
  5
397D
  8
0
  6
CONTINUOUS
 10
1666.80718316231
 20
299.9999999999997
 30
0.0
  0
VERTEX
  5
397E
  8
0
  6
CONTINUOUS
 10
1547.737792972475
 20
299.9999999999997
 30
0.0
  0
VERTEX
  5
397F
  8
0
  6
CONTINUOUS
 10
1547.737792972475
 20
596.8363172747192
 30
0.0
  0
VERTEX
  5
3980
  8
0
  6
CONTINUOUS
 10
1434.204671224579
 20
596.8363172747192
 30
0.0
  0
VERTEX
  5
3981
  8
0
  6
CONTINUOUS
 10
1434.204671224579
 20
687.6593695743937
 30
0.0
  0
VERTEX
  5
3982
  8
0
  6
CONTINUOUS
 10
1783.103271485306
 20
687.6593695743937
 30
0.0
  0
SEQEND
  5
3CB1
  8
0
  6
CONTINUOUS
  0
POLYLINE
  5
FA
  8
0
  6
CONTINUOUS
 66
     1
 10
0.0
 20
0.0
 30
0.0
  0
VERTEX
  5
3983
  8
0
  6
CONTINUOUS
 10
1030.479098847136
 20
299.9999999999997
 30
0.0
  0
VERTEX
  5
3984
  8
0
  6
CONTINUOUS
 10
1030.479098847136
 20
687.661092123016
 30
0.0
  0
VERTEX
  5
3985
  8
0
  6
CONTINUOUS
 10
1131.828640410675
 20
687.661092123016
 30
0.0
 42
-0.316444976687396
  0
VERTEX
  5
3986
  8
0
  6
CONTINUOUS
 10
1182.776435003616
 20
659.4164767791514
 30
0.0
  0
VERTEX
  5
3987
  8
0
  6
CONTINUOUS
 10
1283.569593643768
 20
489.3975694442633
 30
0.0
  0
VERTEX
  5
3988
  8
0
  6
CONTINUOUS
 10
1286.337727867066
 20
489.3975694442633
 30
0.0
  0
VERTEX
  5
3989
  8
0
  6
CONTINUOUS
 10
1286.337727867066
 20
687.661092123016
 30
0.0
  0
VERTEX
  5
398A
  8
0
  6
CONTINUOUS
 10
1398.761528860777
 20
687.661092123016
 30
0.0
  0
VERTEX
  5
398B
  8
0
  6
CONTINUOUS
 10
1398.761528860777
 20
299.9999999999997
 30
0.0
  0
VERTEX
  5
398C
  8
0
  6
CONTINUOUS
 10
1316.239434136078
 20
299.9999999999997
 30
0.0
 42
-0.312959769389874
  0
VERTEX
  5
398D
  8
0
  6
CONTINUOUS
 10
1265.29163953848
 20
328.2428927952421
 30
0.0
  0
VERTEX
  5
398E
  8
0
  6
CONTINUOUS
 10
1145.671034073457
 20
521.5196397574612
 30
0.0
  0
VERTEX
  5
398F
  8
0
  6
CONTINUOUS
 10
1142.906344942748
 20
521.5196397574612
 30
0.0
  0
VERTEX
  5
3990
  8
0
  6
CONTINUOUS
 10
1142.906344942748
 20
299.9999999999997
 30
0.0
  0
VERTEX
  5
3991
  8
0
  6
CONTINUOUS
 10
1030.479098847136
 20
299.9999999999997
 30
0.0
  0
SEQEND
  5
3CB2
  8
0
  6
CONTINUOUS
  0
POLYLINE
  5
FB
  8
0
  6
CONTINUOUS
 66
     1
 10
0.0
 20
0.0
 30
0.0
  0
VERTEX
  5
3992
  8
0
  6
CONTINUOUS
 10
2006.841552732512
 20
299.9999999999997
 30
0.0
  0
VERTEX
  5
3993
  8
0
  6
CONTINUOUS
 10
2006.841552732512
 20
687.661092123016
 30
0.0
  0
VERTEX
  5
3994
  8
0
  6
CONTINUOUS
 10
2108.191094296053
 20
687.661092123016
 30
0.0
 42
-0.316444976687396
  0
VERTEX
  5
3995
  8
0
  6
CONTINUOUS
 10
2159.138888884337
 20
659.4164767791514
 30
0.0
  0
VERTEX
  5
3996
  8
0
  6
CONTINUOUS
 10
2259.932047529146
 20
489.3975694442633
 30
0.0
  0
VERTEX
  5
3997
  8
0
  6
CONTINUOUS
 10
2262.700181747787
 20
489.3975694442633
 30
0.0
  0
VERTEX
  5
3998
  8
0
  6
CONTINUOUS
 10
2262.700181747787
 20
687.661092123016
 30
0.0
  0
VERTEX
  5
3999
  8
0
  6
CONTINUOUS
 10
2375.123982746154
 20
687.661092123016
 30
0.0
  0
VERTEX
  5
399A
  8
0
  6
CONTINUOUS
 10
2375.123982746154
 20
299.9999999999997
 30
0.0
  0
VERTEX
  5
399B
  8
0
  6
CONTINUOUS
 10
2292.601888021454
 20
299.9999999999997
 30
0.0
 42
-0.312959769389874
  0
VERTEX
  5
399C
  8
0
  6
CONTINUOUS
 10
2241.654093428515
 20
328.2428927952421
 30
0.0
  0
VERTEX
  5
399D
  8
0
  6
CONTINUOUS
 10
2122.033487958833
 20
521.5196397574612
 30
0.0
  0
VERTEX
  5
399E
  8
0
  6
CONTINUOUS
 10
2119.268798828125
 20
521.5196397574612
 30
0.0
  0
VERTEX
  5
399F
  8
0
  6
CONTINUOUS
 10
2119.268798828125
 20
299.9999999999997
 30
0.0
  0
VERTEX
  5
39A0
  8
0
  6
CONTINUOUS
 10
2006.841552732512
 20
299.9999999999997
 30
0.0
  0
SEQEND
  5
3CB3
  8
0
  6
CONTINUOUS
  0
TEXT
  5
FC
  8
0
 10
2772.947561862492
 20
778.7322304035334
 30
0.0
 40
125.0
  1
Still Tables & Accessories
  7
STILE1
 72
     1
 11
4032.062145195825
 21
778.7322304035334
 31
0.0
  0
TEXT
  5
FD
  8
0
 10
3173.906836621409
 20
432.2479967307316
 30
0.0
 40
125.0
  1
Questo disegno è di proprietà di Fantin S.r.l.   
  7
STILE1
 72
     1
 11
5596.525884240456
 21
432.2479967307316
 31
0.0
  0
POLYLINE
  5
FE
  8
0
 66
     1
 10
0.0
 20
0.0
 30
0.0
 70
     1
  0
VERTEX
  5
39A1
  8
0
 10
16050.74389647692
 20
12221.31280916225
 30
0.0
  0
VERTEX
  5
39A2
  8
0
 10
0.0
 20
12221.31280916225
 30
0.0
  0
VERTEX
  5
39A3
  8
0
 10
0.0
 20
1541.694289085379
 30
0.0
  0
VERTEX
  5
39A4
  8
0
 10
16050.74389647692
 20
1541.69428908538
 30
0.0
  0
SEQEND
  5
3CB4
  8
0
  0
POLYLINE
  5
10DB
  8
0
 66
     1
 10
0.0
 20
0.0
 30
0.0
 70
     1
  0
VERTEX
  5
39A5
  8
0
 10
10017.68597411923
 20
3085.694289085377
 30
0.0
  0
VERTEX
  5
39A6
  8
0
 10
12017.68597411922
 20
3085.694289085377
 30
0.0
  0
VERTEX
  5
39A7
  8
0
 10
12017.68597411922
 20
2353.694289085377
 30
0.0
  0
VERTEX
  5
39A8
  8
0
 10
11977.68597411923
 20
2353.694289085377
 30
0.0
  0
VERTEX
  5
39A9
  8
0
 10
11977.68597411923
 20
3045.694289085377
 30
0.0
  0
VERTEX
  5
39AA
  8
0
 10
10057.68597411923
 20
3045.694289085377
 30
0.0
  0
VERTEX
  5
39AB
  8
0
 10
10057.68597411923
 20
2353.694289085377
 30
0.0
  0
VERTEX
  5
39AC
  8
0
 10
10017.68597411923
 20
2353.694289085377
 30
0.0
  0
VERTEX
  5
39AD
  8
0
 10
10017.68597411923
 20
3085.694289085377
 30
0.0
  0
SEQEND
  5
3CB5
  8
0
  0
POLYLINE
  5
10DC
  8
0
 66
     1
 10
0.0
 20
0.0
 30
0.0
 70
     1
  0
VERTEX
  5
39AE
  8
0
 10
10017.68597411923
 20
3085.694289085377
 30
0.0
  0
VERTEX
  5
39AF
  8
0
 10
10017.68597411923
 20
3103.694289085379
 30
0.0
  0
VERTEX
  5
39B0
  8
0
 10
12017.68597411922
 20
3103.694289085379
 30
0.0
  0
VERTEX
  5
39B1
  8
0
 10
12017.68597411922
 20
3085.694289085377
 30
0.0
  0
SEQEND
  5
3CB6
  8
0
  0
POLYLINE
  5
10DD
  8
0
 66
     1
 10
0.0
 20
0.0
 30
0.0
 70
     1
  0
VERTEX
  5
39B2
  8
0
 10
7717.685974119229
 20
3085.694289085377
 30
0.0
  0
VERTEX
  5
39B3
  8
0
 10
7717.685974119229
 20
3103.694289085379
 30
0.0
  0
VERTEX
  5
39B4
  8
0
 10
9517.68597411923
 20
3103.694289085379
 30
0.0
  0
VERTEX
  5
39B5
  8
0
 10
9517.68597411923
 20
3085.694289085377
 30
0.0
  0
SEQEND
  5
3CB7
  8
0
  0
POLYLINE
  5
10DE
  8
0
 66
     1
 10
0.0
 20
0.0
 30
0.0
 70
     1
  0
VERTEX
  5
39B6
  8
0
 10
7717.685974119229
 20
3085.694289085377
 30
0.0
  0
VERTEX
  5
39B7
  8
0
 10
9517.68597411923
 20
3085.694289085377
 30
0.0
  0
VERTEX
  5
39B8
  8
0
 10
9517.68597411923
 20
2353.694289085377
 30
0.0
  0
VERTEX
  5
39B9
  8
0
 10
9477.68597411923
 20
2353.694289085377
 30
0.0
  0
VERTEX
  5
39BA
  8
0
 10
9477.68597411923
 20
3045.694289085377
 30
0.0
  0
VERTEX
  5
39BB
  8
0
 10
7757.685974119227
 20
3045.694289085377
 30
0.0
  0
VERTEX
  5
39BC
  8
0
 10
7757.685974119227
 20
2353.694289085377
 30
0.0
  0
VERTEX
  5
39BD
  8
0
 10
7717.685974119229
 20
2353.694289085377
 30
0.0
  0
VERTEX
  5
39BE
  8
0
 10
7717.685974119229
 20
3085.694289085377
 30
0.0
  0
SEQEND
  5
3CB8
  8
0
  0
POLYLINE
  5
10DF
  8
0
 66
     1
 10
0.0
 20
0.0
 30
0.0
 70
     1
  0
VERTEX
  5
39BF
  8
0
 10
5617.685974119229
 20
3085.694289085377
 30
0.0
  0
VERTEX
  5
39C0
  8
0
 10
7217.685974119229
 20
3085.694289085377
 30
0.0
  0
VERTEX
  5
39C1
  8
0
 10
7217.685974119229
 20
2353.694289085377
 30
0.0
  0
VERTEX
  5
39C2
  8
0
 10
7177.685974119231
 20
2353.694289085377
 30
0.0
  0
VERTEX
  5
39C3
  8
0
 10
7177.685974119231
 20
3045.694289085377
 30
0.0
  0
VERTEX
  5
39C4
  8
0
 10
5657.685974119229
 20
3045.694289085377
 30
0.0
  0
VERTEX
  5
39C5
  8
0
 10
5657.685974119229
 20
2353.694289085377
 30
0.0
  0
VERTEX
  5
39C6
  8
0
 10
5617.685974119229
 20
2353.694289085377
 30
0.0
  0
VERTEX
  5
39C7
  8
0
 10
5617.685974119229
 20
3085.694289085377
 30
0.0
  0
SEQEND
  5
3CB9
  8
0
  0
POLYLINE
  5
10E1
  8
0
 66
     1
 10
0.0
 20
0.0
 30
0.0
 70
     1
  0
VERTEX
  5
39C8
  8
0
 10
5617.685974119229
 20
3085.694289085377
 30
0.0
  0
VERTEX
  5
39C9
  8
0
 10
5617.685974119229
 20
3103.694289085379
 30
0.0
  0
VERTEX
  5
39CA
  8
0
 10
7217.685974119229
 20
3103.694289085379
 30
0.0
  0
VERTEX
  5
39CB
  8
0
 10
7217.685974119229
 20
3085.694289085377
 30
0.0
  0
SEQEND
  5
3CBA
  8
0
  0
POLYLINE
  5
16AB
  8
0
 66
     1
 10
0.0
 20
0.0
 30
0.0
 70
     1
  0
VERTEX
  5
39CC
  8
0
 10
12900.74389647692
 20
20950.36389198216
 30
0.0
  0
VERTEX
  5
39CD
  8
0
 10
0.0
 20
20950.36389198218
 30
0.0
  0
VERTEX
  5
39CE
  8
0
 10
0.000000000001819
 20
12775.34945122068
 30
0.0
  0
VERTEX
  5
39CF
  8
0
 10
12900.74389647692
 20
12775.34945122068
 30
0.0
  0
SEQEND
  5
3CBB
  8
0
  0
POLYLINE
  5
16B0
  8
0
 66
     1
 10
0.0
 20
0.0
 30
0.0
 70
     1
  0
VERTEX
  5
39D0
  8
0
 10
6017.685974119227
 20
17936.26564757876
 30
0.0
  0
VERTEX
  5
39D1
  8
0
 10
7817.685974119229
 20
17936.26564757876
 30
0.0
  0
VERTEX
  5
39D2
  8
0
 10
7817.685974119229
 20
17136.26564757877
 30
0.0
  0
VERTEX
  5
39D3
  8
0
 10
6017.685974119227
 20
17136.26564757877
 30
0.0
  0
SEQEND
  5
3CBC
  8
0
  0
POLYLINE
  5
16B3
  8
0
 66
     1
 10
0.0
 20
0.0
 30
0.0
 70
     1
  0
VERTEX
  5
39D4
  8
0
 10
3917.685974119229
 20
17936.26564757876
 30
0.0
  0
VERTEX
  5
39D5
  8
0
 10
5517.685974119227
 20
17936.26564757876
 30
0.0
  0
VERTEX
  5
39D6
  8
0
 10
5517.685974119227
 20
17136.26564757877
 30
0.0
  0
VERTEX
  5
39D7
  8
0
 10
3917.685974119229
 20
17136.26564757877
 30
0.0
  0
SEQEND
  5
3CBD
  8
0
  0
POLYLINE
  5
16C3
  8
0
 66
     1
 10
0.0
 20
0.0
 30
0.0
 70
     1
  0
VERTEX
  5
39D8
  8
0
 10
3917.685974119229
 20
16236.26564757877
 30
0.0
  0
VERTEX
  5
39D9
  8
0
 10
5517.685974119227
 20
16236.26564757877
 30
0.0
  0
VERTEX
  5
39DA
  8
0
 10
5517.685974119227
 20
17036.26564757877
 30
0.0
  0
VERTEX
  5
39DB
  8
0
 10
3917.685974119229
 20
17036.26564757877
 30
0.0
  0
SEQEND
  5
3CBE
  8
0
  0
POLYLINE
  5
16C4
  8
0
 66
     1
 10
0.0
 20
0.0
 30
0.0
 70
     1
  0
VERTEX
  5
39DC
  8
0
 10
6017.685974119227
 20
16236.26564757877
 30
0.0
  0
VERTEX
  5
39DD
  8
0
 10
7817.685974119229
 20
16236.26564757877
 30
0.0
  0
VERTEX
  5
39DE
  8
0
 10
7817.685974119229
 20
17036.26564757877
 30
0.0
  0
VERTEX
  5
39DF
  8
0
 10
6017.685974119227
 20
17036.26564757877
 30
0.0
  0
SEQEND
  5
3CBF
  8
0
  0
POLYLINE
  5
16C6
  8
0
 66
     1
 10
0.0
 20
0.0
 30
0.0
 70
     1
  0
VERTEX
  5
39E0
  8
0
 10
3917.685974119229
 20
17036.26564757877
 30
0.0
  0
VERTEX
  5
39E1
  8
0
 10
5517.685974119227
 20
17036.26564757877
 30
0.0
  0
VERTEX
  5
39E2
  8
0
 10
5517.685974119227
 20
17136.26564757877
 30
0.0
  0
VERTEX
  5
39E3
  8
0
 10
3917.685974119229
 20
17136.26564757877
 30
0.0
  0
SEQEND
  5
3CC0
  8
0
  0
POLYLINE
  5
16C7
  8
0
 66
     1
 10
0.0
 20
0.0
 30
0.0
 70
     1
  0
VERTEX
  5
39E4
  8
0
 10
6017.685974119227
 20
17036.26564757877
 30
0.0
  0
VERTEX
  5
39E5
  8
0
 10
7817.685974119229
 20
17036.26564757877
 30
0.0
  0
VERTEX
  5
39E6
  8
0
 10
7817.685974119229
 20
17136.26564757877
 30
0.0
  0
VERTEX
  5
39E7
  8
0
 10
6017.685974119227
 20
17136.26564757877
 30
0.0
  0
SEQEND
  5
3CC1
  8
0
  0
POLYLINE
  5
16C9
  8
0
 66
     1
 10
0.0
 20
0.0
 30
0.0
 70
     1
  0
VERTEX
  5
39E8
  8
0
 10
3917.685974119229
 20
14512.64712750189
 30
0.0
  0
VERTEX
  5
39E9
  8
0
 10
3917.685974119229
 20
14530.64712750189
 30
0.0
  0
VERTEX
  5
39EA
  8
0
 10
5517.685974119227
 20
14530.64712750189
 30
0.0
  0
VERTEX
  5
39EB
  8
0
 10
5517.685974119227
 20
14512.64712750189
 30
0.0
  0
SEQEND
  5
3CC2
  8
0
  0
POLYLINE
  5
16CA
  8
0
 66
     1
 10
0.0
 20
0.0
 30
0.0
 70
     1
  0
VERTEX
  5
39EC
  8
0
 10
3917.685974119229
 20
14512.64712750189
 30
0.0
  0
VERTEX
  5
39ED
  8
0
 10
5517.685974119227
 20
14512.64712750189
 30
0.0
  0
VERTEX
  5
39EE
  8
0
 10
5517.685974119227
 20
13780.6471275019
 30
0.0
  0
VERTEX
  5
39EF
  8
0
 10
5477.685974119228
 20
13780.6471275019
 30
0.0
  0
VERTEX
  5
39F0
  8
0
 10
5477.685974119228
 20
14472.64712750189
 30
0.0
  0
VERTEX
  5
39F1
  8
0
 10
3957.685974119229
 20
14472.64712750189
 30
0.0
  0
VERTEX
  5
39F2
  8
0
 10
3957.685974119229
 20
13780.6471275019
 30
0.0
  0
VERTEX
  5
39F3
  8
0
 10
3917.685974119229
 20
13780.6471275019
 30
0.0
  0
VERTEX
  5
39F4
  8
0
 10
3917.685974119229
 20
14512.64712750189
 30
0.0
  0
SEQEND
  5
3CC3
  8
0
  0
POLYLINE
  5
16CB
  8
0
 66
     1
 10
0.0
 20
0.0
 30
0.0
 70
     1
  0
VERTEX
  5
39F5
  8
0
 10
6017.685974119227
 20
14512.64712750189
 30
0.0
  0
VERTEX
  5
39F6
  8
0
 10
7817.685974119229
 20
14512.64712750189
 30
0.0
  0
VERTEX
  5
39F7
  8
0
 10
7817.685974119229
 20
13780.6471275019
 30
0.0
  0
VERTEX
  5
39F8
  8
0
 10
7777.685974119227
 20
13780.6471275019
 30
0.0
  0
VERTEX
  5
39F9
  8
0
 10
7777.685974119227
 20
14472.64712750189
 30
0.0
  0
VERTEX
  5
39FA
  8
0
 10
6057.685974119227
 20
14472.64712750189
 30
0.0
  0
VERTEX
  5
39FB
  8
0
 10
6057.685974119227
 20
13780.6471275019
 30
0.0
  0
VERTEX
  5
39FC
  8
0
 10
6017.685974119227
 20
13780.6471275019
 30
0.0
  0
VERTEX
  5
39FD
  8
0
 10
6017.685974119227
 20
14512.64712750189
 30
0.0
  0
SEQEND
  5
3CC4
  8
0
  0
POLYLINE
  5
16CC
  8
0
 66
     1
 10
0.0
 20
0.0
 30
0.0
 70
     1
  0
VERTEX
  5
39FE
  8
0
 10
6017.685974119227
 20
14512.64712750189
 30
0.0
  0
VERTEX
  5
39FF
  8
0
 10
6017.685974119227
 20
14530.64712750189
 30
0.0
  0
VERTEX
  5
3A00
  8
0
 10
7817.685974119229
 20
14530.64712750189
 30
0.0
  0
VERTEX
  5
3A01
  8
0
 10
7817.685974119229
 20
14512.64712750189
 30
0.0
  0
SEQEND
  5
3CC5
  8
0
  0
POLYLINE
  5
16E1
  8
0
 66
     1
 10
0.0
 20
0.0
 30
0.0
 70
     1
  0
VERTEX
  5
3A02
  8
0
 10
3922.685974119227
 20
14530.64712750189
 30
0.0
  0
VERTEX
  5
3A03
  8
0
 10
3922.685974119227
 20
14970.64712750189
 30
0.0
  0
VERTEX
  5
3A04
  8
0
 10
5512.685974119227
 20
14970.64712750189
 30
0.0
  0
VERTEX
  5
3A05
  8
0
 10
5512.685974119227
 20
14530.64712750189
 30
0.0
  0
SEQEND
  5
3CC6
  8
0
  0
POLYLINE
  5
16E2
  8
0
 66
     1
 10
0.0
 20
0.0
 30
0.0
 70
     1
  0
VERTEX
  5
3A06
  8
0
 10
6022.685974119229
 20
14530.64712750189
 30
0.0
  0
VERTEX
  5
3A07
  8
0
 10
6022.685974119229
 20
14970.64712750189
 30
0.0
  0
VERTEX
  5
3A08
  8
0
 10
7812.685974119229
 20
14970.64712750189
 30
0.0
  0
VERTEX
  5
3A09
  8
0
 10
7812.685974119229
 20
14530.64712750189
 30
0.0
  0
SEQEND
  5
3CC7
  8
0
  0
POLYLINE
  5
16E6
  8
0
 66
     1
 10
0.0
 20
0.0
 30
0.0
 70
     1
  0
VERTEX
  5
3A0A
  8
0
 10
8817.685974119222
 20
14512.64712750189
 30
0.0
  0
VERTEX
  5
3A0B
  8
0
 10
10517.68597411922
 20
14512.64712750189
 30
0.0
  0
VERTEX
  5
3A0C
  8
0
 10
10517.68597411922
 20
13780.6471275019
 30
0.0
  0
VERTEX
  5
3A0D
  8
0
 10
10477.68597411922
 20
13780.6471275019
 30
0.0
  0
VERTEX
  5
3A0E
  8
0
 10
10477.68597411922
 20
14472.64712750189
 30
0.0
  0
VERTEX
  5
3A0F
  8
0
 10
8857.68597411922
 20
14472.64712750189
 30
0.0
  0
VERTEX
  5
3A10
  8
0
 10
8857.68597411922
 20
13780.6471275019
 30
0.0
  0
VERTEX
  5
3A11
  8
0
 10
8817.685974119222
 20
13780.6471275019
 30
0.0
  0
VERTEX
  5
3A12
  8
0
 10
8817.685974119222
 20
14512.64712750189
 30
0.0
  0
SEQEND
  5
3CC8
  8
0
  0
POLYLINE
  5
16E7
  8
0
 66
     1
 10
0.0
 20
0.0
 30
0.0
 70
     1
  0
VERTEX
  5
3A13
  8
0
 10
8817.685974119222
 20
14512.64712750189
 30
0.0
  0
VERTEX
  5
3A14
  8
0
 10
8817.685974119222
 20
14530.64712750189
 30
0.0
  0
VERTEX
  5
3A15
  8
0
 10
9617.68597411922
 20
14530.64712750189
 30
0.0
  0
VERTEX
  5
3A16
  8
0
 10
9617.68597411922
 20
14512.64712750189
 30
0.0
  0
SEQEND
  5
3CC9
  8
0
  0
POLYLINE
  5
1707
  8
0
 66
     1
 10
0.0
 20
0.0
 30
0.0
 70
     1
  0
VERTEX
  5
3A17
  8
0
 10
10517.68597411922
 20
14512.64712750189
 30
0.0
  0
VERTEX
  5
3A18
  8
0
 10
10517.68597411922
 20
14530.64712750189
 30
0.0
  0
VERTEX
  5
3A19
  8
0
 10
9717.68597411922
 20
14530.64712750189
 30
0.0
  0
VERTEX
  5
3A1A
  8
0
 10
9717.68597411922
 20
14512.64712750189
 30
0.0
  0
SEQEND
  5
3CCA
  8
0
  0
POLYLINE
  5
170B
  8
0
 66
     1
 10
0.0
 20
0.0
 30
0.0
  0
VERTEX
  5
3A1B
  8
0
 10
9672.68597411922
 20
14512.64712750189
 30
0.0
  0
VERTEX
  5
3A1C
  8
0
 10
9672.68597411922
 20
14970.64712750189
 30
0.0
  0
VERTEX
  5
3A1D
  8
0
 10
9662.68597411922
 20
14970.64712750189
 30
0.0
  0
VERTEX
  5
3A1E
  8
0
 10
9662.68597411922
 20
14512.64712750189
 30
0.0
  0
VERTEX
  5
3A1F
  8
0
 10
9672.68597411922
 20
14512.64712750189
 30
0.0
  0
SEQEND
  5
3CCB
  8
0
  0
POLYLINE
  5
171C
  8
0
 66
     1
 10
0.0
 20
0.0
 30
0.0
  0
VERTEX
  5
3A20
  8
0
 10
3922.685974119227
 20
17091.26564757876
 30
0.0
  0
VERTEX
  5
3A21
  8
0
 10
5512.685974119227
 20
17091.26564757876
 30
0.0
  0
VERTEX
  5
3A22
  8
0
 10
5512.685974119227
 20
17081.26564757877
 30
0.0
  0
VERTEX
  5
3A23
  8
0
 10
3922.685974119227
 20
17081.26564757877
 30
0.0
  0
VERTEX
  5
3A24
  8
0
 10
3922.685974119227
 20
17091.26564757876
 30
0.0
  0
SEQEND
  5
3CCC
  8
0
  0
POLYLINE
  5
171D
  8
0
 66
     1
 10
0.0
 20
0.0
 30
0.0
  0
VERTEX
  5
3A25
  8
0
 10
6022.685974119229
 20
17091.26564757876
 30
0.0
  0
VERTEX
  5
3A26
  8
0
 10
7812.685974119229
 20
17091.26564757876
 30
0.0
  0
VERTEX
  5
3A27
  8
0
 10
7812.685974119229
 20
17081.26564757877
 30
0.0
  0
VERTEX
  5
3A28
  8
0
 10
6022.685974119229
 20
17081.26564757877
 30
0.0
  0
VERTEX
  5
3A29
  8
0
 10
6022.685974119229
 20
17091.26564757876
 30
0.0
  0
SEQEND
  5
3CCD
  8
0
  0
POLYLINE
  5
1722
  8
0
 66
     1
 10
0.0
 20
0.0
 30
0.0
 70
     1
  0
VERTEX
  5
3A2A
  8
0
 10
7777.685974119227
 20
17091.26564757876
 30
0.0
  0
VERTEX
  5
3A2B
  8
0
 10
7777.685974119227
 20
17136.26564757877
 30
0.0
  0
VERTEX
  5
3A2C
  8
0
 10
7817.685974119227
 20
17136.26564757877
 30
0.0
  0
VERTEX
  5
3A2D
  8
0
 10
7817.685974119227
 20
17036.26564757877
 30
0.0
  0
VERTEX
  5
3A2E
  8
0
 10
7777.685974119227
 20
17036.26564757877
 30
0.0
  0
VERTEX
  5
3A2F
  8
0
 10
7777.685974119227
 20
17081.26564757877
 30
0.0
  0
VERTEX
  5
3A30
  8
0
 10
7812.685974119229
 20
17081.26564757877
 30
0.0
  0
VERTEX
  5
3A31
  8
0
 10
7812.685974119229
 20
17091.26564757876
 30
0.0
  0
VERTEX
  5
3A32
  8
0
 10
7777.685974119227
 20
17091.26564757876
 30
0.0
  0
SEQEND
  5
3CCE
  8
0
  0
POLYLINE
  5
1724
  8
0
 66
     1
 10
0.0
 20
0.0
 30
0.0
 70
     1
  0
VERTEX
  5
3A33
  8
0
 10
6057.685974119231
 20
17091.26564757876
 30
0.0
  0
VERTEX
  5
3A34
  8
0
 10
6057.685974119231
 20
17136.26564757877
 30
0.0
  0
VERTEX
  5
3A35
  8
0
 10
6017.685974119231
 20
17136.26564757877
 30
0.0
  0
VERTEX
  5
3A36
  8
0
 10
6017.685974119231
 20
17036.26564757877
 30
0.0
  0
VERTEX
  5
3A37
  8
0
 10
6057.685974119231
 20
17036.26564757877
 30
0.0
  0
VERTEX
  5
3A38
  8
0
 10
6057.685974119231
 20
17081.26564757877
 30
0.0
  0
VERTEX
  5
3A39
  8
0
 10
6022.685974119229
 20
17081.26564757877
 30
0.0
  0
VERTEX
  5
3A3A
  8
0
 10
6022.685974119229
 20
17091.26564757876
 30
0.0
  0
VERTEX
  5
3A3B
  8
0
 10
6057.685974119231
 20
17091.26564757876
 30
0.0
  0
SEQEND
  5
3CCF
  8
0
  0
POLYLINE
  5
1726
  8
0
 66
     1
 10
0.0
 20
0.0
 30
0.0
 70
     1
  0
VERTEX
  5
3A3C
  8
0
 10
5477.685974119224
 20
17091.26564757876
 30
0.0
  0
VERTEX
  5
3A3D
  8
0
 10
5477.685974119224
 20
17136.26564757877
 30
0.0
  0
VERTEX
  5
3A3E
  8
0
 10
5517.685974119224
 20
17136.26564757877
 30
0.0
  0
VERTEX
  5
3A3F
  8
0
 10
5517.685974119224
 20
17036.26564757877
 30
0.0
  0
VERTEX
  5
3A40
  8
0
 10
5477.685974119224
 20
17036.26564757877
 30
0.0
  0
VERTEX
  5
3A41
  8
0
 10
5477.685974119224
 20
17081.26564757877
 30
0.0
  0
VERTEX
  5
3A42
  8
0
 10
5512.685974119227
 20
17081.26564757877
 30
0.0
  0
VERTEX
  5
3A43
  8
0
 10
5512.685974119227
 20
17091.26564757876
 30
0.0
  0
VERTEX
  5
3A44
  8
0
 10
5477.685974119224
 20
17091.26564757876
 30
0.0
  0
SEQEND
  5
3CD0
  8
0
  0
POLYLINE
  5
1727
  8
0
 66
     1
 10
0.0
 20
0.0
 30
0.0
 70
     1
  0
VERTEX
  5
3A45
  8
0
 10
3957.68597411923
 20
17091.26564757876
 30
0.0
  0
VERTEX
  5
3A46
  8
0
 10
3957.68597411923
 20
17136.26564757877
 30
0.0
  0
VERTEX
  5
3A47
  8
0
 10
3917.68597411923
 20
17136.26564757877
 30
0.0
  0
VERTEX
  5
3A48
  8
0
 10
3917.68597411923
 20
17036.26564757877
 30
0.0
  0
VERTEX
  5
3A49
  8
0
 10
3957.68597411923
 20
17036.26564757877
 30
0.0
  0
VERTEX
  5
3A4A
  8
0
 10
3957.68597411923
 20
17081.26564757877
 30
0.0
  0
VERTEX
  5
3A4B
  8
0
 10
3922.685974119227
 20
17081.26564757877
 30
0.0
  0
VERTEX
  5
3A4C
  8
0
 10
3922.685974119227
 20
17091.26564757876
 30
0.0
  0
VERTEX
  5
3A4D
  8
0
 10
3957.68597411923
 20
17091.26564757876
 30
0.0
  0
SEQEND
  5
3CD1
  8
0
  0
POLYLINE
  5
172F
  8
0
 66
     1
 10
0.0
 20
0.0
 30
0.0
 70
     1
  0
VERTEX
  5
3A4E
  8
0
 10
14238.05792235769
 20
14512.64712750189
 30
0.0
  0
VERTEX
  5
3A4F
  8
0
 10
14238.05792235769
 20
14530.64712750189
 30
0.0
  0
VERTEX
  5
3A50
  8
0
 10
15278.05792235769
 20
14530.64712750189
 30
0.0
  0
VERTEX
  5
3A51
  8
0
 10
15278.05792235769
 20
14512.64712750189
 30
0.0
  0
SEQEND
  5
3CD2
  8
0
  0
POLYLINE
  5
1730
  8
0
 66
     1
 10
0.0
 20
0.0
 30
0.0
 70
     1
  0
VERTEX
  5
3A52
  8
0
 10
14238.05792235769
 20
14512.64712750189
 30
0.0
  0
VERTEX
  5
3A53
  8
0
 10
15278.05792235769
 20
14512.64712750189
 30
0.0
  0
VERTEX
  5
3A54
  8
0
 10
15278.05792235769
 20
13780.6471275019
 30
0.0
  0
VERTEX
  5
3A55
  8
0
 10
15238.05792235769
 20
13780.6471275019
 30
0.0
  0
VERTEX
  5
3A56
  8
0
 10
15238.05792235769
 20
14472.64712750189
 30
0.0
  0
VERTEX
  5
3A57
  8
0
 10
14238.05792235769
 20
14472.64712750189
 30
0.0
  0
VERTEX
  5
3A58
  8
0
 10
14238.05792235769
 20
14472.64712750189
 30
0.0
  0
VERTEX
  5
3A59
  8
0
 10
14238.05792235769
 20
14472.64712750189
 30
0.0
  0
VERTEX
  5
3A5A
  8
0
 10
14238.05792235769
 20
14512.64712750189
 30
0.0
  0
SEQEND
  5
3CD3
  8
0
  0
POLYLINE
  5
1731
  8
0
 66
     1
 10
0.0
 20
0.0
 30
0.0
 70
     1
  0
VERTEX
  5
3A5B
  8
0
 10
14238.05792235769
 20
16936.26564757877
 30
0.0
  0
VERTEX
  5
3A5C
  8
0
 10
15238.05792235769
 20
16936.26564757877
 30
0.0
  0
VERTEX
  5
3A5D
  8
0
 10
15238.05792235769
 20
16236.26564757877
 30
0.0
  0
VERTEX
  5
3A5E
  8
0
 10
14238.05792235769
 20
16236.26564757877
 30
0.0
  0
SEQEND
  5
3CD4
  8
0
  0
POLYLINE
  5
1B7C
  8
0
 66
     1
 10
0.0
 20
0.0
 30
0.0
 70
     1
  0
VERTEX
  5
3A5F
  8
0
 10
9572.68597411922
 20
14467.6471275019
 30
0.0
  0
VERTEX
  5
3A60
  8
0
 10
9762.68597411922
 20
14467.6471275019
 30
0.0
  0
VERTEX
  5
3A61
  8
0
 10
9762.68597411922
 20
14472.64712750189
 30
0.0
  0
VERTEX
  5
3A62
  8
0
 10
9572.68597411922
 20
14472.64712750189
 30
0.0
  0
SEQEND
  5
3CD5
  8
0
  0
POLYLINE
  5
1FB1
  8
0
 66
     1
 10
0.0
 20
0.0
 30
0.0
 70
     1
  0
VERTEX
  5
3A63
  8
0
 10
3717.685974119232
 20
3085.694289085377
 30
0.0
  0
VERTEX
  5
3A64
  8
0
 10
3717.685974119232
 20
3103.694289085379
 30
0.0
  0
VERTEX
  5
3A65
  8
0
 10
5117.685974119227
 20
3103.694289085379
 30
0.0
  0
VERTEX
  5
3A66
  8
0
 10
5117.685974119227
 20
3085.694289085377
 30
0.0
  0
SEQEND
  5
3CD6
  8
0
  0
POLYLINE
  5
1FB2
  8
0
 66
     1
 10
0.0
 20
0.0
 30
0.0
 70
     1
  0
VERTEX
  5
3A67
  8
0
 10
3717.685974119232
 20
3085.694289085377
 30
0.0
  0
VERTEX
  5
3A68
  8
0
 10
5117.685974119227
 20
3085.694289085377
 30
0.0
  0
VERTEX
  5
3A69
  8
0
 10
5117.685974119227
 20
2353.694289085377
 30
0.0
  0
VERTEX
  5
3A6A
  8
0
 10
5077.685974119229
 20
2353.694289085377
 30
0.0
  0
VERTEX
  5
3A6B
  8
0
 10
5077.685974119229
 20
3045.694289085377
 30
0.0
  0
VERTEX
  5
3A6C
  8
0
 10
3757.685974119232
 20
3045.694289085377
 30
0.0
  0
VERTEX
  5
3A6D
  8
0
 10
3757.685974119232
 20
2353.694289085377
 30
0.0
  0
VERTEX
  5
3A6E
  8
0
 10
3717.685974119232
 20
2353.694289085377
 30
0.0
  0
VERTEX
  5
3A6F
  8
0
 10
3717.685974119232
 20
3085.694289085377
 30
0.0
  0
SEQEND
  5
3CD7
  8
0
  0
POLYLINE
  5
1FB3
  8
0
 66
     1
 10
0.0
 20
0.0
 30
0.0
 70
     1
  0
VERTEX
  5
3A70
  8
0
 10
2017.685974119227
 20
3085.694289085377
 30
0.0
  0
VERTEX
  5
3A71
  8
0
 10
3217.685974119232
 20
3085.694289085377
 30
0.0
  0
VERTEX
  5
3A72
  8
0
 10
3217.685974119232
 20
2353.694289085377
 30
0.0
  0
VERTEX
  5
3A73
  8
0
 10
3177.685974119227
 20
2353.694289085377
 30
0.0
  0
VERTEX
  5
3A74
  8
0
 10
3177.685974119227
 20
3045.694289085377
 30
0.0
  0
VERTEX
  5
3A75
  8
0
 10
2057.685974119227
 20
3045.694289085377
 30
0.0
  0
VERTEX
  5
3A76
  8
0
 10
2057.685974119227
 20
2353.694289085377
 30
0.0
  0
VERTEX
  5
3A77
  8
0
 10
2017.685974119227
 20
2353.694289085377
 30
0.0
  0
VERTEX
  5
3A78
  8
0
 10
2017.685974119227
 20
3085.694289085377
 30
0.0
  0
SEQEND
  5
3CD8
  8
0
  0
POLYLINE
  5
1FB4
  8
0
 66
     1
 10
0.0
 20
0.0
 30
0.0
 70
     1
  0
VERTEX
  5
3A79
  8
0
 10
2017.685974119227
 20
3085.694289085377
 30
0.0
  0
VERTEX
  5
3A7A
  8
0
 10
2017.685974119227
 20
3103.694289085379
 30
0.0
  0
VERTEX
  5
3A7B
  8
0
 10
3217.685974119232
 20
3103.694289085379
 30
0.0
  0
VERTEX
  5
3A7C
  8
0
 10
3217.685974119232
 20
3085.694289085377
 30
0.0
  0
SEQEND
  5
3CD9
  8
0
  0
POLYLINE
  5
1FB5
  8
0
 66
     1
 10
0.0
 20
0.0
 30
0.0
 70
     1
  0
VERTEX
  5
3A7D
  8
0
 10
3717.685974119232
 20
11409.31280916225
 30
0.0
  0
VERTEX
  5
3A7E
  8
0
 10
5117.685974119227
 20
11409.31280916225
 30
0.0
  0
VERTEX
  5
3A7F
  8
0
 10
5117.685974119227
 20
10009.31280916225
 30
0.0
  0
VERTEX
  5
3A80
  8
0
 10
3717.685974119232
 20
10009.31280916225
 30
0.0
  0
SEQEND
  5
3CDA
  8
0
  0
POLYLINE
  5
1FB6
  8
0
 66
     1
 10
0.0
 20
0.0
 30
0.0
 70
     1
  0
VERTEX
  5
3A81
  8
0
 10
2017.685974119227
 20
10209.31280916225
 30
0.0
  0
VERTEX
  5
3A82
  8
0
 10
3217.685974119232
 20
10209.31280916225
 30
0.0
  0
VERTEX
  5
3A83
  8
0
 10
3217.685974119232
 20
11409.31280916225
 30
0.0
  0
VERTEX
  5
3A84
  8
0
 10
2017.685974119227
 20
11409.31280916225
 30
0.0
  0
SEQEND
  5
3CDB
  8
0
  0
POLYLINE
  5
1FBE
  8
0
 66
     1
 10
0.0
 20
0.0
 30
0.0
 70
     1
  0
VERTEX
  5
3A85
  8
0
 10
3717.685974119232
 20
5310.581200197557
 30
0.0
  0
VERTEX
  5
3A86
  8
0
 10
5117.685974119227
 20
5310.581200197557
 30
0.0
  0
VERTEX
  5
3A87
  8
0
 10
5117.685974119227
 20
4610.581200197554
 30
0.0
  0
VERTEX
  5
3A88
  8
0
 10
3717.685974119232
 20
4610.581200197554
 30
0.0
  0
SEQEND
  5
3CDC
  8
0
  0
POLYLINE
  5
1FBF
  8
0
 66
     1
 10
0.0
 20
0.0
 30
0.0
 70
     1
  0
VERTEX
  5
3A89
  8
0
 10
3717.685974119232
 20
6710.581200197553
 30
0.0
  0
VERTEX
  5
3A8A
  8
0
 10
5117.685974119227
 20
6710.581200197553
 30
0.0
  0
VERTEX
  5
3A8B
  8
0
 10
5117.685974119227
 20
5910.581200197557
 30
0.0
  0
VERTEX
  5
3A8C
  8
0
 10
3717.685974119232
 20
5910.581200197557
 30
0.0
  0
SEQEND
  5
3CDD
  8
0
  0
POLYLINE
  5
1FC0
  8
0
 66
     1
 10
0.0
 20
0.0
 30
0.0
 70
     1
  0
VERTEX
  5
3A8D
  8
0
 10
3717.685974119232
 20
8210.581200197554
 30
0.0
  0
VERTEX
  5
3A8E
  8
0
 10
5117.685974119227
 20
8210.581200197554
 30
0.0
  0
VERTEX
  5
3A8F
  8
0
 10
5117.685974119227
 20
7310.581200197553
 30
0.0
  0
VERTEX
  5
3A90
  8
0
 10
3717.685974119232
 20
7310.581200197553
 30
0.0
  0
SEQEND
  5
3CDE
  8
0
  0
POLYLINE
  5
1FE3
  8
0
 66
     1
 10
0.0
 20
0.0
 30
0.0
 70
     1
  0
VERTEX
  5
3A91
  8
0
 10
2057.685974119229
 20
17091.26564757876
 30
0.0
  0
VERTEX
  5
3A92
  8
0
 10
2057.685974119229
 20
17136.26564757877
 30
0.0
  0
VERTEX
  5
3A93
  8
0
 10
2017.685974119229
 20
17136.26564757877
 30
0.0
  0
VERTEX
  5
3A94
  8
0
 10
2017.685974119229
 20
17036.26564757877
 30
0.0
  0
VERTEX
  5
3A95
  8
0
 10
2057.685974119229
 20
17036.26564757877
 30
0.0
  0
VERTEX
  5
3A96
  8
0
 10
2057.685974119229
 20
17081.26564757877
 30
0.0
  0
VERTEX
  5
3A97
  8
0
 10
2022.685974119227
 20
17081.26564757877
 30
0.0
  0
VERTEX
  5
3A98
  8
0
 10
2022.685974119227
 20
17091.26564757876
 30
0.0
  0
VERTEX
  5
3A99
  8
0
 10
2057.685974119229
 20
17091.26564757876
 30
0.0
  0
SEQEND
  5
3CDF
  8
0
  0
POLYLINE
  5
1FE4
  8
0
 66
     1
 10
0.0
 20
0.0
 30
0.0
 70
     1
  0
VERTEX
  5
3A9A
  8
0
 10
3377.685974119226
 20
17091.26564757876
 30
0.0
  0
VERTEX
  5
3A9B
  8
0
 10
3377.685974119226
 20
17136.26564757877
 30
0.0
  0
VERTEX
  5
3A9C
  8
0
 10
3417.685974119226
 20
17136.26564757877
 30
0.0
  0
VERTEX
  5
3A9D
  8
0
 10
3417.685974119226
 20
17036.26564757877
 30
0.0
  0
VERTEX
  5
3A9E
  8
0
 10
3377.685974119226
 20
17036.26564757877
 30
0.0
  0
VERTEX
  5
3A9F
  8
0
 10
3377.685974119226
 20
17081.26564757877
 30
0.0
  0
VERTEX
  5
3AA0
  8
0
 10
3412.685974119229
 20
17081.26564757877
 30
0.0
  0
VERTEX
  5
3AA1
  8
0
 10
3412.685974119229
 20
17091.26564757876
 30
0.0
  0
VERTEX
  5
3AA2
  8
0
 10
3377.685974119226
 20
17091.26564757876
 30
0.0
  0
SEQEND
  5
3CE0
  8
0
  0
POLYLINE
  5
1FE5
  8
0
 66
     1
 10
0.0
 20
0.0
 30
0.0
  0
VERTEX
  5
3AA3
  8
0
 10
2022.685974119227
 20
17091.26564757876
 30
0.0
  0
VERTEX
  5
3AA4
  8
0
 10
3412.685974119229
 20
17091.26564757876
 30
0.0
  0
VERTEX
  5
3AA5
  8
0
 10
3412.685974119229
 20
17081.26564757877
 30
0.0
  0
VERTEX
  5
3AA6
  8
0
 10
2022.685974119227
 20
17081.26564757877
 30
0.0
  0
VERTEX
  5
3AA7
  8
0
 10
2022.685974119227
 20
17091.26564757876
 30
0.0
  0
SEQEND
  5
3CE1
  8
0
  0
POLYLINE
  5
1FE6
  8
0
 66
     1
 10
0.0
 20
0.0
 30
0.0
 70
     1
  0
VERTEX
  5
3AA8
  8
0
 10
2022.685974119227
 20
14530.64712750189
 30
0.0
  0
VERTEX
  5
3AA9
  8
0
 10
2022.685974119227
 20
14970.64712750189
 30
0.0
  0
VERTEX
  5
3AAA
  8
0
 10
3412.685974119229
 20
14970.64712750189
 30
0.0
  0
VERTEX
  5
3AAB
  8
0
 10
3412.685974119229
 20
14530.64712750189
 30
0.0
  0
SEQEND
  5
3CE2
  8
0
  0
POLYLINE
  5
1FE7
  8
0
 66
     1
 10
0.0
 20
0.0
 30
0.0
 70
     1
  0
VERTEX
  5
3AAC
  8
0
 10
2017.685974119227
 20
14512.64712750189
 30
0.0
  0
VERTEX
  5
3AAD
  8
0
 10
3417.685974119226
 20
14512.64712750189
 30
0.0
  0
VERTEX
  5
3AAE
  8
0
 10
3417.685974119226
 20
13780.6471275019
 30
0.0
  0
VERTEX
  5
3AAF
  8
0
 10
3377.685974119229
 20
13780.6471275019
 30
0.0
  0
VERTEX
  5
3AB0
  8
0
 10
3377.685974119229
 20
14472.64712750189
 30
0.0
  0
VERTEX
  5
3AB1
  8
0
 10
2057.685974119227
 20
14472.64712750189
 30
0.0
  0
VERTEX
  5
3AB2
  8
0
 10
2057.685974119227
 20
13780.6471275019
 30
0.0
  0
VERTEX
  5
3AB3
  8
0
 10
2017.685974119227
 20
13780.6471275019
 30
0.0
  0
VERTEX
  5
3AB4
  8
0
 10
2017.685974119227
 20
14512.64712750189
 30
0.0
  0
SEQEND
  5
3CE3
  8
0
  0
POLYLINE
  5
1FE8
  8
0
 66
     1
 10
0.0
 20
0.0
 30
0.0
 70
     1
  0
VERTEX
  5
3AB5
  8
0
 10
2017.685974119227
 20
14512.64712750189
 30
0.0
  0
VERTEX
  5
3AB6
  8
0
 10
2017.685974119227
 20
14530.64712750189
 30
0.0
  0
VERTEX
  5
3AB7
  8
0
 10
3417.685974119226
 20
14530.64712750189
 30
0.0
  0
VERTEX
  5
3AB8
  8
0
 10
3417.685974119226
 20
14512.64712750189
 30
0.0
  0
SEQEND
  5
3CE4
  8
0
  0
POLYLINE
  5
1FE9
  8
0
 66
     1
 10
0.0
 20
0.0
 30
0.0
 70
     1
  0
VERTEX
  5
3AB9
  8
0
 10
2017.685974119227
 20
17036.26564757877
 30
0.0
  0
VERTEX
  5
3ABA
  8
0
 10
3417.685974119226
 20
17036.26564757877
 30
0.0
  0
VERTEX
  5
3ABB
  8
0
 10
3417.685974119226
 20
17136.26564757877
 30
0.0
  0
VERTEX
  5
3ABC
  8
0
 10
2017.685974119227
 20
17136.26564757877
 30
0.0
  0
SEQEND
  5
3CE5
  8
0
  0
POLYLINE
  5
1FEA
  8
0
 66
     1
 10
0.0
 20
0.0
 30
0.0
 70
     1
  0
VERTEX
  5
3ABD
  8
0
 10
2017.685974119227
 20
16236.26564757877
 30
0.0
  0
VERTEX
  5
3ABE
  8
0
 10
3417.685974119226
 20
16236.26564757877
 30
0.0
  0
VERTEX
  5
3ABF
  8
0
 10
3417.685974119226
 20
17036.26564757877
 30
0.0
  0
VERTEX
  5
3AC0
  8
0
 10
2017.685974119227
 20
17036.26564757877
 30
0.0
  0
SEQEND
  5
3CE6
  8
0
  0
POLYLINE
  5
1FEB
  8
0
 66
     1
 10
0.0
 20
0.0
 30
0.0
 70
     1
  0
VERTEX
  5
3AC1
  8
0
 10
2017.685974119227
 20
17936.26564757876
 30
0.0
  0
VERTEX
  5
3AC2
  8
0
 10
3417.685974119226
 20
17936.26564757876
 30
0.0
  0
VERTEX
  5
3AC3
  8
0
 10
3417.685974119226
 20
17136.26564757877
 30
0.0
  0
VERTEX
  5
3AC4
  8
0
 10
2017.685974119227
 20
17136.26564757877
 30
0.0
  0
SEQEND
  5
3CE7
  8
0
  0
POLYLINE
  5
1FEC
  8
0
 66
     1
 10
0.0
 20
0.0
 30
0.0
 70
     1
  0
VERTEX
  5
3AC5
  8
0
 10
17501.87510295148
 20
8210.581200197554
 30
0.0
  0
VERTEX
  5
3AC6
  8
0
 10
18901.87510295148
 20
8210.581200197554
 30
0.0
  0
VERTEX
  5
3AC7
  8
0
 10
18901.87510295148
 20
7310.581200197553
 30
0.0
  0
VERTEX
  5
3AC8
  8
0
 10
17501.87510295148
 20
7310.581200197553
 30
0.0
  0
SEQEND
  5
3CE8
  8
0
  0
POLYLINE
  5
1FED
  8
0
 66
     1
 10
0.0
 20
0.0
 30
0.0
 70
     1
  0
VERTEX
  5
3AC9
  8
0
 10
17501.87510295148
 20
6710.581200197553
 30
0.0
  0
VERTEX
  5
3ACA
  8
0
 10
18901.87510295148
 20
6710.581200197553
 30
0.0
  0
VERTEX
  5
3ACB
  8
0
 10
18901.87510295148
 20
5910.581200197557
 30
0.0
  0
VERTEX
  5
3ACC
  8
0
 10
17501.87510295148
 20
5910.581200197557
 30
0.0
  0
SEQEND
  5
3CE9
  8
0
  0
POLYLINE
  5
1FEE
  8
0
 66
     1
 10
0.0
 20
0.0
 30
0.0
 70
     1
  0
VERTEX
  5
3ACD
  8
0
 10
17501.87510295148
 20
5310.581200197557
 30
0.0
  0
VERTEX
  5
3ACE
  8
0
 10
18901.87510295148
 20
5310.581200197557
 30
0.0
  0
VERTEX
  5
3ACF
  8
0
 10
18901.87510295148
 20
4610.581200197554
 30
0.0
  0
VERTEX
  5
3AD0
  8
0
 10
17501.87510295148
 20
4610.581200197554
 30
0.0
  0
SEQEND
  5
3CEA
  8
0
  0
POLYLINE
  5
1FF3
  8
0
 66
     1
 10
0.0
 20
0.0
 30
0.0
 70
     1
  0
VERTEX
  5
3AD1
  8
0
 10
17501.87510295148
 20
3085.694289085377
 30
0.0
  0
VERTEX
  5
3AD2
  8
0
 10
18901.87510295148
 20
3085.694289085377
 30
0.0
  0
VERTEX
  5
3AD3
  8
0
 10
18901.87510295148
 20
2353.694289085377
 30
0.0
  0
VERTEX
  5
3AD4
  8
0
 10
18861.87510295148
 20
2353.694289085377
 30
0.0
  0
VERTEX
  5
3AD5
  8
0
 10
18861.87510295148
 20
3045.694289085377
 30
0.0
  0
VERTEX
  5
3AD6
  8
0
 10
17541.87510295148
 20
3045.694289085377
 30
0.0
  0
VERTEX
  5
3AD7
  8
0
 10
17541.87510295148
 20
2353.694289085377
 30
0.0
  0
VERTEX
  5
3AD8
  8
0
 10
17501.87510295148
 20
2353.694289085377
 30
0.0
  0
VERTEX
  5
3AD9
  8
0
 10
17501.87510295148
 20
3085.694289085377
 30
0.0
  0
SEQEND
  5
3CEB
  8
0
  0
POLYLINE
  5
1FF4
  8
0
 66
     1
 10
0.0
 20
0.0
 30
0.0
 70
     1
  0
VERTEX
  5
3ADA
  8
0
 10
17501.87510295148
 20
3085.694289085377
 30
0.0
  0
VERTEX
  5
3ADB
  8
0
 10
17501.87510295148
 20
3103.694289085377
 30
0.0
  0
VERTEX
  5
3ADC
  8
0
 10
18901.87510295148
 20
3103.694289085377
 30
0.0
  0
VERTEX
  5
3ADD
  8
0
 10
18901.87510295148
 20
3085.694289085377
 30
0.0
  0
SEQEND
  5
3CEC
  8
0
  0
POLYLINE
  5
1FF5
  8
0
 66
     1
 10
0.0
 20
0.0
 30
0.0
 70
     1
  0
VERTEX
  5
3ADE
  8
0
 10
19401.87510295148
 20
3085.694289085377
 30
0.0
  0
VERTEX
  5
3ADF
  8
0
 10
19401.87510295148
 20
3103.694289085377
 30
0.0
  0
VERTEX
  5
3AE0
  8
0
 10
21001.87510295148
 20
3103.694289085377
 30
0.0
  0
VERTEX
  5
3AE1
  8
0
 10
21001.87510295148
 20
3085.694289085377
 30
0.0
  0
SEQEND
  5
3CED
  8
0
  0
POLYLINE
  5
1FF6
  8
0
 66
     1
 10
0.0
 20
0.0
 30
0.0
 70
     1
  0
VERTEX
  5
3AE2
  8
0
 10
19401.87510295148
 20
3085.694289085377
 30
0.0
  0
VERTEX
  5
3AE3
  8
0
 10
21001.87510295148
 20
3085.694289085377
 30
0.0
  0
VERTEX
  5
3AE4
  8
0
 10
21001.87510295148
 20
2353.694289085377
 30
0.0
  0
VERTEX
  5
3AE5
  8
0
 10
20961.87510295148
 20
2353.694289085377
 30
0.0
  0
VERTEX
  5
3AE6
  8
0
 10
20961.87510295148
 20
3045.694289085377
 30
0.0
  0
VERTEX
  5
3AE7
  8
0
 10
19441.87510295148
 20
3045.694289085377
 30
0.0
  0
VERTEX
  5
3AE8
  8
0
 10
19441.87510295148
 20
2353.694289085377
 30
0.0
  0
VERTEX
  5
3AE9
  8
0
 10
19401.87510295148
 20
2353.694289085377
 30
0.0
  0
VERTEX
  5
3AEA
  8
0
 10
19401.87510295148
 20
3085.694289085377
 30
0.0
  0
SEQEND
  5
3CEE
  8
0
  0
POLYLINE
  5
1FF7
  8
0
 66
     1
 10
0.0
 20
0.0
 30
0.0
 70
     1
  0
VERTEX
  5
3AEB
  8
0
 10
21501.87510295148
 20
3085.694289085377
 30
0.0
  0
VERTEX
  5
3AEC
  8
0
 10
23301.87510295148
 20
3085.694289085377
 30
0.0
  0
VERTEX
  5
3AED
  8
0
 10
23301.87510295148
 20
2353.694289085377
 30
0.0
  0
VERTEX
  5
3AEE
  8
0
 10
23261.87510295148
 20
2353.694289085377
 30
0.0
  0
VERTEX
  5
3AEF
  8
0
 10
23261.87510295148
 20
3045.694289085377
 30
0.0
  0
VERTEX
  5
3AF0
  8
0
 10
21541.87510295148
 20
3045.694289085377
 30
0.0
  0
VERTEX
  5
3AF1
  8
0
 10
21541.87510295148
 20
2353.694289085377
 30
0.0
  0
VERTEX
  5
3AF2
  8
0
 10
21501.87510295148
 20
2353.694289085377
 30
0.0
  0
VERTEX
  5
3AF3
  8
0
 10
21501.87510295148
 20
3085.694289085377
 30
0.0
  0
SEQEND
  5
3CEF
  8
0
  0
POLYLINE
  5
1FF8
  8
0
 66
     1
 10
0.0
 20
0.0
 30
0.0
 70
     1
  0
VERTEX
  5
3AF4
  8
0
 10
21501.87510295148
 20
3085.694289085377
 30
0.0
  0
VERTEX
  5
3AF5
  8
0
 10
21501.87510295148
 20
3103.694289085377
 30
0.0
  0
VERTEX
  5
3AF6
  8
0
 10
23301.87510295148
 20
3103.694289085377
 30
0.0
  0
VERTEX
  5
3AF7
  8
0
 10
23301.87510295148
 20
3085.694289085377
 30
0.0
  0
SEQEND
  5
3CF0
  8
0
  0
POLYLINE
  5
1FF9
  8
0
 66
     1
 10
0.0
 20
0.0
 30
0.0
 70
     1
  0
VERTEX
  5
3AF8
  8
0
 10
23801.87510295148
 20
3085.694289085377
 30
0.0
  0
VERTEX
  5
3AF9
  8
0
 10
23801.87510295148
 20
3103.694289085377
 30
0.0
  0
VERTEX
  5
3AFA
  8
0
 10
25801.87510295148
 20
3103.694289085377
 30
0.0
  0
VERTEX
  5
3AFB
  8
0
 10
25801.87510295148
 20
3085.694289085377
 30
0.0
  0
SEQEND
  5
3CF1
  8
0
  0
POLYLINE
  5
1FFA
  8
0
 66
     1
 10
0.0
 20
0.0
 30
0.0
 70
     1
  0
VERTEX
  5
3AFC
  8
0
 10
23801.87510295148
 20
3085.694289085377
 30
0.0
  0
VERTEX
  5
3AFD
  8
0
 10
25801.87510295148
 20
3085.694289085377
 30
0.0
  0
VERTEX
  5
3AFE
  8
0
 10
25801.87510295148
 20
2353.694289085377
 30
0.0
  0
VERTEX
  5
3AFF
  8
0
 10
25761.87510295148
 20
2353.694289085377
 30
0.0
  0
VERTEX
  5
3B00
  8
0
 10
25761.87510295148
 20
3045.694289085377
 30
0.0
  0
VERTEX
  5
3B01
  8
0
 10
23841.87510295148
 20
3045.694289085377
 30
0.0
  0
VERTEX
  5
3B02
  8
0
 10
23841.87510295148
 20
2353.694289085377
 30
0.0
  0
VERTEX
  5
3B03
  8
0
 10
23801.87510295148
 20
2353.694289085377
 30
0.0
  0
VERTEX
  5
3B04
  8
0
 10
23801.87510295148
 20
3085.694289085377
 30
0.0
  0
SEQEND
  5
3CF2
  8
0
  0
POLYLINE
  5
1FFB
  8
0
 66
     1
 10
0.0
 20
0.0
 30
0.0
 70
     1
  0
VERTEX
  5
3B05
  8
0
 10
26813.80466002523
 20
12221.31280916225
 30
0.0
  0
VERTEX
  5
3B06
  8
0
 10
16584.18912883226
 20
12221.31280916225
 30
0.0
  0
VERTEX
  5
3B07
  8
0
 10
16584.18912883226
 20
1541.694289085378
 30
0.0
  0
VERTEX
  5
3B08
  8
0
 10
26813.80466002523
 20
1541.694289085382
 30
0.0
  0
SEQEND
  5
3CF3
  8
0
  0
POLYLINE
  5
1FFC
  8
0
 66
     1
 10
0.0
 20
0.0
 30
0.0
 70
     1
  0
VERTEX
  5
3B09
  8
0
 10
23801.87510295148
 20
5310.581200197557
 30
0.0
  0
VERTEX
  5
3B0A
  8
0
 10
25801.87510295148
 20
5310.581200197557
 30
0.0
  0
VERTEX
  5
3B0B
  8
0
 10
25801.87510295148
 20
4610.581200197554
 30
0.0
  0
VERTEX
  5
3B0C
  8
0
 10
23801.87510295148
 20
4610.581200197554
 30
0.0
  0
SEQEND
  5
3CF4
  8
0
  0
POLYLINE
  5
1FFD
  8
0
 66
     1
 10
0.0
 20
0.0
 30
0.0
 70
     1
  0
VERTEX
  5
3B0D
  8
0
 10
23801.87510295148
 20
6710.581200197553
 30
0.0
  0
VERTEX
  5
3B0E
  8
0
 10
25801.87510295148
 20
6710.581200197553
 30
0.0
  0
VERTEX
  5
3B0F
  8
0
 10
25801.87510295148
 20
5910.581200197557
 30
0.0
  0
VERTEX
  5
3B10
  8
0
 10
23801.87510295148
 20
5910.581200197557
 30
0.0
  0
SEQEND
  5
3CF5
  8
0
  0
POLYLINE
  5
1FFE
  8
0
 66
     1
 10
0.0
 20
0.0
 30
0.0
 70
     1
  0
VERTEX
  5
3B11
  8
0
 10
23801.87510295148
 20
8210.581200197554
 30
0.0
  0
VERTEX
  5
3B12
  8
0
 10
25801.87510295148
 20
8210.581200197554
 30
0.0
  0
VERTEX
  5
3B13
  8
0
 10
25801.87510295148
 20
7310.581200197553
 30
0.0
  0
VERTEX
  5
3B14
  8
0
 10
23801.87510295148
 20
7310.581200197553
 30
0.0
  0
SEQEND
  5
3CF6
  8
0
  0
POLYLINE
  5
1FFF
  8
0
 66
     1
 10
0.0
 20
0.0
 30
0.0
 70
     1
  0
VERTEX
  5
3B15
  8
0
 10
21501.87510295148
 20
8210.581200197554
 30
0.0
  0
VERTEX
  5
3B16
  8
0
 10
23301.87510295148
 20
8210.581200197554
 30
0.0
  0
VERTEX
  5
3B17
  8
0
 10
23301.87510295148
 20
7310.581200197553
 30
0.0
  0
VERTEX
  5
3B18
  8
0
 10
21501.87510295148
 20
7310.581200197553
 30
0.0
  0
SEQEND
  5
3CF7
  8
0
  0
POLYLINE
  5
2000
  8
0
 66
     1
 10
0.0
 20
0.0
 30
0.0
 70
     1
  0
VERTEX
  5
3B19
  8
0
 10
21501.87510295148
 20
6710.581200197553
 30
0.0
  0
VERTEX
  5
3B1A
  8
0
 10
23301.87510295148
 20
6710.581200197553
 30
0.0
  0
VERTEX
  5
3B1B
  8
0
 10
23301.87510295148
 20
5910.581200197557
 30
0.0
  0
VERTEX
  5
3B1C
  8
0
 10
21501.87510295148
 20
5910.581200197557
 30
0.0
  0
SEQEND
  5
3CF8
  8
0
  0
POLYLINE
  5
2001
  8
0
 66
     1
 10
0.0
 20
0.0
 30
0.0
 70
     1
  0
VERTEX
  5
3B1D
  8
0
 10
21501.87510295148
 20
5310.581200197557
 30
0.0
  0
VERTEX
  5
3B1E
  8
0
 10
23301.87510295148
 20
5310.581200197557
 30
0.0
  0
VERTEX
  5
3B1F
  8
0
 10
23301.87510295148
 20
4610.581200197554
 30
0.0
  0
VERTEX
  5
3B20
  8
0
 10
21501.87510295148
 20
4610.581200197554
 30
0.0
  0
SEQEND
  5
3CF9
  8
0
  0
POLYLINE
  5
2002
  8
0
 66
     1
 10
0.0
 20
0.0
 30
0.0
 70
     1
  0
VERTEX
  5
3B21
  8
0
 10
19401.87510295148
 20
5310.581200197557
 30
0.0
  0
VERTEX
  5
3B22
  8
0
 10
21001.87510295148
 20
5310.581200197557
 30
0.0
  0
VERTEX
  5
3B23
  8
0
 10
21001.87510295148
 20
4610.581200197554
 30
0.0
  0
VERTEX
  5
3B24
  8
0
 10
19401.87510295148
 20
4610.581200197554
 30
0.0
  0
SEQEND
  5
3CFA
  8
0
  0
POLYLINE
  5
2003
  8
0
 66
     1
 10
0.0
 20
0.0
 30
0.0
 70
     1
  0
VERTEX
  5
3B25
  8
0
 10
19401.87510295148
 20
6710.581200197553
 30
0.0
  0
VERTEX
  5
3B26
  8
0
 10
21001.87510295148
 20
6710.581200197553
 30
0.0
  0
VERTEX
  5
3B27
  8
0
 10
21001.87510295148
 20
5910.581200197557
 30
0.0
  0
VERTEX
  5
3B28
  8
0
 10
19401.87510295148
 20
5910.581200197557
 30
0.0
  0
SEQEND
  5
3CFB
  8
0
  0
POLYLINE
  5
2004
  8
0
 66
     1
 10
0.0
 20
0.0
 30
0.0
 70
     1
  0
VERTEX
  5
3B29
  8
0
 10
19401.87510295148
 20
8210.581200197554
 30
0.0
  0
VERTEX
  5
3B2A
  8
0
 10
21001.87510295148
 20
8210.581200197554
 30
0.0
  0
VERTEX
  5
3B2B
  8
0
 10
21001.87510295148
 20
7310.581200197553
 30
0.0
  0
VERTEX
  5
3B2C
  8
0
 10
19401.87510295148
 20
7310.581200197553
 30
0.0
  0
SEQEND
  5
3CFC
  8
0
  0
CIRCLE
  5
2006
  8
0
 10
17621.87510295148
 20
8090.581200197553
 30
0.0
 40
40.0
  0
CIRCLE
  5
2007
  8
0
 10
17621.87510295148
 20
8090.581200197553
 30
0.0
 40
30.0
  0
CIRCLE
  5
2016
  8
0
 10
18781.87510295148
 20
8090.581200197553
 30
0.0
 40
30.0
  0
CIRCLE
  5
2017
  8
0
 10
18781.87510295148
 20
8090.581200197553
 30
0.0
 40
40.0
  0
CIRCLE
  5
2018
  8
0
 10
19521.87510295148
 20
8090.581200197553
 30
0.0
 40
30.0
  0
CIRCLE
  5
2019
  8
0
 10
19521.87510295148
 20
8090.581200197553
 30
0.0
 40
40.0
  0
CIRCLE
  5
201A
  8
0
 10
21621.87510295148
 20
8090.581200197553
 30
0.0
 40
40.0
  0
CIRCLE
  5
201B
  8
0
 10
21621.87510295148
 20
8090.581200197553
 30
0.0
 40
30.0
  0
CIRCLE
  5
201C
  8
0
 10
23921.87510295148
 20
8090.581200197553
 30
0.0
 40
30.0
  0
CIRCLE
  5
201D
  8
0
 10
23921.87510295148
 20
8090.581200197553
 30
0.0
 40
40.0
  0
CIRCLE
  5
201E
  8
0
 10
25681.87510295148
 20
8090.581200197553
 30
0.0
 40
40.0
  0
CIRCLE
  5
201F
  8
0
 10
25681.87510295148
 20
8090.581200197553
 30
0.0
 40
30.0
  0
CIRCLE
  5
2020
  8
0
 10
23181.87510295148
 20
8090.581200197553
 30
0.0
 40
30.0
  0
CIRCLE
  5
2021
  8
0
 10
23181.87510295148
 20
8090.581200197553
 30
0.0
 40
40.0
  0
CIRCLE
  5
2022
  8
0
 10
20881.87510295148
 20
8090.581200197553
 30
0.0
 40
40.0
  0
CIRCLE
  5
2023
  8
0
 10
20881.87510295148
 20
8090.581200197553
 30
0.0
 40
30.0
  0
POLYLINE
  5
2024
  8
0
 66
     1
 10
0.0
 20
0.0
 30
0.0
 70
     1
  0
VERTEX
  5
3B2D
  8
0
 10
18069.87510295148
 20
8028.581200197555
 30
0.0
  0
VERTEX
  5
3B2E
  8
0
 10
18333.87510295148
 20
8028.581200197555
 30
0.0
  0
VERTEX
  5
3B2F
  8
0
 10
18333.87510295148
 20
8152.581200197554
 30
0.0
  0
VERTEX
  5
3B30
  8
0
 10
18069.87510295148
 20
8152.581200197554
 30
0.0
  0
SEQEND
  5
3CFD
  8
0
  0
POLYLINE
  5
2027
  8
0
 66
     1
 10
0.0
 20
0.0
 30
0.0
 70
     1
  0
VERTEX
  5
3B31
  8
0
 10
20069.87510295148
 20
8028.581200197555
 30
0.0
  0
VERTEX
  5
3B32
  8
0
 10
20333.87510295148
 20
8028.581200197555
 30
0.0
  0
VERTEX
  5
3B33
  8
0
 10
20333.87510295148
 20
8152.581200197554
 30
0.0
  0
VERTEX
  5
3B34
  8
0
 10
20069.87510295148
 20
8152.581200197554
 30
0.0
  0
SEQEND
  5
3CFE
  8
0
  0
POLYLINE
  5
2028
  8
0
 66
     1
 10
0.0
 20
0.0
 30
0.0
 70
     1
  0
VERTEX
  5
3B35
  8
0
 10
22269.87510295148
 20
8028.581200197555
 30
0.0
  0
VERTEX
  5
3B36
  8
0
 10
22533.87510295148
 20
8028.581200197555
 30
0.0
  0
VERTEX
  5
3B37
  8
0
 10
22533.87510295148
 20
8152.581200197554
 30
0.0
  0
VERTEX
  5
3B38
  8
0
 10
22269.87510295148
 20
8152.581200197554
 30
0.0
  0
SEQEND
  5
3CFF
  8
0
  0
POLYLINE
  5
202B
  8
0
 66
     1
 10
0.0
 20
0.0
 30
0.0
 70
     1
  0
VERTEX
  5
3B39
  8
0
 10
24669.87510295148
 20
8028.581200197555
 30
0.0
  0
VERTEX
  5
3B3A
  8
0
 10
24933.87510295148
 20
8028.581200197555
 30
0.0
  0
VERTEX
  5
3B3B
  8
0
 10
24933.87510295148
 20
8152.581200197554
 30
0.0
  0
VERTEX
  5
3B3C
  8
0
 10
24669.87510295148
 20
8152.581200197554
 30
0.0
  0
SEQEND
  5
3D00
  8
0
  0
POLYLINE
  5
202C
  8
0
 66
     1
 10
0.0
 20
0.0
 30
0.0
 70
     1
  0
VERTEX
  5
3B3D
  8
0
 10
24669.87510295148
 20
6528.581200197554
 30
0.0
  0
VERTEX
  5
3B3E
  8
0
 10
24933.87510295148
 20
6528.581200197554
 30
0.0
  0
VERTEX
  5
3B3F
  8
0
 10
24933.87510295148
 20
6652.581200197554
 30
0.0
  0
VERTEX
  5
3B40
  8
0
 10
24669.87510295148
 20
6652.581200197554
 30
0.0
  0
SEQEND
  5
3D01
  8
0
  0
POLYLINE
  5
202D
  8
0
 66
     1
 10
0.0
 20
0.0
 30
0.0
 70
     1
  0
VERTEX
  5
3B41
  8
0
 10
22269.87510295148
 20
6528.581200197554
 30
0.0
  0
VERTEX
  5
3B42
  8
0
 10
22533.87510295148
 20
6528.581200197554
 30
0.0
  0
VERTEX
  5
3B43
  8
0
 10
22533.87510295148
 20
6652.581200197554
 30
0.0
  0
VERTEX
  5
3B44
  8
0
 10
22269.87510295148
 20
6652.581200197554
 30
0.0
  0
SEQEND
  5
3D02
  8
0
  0
POLYLINE
  5
202E
  8
0
 66
     1
 10
0.0
 20
0.0
 30
0.0
 70
     1
  0
VERTEX
  5
3B45
  8
0
 10
20069.87510295148
 20
6528.581200197554
 30
0.0
  0
VERTEX
  5
3B46
  8
0
 10
20333.87510295148
 20
6528.581200197554
 30
0.0
  0
VERTEX
  5
3B47
  8
0
 10
20333.87510295148
 20
6652.581200197554
 30
0.0
  0
VERTEX
  5
3B48
  8
0
 10
20069.87510295148
 20
6652.581200197554
 30
0.0
  0
SEQEND
  5
3D03
  8
0
  0
POLYLINE
  5
202F
  8
0
 66
     1
 10
0.0
 20
0.0
 30
0.0
 70
     1
  0
VERTEX
  5
3B49
  8
0
 10
18069.87510295148
 20
6528.581200197554
 30
0.0
  0
VERTEX
  5
3B4A
  8
0
 10
18333.87510295148
 20
6528.581200197554
 30
0.0
  0
VERTEX
  5
3B4B
  8
0
 10
18333.87510295148
 20
6652.581200197554
 30
0.0
  0
VERTEX
  5
3B4C
  8
0
 10
18069.87510295148
 20
6652.581200197554
 30
0.0
  0
SEQEND
  5
3D04
  8
0
  0
CIRCLE
  5
2030
  8
0
 10
20881.87510295148
 20
6590.581200197556
 30
0.0
 40
30.0
  0
CIRCLE
  5
2031
  8
0
 10
20881.87510295148
 20
6590.581200197556
 30
0.0
 40
40.0
  0
CIRCLE
  5
2032
  8
0
 10
23181.87510295148
 20
6590.581200197556
 30
0.0
 40
40.0
  0
CIRCLE
  5
2033
  8
0
 10
23181.87510295148
 20
6590.581200197556
 30
0.0
 40
30.0
  0
CIRCLE
  5
2034
  8
0
 10
25681.87510295148
 20
6590.581200197556
 30
0.0
 40
30.0
  0
CIRCLE
  5
2035
  8
0
 10
25681.87510295148
 20
6590.581200197556
 30
0.0
 40
40.0
  0
CIRCLE
  5
2036
  8
0
 10
23921.87510295148
 20
6590.581200197556
 30
0.0
 40
40.0
  0
CIRCLE
  5
2037
  8
0
 10
23921.87510295148
 20
6590.581200197556
 30
0.0
 40
30.0
  0
CIRCLE
  5
2038
  8
0
 10
21621.87510295148
 20
6590.581200197556
 30
0.0
 40
30.0
  0
CIRCLE
  5
2039
  8
0
 10
21621.87510295148
 20
6590.581200197556
 30
0.0
 40
40.0
  0
CIRCLE
  5
203A
  8
0
 10
19521.87510295148
 20
6590.581200197556
 30
0.0
 40
40.0
  0
CIRCLE
  5
203B
  8
0
 10
19521.87510295148
 20
6590.581200197556
 30
0.0
 40
30.0
  0
CIRCLE
  5
203C
  8
0
 10
18781.87510295148
 20
6590.581200197556
 30
0.0
 40
40.0
  0
CIRCLE
  5
203D
  8
0
 10
18781.87510295148
 20
6590.581200197556
 30
0.0
 40
30.0
  0
CIRCLE
  5
203E
  8
0
 10
17621.87510295148
 20
6590.581200197556
 30
0.0
 40
30.0
  0
CIRCLE
  5
203F
  8
0
 10
17621.87510295148
 20
6590.581200197556
 30
0.0
 40
40.0
  0
POLYLINE
  5
2040
  8
0
 66
     1
 10
0.0
 20
0.0
 30
0.0
 70
     1
  0
VERTEX
  5
3B4D
  8
0
 10
24669.87510295148
 20
5128.581200197557
 30
0.0
  0
VERTEX
  5
3B4E
  8
0
 10
24933.87510295148
 20
5128.581200197557
 30
0.0
  0
VERTEX
  5
3B4F
  8
0
 10
24933.87510295148
 20
5252.581200197557
 30
0.0
  0
VERTEX
  5
3B50
  8
0
 10
24669.87510295148
 20
5252.581200197557
 30
0.0
  0
SEQEND
  5
3D05
  8
0
  0
POLYLINE
  5
2041
  8
0
 66
     1
 10
0.0
 20
0.0
 30
0.0
 70
     1
  0
VERTEX
  5
3B51
  8
0
 10
22269.87510295148
 20
5128.581200197557
 30
0.0
  0
VERTEX
  5
3B52
  8
0
 10
22533.87510295148
 20
5128.581200197557
 30
0.0
  0
VERTEX
  5
3B53
  8
0
 10
22533.87510295148
 20
5252.581200197557
 30
0.0
  0
VERTEX
  5
3B54
  8
0
 10
22269.87510295148
 20
5252.581200197557
 30
0.0
  0
SEQEND
  5
3D06
  8
0
  0
POLYLINE
  5
2042
  8
0
 66
     1
 10
0.0
 20
0.0
 30
0.0
 70
     1
  0
VERTEX
  5
3B55
  8
0
 10
20069.87510295148
 20
5128.581200197557
 30
0.0
  0
VERTEX
  5
3B56
  8
0
 10
20333.87510295148
 20
5128.581200197557
 30
0.0
  0
VERTEX
  5
3B57
  8
0
 10
20333.87510295148
 20
5252.581200197557
 30
0.0
  0
VERTEX
  5
3B58
  8
0
 10
20069.87510295148
 20
5252.581200197557
 30
0.0
  0
SEQEND
  5
3D07
  8
0
  0
POLYLINE
  5
2043
  8
0
 66
     1
 10
0.0
 20
0.0
 30
0.0
 70
     1
  0
VERTEX
  5
3B59
  8
0
 10
18069.87510295148
 20
5128.581200197557
 30
0.0
  0
VERTEX
  5
3B5A
  8
0
 10
18333.87510295148
 20
5128.581200197557
 30
0.0
  0
VERTEX
  5
3B5B
  8
0
 10
18333.87510295148
 20
5252.581200197557
 30
0.0
  0
VERTEX
  5
3B5C
  8
0
 10
18069.87510295148
 20
5252.581200197557
 30
0.0
  0
SEQEND
  5
3D08
  8
0
  0
CIRCLE
  5
2044
  8
0
 10
20881.87510295148
 20
5190.581200197557
 30
0.0
 40
30.0
  0
CIRCLE
  5
2045
  8
0
 10
20881.87510295148
 20
5190.581200197557
 30
0.0
 40
40.0
  0
CIRCLE
  5
2046
  8
0
 10
23181.87510295148
 20
5190.581200197557
 30
0.0
 40
40.0
  0
CIRCLE
  5
2047
  8
0
 10
23181.87510295148
 20
5190.581200197557
 30
0.0
 40
30.0
  0
CIRCLE
  5
2048
  8
0
 10
25681.87510295148
 20
5190.581200197557
 30
0.0
 40
30.0
  0
CIRCLE
  5
2049
  8
0
 10
25681.87510295148
 20
5190.581200197557
 30
0.0
 40
40.0
  0
CIRCLE
  5
204A
  8
0
 10
23921.87510295148
 20
5190.581200197557
 30
0.0
 40
40.0
  0
CIRCLE
  5
204B
  8
0
 10
23921.87510295148
 20
5190.581200197557
 30
0.0
 40
30.0
  0
CIRCLE
  5
204C
  8
0
 10
21621.87510295148
 20
5190.581200197557
 30
0.0
 40
30.0
  0
CIRCLE
  5
204D
  8
0
 10
21621.87510295148
 20
5190.581200197557
 30
0.0
 40
40.0
  0
CIRCLE
  5
204E
  8
0
 10
19521.87510295148
 20
5190.581200197557
 30
0.0
 40
40.0
  0
CIRCLE
  5
204F
  8
0
 10
19521.87510295148
 20
5190.581200197557
 30
0.0
 40
30.0
  0
CIRCLE
  5
2050
  8
0
 10
18781.87510295148
 20
5190.581200197557
 30
0.0
 40
40.0
  0
CIRCLE
  5
2051
  8
0
 10
18781.87510295148
 20
5190.581200197557
 30
0.0
 40
30.0
  0
CIRCLE
  5
2052
  8
0
 10
17621.87510295148
 20
5190.581200197557
 30
0.0
 40
30.0
  0
CIRCLE
  5
2053
  8
0
 10
17621.87510295148
 20
5190.581200197557
 30
0.0
 40
40.0
  0
POLYLINE
  5
206B
  8
0
 66
     1
 10
0.0
 20
0.0
 30
0.0
 70
     1
  0
VERTEX
  5
3B5D
  8
0
 10
16050.74389647692
 20
20950.36389198217
 30
0.0
  0
VERTEX
  5
3B5E
  8
0
 10
13425.37194823846
 20
20950.36389198217
 30
0.0
  0
VERTEX
  5
3B5F
  8
0
 10
13425.37194823846
 20
12775.34945122069
 30
0.0
  0
VERTEX
  5
3B60
  8
0
 10
16050.74389647692
 20
12775.34945122069
 30
0.0
  0
SEQEND
  5
3D09
  8
0
  0
POLYLINE
  5
23CA
  8
0
 66
     1
 10
0.0
 20
0.0
 30
0.0
 70
     1
  0
VERTEX
  5
3B61
  8
0
 10
5617.685974119229
 20
11409.31280916225
 30
0.0
  0
VERTEX
  5
3B62
  8
0
 10
7217.685974119229
 20
11409.31280916225
 30
0.0
  0
VERTEX
  5
3B63
  8
0
 10
7217.685974119229
 20
9809.312809162248
 30
0.0
  0
VERTEX
  5
3B64
  8
0
 10
5617.685974119229
 20
9809.312809162248
 30
0.0
  0
SEQEND
  5
3D0A
  8
0
  0
POLYLINE
  5
23DA
  8
0
 66
     1
 10
0.0
 20
0.0
 30
0.0
 70
     1
  0
VERTEX
  5
3B65
  8
0
 10
19974.87510295148
 20
6652.581200197554
 30
0.0
  0
VERTEX
  5
3B66
  8
0
 10
20428.87510295148
 20
6652.581200197554
 30
0.0
  0
VERTEX
  5
3B67
  8
0
 10
20428.87510295148
 20
6528.581200197554
 30
0.0
  0
VERTEX
  5
3B68
  8
0
 10
19974.87510295148
 20
6528.581200197554
 30
0.0
  0
SEQEND
  5
3D0B
  8
0
  0
POLYLINE
  5
23DB
  8
0
 66
     1
 10
0.0
 20
0.0
 30
0.0
 70
     1
  0
VERTEX
  5
3B69
  8
0
 10
17974.87510295148
 20
6652.581200197554
 30
0.0
  0
VERTEX
  5
3B6A
  8
0
 10
18428.87510295148
 20
6652.581200197554
 30
0.0
  0
VERTEX
  5
3B6B
  8
0
 10
18428.87510295148
 20
6528.581200197554
 30
0.0
  0
VERTEX
  5
3B6C
  8
0
 10
17974.87510295148
 20
6528.581200197554
 30
0.0
  0
SEQEND
  5
3D0C
  8
0
  0
POLYLINE
  5
23DC
  8
0
 66
     1
 10
0.0
 20
0.0
 30
0.0
 70
     1
  0
VERTEX
  5
3B6D
  8
0
 10
22174.87510295147
 20
6652.581200197554
 30
0.0
  0
VERTEX
  5
3B6E
  8
0
 10
22628.87510295148
 20
6652.581200197554
 30
0.0
  0
VERTEX
  5
3B6F
  8
0
 10
22628.87510295148
 20
6528.581200197554
 30
0.0
  0
VERTEX
  5
3B70
  8
0
 10
22174.87510295147
 20
6528.581200197554
 30
0.0
  0
SEQEND
  5
3D0D
  8
0
  0
POLYLINE
  5
23DD
  8
0
 66
     1
 10
0.0
 20
0.0
 30
0.0
 70
     1
  0
VERTEX
  5
3B71
  8
0
 10
24574.87510295148
 20
6652.581200197554
 30
0.0
  0
VERTEX
  5
3B72
  8
0
 10
25028.87510295148
 20
6652.581200197554
 30
0.0
  0
VERTEX
  5
3B73
  8
0
 10
25028.87510295148
 20
6528.581200197554
 30
0.0
  0
VERTEX
  5
3B74
  8
0
 10
24574.87510295148
 20
6528.581200197554
 30
0.0
  0
SEQEND
  5
3D0E
  8
0
  0
POLYLINE
  5
23DE
  8
0
 66
     1
 10
0.0
 20
0.0
 30
0.0
 70
     1
  0
VERTEX
  5
3B75
  8
0
 10
24574.87510295148
 20
8152.581200197554
 30
0.0
  0
VERTEX
  5
3B76
  8
0
 10
25028.87510295148
 20
8152.581200197554
 30
0.0
  0
VERTEX
  5
3B77
  8
0
 10
25028.87510295148
 20
8028.581200197555
 30
0.0
  0
VERTEX
  5
3B78
  8
0
 10
24574.87510295148
 20
8028.581200197555
 30
0.0
  0
SEQEND
  5
3D0F
  8
0
  0
POLYLINE
  5
23DF
  8
0
 66
     1
 10
0.0
 20
0.0
 30
0.0
 70
     1
  0
VERTEX
  5
3B79
  8
0
 10
22174.87510295147
 20
8152.581200197554
 30
0.0
  0
VERTEX
  5
3B7A
  8
0
 10
22628.87510295148
 20
8152.581200197554
 30
0.0
  0
VERTEX
  5
3B7B
  8
0
 10
22628.87510295148
 20
8028.581200197555
 30
0.0
  0
VERTEX
  5
3B7C
  8
0
 10
22174.87510295147
 20
8028.581200197555
 30
0.0
  0
SEQEND
  5
3D10
  8
0
  0
POLYLINE
  5
23E0
  8
0
 66
     1
 10
0.0
 20
0.0
 30
0.0
 70
     1
  0
VERTEX
  5
3B7D
  8
0
 10
19974.87510295148
 20
8152.581200197554
 30
0.0
  0
VERTEX
  5
3B7E
  8
0
 10
20428.87510295148
 20
8152.581200197554
 30
0.0
  0
VERTEX
  5
3B7F
  8
0
 10
20428.87510295148
 20
8028.581200197555
 30
0.0
  0
VERTEX
  5
3B80
  8
0
 10
19974.87510295148
 20
8028.581200197555
 30
0.0
  0
SEQEND
  5
3D11
  8
0
  0
POLYLINE
  5
23E1
  8
0
 66
     1
 10
0.0
 20
0.0
 30
0.0
 70
     1
  0
VERTEX
  5
3B81
  8
0
 10
17974.87510295148
 20
8152.581200197554
 30
0.0
  0
VERTEX
  5
3B82
  8
0
 10
18428.87510295148
 20
8152.581200197554
 30
0.0
  0
VERTEX
  5
3B83
  8
0
 10
18428.87510295148
 20
8028.581200197555
 30
0.0
  0
VERTEX
  5
3B84
  8
0
 10
17974.87510295148
 20
8028.581200197555
 30
0.0
  0
SEQEND
  5
3D12
  8
0
  0
POLYLINE
  5
23E2
  8
0
 66
     1
 10
0.0
 20
0.0
 30
0.0
 70
     1
  0
VERTEX
  5
3B85
  8
0
 10
17974.87510295148
 20
5252.581200197557
 30
0.0
  0
VERTEX
  5
3B86
  8
0
 10
18428.87510295148
 20
5252.581200197557
 30
0.0
  0
VERTEX
  5
3B87
  8
0
 10
18428.87510295148
 20
5128.581200197557
 30
0.0
  0
VERTEX
  5
3B88
  8
0
 10
17974.87510295148
 20
5128.581200197557
 30
0.0
  0
SEQEND
  5
3D13
  8
0
  0
POLYLINE
  5
23E3
  8
0
 66
     1
 10
0.0
 20
0.0
 30
0.0
 70
     1
  0
VERTEX
  5
3B89
  8
0
 10
19974.87510295148
 20
5252.581200197557
 30
0.0
  0
VERTEX
  5
3B8A
  8
0
 10
20428.87510295148
 20
5252.581200197557
 30
0.0
  0
VERTEX
  5
3B8B
  8
0
 10
20428.87510295148
 20
5128.581200197557
 30
0.0
  0
VERTEX
  5
3B8C
  8
0
 10
19974.87510295148
 20
5128.581200197557
 30
0.0
  0
SEQEND
  5
3D14
  8
0
  0
POLYLINE
  5
23E4
  8
0
 66
     1
 10
0.0
 20
0.0
 30
0.0
 70
     1
  0
VERTEX
  5
3B8D
  8
0
 10
22174.87510295147
 20
5252.581200197557
 30
0.0
  0
VERTEX
  5
3B8E
  8
0
 10
22628.87510295148
 20
5252.581200197557
 30
0.0
  0
VERTEX
  5
3B8F
  8
0
 10
22628.87510295148
 20
5128.581200197557
 30
0.0
  0
VERTEX
  5
3B90
  8
0
 10
22174.87510295147
 20
5128.581200197557
 30
0.0
  0
SEQEND
  5
3D15
  8
0
  0
POLYLINE
  5
23E5
  8
0
 66
     1
 10
0.0
 20
0.0
 30
0.0
 70
     1
  0
VERTEX
  5
3B91
  8
0
 10
24574.87510295148
 20
5252.581200197557
 30
0.0
  0
VERTEX
  5
3B92
  8
0
 10
25028.87510295148
 20
5252.581200197557
 30
0.0
  0
VERTEX
  5
3B93
  8
0
 10
25028.87510295148
 20
5128.581200197557
 30
0.0
  0
VERTEX
  5
3B94
  8
0
 10
24574.87510295148
 20
5128.581200197557
 30
0.0
  0
SEQEND
  5
3D16
  8
0
  0
POLYLINE
  5
23E6
  8
0
 66
     1
 10
0.0
 20
0.0
 30
0.0
 70
     1
  0
VERTEX
  5
3B95
  8
0
 10
17501.87510295149
 20
11210.58120019755
 30
0.0
  0
VERTEX
  5
3B96
  8
0
 10
18901.87510295148
 20
11210.58120019755
 30
0.0
  0
VERTEX
  5
3B97
  8
0
 10
18901.87510295148
 20
9810.581200197554
 30
0.0
  0
VERTEX
  5
3B98
  8
0
 10
17501.87510295149
 20
9810.581200197554
 30
0.0
  0
SEQEND
  5
3D17
  8
0
  0
POLYLINE
  5
23E8
  8
0
 66
     1
 10
0.0
 20
0.0
 30
0.0
 70
     1
  0
VERTEX
  5
3B99
  8
0
 10
18069.87510295148
 20
10448.58120019755
 30
0.0
  0
VERTEX
  5
3B9A
  8
0
 10
18333.87510295148
 20
10448.58120019755
 30
0.0
  0
VERTEX
  5
3B9B
  8
0
 10
18333.87510295148
 20
10572.58120019755
 30
0.0
  0
VERTEX
  5
3B9C
  8
0
 10
18069.87510295148
 20
10572.58120019755
 30
0.0
  0
SEQEND
  5
3D18
  8
0
  0
POLYLINE
  5
274B
  8
0
 66
     1
 10
0.0
 20
0.0
 30
0.0
 70
     1
  0
VERTEX
  5
3B9D
  8
0
 10
2017.685974119227
 20
19668.26564757875
 30
0.0
  0
VERTEX
  5
3B9E
  8
0
 10
2017.685974119227
 20
19686.26564757875
 30
0.0
  0
VERTEX
  5
3B9F
  8
0
 10
3417.685974119217
 20
19686.26564757875
 30
0.0
  0
VERTEX
  5
3BA0
  8
0
 10
3417.685974119217
 20
19668.26564757875
 30
0.0
  0
SEQEND
  5
3D19
  8
0
  0
POLYLINE
  5
274C
  8
0
 66
     1
 10
0.0
 20
0.0
 30
0.0
 70
     1
  0
VERTEX
  5
3BA1
  8
0
 10
2017.685974119227
 20
19668.26564757875
 30
0.0
  0
VERTEX
  5
3BA2
  8
0
 10
3417.685974119217
 20
19668.26564757875
 30
0.0
  0
VERTEX
  5
3BA3
  8
0
 10
3417.685974119217
 20
18936.26564757876
 30
0.0
  0
VERTEX
  5
3BA4
  8
0
 10
3377.685974119217
 20
18936.26564757876
 30
0.0
  0
VERTEX
  5
3BA5
  8
0
 10
3377.685974119217
 20
19628.26564757875
 30
0.0
  0
VERTEX
  5
3BA6
  8
0
 10
2057.685974119227
 20
19628.26564757875
 30
0.0
  0
VERTEX
  5
3BA7
  8
0
 10
2057.685974119227
 20
18936.26564757876
 30
0.0
  0
VERTEX
  5
3BA8
  8
0
 10
2017.685974119227
 20
18936.26564757876
 30
0.0
  0
VERTEX
  5
3BA9
  8
0
 10
2017.685974119227
 20
19668.26564757875
 30
0.0
  0
SEQEND
  5
3D1A
  8
0
  0
POLYLINE
  5
274D
  8
0
 66
     1
 10
0.0
 20
0.0
 30
0.0
 70
     1
  0
VERTEX
  5
3BAA
  8
0
 10
2022.685974119217
 20
19686.26564757875
 30
0.0
  0
VERTEX
  5
3BAB
  8
0
 10
2022.685974119217
 20
20126.26564757875
 30
0.0
  0
VERTEX
  5
3BAC
  8
0
 10
3412.685974119227
 20
20126.26564757875
 30
0.0
  0
VERTEX
  5
3BAD
  8
0
 10
3412.685974119227
 20
19686.26564757875
 30
0.0
  0
SEQEND
  5
3D1B
  8
0
  0
POLYLINE
  5
274E
  8
0
 66
     1
 10
0.0
 20
0.0
 30
0.0
 70
     1
  0
VERTEX
  5
3BAE
  8
0
 10
6022.685974119227
 20
19686.26564757875
 30
0.0
  0
VERTEX
  5
3BAF
  8
0
 10
6022.685974119227
 20
20126.26564757875
 30
0.0
  0
VERTEX
  5
3BB0
  8
0
 10
7812.685974119227
 20
20126.26564757875
 30
0.0
  0
VERTEX
  5
3BB1
  8
0
 10
7812.685974119227
 20
19686.26564757875
 30
0.0
  0
SEQEND
  5
3D1C
  8
0
  0
POLYLINE
  5
274F
  8
0
 66
     1
 10
0.0
 20
0.0
 30
0.0
 70
     1
  0
VERTEX
  5
3BB2
  8
0
 10
3922.685974119217
 20
19686.26564757875
 30
0.0
  0
VERTEX
  5
3BB3
  8
0
 10
3922.685974119217
 20
20126.26564757875
 30
0.0
  0
VERTEX
  5
3BB4
  8
0
 10
5512.685974119227
 20
20126.26564757875
 30
0.0
  0
VERTEX
  5
3BB5
  8
0
 10
5512.685974119227
 20
19686.26564757875
 30
0.0
  0
SEQEND
  5
3D1D
  8
0
  0
POLYLINE
  5
2750
  8
0
 66
     1
 10
0.0
 20
0.0
 30
0.0
 70
     1
  0
VERTEX
  5
3BB6
  8
0
 10
6017.685974119227
 20
19668.26564757875
 30
0.0
  0
VERTEX
  5
3BB7
  8
0
 10
6017.685974119227
 20
19686.26564757875
 30
0.0
  0
VERTEX
  5
3BB8
  8
0
 10
7817.685974119227
 20
19686.26564757875
 30
0.0
  0
VERTEX
  5
3BB9
  8
0
 10
7817.685974119227
 20
19668.26564757875
 30
0.0
  0
SEQEND
  5
3D1E
  8
0
  0
POLYLINE
  5
2751
  8
0
 66
     1
 10
0.0
 20
0.0
 30
0.0
 70
     1
  0
VERTEX
  5
3BBA
  8
0
 10
6017.685974119227
 20
19668.26564757875
 30
0.0
  0
VERTEX
  5
3BBB
  8
0
 10
7817.685974119227
 20
19668.26564757875
 30
0.0
  0
VERTEX
  5
3BBC
  8
0
 10
7817.685974119227
 20
18936.26564757876
 30
0.0
  0
VERTEX
  5
3BBD
  8
0
 10
7777.685974119227
 20
18936.26564757876
 30
0.0
  0
VERTEX
  5
3BBE
  8
0
 10
7777.685974119227
 20
19628.26564757875
 30
0.0
  0
VERTEX
  5
3BBF
  8
0
 10
6057.685974119227
 20
19628.26564757875
 30
0.0
  0
VERTEX
  5
3BC0
  8
0
 10
6057.685974119227
 20
18936.26564757876
 30
0.0
  0
VERTEX
  5
3BC1
  8
0
 10
6017.685974119227
 20
18936.26564757876
 30
0.0
  0
VERTEX
  5
3BC2
  8
0
 10
6017.685974119227
 20
19668.26564757875
 30
0.0
  0
SEQEND
  5
3D1F
  8
0
  0
POLYLINE
  5
2752
  8
0
 66
     1
 10
0.0
 20
0.0
 30
0.0
 70
     1
  0
VERTEX
  5
3BC3
  8
0
 10
3917.685974119217
 20
19668.26564757875
 30
0.0
  0
VERTEX
  5
3BC4
  8
0
 10
5517.685974119227
 20
19668.26564757875
 30
0.0
  0
VERTEX
  5
3BC5
  8
0
 10
5517.685974119227
 20
18936.26564757876
 30
0.0
  0
VERTEX
  5
3BC6
  8
0
 10
5477.685974119227
 20
18936.26564757876
 30
0.0
  0
VERTEX
  5
3BC7
  8
0
 10
5477.685974119227
 20
19628.26564757875
 30
0.0
  0
VERTEX
  5
3BC8
  8
0
 10
3957.685974119217
 20
19628.26564757875
 30
0.0
  0
VERTEX
  5
3BC9
  8
0
 10
3957.685974119217
 20
18936.26564757876
 30
0.0
  0
VERTEX
  5
3BCA
  8
0
 10
3917.685974119217
 20
18936.26564757876
 30
0.0
  0
VERTEX
  5
3BCB
  8
0
 10
3917.685974119217
 20
19668.26564757875
 30
0.0
  0
SEQEND
  5
3D20
  8
0
  0
POLYLINE
  5
2753
  8
0
 66
     1
 10
0.0
 20
0.0
 30
0.0
 70
     1
  0
VERTEX
  5
3BCC
  8
0
 10
3917.685974119217
 20
19668.26564757875
 30
0.0
  0
VERTEX
  5
3BCD
  8
0
 10
3917.685974119217
 20
19686.26564757875
 30
0.0
  0
VERTEX
  5
3BCE
  8
0
 10
5517.685974119227
 20
19686.26564757875
 30
0.0
  0
VERTEX
  5
3BCF
  8
0
 10
5517.685974119227
 20
19668.26564757875
 30
0.0
  0
SEQEND
  5
3D21
  8
0
  0
POLYLINE
  5
2754
  8
0
 66
     1
 10
0.0
 20
0.0
 30
0.0
 70
     1
  0
VERTEX
  5
3BD0
  8
0
 10
8317.685974119227
 20
19668.26564757875
 30
0.0
  0
VERTEX
  5
3BD1
  8
0
 10
10317.68597411923
 20
19668.26564757875
 30
0.0
  0
VERTEX
  5
3BD2
  8
0
 10
10317.68597411923
 20
18936.26564757876
 30
0.0
  0
VERTEX
  5
3BD3
  8
0
 10
10277.68597411923
 20
18936.26564757876
 30
0.0
  0
VERTEX
  5
3BD4
  8
0
 10
10277.68597411923
 20
19628.26564757875
 30
0.0
  0
VERTEX
  5
3BD5
  8
0
 10
8357.685974119227
 20
19628.26564757875
 30
0.0
  0
VERTEX
  5
3BD6
  8
0
 10
8357.685974119227
 20
18936.26564757876
 30
0.0
  0
VERTEX
  5
3BD7
  8
0
 10
8317.685974119227
 20
18936.26564757876
 30
0.0
  0
VERTEX
  5
3BD8
  8
0
 10
8317.685974119227
 20
19668.26564757875
 30
0.0
  0
SEQEND
  5
3D22
  8
0
  0
POLYLINE
  5
2755
  8
0
 66
     1
 10
0.0
 20
0.0
 30
0.0
 70
     1
  0
VERTEX
  5
3BD9
  8
0
 10
8317.685974119227
 20
19668.26564757875
 30
0.0
  0
VERTEX
  5
3BDA
  8
0
 10
8317.685974119227
 20
19686.26564757875
 30
0.0
  0
VERTEX
  5
3BDB
  8
0
 10
10317.68597411923
 20
19686.26564757875
 30
0.0
  0
VERTEX
  5
3BDC
  8
0
 10
10317.68597411923
 20
19668.26564757875
 30
0.0
  0
SEQEND
  5
3D23
  8
0
  0
POLYLINE
  5
2757
  8
0
 66
     1
 10
0.0
 20
0.0
 30
0.0
 70
     1
  0
VERTEX
  5
3BDD
  8
0
 10
8422.685974119227
 20
19686.26564757875
 30
0.0
  0
VERTEX
  5
3BDE
  8
0
 10
8422.685974119227
 20
20126.26564757875
 30
0.0
  0
VERTEX
  5
3BDF
  8
0
 10
10212.68597411923
 20
20126.26564757875
 30
0.0
  0
VERTEX
  5
3BE0
  8
0
 10
10212.68597411923
 20
19686.26564757875
 30
0.0
  0
SEQEND
  5
3D24
  8
0
  0
POLYLINE
  5
2759
  8
0
 66
     1
 10
0.0
 20
0.0
 30
0.0
 70
     1
  0
VERTEX
  5
3BE1
  8
0
 10
11333.88516903955
 20
19668.26564757876
 30
0.0
  0
VERTEX
  5
3BE2
  8
0
 10
12133.88516903955
 20
19668.26564757876
 30
0.0
  0
VERTEX
  5
3BE3
  8
0
 10
12133.88516903955
 20
18936.26564757876
 30
0.0
  0
VERTEX
  5
3BE4
  8
0
 10
12093.88516903955
 20
18936.26564757876
 30
0.0
  0
VERTEX
  5
3BE5
  8
0
 10
12093.88516903955
 20
19628.26564757876
 30
0.0
  0
VERTEX
  5
3BE6
  8
0
 10
11373.88516903955
 20
19628.26564757876
 30
0.0
  0
VERTEX
  5
3BE7
  8
0
 10
11373.88516903955
 20
18936.26564757876
 30
0.0
  0
VERTEX
  5
3BE8
  8
0
 10
11333.88516903955
 20
18936.26564757876
 30
0.0
  0
VERTEX
  5
3BE9
  8
0
 10
11333.88516903955
 20
19668.26564757876
 30
0.0
  0
SEQEND
  5
3D25
  8
0
  0
POLYLINE
  5
275A
  8
0
 66
     1
 10
0.0
 20
0.0
 30
0.0
 70
     1
  0
VERTEX
  5
3BEA
  8
0
 10
11333.88516903955
 20
19668.26564757876
 30
0.0
  0
VERTEX
  5
3BEB
  8
0
 10
11333.88516903955
 20
19686.26564757876
 30
0.0
  0
VERTEX
  5
3BEC
  8
0
 10
12133.88516903955
 20
19686.26564757876
 30
0.0
  0
VERTEX
  5
3BED
  8
0
 10
12133.88516903955
 20
19668.26564757876
 30
0.0
  0
SEQEND
  5
3D26
  8
0
  0
POLYLINE
  5
275E
  8
0
 66
     1
 10
0.0
 20
0.0
 30
0.0
  0
VERTEX
  5
3BEE
  8
0
 10
11343.88516903954
 20
19686.26564757876
 30
0.0
  0
VERTEX
  5
3BEF
  8
0
 10
11343.88516903954
 20
20126.26564757875
 30
0.0
  0
VERTEX
  5
3BF0
  8
0
 10
11333.88516903955
 20
20126.26564757875
 30
0.0
  0
VERTEX
  5
3BF1
  8
0
 10
11333.88516903955
 20
19686.26564757876
 30
0.0
  0
VERTEX
  5
3BF2
  8
0
 10
11343.88516903954
 20
19686.26564757876
 30
0.0
  0
SEQEND
  5
3D27
  8
0
  0
POLYLINE
  5
2762
  8
0
 66
     1
 10
0.0
 20
0.0
 30
0.0
 70
     1
  0
VERTEX
  5
3BF3
  8
0
 10
2057.685974119227
 20
19628.26564757875
 30
0.0
  0
VERTEX
  5
3BF4
  8
0
 10
3377.685974119227
 20
19628.26564757875
 30
0.0
  0
VERTEX
  5
3BF5
  8
0
 10
3377.685974119227
 20
19328.26564757876
 30
0.0
  0
VERTEX
  5
3BF6
  8
0
 10
2057.685974119227
 20
19328.26564757876
 30
0.0
  0
SEQEND
  5
3D28
  8
0
  0
POLYLINE
  5
2763
  8
0
 66
     1
 10
0.0
 20
0.0
 30
0.0
 70
     1
  0
VERTEX
  5
3BF7
  8
0
 10
3957.685974119217
 20
19628.26564757875
 30
0.0
  0
VERTEX
  5
3BF8
  8
0
 10
5477.685974119227
 20
19628.26564757875
 30
0.0
  0
VERTEX
  5
3BF9
  8
0
 10
5477.685974119227
 20
19328.26564757876
 30
0.0
  0
VERTEX
  5
3BFA
  8
0
 10
3957.685974119217
 20
19328.26564757876
 30
0.0
  0
SEQEND
  5
3D29
  8
0
  0
POLYLINE
  5
2764
  8
0
 66
     1
 10
0.0
 20
0.0
 30
0.0
 70
     1
  0
VERTEX
  5
3BFB
  8
0
 10
6057.685974119227
 20
19628.26564757875
 30
0.0
  0
VERTEX
  5
3BFC
  8
0
 10
7777.685974119227
 20
19628.26564757875
 30
0.0
  0
VERTEX
  5
3BFD
  8
0
 10
7777.685974119227
 20
19328.26564757876
 30
0.0
  0
VERTEX
  5
3BFE
  8
0
 10
6057.685974119227
 20
19328.26564757876
 30
0.0
  0
SEQEND
  5
3D2A
  8
0
  0
POLYLINE
  5
2765
  8
0
 66
     1
 10
0.0
 20
0.0
 30
0.0
 70
     1
  0
VERTEX
  5
3BFF
  8
0
 10
8357.685974119227
 20
19628.26564757875
 30
0.0
  0
VERTEX
  5
3C00
  8
0
 10
10277.68597411923
 20
19628.26564757875
 30
0.0
  0
VERTEX
  5
3C01
  8
0
 10
10277.68597411923
 20
19328.26564757876
 30
0.0
  0
VERTEX
  5
3C02
  8
0
 10
8357.685974119227
 20
19328.26564757876
 30
0.0
  0
SEQEND
  5
3D2B
  8
0
  0
POLYLINE
  5
2786
  8
0
 66
     1
 10
0.0
 20
0.0
 30
0.0
  0
VERTEX
  5
3C03
  8
0
 10
2017.685974119227
 20
18936.26564757876
 30
0.0
  0
VERTEX
  5
3C04
  8
0
 10
2017.685974119227
 20
18936.26564757876
 30
0.0
  0
SEQEND
  5
3D2C
  8
0
  0
POLYLINE
  5
2FB9
  8
0
 66
     1
 10
0.0
 20
0.0
 30
0.0
 70
     1
  0
VERTEX
  5
3C05
  8
0
 10
717.6859741192234
 20
10609.31280916225
 30
0.0
  0
VERTEX
  5
3C06
  8
0
 10
1517.685974119228
 20
10609.31280916225
 30
0.0
  0
VERTEX
  5
3C07
  8
0
 10
1517.685974119227
 20
11409.31280916225
 30
0.0
  0
VERTEX
  5
3C08
  8
0
 10
717.685974119222
 20
11409.31280916225
 30
0.0
  0
SEQEND
  5
3D2D
  8
0
  0
POLYLINE
  5
2FBA
  8
0
 66
     1
 10
0.0
 20
0.0
 30
0.0
 70
     1
  0
VERTEX
  5
3C09
  8
0
 10
717.685974119222
 20
3085.694289085379
 30
0.0
  0
VERTEX
  5
3C0A
  8
0
 10
1517.685974119227
 20
3085.694289085379
 30
0.0
  0
VERTEX
  5
3C0B
  8
0
 10
1517.685974119227
 20
2353.694289085379
 30
0.0
  0
VERTEX
  5
3C0C
  8
0
 10
1477.685974119223
 20
2353.694289085379
 30
0.0
  0
VERTEX
  5
3C0D
  8
0
 10
1477.685974119223
 20
3045.694289085379
 30
0.0
  0
VERTEX
  5
3C0E
  8
0
 10
757.6859741192229
 20
3045.694289085379
 30
0.0
  0
VERTEX
  5
3C0F
  8
0
 10
757.6859741192229
 20
2353.694289085379
 30
0.0
  0
VERTEX
  5
3C10
  8
0
 10
717.685974119222
 20
2353.694289085379
 30
0.0
  0
VERTEX
  5
3C11
  8
0
 10
717.685974119222
 20
3085.694289085379
 30
0.0
  0
SEQEND
  5
3D2E
  8
0
  0
POLYLINE
  5
2FBB
  8
0
 66
     1
 10
0.0
 20
0.0
 30
0.0
 70
     1
  0
VERTEX
  5
3C12
  8
0
 10
717.685974119222
 20
3085.694289085379
 30
0.0
  0
VERTEX
  5
3C13
  8
0
 10
717.685974119222
 20
3103.694289085381
 30
0.0
  0
VERTEX
  5
3C14
  8
0
 10
1517.685974119227
 20
3103.694289085381
 30
0.0
  0
VERTEX
  5
3C15
  8
0
 10
1517.685974119227
 20
3085.694289085379
 30
0.0
  0
SEQEND
  5
3D2F
  8
0
  0
POLYLINE
  5
2FBC
  8
0
 66
     1
 10
0.0
 20
0.0
 30
0.0
 70
     1
  0
VERTEX
  5
3C16
  8
0
 10
12517.68597411922
 20
9710.581200197554
 30
0.0
  0
VERTEX
  5
3C17
  8
0
 10
14717.68597411921
 20
9710.581200197554
 30
0.0
  0
VERTEX
  5
3C18
  8
0
 10
14717.68597411921
 20
8710.58120019755
 30
0.0
  0
VERTEX
  5
3C19
  8
0
 10
12517.68597411922
 20
8710.58120019755
 30
0.0
  0
SEQEND
  5
3D30
  8
0
  0
POLYLINE
  5
2FBD
  8
0
 66
     1
 10
0.0
 20
0.0
 30
0.0
 70
     1
  0
VERTEX
  5
3C1A
  8
0
 10
12517.68597411922
 20
3085.694289085377
 30
0.0
  0
VERTEX
  5
3C1B
  8
0
 10
14717.68597411921
 20
3085.694289085377
 30
0.0
  0
VERTEX
  5
3C1C
  8
0
 10
14717.68597411921
 20
2353.694289085377
 30
0.0
  0
VERTEX
  5
3C1D
  8
0
 10
14677.68597411922
 20
2353.694289085377
 30
0.0
  0
VERTEX
  5
3C1E
  8
0
 10
14677.68597411922
 20
3045.694289085377
 30
0.0
  0
VERTEX
  5
3C1F
  8
0
 10
12557.68597411922
 20
3045.694289085377
 30
0.0
  0
VERTEX
  5
3C20
  8
0
 10
12557.68597411922
 20
2353.694289085377
 30
0.0
  0
VERTEX
  5
3C21
  8
0
 10
12517.68597411922
 20
2353.694289085377
 30
0.0
  0
VERTEX
  5
3C22
  8
0
 10
12517.68597411922
 20
3085.694289085377
 30
0.0
  0
SEQEND
  5
3D31
  8
0
  0
POLYLINE
  5
2FBE
  8
0
 66
     1
 10
0.0
 20
0.0
 30
0.0
 70
     1
  0
VERTEX
  5
3C23
  8
0
 10
12517.68597411922
 20
3085.694289085377
 30
0.0
  0
VERTEX
  5
3C24
  8
0
 10
12517.68597411922
 20
3103.694289085379
 30
0.0
  0
VERTEX
  5
3C25
  8
0
 10
14717.68597411921
 20
3103.694289085379
 30
0.0
  0
VERTEX
  5
3C26
  8
0
 10
14717.68597411921
 20
3085.694289085377
 30
0.0
  0
SEQEND
  5
3D32
  8
0
  0
POLYLINE
  5
2FBF
  8
0
 66
     1
 10
0.0
 20
0.0
 30
0.0
 70
     1
  0
VERTEX
  5
3C27
  8
0
 10
17974.87510295148
 20
10572.58120019755
 30
0.0
  0
VERTEX
  5
3C28
  8
0
 10
18428.87510295148
 20
10572.58120019755
 30
0.0
  0
VERTEX
  5
3C29
  8
0
 10
18428.87510295148
 20
10448.58120019755
 30
0.0
  0
VERTEX
  5
3C2A
  8
0
 10
17974.87510295148
 20
10448.58120019755
 30
0.0
  0
SEQEND
  5
3D33
  8
0
  0
POLYLINE
  5
31CA
  8
0
 66
     1
 10
0.0
 20
0.0
 30
0.0
 70
     1
  0
VERTEX
  5
3C2B
  8
0
 10
14035.62721935145
 20
19667.28863504423
 30
0.0
  0
VERTEX
  5
3C2C
  8
0
 10
14035.62721935145
 20
19767.28863504423
 30
0.0
  0
VERTEX
  5
3C2D
  8
0
 10
14255.62721935145
 20
19767.28863504423
 30
0.0
  0
VERTEX
  5
3C2E
  8
0
 10
14255.62721935145
 20
19667.28863504423
 30
0.0
  0
SEQEND
  5
3D34
  8
0
  0
POLYLINE
  5
31CB
  8
0
 66
     1
 10
0.0
 20
0.0
 30
0.0
 70
     1
  0
VERTEX
  5
3C2F
  8
0
 10
14306.50399473517
 20
19667.28863504423
 30
0.0
  0
VERTEX
  5
3C30
  8
0
 10
14306.50399473517
 20
19767.28863504423
 30
0.0
  0
VERTEX
  5
3C31
  8
0
 10
14626.50399473517
 20
19767.28863504423
 30
0.0
  0
VERTEX
  5
3C32
  8
0
 10
14626.50399473517
 20
19667.28863504423
 30
0.0
  0
SEQEND
  5
3D35
  8
0
  0
CIRCLE
  5
31CC
  8
0
 10
14162.62721935145
 20
19717.28863504423
 30
0.0
 40
9.0
  0
CIRCLE
  5
31CD
  8
0
 10
14162.62721935145
 20
19751.28863504423
 30
0.0
 40
9.0
  0
CIRCLE
  5
31CE
  8
0
 10
14128.62721935145
 20
19751.28863504423
 30
0.0
 40
9.0
  0
CIRCLE
  5
31CF
  8
0
 10
14128.62721935145
 20
19717.28863504423
 30
0.0
 40
9.0
  0
CIRCLE
  5
31D0
  8
0
 10
14128.62721935145
 20
19683.28863504423
 30
0.0
 40
9.0
  0
CIRCLE
  5
31D1
  8
0
 10
14162.62721935145
 20
19683.28863504423
 30
0.0
 40
9.0
  0
CIRCLE
  5
31D2
  8
0
 10
14196.62721935145
 20
19717.28863504423
 30
0.0
 40
9.0
  0
CIRCLE
  5
31D3
  8
0
 10
14196.62721935145
 20
19751.28863504423
 30
0.0
 40
9.0
  0
CIRCLE
  5
31D4
  8
0
 10
14196.62721935145
 20
19683.28863504423
 30
0.0
 40
9.0
  0
CIRCLE
  5
31D5
  8
0
 10
14230.62721935145
 20
19717.28863504423
 30
0.0
 40
9.0
  0
CIRCLE
  5
31D6
  8
0
 10
14230.62721935145
 20
19751.28863504423
 30
0.0
 40
9.0
  0
CIRCLE
  5
31D7
  8
0
 10
14230.62721935145
 20
19683.28863504423
 30
0.0
 40
9.0
  0
CIRCLE
  5
31D8
  8
0
 10
14094.62721935145
 20
19717.28863504423
 30
0.0
 40
9.0
  0
CIRCLE
  5
31D9
  8
0
 10
14094.62721935145
 20
19751.28863504423
 30
0.0
 40
9.0
  0
CIRCLE
  5
31DA
  8
0
 10
14060.62721935145
 20
19751.28863504423
 30
0.0
 40
9.0
  0
CIRCLE
  5
31DB
  8
0
 10
14060.62721935145
 20
19717.28863504423
 30
0.0
 40
9.0
  0
CIRCLE
  5
31DC
  8
0
 10
14060.62721935145
 20
19683.28863504423
 30
0.0
 40
9.0
  0
CIRCLE
  5
31DD
  8
0
 10
14094.62721935145
 20
19683.28863504423
 30
0.0
 40
9.0
  0
CIRCLE
  5
31DE
  8
0
 10
14501.50399473517
 20
19751.28863504423
 30
0.0
 40
9.0
  0
CIRCLE
  5
31DF
  8
0
 10
14501.50399473517
 20
19683.28863504423
 30
0.0
 40
9.0
  0
CIRCLE
  5
31E0
  8
0
 10
14501.50399473517
 20
19717.28863504423
 30
0.0
 40
9.0
  0
CIRCLE
  5
31E1
  8
0
 10
14466.50399473517
 20
19751.28863504423
 30
0.0
 40
9.0
  0
CIRCLE
  5
31E2
  8
0
 10
14466.50399473517
 20
19683.28863504423
 30
0.0
 40
9.0
  0
CIRCLE
  5
31E3
  8
0
 10
14466.50399473517
 20
19717.28863504423
 30
0.0
 40
9.0
  0
CIRCLE
  5
31E4
  8
0
 10
14431.50399473517
 20
19751.28863504423
 30
0.0
 40
9.0
  0
CIRCLE
  5
31E5
  8
0
 10
14431.50399473517
 20
19683.28863504423
 30
0.0
 40
9.0
  0
CIRCLE
  5
31E6
  8
0
 10
14431.50399473517
 20
19717.28863504423
 30
0.0
 40
9.0
  0
CIRCLE
  5
31E7
  8
0
 10
14396.50399473517
 20
19751.28863504423
 30
0.0
 40
9.0
  0
CIRCLE
  5
31E8
  8
0
 10
14396.50399473517
 20
19683.28863504423
 30
0.0
 40
9.0
  0
CIRCLE
  5
31E9
  8
0
 10
14396.50399473517
 20
19717.28863504423
 30
0.0
 40
9.0
  0
CIRCLE
  5
31EA
  8
0
 10
14361.50399473517
 20
19751.28863504423
 30
0.0
 40
9.0
  0
CIRCLE
  5
31EB
  8
0
 10
14361.50399473517
 20
19683.28863504423
 30
0.0
 40
9.0
  0
CIRCLE
  5
31EC
  8
0
 10
14361.50399473517
 20
19717.28863504423
 30
0.0
 40
9.0
  0
CIRCLE
  5
31ED
  8
0
 10
14326.50399473517
 20
19751.28863504423
 30
0.0
 40
9.0
  0
CIRCLE
  5
31EE
  8
0
 10
14326.50399473517
 20
19683.28863504423
 30
0.0
 40
9.0
  0
CIRCLE
  5
31EF
  8
0
 10
14326.50399473517
 20
19717.28863504423
 30
0.0
 40
9.0
  0
CIRCLE
  5
31F0
  8
0
 10
14536.50399473517
 20
19751.28863504423
 30
0.0
 40
9.0
  0
CIRCLE
  5
31F1
  8
0
 10
14536.50399473517
 20
19683.28863504423
 30
0.0
 40
9.0
  0
CIRCLE
  5
31F2
  8
0
 10
14536.50399473517
 20
19717.28863504423
 30
0.0
 40
9.0
  0
CIRCLE
  5
31F3
  8
0
 10
14571.50399473517
 20
19751.28863504423
 30
0.0
 40
9.0
  0
CIRCLE
  5
31F4
  8
0
 10
14571.50399473517
 20
19683.28863504423
 30
0.0
 40
9.0
  0
CIRCLE
  5
31F5
  8
0
 10
14571.50399473517
 20
19717.28863504423
 30
0.0
 40
9.0
  0
CIRCLE
  5
31F6
  8
0
 10
14606.50399473517
 20
19751.28863504423
 30
0.0
 40
9.0
  0
CIRCLE
  5
31F7
  8
0
 10
14606.50399473517
 20
19683.28863504423
 30
0.0
 40
9.0
  0
CIRCLE
  5
31F8
  8
0
 10
14606.50399473517
 20
19717.28863504423
 30
0.0
 40
9.0
  0
POLYLINE
  5
31F9
  8
0
 66
     1
 10
0.0
 20
0.0
 30
0.0
 70
     1
  0
VERTEX
  5
3C33
  8
0
 10
14035.62721935145
 20
19264.64457159625
 30
0.0
  0
VERTEX
  5
3C34
  8
0
 10
14035.62721935145
 20
19584.64457159625
 30
0.0
  0
VERTEX
  5
3C35
  8
0
 10
14255.62721935145
 20
19584.64457159625
 30
0.0
  0
VERTEX
  5
3C36
  8
0
 10
14255.62721935145
 20
19264.64457159625
 30
0.0
  0
SEQEND
  5
3D36
  8
0
  0
POLYLINE
  5
31FA
  8
0
 66
     1
 10
0.0
 20
0.0
 30
0.0
 70
     1
  0
VERTEX
  5
3C37
  8
0
 10
14036.62721935145
 20
19265.64457159625
 30
0.0
  0
VERTEX
  5
3C38
  8
0
 10
14036.62721935145
 20
19583.64457159625
 30
0.0
  0
VERTEX
  5
3C39
  8
0
 10
14254.62721935145
 20
19583.64457159625
 30
0.0
  0
VERTEX
  5
3C3A
  8
0
 10
14254.62721935145
 20
19265.64457159625
 30
0.0
  0
SEQEND
  5
3D37
  8
0
  0
CIRCLE
  5
31FB
  8
0
  6
CONTINUOUS
 62
     7
 10
14984.99049511909
 20
19622.64389579635
 30
0.0
 40
3.0
  0
CIRCLE
  5
31FC
  8
0
  6
CONTINUOUS
 62
     7
 10
14984.99049511909
 20
19611.64389579635
 30
0.0
 40
2.999999999999986
  0
CIRCLE
  5
31FD
  8
0
  6
CONTINUOUS
 62
     7
 10
14984.99049511909
 20
19600.64389579635
 30
0.0
 40
3.000000000000028
  0
CIRCLE
  5
31FE
  8
0
  6
CONTINUOUS
 62
     7
 10
14984.99049511909
 20
19589.64389579635
 30
0.0
 40
3.000000000000021
  0
CIRCLE
  5
31FF
  8
0
  6
CONTINUOUS
 62
     7
 10
14984.99049511909
 20
19578.64389579635
 30
0.0
 40
3.000000000000007
  0
CIRCLE
  5
3200
  8
0
  6
CONTINUOUS
 62
     7
 10
14984.99049511909
 20
19567.64389579635
 30
0.0
 40
3.0
  0
CIRCLE
  5
3201
  8
0
  6
CONTINUOUS
 62
     7
 10
14984.99049511909
 20
19556.64389579635
 30
0.0
 40
3.000000000000007
  0
CIRCLE
  5
3202
  8
0
  6
CONTINUOUS
 62
     7
 10
14984.99049511909
 20
19545.64389579635
 30
0.0
 40
3.000000000000006
  0
CIRCLE
  5
3203
  8
0
  6
CONTINUOUS
 62
     7
 10
14984.99049511909
 20
19534.64389579635
 30
0.0
 40
3.000000000000007
  0
CIRCLE
  5
3204
  8
0
  6
CONTINUOUS
 62
     7
 10
14984.99049511909
 20
19523.64389579635
 30
0.0
 40
3.000000000000005
  0
CIRCLE
  5
3205
  8
0
  6
CONTINUOUS
 62
     7
 10
14984.99049511909
 20
19512.64389579635
 30
0.0
 40
3.000000000000011
  0
CIRCLE
  5
3206
  8
0
  6
CONTINUOUS
 62
     7
 10
14984.99049511909
 20
19501.64389579635
 30
0.0
 40
3.0
  0
CIRCLE
  5
3207
  8
0
  6
CONTINUOUS
 62
     7
 10
14984.99049511909
 20
19490.64389579635
 30
0.0
 40
3.0
  0
CIRCLE
  5
3208
  8
0
  6
CONTINUOUS
 62
     7
 10
14984.99049511909
 20
19479.64389579635
 30
0.0
 40
3.000000000000007
  0
CIRCLE
  5
3209
  8
0
  6
CONTINUOUS
 62
     7
 10
14984.99049511909
 20
19468.64389579635
 30
0.0
 40
3.0
  0
CIRCLE
  5
320A
  8
0
  6
CONTINUOUS
 62
     7
 10
14984.99049511909
 20
19457.64389579635
 30
0.0
 40
2.999999999999986
  0
CIRCLE
  5
320B
  8
0
  6
CONTINUOUS
 62
     7
 10
14984.99049511909
 20
19446.64389579635
 30
0.0
 40
2.999999999999986
  0
CIRCLE
  5
320C
  8
0
  6
CONTINUOUS
 62
     7
 10
14973.99049511909
 20
19622.64389579635
 30
0.0
 40
3.0
  0
CIRCLE
  5
320D
  8
0
  6
CONTINUOUS
 62
     7
 10
14973.99049511909
 20
19611.64389579635
 30
0.0
 40
3.0
  0
CIRCLE
  5
320E
  8
0
  6
CONTINUOUS
 62
     7
 10
14973.99049511909
 20
19600.64389579635
 30
0.0
 40
3.000000000000028
  0
CIRCLE
  5
320F
  8
0
  6
CONTINUOUS
 62
     7
 10
14973.99049511909
 20
19589.64389579635
 30
0.0
 40
3.000000000000021
  0
CIRCLE
  5
3210
  8
0
  6
CONTINUOUS
 62
     7
 10
14973.99049511909
 20
19578.64389579635
 30
0.0
 40
3.000000000000021
  0
CIRCLE
  5
3211
  8
0
  6
CONTINUOUS
 62
     7
 10
14973.99049511909
 20
19567.64389579635
 30
0.0
 40
3.000000000000014
  0
CIRCLE
  5
3212
  8
0
  6
CONTINUOUS
 62
     7
 10
14973.99049511909
 20
19556.64389579635
 30
0.0
 40
3.000000000000018
  0
CIRCLE
  5
3213
  8
0
  6
CONTINUOUS
 62
     7
 10
14973.99049511909
 20
19545.64389579635
 30
0.0
 40
3.000000000000019
  0
CIRCLE
  5
3214
  8
0
  6
CONTINUOUS
 62
     7
 10
14973.99049511909
 20
19534.64389579635
 30
0.0
 40
3.000000000000019
  0
CIRCLE
  5
3215
  8
0
  6
CONTINUOUS
 62
     7
 10
14973.99049511909
 20
19523.64389579635
 30
0.0
 40
3.000000000000018
  0
CIRCLE
  5
3216
  8
0
  6
CONTINUOUS
 62
     7
 10
14973.99049511909
 20
19512.64389579635
 30
0.0
 40
3.000000000000018
  0
CIRCLE
  5
3217
  8
0
  6
CONTINUOUS
 62
     7
 10
14973.99049511909
 20
19501.64389579635
 30
0.0
 40
3.000000000000007
  0
CIRCLE
  5
3218
  8
0
  6
CONTINUOUS
 62
     7
 10
14973.99049511909
 20
19490.64389579635
 30
0.0
 40
3.000000000000014
  0
CIRCLE
  5
3219
  8
0
  6
CONTINUOUS
 62
     7
 10
14973.99049511909
 20
19479.64389579635
 30
0.0
 40
3.000000000000028
  0
CIRCLE
  5
321A
  8
0
  6
CONTINUOUS
 62
     7
 10
14973.99049511909
 20
19468.64389579635
 30
0.0
 40
3.000000000000014
  0
CIRCLE
  5
321B
  8
0
  6
CONTINUOUS
 62
     7
 10
14973.99049511909
 20
19457.64389579635
 30
0.0
 40
3.000000000000014
  0
CIRCLE
  5
321C
  8
0
  6
CONTINUOUS
 62
     7
 10
14973.99049511909
 20
19446.64389579635
 30
0.0
 40
3.000000000000014
  0
CIRCLE
  5
321D
  8
0
  6
CONTINUOUS
 62
     7
 10
14962.99049511909
 20
19622.64389579635
 30
0.0
 40
2.999999999999986
  0
CIRCLE
  5
321E
  8
0
  6
CONTINUOUS
 62
     7
 10
14962.99049511909
 20
19611.64389579635
 30
0.0
 40
2.999999999999972
  0
CIRCLE
  5
321F
  8
0
  6
CONTINUOUS
 62
     7
 10
14962.99049511909
 20
19600.64389579635
 30
0.0
 40
3.0
  0
CIRCLE
  5
3220
  8
0
  6
CONTINUOUS
 62
     7
 10
14962.99049511909
 20
19589.64389579635
 30
0.0
 40
3.0
  0
CIRCLE
  5
3221
  8
0
  6
CONTINUOUS
 62
     7
 10
14962.99049511909
 20
19578.64389579635
 30
0.0
 40
2.999999999999993
  0
CIRCLE
  5
3222
  8
0
  6
CONTINUOUS
 62
     7
 10
14962.99049511909
 20
19567.64389579635
 30
0.0
 40
2.999999999999986
  0
CIRCLE
  5
3223
  8
0
  6
CONTINUOUS
 62
     7
 10
14962.99049511909
 20
19556.64389579635
 30
0.0
 40
2.999999999999989
  0
CIRCLE
  5
3224
  8
0
  6
CONTINUOUS
 62
     7
 10
14962.99049511909
 20
19545.64389579635
 30
0.0
 40
2.99999999999999
  0
CIRCLE
  5
3225
  8
0
  6
CONTINUOUS
 62
     7
 10
14962.99049511909
 20
19534.64389579635
 30
0.0
 40
2.999999999999989
  0
CIRCLE
  5
3226
  8
0
  6
CONTINUOUS
 62
     7
 10
14962.99049511909
 20
19523.64389579635
 30
0.0
 40
2.999999999999989
  0
CIRCLE
  5
3227
  8
0
  6
CONTINUOUS
 62
     7
 10
14962.99049511909
 20
19512.64389579635
 30
0.0
 40
2.999999999999989
  0
CIRCLE
  5
3228
  8
0
  6
CONTINUOUS
 62
     7
 10
14962.99049511909
 20
19501.64389579635
 30
0.0
 40
2.999999999999979
  0
CIRCLE
  5
3229
  8
0
  6
CONTINUOUS
 62
     7
 10
14962.99049511909
 20
19490.64389579635
 30
0.0
 40
2.999999999999979
  0
CIRCLE
  5
322A
  8
0
  6
CONTINUOUS
 62
     7
 10
14962.99049511909
 20
19479.64389579635
 30
0.0
 40
2.999999999999993
  0
CIRCLE
  5
322B
  8
0
  6
CONTINUOUS
 62
     7
 10
14962.99049511909
 20
19468.64389579635
 30
0.0
 40
2.999999999999986
  0
CIRCLE
  5
322C
  8
0
  6
CONTINUOUS
 62
     7
 10
14962.99049511909
 20
19457.64389579635
 30
0.0
 40
2.999999999999972
  0
CIRCLE
  5
322D
  8
0
  6
CONTINUOUS
 62
     7
 10
14962.99049511909
 20
19446.64389579635
 30
0.0
 40
2.999999999999972
  0
CIRCLE
  5
322E
  8
0
  6
CONTINUOUS
 62
     7
 10
14951.99049511909
 20
19622.64389579635
 30
0.0
 40
3.0
  0
CIRCLE
  5
322F
  8
0
  6
CONTINUOUS
 62
     7
 10
14951.99049511909
 20
19611.64389579635
 30
0.0
 40
2.999999999999986
  0
CIRCLE
  5
3230
  8
0
  6
CONTINUOUS
 62
     7
 10
14951.99049511909
 20
19600.64389579635
 30
0.0
 40
3.000000000000028
  0
CIRCLE
  5
3231
  8
0
  6
CONTINUOUS
 62
     7
 10
14951.99049511909
 20
19589.64389579635
 30
0.0
 40
3.000000000000021
  0
CIRCLE
  5
3232
  8
0
  6
CONTINUOUS
 62
     7
 10
14951.99049511909
 20
19578.64389579635
 30
0.0
 40
3.000000000000021
  0
CIRCLE
  5
3233
  8
0
  6
CONTINUOUS
 62
     7
 10
14951.99049511909
 20
19567.64389579635
 30
0.0
 40
3.000000000000007
  0
CIRCLE
  5
3234
  8
0
  6
CONTINUOUS
 62
     7
 10
14951.99049511909
 20
19556.64389579635
 30
0.0
 40
3.000000000000007
  0
CIRCLE
  5
3235
  8
0
  6
CONTINUOUS
 62
     7
 10
14951.99049511909
 20
19545.64389579635
 30
0.0
 40
3.000000000000017
  0
CIRCLE
  5
3236
  8
0
  6
CONTINUOUS
 62
     7
 10
14951.99049511909
 20
19534.64389579635
 30
0.0
 40
3.000000000000015
  0
CIRCLE
  5
3237
  8
0
  6
CONTINUOUS
 62
     7
 10
14951.99049511909
 20
19523.64389579635
 30
0.0
 40
3.000000000000012
  0
CIRCLE
  5
3238
  8
0
  6
CONTINUOUS
 62
     7
 10
14951.99049511909
 20
19512.64389579635
 30
0.0
 40
3.000000000000011
  0
CIRCLE
  5
3239
  8
0
  6
CONTINUOUS
 62
     7
 10
14951.99049511909
 20
19501.64389579635
 30
0.0
 40
3.0
  0
CIRCLE
  5
323A
  8
0
  6
CONTINUOUS
 62
     7
 10
14951.99049511909
 20
19490.64389579635
 30
0.0
 40
3.000000000000007
  0
CIRCLE
  5
323B
  8
0
  6
CONTINUOUS
 62
     7
 10
14951.99049511909
 20
19479.64389579635
 30
0.0
 40
3.000000000000007
  0
CIRCLE
  5
323C
  8
0
  6
CONTINUOUS
 62
     7
 10
14951.99049511909
 20
19468.64389579635
 30
0.0
 40
3.0
  0
CIRCLE
  5
323D
  8
0
  6
CONTINUOUS
 62
     7
 10
14951.99049511909
 20
19457.64389579635
 30
0.0
 40
2.999999999999986
  0
CIRCLE
  5
323E
  8
0
  6
CONTINUOUS
 62
     7
 10
14951.99049511909
 20
19446.64389579635
 30
0.0
 40
2.999999999999986
  0
CIRCLE
  5
323F
  8
0
  6
CONTINUOUS
 62
     7
 10
14940.99049511909
 20
19622.64389579635
 30
0.0
 40
3.0
  0
CIRCLE
  5
3240
  8
0
  6
CONTINUOUS
 62
     7
 10
14940.99049511909
 20
19611.64389579635
 30
0.0
 40
3.0
  0
CIRCLE
  5
3241
  8
0
  6
CONTINUOUS
 62
     7
 10
14940.99049511909
 20
19600.64389579635
 30
0.0
 40
3.000000000000028
  0
CIRCLE
  5
3242
  8
0
  6
CONTINUOUS
 62
     7
 10
14940.99049511909
 20
19589.64389579635
 30
0.0
 40
3.000000000000007
  0
CIRCLE
  5
3243
  8
0
  6
CONTINUOUS
 62
     7
 10
14940.99049511909
 20
19578.64389579635
 30
0.0
 40
3.000000000000007
  0
CIRCLE
  5
3244
  8
0
  6
CONTINUOUS
 62
     7
 10
14940.99049511909
 20
19567.64389579635
 30
0.0
 40
3.0
  0
CIRCLE
  5
3245
  8
0
  6
CONTINUOUS
 62
     7
 10
14940.99049511909
 20
19556.64389579635
 30
0.0
 40
3.000000000000004
  0
CIRCLE
  5
3246
  8
0
  6
CONTINUOUS
 62
     7
 10
14940.99049511909
 20
19545.64389579635
 30
0.0
 40
3.000000000000006
  0
CIRCLE
  5
3247
  8
0
  6
CONTINUOUS
 62
     7
 10
14940.99049511909
 20
19534.64389579635
 30
0.0
 40
3.000000000000007
  0
CIRCLE
  5
3248
  8
0
  6
CONTINUOUS
 62
     7
 10
14940.99049511909
 20
19523.64389579635
 30
0.0
 40
3.000000000000009
  0
CIRCLE
  5
3249
  8
0
  6
CONTINUOUS
 62
     7
 10
14940.99049511909
 20
19512.64389579635
 30
0.0
 40
3.0
  0
CIRCLE
  5
324A
  8
0
  6
CONTINUOUS
 62
     7
 10
14940.99049511909
 20
19501.64389579635
 30
0.0
 40
2.999999999999993
  0
CIRCLE
  5
324B
  8
0
  6
CONTINUOUS
 62
     7
 10
14940.99049511909
 20
19490.64389579635
 30
0.0
 40
3.0
  0
CIRCLE
  5
324C
  8
0
  6
CONTINUOUS
 62
     7
 10
14940.99049511909
 20
19479.64389579635
 30
0.0
 40
3.000000000000007
  0
CIRCLE
  5
324D
  8
0
  6
CONTINUOUS
 62
     7
 10
14940.99049511909
 20
19468.64389579635
 30
0.0
 40
3.000000000000014
  0
CIRCLE
  5
324E
  8
0
  6
CONTINUOUS
 62
     7
 10
14940.99049511909
 20
19457.64389579635
 30
0.0
 40
3.0
  0
CIRCLE
  5
324F
  8
0
  6
CONTINUOUS
 62
     7
 10
14940.99049511909
 20
19446.64389579635
 30
0.0
 40
2.999999999999986
  0
CIRCLE
  5
3250
  8
0
  6
CONTINUOUS
 62
     7
 10
14929.99049511909
 20
19622.64389579635
 30
0.0
 40
3.0
  0
CIRCLE
  5
3251
  8
0
  6
CONTINUOUS
 62
     7
 10
14929.99049511909
 20
19611.64389579635
 30
0.0
 40
2.999999999999986
  0
CIRCLE
  5
3252
  8
0
  6
CONTINUOUS
 62
     7
 10
14929.99049511909
 20
19600.64389579635
 30
0.0
 40
3.0
  0
CIRCLE
  5
3253
  8
0
  6
CONTINUOUS
 62
     7
 10
14929.99049511909
 20
19589.64389579635
 30
0.0
 40
3.000000000000021
  0
CIRCLE
  5
3254
  8
0
  6
CONTINUOUS
 62
     7
 10
14929.99049511909
 20
19578.64389579635
 30
0.0
 40
3.000000000000007
  0
CIRCLE
  5
3255
  8
0
  6
CONTINUOUS
 62
     7
 10
14929.99049511909
 20
19567.64389579635
 30
0.0
 40
3.000000000000007
  0
CIRCLE
  5
3256
  8
0
  6
CONTINUOUS
 62
     7
 10
14929.99049511909
 20
19556.64389579635
 30
0.0
 40
3.000000000000007
  0
CIRCLE
  5
3257
  8
0
  6
CONTINUOUS
 62
     7
 10
14929.99049511909
 20
19545.64389579635
 30
0.0
 40
3.00000000000001
  0
CIRCLE
  5
3258
  8
0
  6
CONTINUOUS
 62
     7
 10
14929.99049511909
 20
19534.64389579635
 30
0.0
 40
3.000000000000009
  0
CIRCLE
  5
3259
  8
0
  6
CONTINUOUS
 62
     7
 10
14929.99049511909
 20
19523.64389579635
 30
0.0
 40
3.000000000000009
  0
CIRCLE
  5
325A
  8
0
  6
CONTINUOUS
 62
     7
 10
14929.99049511909
 20
19512.64389579635
 30
0.0
 40
3.000000000000011
  0
CIRCLE
  5
325B
  8
0
  6
CONTINUOUS
 62
     7
 10
14929.99049511909
 20
19501.64389579635
 30
0.0
 40
3.0
  0
CIRCLE
  5
325C
  8
0
  6
CONTINUOUS
 62
     7
 10
14929.99049511909
 20
19490.64389579635
 30
0.0
 40
3.0
  0
CIRCLE
  5
325D
  8
0
  6
CONTINUOUS
 62
     7
 10
14929.99049511909
 20
19479.64389579635
 30
0.0
 40
3.000000000000007
  0
CIRCLE
  5
325E
  8
0
  6
CONTINUOUS
 62
     7
 10
14929.99049511909
 20
19468.64389579635
 30
0.0
 40
2.999999999999986
  0
CIRCLE
  5
325F
  8
0
  6
CONTINUOUS
 62
     7
 10
14929.99049511909
 20
19457.64389579635
 30
0.0
 40
2.999999999999972
  0
CIRCLE
  5
3260
  8
0
  6
CONTINUOUS
 62
     7
 10
14929.99049511909
 20
19446.64389579635
 30
0.0
 40
2.999999999999972
  0
CIRCLE
  5
3261
  8
0
  6
CONTINUOUS
 62
     7
 10
14918.99049511909
 20
19622.64389579635
 30
0.0
 40
3.0
  0
CIRCLE
  5
3262
  8
0
  6
CONTINUOUS
 62
     7
 10
14918.99049511909
 20
19611.64389579635
 30
0.0
 40
2.999999999999986
  0
CIRCLE
  5
3263
  8
0
  6
CONTINUOUS
 62
     7
 10
14918.99049511909
 20
19600.64389579635
 30
0.0
 40
3.000000000000014
  0
CIRCLE
  5
3264
  8
0
  6
CONTINUOUS
 62
     7
 10
14918.99049511909
 20
19589.64389579635
 30
0.0
 40
3.000000000000021
  0
CIRCLE
  5
3265
  8
0
  6
CONTINUOUS
 62
     7
 10
14918.99049511909
 20
19578.64389579635
 30
0.0
 40
3.000000000000007
  0
CIRCLE
  5
3266
  8
0
  6
CONTINUOUS
 62
     7
 10
14918.99049511909
 20
19567.64389579635
 30
0.0
 40
3.000000000000007
  0
CIRCLE
  5
3267
  8
0
  6
CONTINUOUS
 62
     7
 10
14918.99049511909
 20
19556.64389579635
 30
0.0
 40
3.000000000000014
  0
CIRCLE
  5
3268
  8
0
  6
CONTINUOUS
 62
     7
 10
14918.99049511909
 20
19545.64389579635
 30
0.0
 40
3.000000000000006
  0
CIRCLE
  5
3269
  8
0
  6
CONTINUOUS
 62
     7
 10
14918.99049511909
 20
19534.64389579635
 30
0.0
 40
3.000000000000007
  0
CIRCLE
  5
326A
  8
0
  6
CONTINUOUS
 62
     7
 10
14918.99049511909
 20
19523.64389579635
 30
0.0
 40
3.000000000000009
  0
CIRCLE
  5
326B
  8
0
  6
CONTINUOUS
 62
     7
 10
14918.99049511909
 20
19512.64389579635
 30
0.0
 40
3.000000000000014
  0
CIRCLE
  5
326C
  8
0
  6
CONTINUOUS
 62
     7
 10
14918.99049511909
 20
19501.64389579635
 30
0.0
 40
3.0
  0
CIRCLE
  5
326D
  8
0
  6
CONTINUOUS
 62
     7
 10
14918.99049511909
 20
19490.64389579635
 30
0.0
 40
3.0
  0
CIRCLE
  5
326E
  8
0
  6
CONTINUOUS
 62
     7
 10
14918.99049511909
 20
19479.64389579635
 30
0.0
 40
3.000000000000021
  0
CIRCLE
  5
326F
  8
0
  6
CONTINUOUS
 62
     7
 10
14918.99049511909
 20
19468.64389579635
 30
0.0
 40
2.999999999999986
  0
CIRCLE
  5
3270
  8
0
  6
CONTINUOUS
 62
     7
 10
14918.99049511909
 20
19457.64389579635
 30
0.0
 40
2.999999999999986
  0
CIRCLE
  5
3271
  8
0
  6
CONTINUOUS
 62
     7
 10
14918.99049511909
 20
19446.64389579635
 30
0.0
 40
2.999999999999986
  0
CIRCLE
  5
3272
  8
0
  6
CONTINUOUS
 62
     7
 10
14907.99049511909
 20
19622.64389579635
 30
0.0
 40
3.0
  0
CIRCLE
  5
3273
  8
0
  6
CONTINUOUS
 62
     7
 10
14907.99049511909
 20
19611.64389579635
 30
0.0
 40
2.999999999999986
  0
CIRCLE
  5
3274
  8
0
  6
CONTINUOUS
 62
     7
 10
14907.99049511909
 20
19600.64389579635
 30
0.0
 40
3.000000000000028
  0
CIRCLE
  5
3275
  8
0
  6
CONTINUOUS
 62
     7
 10
14907.99049511909
 20
19589.64389579635
 30
0.0
 40
3.000000000000021
  0
CIRCLE
  5
3276
  8
0
  6
CONTINUOUS
 62
     7
 10
14907.99049511909
 20
19578.64389579635
 30
0.0
 40
3.000000000000007
  0
CIRCLE
  5
3277
  8
0
  6
CONTINUOUS
 62
     7
 10
14907.99049511909
 20
19567.64389579635
 30
0.0
 40
3.0
  0
CIRCLE
  5
3278
  8
0
  6
CONTINUOUS
 62
     7
 10
14907.99049511909
 20
19556.64389579635
 30
0.0
 40
3.000000000000007
  0
CIRCLE
  5
3279
  8
0
  6
CONTINUOUS
 62
     7
 10
14907.99049511909
 20
19545.64389579635
 30
0.0
 40
3.000000000000012
  0
CIRCLE
  5
327A
  8
0
  6
CONTINUOUS
 62
     7
 10
14907.99049511909
 20
19534.64389579635
 30
0.0
 40
3.000000000000008
  0
CIRCLE
  5
327B
  8
0
  6
CONTINUOUS
 62
     7
 10
14907.99049511909
 20
19523.64389579635
 30
0.0
 40
3.000000000000011
  0
CIRCLE
  5
327C
  8
0
  6
CONTINUOUS
 62
     7
 10
14907.99049511909
 20
19512.64389579635
 30
0.0
 40
3.000000000000011
  0
CIRCLE
  5
327D
  8
0
  6
CONTINUOUS
 62
     7
 10
14907.99049511909
 20
19501.64389579635
 30
0.0
 40
3.0
  0
CIRCLE
  5
327E
  8
0
  6
CONTINUOUS
 62
     7
 10
14907.99049511909
 20
19490.64389579635
 30
0.0
 40
3.0
  0
CIRCLE
  5
327F
  8
0
  6
CONTINUOUS
 62
     7
 10
14907.99049511909
 20
19479.64389579635
 30
0.0
 40
3.000000000000007
  0
CIRCLE
  5
3280
  8
0
  6
CONTINUOUS
 62
     7
 10
14907.99049511909
 20
19468.64389579635
 30
0.0
 40
3.0
  0
CIRCLE
  5
3281
  8
0
  6
CONTINUOUS
 62
     7
 10
14907.99049511909
 20
19457.64389579635
 30
0.0
 40
2.999999999999986
  0
CIRCLE
  5
3282
  8
0
  6
CONTINUOUS
 62
     7
 10
14907.99049511909
 20
19446.64389579635
 30
0.0
 40
2.999999999999986
  0
CIRCLE
  5
3283
  8
0
  6
CONTINUOUS
 62
     7
 10
14896.99049511909
 20
19622.64389579635
 30
0.0
 40
3.0
  0
CIRCLE
  5
3284
  8
0
  6
CONTINUOUS
 62
     7
 10
14896.99049511909
 20
19611.64389579635
 30
0.0
 40
3.0
  0
CIRCLE
  5
3285
  8
0
  6
CONTINUOUS
 62
     7
 10
14896.99049511909
 20
19600.64389579635
 30
0.0
 40
3.000000000000028
  0
CIRCLE
  5
3286
  8
0
  6
CONTINUOUS
 62
     7
 10
14896.99049511909
 20
19589.64389579635
 30
0.0
 40
3.000000000000021
  0
CIRCLE
  5
3287
  8
0
  6
CONTINUOUS
 62
     7
 10
14896.99049511909
 20
19578.64389579635
 30
0.0
 40
3.000000000000007
  0
CIRCLE
  5
3288
  8
0
  6
CONTINUOUS
 62
     7
 10
14896.99049511909
 20
19567.64389579635
 30
0.0
 40
3.000000000000007
  0
CIRCLE
  5
3289
  8
0
  6
CONTINUOUS
 62
     7
 10
14896.99049511909
 20
19556.64389579635
 30
0.0
 40
3.000000000000007
  0
CIRCLE
  5
328A
  8
0
  6
CONTINUOUS
 62
     7
 10
14896.99049511909
 20
19545.64389579635
 30
0.0
 40
3.000000000000006
  0
CIRCLE
  5
328B
  8
0
  6
CONTINUOUS
 62
     7
 10
14896.99049511909
 20
19534.64389579635
 30
0.0
 40
3.000000000000008
  0
CIRCLE
  5
328C
  8
0
  6
CONTINUOUS
 62
     7
 10
14896.99049511909
 20
19523.64389579635
 30
0.0
 40
3.000000000000009
  0
CIRCLE
  5
328D
  8
0
  6
CONTINUOUS
 62
     7
 10
14896.99049511909
 20
19512.64389579635
 30
0.0
 40
3.000000000000004
  0
CIRCLE
  5
328E
  8
0
  6
CONTINUOUS
 62
     7
 10
14896.99049511909
 20
19501.64389579635
 30
0.0
 40
3.0
  0
CIRCLE
  5
328F
  8
0
  6
CONTINUOUS
 62
     7
 10
14896.99049511909
 20
19490.64389579635
 30
0.0
 40
3.0
  0
CIRCLE
  5
3290
  8
0
  6
CONTINUOUS
 62
     7
 10
14896.99049511909
 20
19479.64389579635
 30
0.0
 40
3.000000000000007
  0
CIRCLE
  5
3291
  8
0
  6
CONTINUOUS
 62
     7
 10
14896.99049511909
 20
19468.64389579635
 30
0.0
 40
3.000000000000014
  0
CIRCLE
  5
3292
  8
0
  6
CONTINUOUS
 62
     7
 10
14896.99049511909
 20
19457.64389579635
 30
0.0
 40
2.999999999999986
  0
CIRCLE
  5
3293
  8
0
  6
CONTINUOUS
 62
     7
 10
14896.99049511909
 20
19446.64389579635
 30
0.0
 40
2.999999999999986
  0
CIRCLE
  5
3294
  8
0
  6
CONTINUOUS
 62
     7
 10
14885.99049511909
 20
19622.64389579635
 30
0.0
 40
3.0
  0
CIRCLE
  5
3295
  8
0
  6
CONTINUOUS
 62
     7
 10
14885.99049511909
 20
19611.64389579635
 30
0.0
 40
3.0
  0
CIRCLE
  5
3296
  8
0
  6
CONTINUOUS
 62
     7
 10
14885.99049511909
 20
19600.64389579635
 30
0.0
 40
3.000000000000028
  0
CIRCLE
  5
3297
  8
0
  6
CONTINUOUS
 62
     7
 10
14885.99049511909
 20
19589.64389579635
 30
0.0
 40
3.000000000000021
  0
CIRCLE
  5
3298
  8
0
  6
CONTINUOUS
 62
     7
 10
14885.99049511909
 20
19578.64389579635
 30
0.0
 40
3.000000000000007
  0
CIRCLE
  5
3299
  8
0
  6
CONTINUOUS
 62
     7
 10
14885.99049511909
 20
19567.64389579635
 30
0.0
 40
3.000000000000007
  0
CIRCLE
  5
329A
  8
0
  6
CONTINUOUS
 62
     7
 10
14885.99049511909
 20
19556.64389579635
 30
0.0
 40
3.000000000000007
  0
CIRCLE
  5
329B
  8
0
  6
CONTINUOUS
 62
     7
 10
14885.99049511909
 20
19545.64389579635
 30
0.0
 40
3.000000000000006
  0
CIRCLE
  5
329C
  8
0
  6
CONTINUOUS
 62
     7
 10
14885.99049511909
 20
19534.64389579635
 30
0.0
 40
3.000000000000006
  0
CIRCLE
  5
329D
  8
0
  6
CONTINUOUS
 62
     7
 10
14885.99049511909
 20
19523.64389579635
 30
0.0
 40
3.000000000000005
  0
CIRCLE
  5
329E
  8
0
  6
CONTINUOUS
 62
     7
 10
14885.99049511909
 20
19512.64389579635
 30
0.0
 40
3.000000000000011
  0
CIRCLE
  5
329F
  8
0
  6
CONTINUOUS
 62
     7
 10
14885.99049511909
 20
19501.64389579635
 30
0.0
 40
3.0
  0
CIRCLE
  5
32A0
  8
0
  6
CONTINUOUS
 62
     7
 10
14885.99049511909
 20
19490.64389579635
 30
0.0
 40
3.0
  0
CIRCLE
  5
32A1
  8
0
  6
CONTINUOUS
 62
     7
 10
14885.99049511909
 20
19479.64389579635
 30
0.0
 40
3.000000000000007
  0
CIRCLE
  5
32A2
  8
0
  6
CONTINUOUS
 62
     7
 10
14885.99049511909
 20
19468.64389579635
 30
0.0
 40
3.000000000000014
  0
CIRCLE
  5
32A3
  8
0
  6
CONTINUOUS
 62
     7
 10
14885.99049511909
 20
19457.64389579635
 30
0.0
 40
2.999999999999986
  0
CIRCLE
  5
32A4
  8
0
  6
CONTINUOUS
 62
     7
 10
14885.99049511909
 20
19446.64389579635
 30
0.0
 40
2.999999999999986
  0
CIRCLE
  5
32A5
  8
0
  6
CONTINUOUS
 62
     7
 10
14874.99049511909
 20
19622.64389579635
 30
0.0
 40
3.0
  0
CIRCLE
  5
32A6
  8
0
  6
CONTINUOUS
 62
     7
 10
14874.99049511909
 20
19611.64389579635
 30
0.0
 40
3.0
  0
CIRCLE
  5
32A7
  8
0
  6
CONTINUOUS
 62
     7
 10
14874.99049511909
 20
19600.64389579635
 30
0.0
 40
3.000000000000028
  0
CIRCLE
  5
32A8
  8
0
  6
CONTINUOUS
 62
     7
 10
14874.99049511909
 20
19589.64389579635
 30
0.0
 40
3.000000000000021
  0
CIRCLE
  5
32A9
  8
0
  6
CONTINUOUS
 62
     7
 10
14874.99049511909
 20
19578.64389579635
 30
0.0
 40
3.000000000000007
  0
CIRCLE
  5
32AA
  8
0
  6
CONTINUOUS
 62
     7
 10
14874.99049511909
 20
19567.64389579635
 30
0.0
 40
3.000000000000007
  0
CIRCLE
  5
32AB
  8
0
  6
CONTINUOUS
 62
     7
 10
14874.99049511909
 20
19556.64389579635
 30
0.0
 40
3.000000000000007
  0
CIRCLE
  5
32AC
  8
0
  6
CONTINUOUS
 62
     7
 10
14874.99049511909
 20
19545.64389579635
 30
0.0
 40
3.000000000000006
  0
CIRCLE
  5
32AD
  8
0
  6
CONTINUOUS
 62
     7
 10
14874.99049511909
 20
19534.64389579635
 30
0.0
 40
3.000000000000008
  0
CIRCLE
  5
32AE
  8
0
  6
CONTINUOUS
 62
     7
 10
14874.99049511909
 20
19523.64389579635
 30
0.0
 40
3.000000000000009
  0
CIRCLE
  5
32AF
  8
0
  6
CONTINUOUS
 62
     7
 10
14874.99049511909
 20
19512.64389579635
 30
0.0
 40
3.000000000000004
  0
CIRCLE
  5
32B0
  8
0
  6
CONTINUOUS
 62
     7
 10
14874.99049511909
 20
19501.64389579635
 30
0.0
 40
3.0
  0
CIRCLE
  5
32B1
  8
0
  6
CONTINUOUS
 62
     7
 10
14874.99049511909
 20
19490.64389579635
 30
0.0
 40
3.0
  0
CIRCLE
  5
32B2
  8
0
  6
CONTINUOUS
 62
     7
 10
14874.99049511909
 20
19479.64389579635
 30
0.0
 40
3.000000000000007
  0
CIRCLE
  5
32B3
  8
0
  6
CONTINUOUS
 62
     7
 10
14874.99049511909
 20
19468.64389579635
 30
0.0
 40
3.000000000000014
  0
CIRCLE
  5
32B4
  8
0
  6
CONTINUOUS
 62
     7
 10
14874.99049511909
 20
19457.64389579635
 30
0.0
 40
2.999999999999986
  0
CIRCLE
  5
32B5
  8
0
  6
CONTINUOUS
 62
     7
 10
14874.99049511909
 20
19446.64389579635
 30
0.0
 40
2.999999999999986
  0
CIRCLE
  5
32B6
  8
0
  6
CONTINUOUS
 62
     7
 10
14863.99049511909
 20
19622.64389579635
 30
0.0
 40
3.0
  0
CIRCLE
  5
32B7
  8
0
  6
CONTINUOUS
 62
     7
 10
14863.99049511909
 20
19611.64389579635
 30
0.0
 40
3.0
  0
CIRCLE
  5
32B8
  8
0
  6
CONTINUOUS
 62
     7
 10
14863.99049511909
 20
19600.64389579635
 30
0.0
 40
3.000000000000028
  0
CIRCLE
  5
32B9
  8
0
  6
CONTINUOUS
 62
     7
 10
14863.99049511909
 20
19589.64389579635
 30
0.0
 40
3.000000000000021
  0
CIRCLE
  5
32BA
  8
0
  6
CONTINUOUS
 62
     7
 10
14863.99049511909
 20
19578.64389579635
 30
0.0
 40
3.000000000000021
  0
CIRCLE
  5
32BB
  8
0
  6
CONTINUOUS
 62
     7
 10
14863.99049511909
 20
19567.64389579635
 30
0.0
 40
3.000000000000007
  0
CIRCLE
  5
32BC
  8
0
  6
CONTINUOUS
 62
     7
 10
14863.99049511909
 20
19556.64389579635
 30
0.0
 40
3.000000000000014
  0
CIRCLE
  5
32BD
  8
0
  6
CONTINUOUS
 62
     7
 10
14863.99049511909
 20
19545.64389579635
 30
0.0
 40
3.000000000000017
  0
CIRCLE
  5
32BE
  8
0
  6
CONTINUOUS
 62
     7
 10
14863.99049511909
 20
19534.64389579635
 30
0.0
 40
3.000000000000014
  0
CIRCLE
  5
32BF
  8
0
  6
CONTINUOUS
 62
     7
 10
14863.99049511909
 20
19523.64389579635
 30
0.0
 40
3.000000000000012
  0
CIRCLE
  5
32C0
  8
0
  6
CONTINUOUS
 62
     7
 10
14863.99049511909
 20
19512.64389579635
 30
0.0
 40
3.000000000000011
  0
CIRCLE
  5
32C1
  8
0
  6
CONTINUOUS
 62
     7
 10
14863.99049511909
 20
19501.64389579635
 30
0.0
 40
3.0
  0
CIRCLE
  5
32C2
  8
0
  6
CONTINUOUS
 62
     7
 10
14863.99049511909
 20
19490.64389579635
 30
0.0
 40
3.000000000000007
  0
CIRCLE
  5
32C3
  8
0
  6
CONTINUOUS
 62
     7
 10
14863.99049511909
 20
19479.64389579635
 30
0.0
 40
3.000000000000007
  0
CIRCLE
  5
32C4
  8
0
  6
CONTINUOUS
 62
     7
 10
14863.99049511909
 20
19468.64389579635
 30
0.0
 40
3.000000000000014
  0
CIRCLE
  5
32C5
  8
0
  6
CONTINUOUS
 62
     7
 10
14863.99049511909
 20
19457.64389579635
 30
0.0
 40
2.999999999999986
  0
CIRCLE
  5
32C6
  8
0
  6
CONTINUOUS
 62
     7
 10
14863.99049511909
 20
19446.64389579635
 30
0.0
 40
2.999999999999986
  0
CIRCLE
  5
32C7
  8
0
  6
CONTINUOUS
 62
     7
 10
14852.99049511909
 20
19622.64389579635
 30
0.0
 40
3.0
  0
CIRCLE
  5
32C8
  8
0
  6
CONTINUOUS
 62
     7
 10
14852.99049511909
 20
19611.64389579635
 30
0.0
 40
2.999999999999986
  0
CIRCLE
  5
32C9
  8
0
  6
CONTINUOUS
 62
     7
 10
14852.99049511909
 20
19600.64389579635
 30
0.0
 40
3.0
  0
CIRCLE
  5
32CA
  8
0
  6
CONTINUOUS
 62
     7
 10
14852.99049511909
 20
19589.64389579635
 30
0.0
 40
3.000000000000028
  0
CIRCLE
  5
32CB
  8
0
  6
CONTINUOUS
 62
     7
 10
14852.99049511909
 20
19578.64389579635
 30
0.0
 40
3.000000000000021
  0
CIRCLE
  5
32CC
  8
0
  6
CONTINUOUS
 62
     7
 10
14852.99049511909
 20
19567.64389579635
 30
0.0
 40
3.000000000000014
  0
CIRCLE
  5
32CD
  8
0
  6
CONTINUOUS
 62
     7
 10
14852.99049511909
 20
19556.64389579635
 30
0.0
 40
3.000000000000018
  0
CIRCLE
  5
32CE
  8
0
  6
CONTINUOUS
 62
     7
 10
14852.99049511909
 20
19545.64389579635
 30
0.0
 40
3.000000000000006
  0
CIRCLE
  5
32CF
  8
0
  6
CONTINUOUS
 62
     7
 10
14852.99049511909
 20
19534.64389579635
 30
0.0
 40
3.000000000000008
  0
CIRCLE
  5
32D0
  8
0
  6
CONTINUOUS
 62
     7
 10
14852.99049511909
 20
19523.64389579635
 30
0.0
 40
3.000000000000009
  0
CIRCLE
  5
32D1
  8
0
  6
CONTINUOUS
 62
     7
 10
14852.99049511909
 20
19512.64389579635
 30
0.0
 40
3.000000000000018
  0
CIRCLE
  5
32D2
  8
0
  6
CONTINUOUS
 62
     7
 10
14852.99049511909
 20
19501.64389579635
 30
0.0
 40
3.000000000000007
  0
CIRCLE
  5
32D3
  8
0
  6
CONTINUOUS
 62
     7
 10
14852.99049511909
 20
19490.64389579635
 30
0.0
 40
3.000000000000007
  0
CIRCLE
  5
32D4
  8
0
  6
CONTINUOUS
 62
     7
 10
14852.99049511909
 20
19479.64389579635
 30
0.0
 40
3.000000000000028
  0
CIRCLE
  5
32D5
  8
0
  6
CONTINUOUS
 62
     7
 10
14852.99049511909
 20
19468.64389579635
 30
0.0
 40
2.999999999999986
  0
CIRCLE
  5
32D6
  8
0
  6
CONTINUOUS
 62
     7
 10
14852.99049511909
 20
19457.64389579635
 30
0.0
 40
2.999999999999972
  0
CIRCLE
  5
32D7
  8
0
  6
CONTINUOUS
 62
     7
 10
14852.99049511909
 20
19446.64389579635
 30
0.0
 40
2.999999999999972
  0
CIRCLE
  5
32D8
  8
0
  6
CONTINUOUS
 62
     7
 10
14841.99049511909
 20
19622.64389579635
 30
0.0
 40
3.0
  0
CIRCLE
  5
32D9
  8
0
  6
CONTINUOUS
 62
     7
 10
14841.99049511909
 20
19611.64389579635
 30
0.0
 40
2.999999999999986
  0
CIRCLE
  5
32DA
  8
0
  6
CONTINUOUS
 62
     7
 10
14841.99049511909
 20
19600.64389579635
 30
0.0
 40
3.000000000000028
  0
CIRCLE
  5
32DB
  8
0
  6
CONTINUOUS
 62
     7
 10
14841.99049511909
 20
19589.64389579635
 30
0.0
 40
3.000000000000021
  0
CIRCLE
  5
32DC
  8
0
  6
CONTINUOUS
 62
     7
 10
14841.99049511909
 20
19578.64389579635
 30
0.0
 40
3.000000000000021
  0
CIRCLE
  5
32DD
  8
0
  6
CONTINUOUS
 62
     7
 10
14841.99049511909
 20
19567.64389579635
 30
0.0
 40
3.000000000000007
  0
CIRCLE
  5
32DE
  8
0
  6
CONTINUOUS
 62
     7
 10
14841.99049511909
 20
19556.64389579635
 30
0.0
 40
3.000000000000007
  0
CIRCLE
  5
32DF
  8
0
  6
CONTINUOUS
 62
     7
 10
14841.99049511909
 20
19545.64389579635
 30
0.0
 40
3.000000000000017
  0
CIRCLE
  5
32E0
  8
0
  6
CONTINUOUS
 62
     7
 10
14841.99049511909
 20
19534.64389579635
 30
0.0
 40
3.000000000000015
  0
CIRCLE
  5
32E1
  8
0
  6
CONTINUOUS
 62
     7
 10
14841.99049511909
 20
19523.64389579635
 30
0.0
 40
3.000000000000012
  0
CIRCLE
  5
32E2
  8
0
  6
CONTINUOUS
 62
     7
 10
14841.99049511909
 20
19512.64389579635
 30
0.0
 40
3.000000000000011
  0
CIRCLE
  5
32E3
  8
0
  6
CONTINUOUS
 62
     7
 10
14841.99049511909
 20
19501.64389579635
 30
0.0
 40
3.0
  0
CIRCLE
  5
32E4
  8
0
  6
CONTINUOUS
 62
     7
 10
14841.99049511909
 20
19490.64389579635
 30
0.0
 40
3.000000000000007
  0
CIRCLE
  5
32E5
  8
0
  6
CONTINUOUS
 62
     7
 10
14841.99049511909
 20
19479.64389579635
 30
0.0
 40
3.000000000000007
  0
CIRCLE
  5
32E6
  8
0
  6
CONTINUOUS
 62
     7
 10
14841.99049511909
 20
19468.64389579635
 30
0.0
 40
3.0
  0
CIRCLE
  5
32E7
  8
0
  6
CONTINUOUS
 62
     7
 10
14841.99049511909
 20
19457.64389579635
 30
0.0
 40
2.999999999999986
  0
CIRCLE
  5
32E8
  8
0
  6
CONTINUOUS
 62
     7
 10
14841.99049511909
 20
19446.64389579635
 30
0.0
 40
2.999999999999986
  0
CIRCLE
  5
32E9
  8
0
  6
CONTINUOUS
 62
     7
 10
14830.99049511909
 20
19622.64389579635
 30
0.0
 40
2.999999999999986
  0
CIRCLE
  5
32EA
  8
0
  6
CONTINUOUS
 62
     7
 10
14830.99049511909
 20
19611.64389579635
 30
0.0
 40
2.999999999999972
  0
CIRCLE
  5
32EB
  8
0
  6
CONTINUOUS
 62
     7
 10
14830.99049511909
 20
19600.64389579635
 30
0.0
 40
3.0
  0
CIRCLE
  5
32EC
  8
0
  6
CONTINUOUS
 62
     7
 10
14830.99049511909
 20
19589.64389579635
 30
0.0
 40
3.0
  0
CIRCLE
  5
32ED
  8
0
  6
CONTINUOUS
 62
     7
 10
14830.99049511909
 20
19578.64389579635
 30
0.0
 40
2.999999999999993
  0
CIRCLE
  5
32EE
  8
0
  6
CONTINUOUS
 62
     7
 10
14830.99049511909
 20
19567.64389579635
 30
0.0
 40
2.999999999999986
  0
CIRCLE
  5
32EF
  8
0
  6
CONTINUOUS
 62
     7
 10
14830.99049511909
 20
19556.64389579635
 30
0.0
 40
2.999999999999989
  0
CIRCLE
  5
32F0
  8
0
  6
CONTINUOUS
 62
     7
 10
14830.99049511909
 20
19545.64389579635
 30
0.0
 40
2.99999999999999
  0
CIRCLE
  5
32F1
  8
0
  6
CONTINUOUS
 62
     7
 10
14830.99049511909
 20
19534.64389579635
 30
0.0
 40
2.999999999999989
  0
CIRCLE
  5
32F2
  8
0
  6
CONTINUOUS
 62
     7
 10
14830.99049511909
 20
19523.64389579635
 30
0.0
 40
2.999999999999989
  0
CIRCLE
  5
32F3
  8
0
  6
CONTINUOUS
 62
     7
 10
14830.99049511909
 20
19512.64389579635
 30
0.0
 40
2.999999999999989
  0
CIRCLE
  5
32F4
  8
0
  6
CONTINUOUS
 62
     7
 10
14830.99049511909
 20
19501.64389579635
 30
0.0
 40
2.999999999999979
  0
CIRCLE
  5
32F5
  8
0
  6
CONTINUOUS
 62
     7
 10
14830.99049511909
 20
19490.64389579635
 30
0.0
 40
2.999999999999979
  0
CIRCLE
  5
32F6
  8
0
  6
CONTINUOUS
 62
     7
 10
14830.99049511909
 20
19479.64389579635
 30
0.0
 40
2.999999999999993
  0
CIRCLE
  5
32F7
  8
0
  6
CONTINUOUS
 62
     7
 10
14830.99049511909
 20
19468.64389579635
 30
0.0
 40
2.999999999999986
  0
CIRCLE
  5
32F8
  8
0
  6
CONTINUOUS
 62
     7
 10
14830.99049511909
 20
19457.64389579635
 30
0.0
 40
2.999999999999972
  0
CIRCLE
  5
32F9
  8
0
  6
CONTINUOUS
 62
     7
 10
14830.99049511909
 20
19446.64389579635
 30
0.0
 40
2.999999999999972
  0
CIRCLE
  5
32FA
  8
0
  6
CONTINUOUS
 62
     7
 10
14819.99049511909
 20
19622.64389579635
 30
0.0
 40
2.999999999999986
  0
CIRCLE
  5
32FB
  8
0
  6
CONTINUOUS
 62
     7
 10
14819.99049511909
 20
19611.64389579635
 30
0.0
 40
2.999999999999972
  0
CIRCLE
  5
32FC
  8
0
  6
CONTINUOUS
 62
     7
 10
14819.99049511909
 20
19600.64389579635
 30
0.0
 40
3.0
  0
CIRCLE
  5
32FD
  8
0
  6
CONTINUOUS
 62
     7
 10
14819.99049511909
 20
19589.64389579635
 30
0.0
 40
3.0
  0
CIRCLE
  5
32FE
  8
0
  6
CONTINUOUS
 62
     7
 10
14819.99049511909
 20
19578.64389579635
 30
0.0
 40
2.999999999999993
  0
CIRCLE
  5
32FF
  8
0
  6
CONTINUOUS
 62
     7
 10
14819.99049511909
 20
19567.64389579635
 30
0.0
 40
2.999999999999986
  0
CIRCLE
  5
3300
  8
0
  6
CONTINUOUS
 62
     7
 10
14819.99049511909
 20
19556.64389579635
 30
0.0
 40
2.999999999999989
  0
CIRCLE
  5
3301
  8
0
  6
CONTINUOUS
 62
     7
 10
14819.99049511909
 20
19545.64389579635
 30
0.0
 40
2.99999999999999
  0
CIRCLE
  5
3302
  8
0
  6
CONTINUOUS
 62
     7
 10
14819.99049511909
 20
19534.64389579635
 30
0.0
 40
2.999999999999989
  0
CIRCLE
  5
3303
  8
0
  6
CONTINUOUS
 62
     7
 10
14819.99049511909
 20
19523.64389579635
 30
0.0
 40
2.999999999999989
  0
CIRCLE
  5
3304
  8
0
  6
CONTINUOUS
 62
     7
 10
14819.99049511909
 20
19512.64389579635
 30
0.0
 40
2.999999999999989
  0
CIRCLE
  5
3305
  8
0
  6
CONTINUOUS
 62
     7
 10
14819.99049511909
 20
19501.64389579635
 30
0.0
 40
2.999999999999979
  0
CIRCLE
  5
3306
  8
0
  6
CONTINUOUS
 62
     7
 10
14819.99049511909
 20
19490.64389579635
 30
0.0
 40
2.999999999999979
  0
CIRCLE
  5
3307
  8
0
  6
CONTINUOUS
 62
     7
 10
14819.99049511909
 20
19479.64389579635
 30
0.0
 40
2.999999999999993
  0
CIRCLE
  5
3308
  8
0
  6
CONTINUOUS
 62
     7
 10
14819.99049511909
 20
19468.64389579635
 30
0.0
 40
2.999999999999986
  0
CIRCLE
  5
3309
  8
0
  6
CONTINUOUS
 62
     7
 10
14819.99049511909
 20
19457.64389579635
 30
0.0
 40
2.999999999999972
  0
CIRCLE
  5
330A
  8
0
  6
CONTINUOUS
 62
     7
 10
14819.99049511909
 20
19446.64389579635
 30
0.0
 40
2.999999999999972
  0
CIRCLE
  5
330B
  8
0
  6
CONTINUOUS
 62
     7
 10
14808.99049511909
 20
19622.64389579635
 30
0.0
 40
3.0
  0
CIRCLE
  5
330C
  8
0
  6
CONTINUOUS
 62
     7
 10
14808.99049511909
 20
19611.64389579635
 30
0.0
 40
2.999999999999972
  0
CIRCLE
  5
330D
  8
0
  6
CONTINUOUS
 62
     7
 10
14808.99049511909
 20
19600.64389579635
 30
0.0
 40
3.0
  0
CIRCLE
  5
330E
  8
0
  6
CONTINUOUS
 62
     7
 10
14808.99049511909
 20
19589.64389579635
 30
0.0
 40
3.0
  0
CIRCLE
  5
330F
  8
0
  6
CONTINUOUS
 62
     7
 10
14808.99049511909
 20
19578.64389579635
 30
0.0
 40
2.999999999999993
  0
CIRCLE
  5
3310
  8
0
  6
CONTINUOUS
 62
     7
 10
14808.99049511909
 20
19567.64389579635
 30
0.0
 40
2.999999999999986
  0
CIRCLE
  5
3311
  8
0
  6
CONTINUOUS
 62
     7
 10
14808.99049511909
 20
19556.64389579635
 30
0.0
 40
2.999999999999993
  0
CIRCLE
  5
3312
  8
0
  6
CONTINUOUS
 62
     7
 10
14808.99049511909
 20
19545.64389579635
 30
0.0
 40
2.999999999999992
  0
CIRCLE
  5
3313
  8
0
  6
CONTINUOUS
 62
     7
 10
14808.99049511909
 20
19534.64389579635
 30
0.0
 40
2.999999999999993
  0
CIRCLE
  5
3314
  8
0
  6
CONTINUOUS
 62
     7
 10
14808.99049511909
 20
19523.64389579635
 30
0.0
 40
2.999999999999995
  0
CIRCLE
  5
3315
  8
0
  6
CONTINUOUS
 62
     7
 10
14808.99049511909
 20
19512.64389579635
 30
0.0
 40
2.999999999999989
  0
CIRCLE
  5
3316
  8
0
  6
CONTINUOUS
 62
     7
 10
14808.99049511909
 20
19501.64389579635
 30
0.0
 40
2.999999999999986
  0
CIRCLE
  5
3317
  8
0
  6
CONTINUOUS
 62
     7
 10
14808.99049511909
 20
19490.64389579635
 30
0.0
 40
2.999999999999979
  0
CIRCLE
  5
3318
  8
0
  6
CONTINUOUS
 62
     7
 10
14808.99049511909
 20
19479.64389579635
 30
0.0
 40
3.0
  0
CIRCLE
  5
3319
  8
0
  6
CONTINUOUS
 62
     7
 10
14808.99049511909
 20
19468.64389579635
 30
0.0
 40
2.999999999999986
  0
CIRCLE
  5
331A
  8
0
  6
CONTINUOUS
 62
     7
 10
14808.99049511909
 20
19446.64389579635
 30
0.0
 40
2.999999999999972
  0
CIRCLE
  5
331B
  8
0
  6
CONTINUOUS
 62
     7
 10
14808.99049511909
 20
19457.64389579635
 30
0.0
 40
2.999999999999972
  0
POLYLINE
  5
331C
  8
0
 66
     1
 10
0.0
 20
0.0
 30
0.0
 70
     1
  0
VERTEX
  5
3C3B
  8
0
 10
14798.99049511909
 20
19436.64389579635
 30
0.0
  0
VERTEX
  5
3C3C
  8
0
 10
14798.99049511909
 20
19632.64389579635
 30
0.0
  0
VERTEX
  5
3C3D
  8
0
 10
14994.99049511909
 20
19632.64389579635
 30
0.0
  0
VERTEX
  5
3C3E
  8
0
 10
14994.99049511909
 20
19436.64389579635
 30
0.0
  0
SEQEND
  5
3D38
  8
0
  0
CIRCLE
  5
331D
  8
0
  6
CONTINUOUS
 62
     7
 10
14984.99756618689
 20
19677.28863504423
 30
0.0
 40
3.000000000000028
  0
CIRCLE
  5
331E
  8
0
  6
CONTINUOUS
 62
     7
 10
14808.99756618689
 20
19707.28863504423
 30
0.0
 40
2.999999999999986
  0
CIRCLE
  5
331F
  8
0
  6
CONTINUOUS
 62
     7
 10
14808.99756618689
 20
19697.28863504423
 30
0.0
 40
2.999999999999986
  0
CIRCLE
  5
3320
  8
0
  6
CONTINUOUS
 62
     7
 10
14808.99756618689
 20
19687.28863504423
 30
0.0
 40
2.999999999999972
  0
CIRCLE
  5
3321
  8
0
  6
CONTINUOUS
 62
     7
 10
14929.99756618689
 20
19687.28863504423
 30
0.0
 40
3.000000000000014
  0
CIRCLE
  5
3322
  8
0
  6
CONTINUOUS
 62
     7
 10
14929.99756618689
 20
19697.28863504423
 30
0.0
 40
3.0
  0
CIRCLE
  5
3323
  8
0
  6
CONTINUOUS
 62
     7
 10
14929.99756618689
 20
19707.28863504423
 30
0.0
 40
3.000000000000021
  0
CIRCLE
  5
3324
  8
0
  6
CONTINUOUS
 62
     7
 10
14918.99756618689
 20
19677.28863504423
 30
0.0
 40
3.000000000000018
  0
CIRCLE
  5
3325
  8
0
  6
CONTINUOUS
 62
     7
 10
14940.99756618689
 20
19687.28863504423
 30
0.0
 40
3.000000000000021
  0
CIRCLE
  5
3326
  8
0
  6
CONTINUOUS
 62
     7
 10
14940.99756618689
 20
19697.28863504423
 30
0.0
 40
3.000000000000007
  0
CIRCLE
  5
3327
  8
0
  6
CONTINUOUS
 62
     7
 10
14940.99756618689
 20
19707.28863504423
 30
0.0
 40
3.000000000000028
  0
CIRCLE
  5
3328
  8
0
  6
CONTINUOUS
 62
     7
 10
14929.99756618689
 20
19677.28863504423
 30
0.0
 40
3.000000000000014
  0
CIRCLE
  5
3329
  8
0
  6
CONTINUOUS
 62
     7
 10
14907.99756618689
 20
19687.28863504423
 30
0.0
 40
3.00000000000002
  0
CIRCLE
  5
332A
  8
0
  6
CONTINUOUS
 62
     7
 10
14907.99756618689
 20
19697.28863504423
 30
0.0
 40
3.000000000000004
  0
CIRCLE
  5
332B
  8
0
  6
CONTINUOUS
 62
     7
 10
14907.99756618689
 20
19707.28863504423
 30
0.0
 40
3.000000000000032
  0
CIRCLE
  5
332C
  8
0
  6
CONTINUOUS
 62
     7
 10
14896.99756618689
 20
19677.28863504423
 30
0.0
 40
3.000000000000019
  0
CIRCLE
  5
332D
  8
0
  6
CONTINUOUS
 62
     7
 10
14918.99756618689
 20
19687.28863504423
 30
0.0
 40
2.999999999999993
  0
CIRCLE
  5
332E
  8
0
  6
CONTINUOUS
 62
     7
 10
14918.99756618689
 20
19697.28863504423
 30
0.0
 40
3.000000000000004
  0
CIRCLE
  5
332F
  8
0
  6
CONTINUOUS
 62
     7
 10
14918.99756618689
 20
19707.28863504423
 30
0.0
 40
2.999999999999975
  0
CIRCLE
  5
3330
  8
0
  6
CONTINUOUS
 62
     7
 10
14907.99756618689
 20
19677.28863504423
 30
0.0
 40
2.999999999999989
  0
CIRCLE
  5
3331
  8
0
  6
CONTINUOUS
 62
     7
 10
14973.99756618689
 20
19687.28863504423
 30
0.0
 40
3.000000000000014
  0
CIRCLE
  5
3332
  8
0
  6
CONTINUOUS
 62
     7
 10
14973.99756618689
 20
19697.28863504423
 30
0.0
 40
3.0
  0
CIRCLE
  5
3333
  8
0
  6
CONTINUOUS
 62
     7
 10
14973.99756618689
 20
19707.28863504423
 30
0.0
 40
3.0
  0
CIRCLE
  5
3334
  8
0
  6
CONTINUOUS
 62
     7
 10
14962.99756618689
 20
19677.28863504423
 30
0.0
 40
3.0
  0
CIRCLE
  5
3335
  8
0
  6
CONTINUOUS
 62
     7
 10
14984.99756618689
 20
19687.28863504423
 30
0.0
 40
3.000000000000028
  0
CIRCLE
  5
3336
  8
0
  6
CONTINUOUS
 62
     7
 10
14984.99756618689
 20
19697.28863504423
 30
0.0
 40
3.000000000000028
  0
CIRCLE
  5
3337
  8
0
  6
CONTINUOUS
 62
     7
 10
14984.99756618689
 20
19707.28863504423
 30
0.0
 40
3.000000000000028
  0
CIRCLE
  5
3338
  8
0
  6
CONTINUOUS
 62
     7
 10
14973.99756618689
 20
19677.28863504423
 30
0.0
 40
3.000000000000014
  0
CIRCLE
  5
3339
  8
0
  6
CONTINUOUS
 62
     7
 10
14951.99756618689
 20
19687.28863504423
 30
0.0
 40
2.999999999999993
  0
CIRCLE
  5
333A
  8
0
  6
CONTINUOUS
 62
     7
 10
14951.99756618689
 20
19697.28863504423
 30
0.0
 40
3.000000000000007
  0
CIRCLE
  5
333B
  8
0
  6
CONTINUOUS
 62
     7
 10
14951.99756618689
 20
19707.28863504423
 30
0.0
 40
2.999999999999964
  0
CIRCLE
  5
333C
  8
0
  6
CONTINUOUS
 62
     7
 10
14940.99756618689
 20
19677.28863504423
 30
0.0
 40
2.999999999999993
  0
CIRCLE
  5
333D
  8
0
  6
CONTINUOUS
 62
     7
 10
14962.99756618689
 20
19687.28863504423
 30
0.0
 40
3.000000000000014
  0
CIRCLE
  5
333E
  8
0
  6
CONTINUOUS
 62
     7
 10
14962.99756618689
 20
19697.28863504423
 30
0.0
 40
3.000000000000028
  0
CIRCLE
  5
333F
  8
0
  6
CONTINUOUS
 62
     7
 10
14962.99756618689
 20
19707.28863504423
 30
0.0
 40
3.000000000000028
  0
CIRCLE
  5
3340
  8
0
  6
CONTINUOUS
 62
     7
 10
14951.99756618689
 20
19677.28863504423
 30
0.0
 40
3.000000000000007
  0
CIRCLE
  5
3341
  8
0
  6
CONTINUOUS
 62
     7
 10
14841.99756618689
 20
19687.28863504423
 30
0.0
 40
2.999999999999986
  0
CIRCLE
  5
3342
  8
0
  6
CONTINUOUS
 62
     7
 10
14841.99756618689
 20
19697.28863504423
 30
0.0
 40
2.999999999999986
  0
CIRCLE
  5
3343
  8
0
  6
CONTINUOUS
 62
     7
 10
14841.99756618689
 20
19707.28863504423
 30
0.0
 40
3.000000000000007
  0
CIRCLE
  5
3344
  8
0
  6
CONTINUOUS
 62
     7
 10
14830.99756618689
 20
19677.28863504423
 30
0.0
 40
3.000000000000014
  0
CIRCLE
  5
3345
  8
0
  6
CONTINUOUS
 62
     7
 10
14852.99756618689
 20
19687.28863504423
 30
0.0
 40
3.000000000000014
  0
CIRCLE
  5
3346
  8
0
  6
CONTINUOUS
 62
     7
 10
14852.99756618689
 20
19697.28863504423
 30
0.0
 40
2.999999999999993
  0
CIRCLE
  5
3347
  8
0
  6
CONTINUOUS
 62
     7
 10
14852.99756618689
 20
19707.28863504423
 30
0.0
 40
3.000000000000014
  0
CIRCLE
  5
3348
  8
0
  6
CONTINUOUS
 62
     7
 10
14841.99756618689
 20
19677.28863504423
 30
0.0
 40
2.999999999999986
  0
CIRCLE
  5
3349
  8
0
  6
CONTINUOUS
 62
     7
 10
14819.99756618689
 20
19687.28863504423
 30
0.0
 40
3.000000000000028
  0
CIRCLE
  5
334A
  8
0
  6
CONTINUOUS
 62
     7
 10
14819.99756618689
 20
19697.28863504423
 30
0.0
 40
3.000000000000014
  0
CIRCLE
  5
334B
  8
0
  6
CONTINUOUS
 62
     7
 10
14819.99756618689
 20
19707.28863504423
 30
0.0
 40
3.000000000000028
  0
CIRCLE
  5
334C
  8
0
  6
CONTINUOUS
 62
     7
 10
14808.99756618689
 20
19677.28863504423
 30
0.0
 40
2.999999999999972
  0
CIRCLE
  5
334D
  8
0
  6
CONTINUOUS
 62
     7
 10
14830.99756618689
 20
19687.28863504423
 30
0.0
 40
3.000000000000014
  0
CIRCLE
  5
334E
  8
0
  6
CONTINUOUS
 62
     7
 10
14830.99756618689
 20
19697.28863504423
 30
0.0
 40
2.999999999999986
  0
CIRCLE
  5
334F
  8
0
  6
CONTINUOUS
 62
     7
 10
14830.99756618689
 20
19707.28863504423
 30
0.0
 40
3.000000000000014
  0
CIRCLE
  5
3350
  8
0
  6
CONTINUOUS
 62
     7
 10
14819.99756618689
 20
19677.28863504423
 30
0.0
 40
3.000000000000014
  0
CIRCLE
  5
3351
  8
0
  6
CONTINUOUS
 62
     7
 10
14885.99756618689
 20
19687.28863504423
 30
0.0
 40
3.000000000000012
  0
CIRCLE
  5
3352
  8
0
  6
CONTINUOUS
 62
     7
 10
14885.99756618689
 20
19697.28863504423
 30
0.0
 40
3.000000000000004
  0
CIRCLE
  5
3353
  8
0
  6
CONTINUOUS
 62
     7
 10
14885.99756618689
 20
19707.28863504423
 30
0.0
 40
2.999999999999982
  0
CIRCLE
  5
3354
  8
0
  6
CONTINUOUS
 62
     7
 10
14874.99756618689
 20
19677.28863504423
 30
0.0
 40
2.999999999999989
  0
CIRCLE
  5
3355
  8
0
  6
CONTINUOUS
 62
     7
 10
14896.99756618689
 20
19687.28863504423
 30
0.0
 40
3.00000000000002
  0
CIRCLE
  5
3356
  8
0
  6
CONTINUOUS
 62
     7
 10
14896.99756618689
 20
19697.28863504423
 30
0.0
 40
3.000000000000002
  0
CIRCLE
  5
3357
  8
0
  6
CONTINUOUS
 62
     7
 10
14896.99756618689
 20
19707.28863504423
 30
0.0
 40
3.00000000000004
  0
CIRCLE
  5
3358
  8
0
  6
CONTINUOUS
 62
     7
 10
14885.99756618689
 20
19677.28863504423
 30
0.0
 40
3.00000000000002
  0
CIRCLE
  5
3359
  8
0
  6
CONTINUOUS
 62
     7
 10
14863.99756618689
 20
19687.28863504423
 30
0.0
 40
3.000000000000021
  0
CIRCLE
  5
335A
  8
0
  6
CONTINUOUS
 62
     7
 10
14863.99756618689
 20
19697.28863504423
 30
0.0
 40
3.000000000000007
  0
CIRCLE
  5
335B
  8
0
  6
CONTINUOUS
 62
     7
 10
14863.99756618689
 20
19707.28863504423
 30
0.0
 40
3.000000000000043
  0
CIRCLE
  5
335C
  8
0
  6
CONTINUOUS
 62
     7
 10
14852.99756618689
 20
19677.28863504423
 30
0.0
 40
2.999999999999972
  0
CIRCLE
  5
335D
  8
0
  6
CONTINUOUS
 62
     7
 10
14874.99756618689
 20
19687.28863504423
 30
0.0
 40
2.999999999999989
  0
CIRCLE
  5
335E
  8
0
  6
CONTINUOUS
 62
     7
 10
14874.99756618689
 20
19697.28863504423
 30
0.0
 40
3.000000000000004
  0
CIRCLE
  5
335F
  8
0
  6
CONTINUOUS
 62
     7
 10
14874.99756618689
 20
19707.28863504423
 30
0.0
 40
3.000000000000043
  0
CIRCLE
  5
3360
  8
0
  6
CONTINUOUS
 62
     7
 10
14863.99756618689
 20
19677.28863504423
 30
0.0
 40
3.000000000000021
  0
LINE
  5
3361
  8
0
  6
CONTINUOUS
 62
     7
 10
14800.00463725469
 20
19717.28863504423
 30
0.0
 11
14993.99049511909
 21
19717.28863504423
 31
0.0
  0
POLYLINE
  5
3362
  8
0
 66
     1
 10
0.0
 20
0.0
 30
0.0
 70
     1
  0
VERTEX
  5
3C3F
  8
0
 10
14799.99049511909
 20
19437.64389579635
 30
0.0
  0
VERTEX
  5
3C40
  8
0
 10
14799.99049511909
 20
19631.64389579635
 30
0.0
  0
VERTEX
  5
3C41
  8
0
 10
14993.99049511909
 20
19631.64389579635
 30
0.0
  0
VERTEX
  5
3C42
  8
0
 10
14993.99049511909
 20
19437.64389579635
 30
0.0
  0
SEQEND
  5
3D39
  8
0
  0
POLYLINE
  5
3363
  8
0
 66
     1
 10
0.0
 20
0.0
 30
0.0
 70
     1
  0
VERTEX
  5
3C43
  8
0
 10
14798.99049511909
 20
19717.28863504423
 30
0.0
  0
VERTEX
  5
3C44
  8
0
 10
14798.99049511909
 20
19667.28863504423
 30
0.0
  0
VERTEX
  5
3C45
  8
0
 10
14994.99049511909
 20
19667.28863504423
 30
0.0
  0
VERTEX
  5
3C46
  8
0
 10
14994.99049511909
 20
19717.28863504423
 30
0.0
  0
SEQEND
  5
3D3A
  8
0
  0
CIRCLE
  5
3364
  8
0
  6
CONTINUOUS
 62
     7
 10
15280.95787730706
 20
19677.28863504423
 30
0.0
 40
3.000000000000028
  0
CIRCLE
  5
3365
  8
0
  6
CONTINUOUS
 62
     7
 10
15104.95787730706
 20
19707.28863504423
 30
0.0
 40
2.999999999999986
  0
CIRCLE
  5
3366
  8
0
  6
CONTINUOUS
 62
     7
 10
15104.95787730706
 20
19697.28863504423
 30
0.0
 40
2.999999999999986
  0
CIRCLE
  5
3367
  8
0
  6
CONTINUOUS
 62
     7
 10
15104.95787730706
 20
19687.28863504423
 30
0.0
 40
2.999999999999972
  0
CIRCLE
  5
3368
  8
0
  6
CONTINUOUS
 62
     7
 10
15225.95787730706
 20
19687.28863504423
 30
0.0
 40
3.000000000000014
  0
CIRCLE
  5
3369
  8
0
  6
CONTINUOUS
 62
     7
 10
15225.95787730706
 20
19697.28863504423
 30
0.0
 40
3.0
  0
CIRCLE
  5
336A
  8
0
  6
CONTINUOUS
 62
     7
 10
15225.95787730706
 20
19707.28863504423
 30
0.0
 40
3.000000000000021
  0
CIRCLE
  5
336B
  8
0
  6
CONTINUOUS
 62
     7
 10
15214.95787730706
 20
19677.28863504423
 30
0.0
 40
3.000000000000018
  0
CIRCLE
  5
336C
  8
0
  6
CONTINUOUS
 62
     7
 10
15236.95787730706
 20
19687.28863504423
 30
0.0
 40
3.000000000000021
  0
CIRCLE
  5
336D
  8
0
  6
CONTINUOUS
 62
     7
 10
15236.95787730706
 20
19697.28863504423
 30
0.0
 40
3.000000000000007
  0
CIRCLE
  5
336E
  8
0
  6
CONTINUOUS
 62
     7
 10
15236.95787730706
 20
19707.28863504423
 30
0.0
 40
3.000000000000028
  0
CIRCLE
  5
336F
  8
0
  6
CONTINUOUS
 62
     7
 10
15225.95787730706
 20
19677.28863504423
 30
0.0
 40
3.000000000000014
  0
CIRCLE
  5
3370
  8
0
  6
CONTINUOUS
 62
     7
 10
15203.95787730706
 20
19687.28863504423
 30
0.0
 40
3.00000000000002
  0
CIRCLE
  5
3371
  8
0
  6
CONTINUOUS
 62
     7
 10
15203.95787730706
 20
19697.28863504423
 30
0.0
 40
3.000000000000004
  0
CIRCLE
  5
3372
  8
0
  6
CONTINUOUS
 62
     7
 10
15203.95787730706
 20
19707.28863504423
 30
0.0
 40
3.000000000000032
  0
CIRCLE
  5
3373
  8
0
  6
CONTINUOUS
 62
     7
 10
15192.95787730706
 20
19677.28863504423
 30
0.0
 40
3.000000000000019
  0
CIRCLE
  5
3374
  8
0
  6
CONTINUOUS
 62
     7
 10
15214.95787730706
 20
19687.28863504423
 30
0.0
 40
2.999999999999993
  0
CIRCLE
  5
3375
  8
0
  6
CONTINUOUS
 62
     7
 10
15214.95787730706
 20
19697.28863504423
 30
0.0
 40
3.000000000000004
  0
CIRCLE
  5
3376
  8
0
  6
CONTINUOUS
 62
     7
 10
15214.95787730706
 20
19707.28863504423
 30
0.0
 40
2.999999999999975
  0
CIRCLE
  5
3377
  8
0
  6
CONTINUOUS
 62
     7
 10
15203.95787730706
 20
19677.28863504423
 30
0.0
 40
2.999999999999989
  0
CIRCLE
  5
3378
  8
0
  6
CONTINUOUS
 62
     7
 10
15269.95787730706
 20
19687.28863504423
 30
0.0
 40
3.000000000000014
  0
CIRCLE
  5
3379
  8
0
  6
CONTINUOUS
 62
     7
 10
15269.95787730706
 20
19697.28863504423
 30
0.0
 40
3.0
  0
CIRCLE
  5
337A
  8
0
  6
CONTINUOUS
 62
     7
 10
15269.95787730706
 20
19707.28863504423
 30
0.0
 40
3.0
  0
CIRCLE
  5
337B
  8
0
  6
CONTINUOUS
 62
     7
 10
15258.95787730706
 20
19677.28863504423
 30
0.0
 40
3.0
  0
CIRCLE
  5
337C
  8
0
  6
CONTINUOUS
 62
     7
 10
15280.95787730706
 20
19687.28863504423
 30
0.0
 40
3.000000000000028
  0
CIRCLE
  5
337D
  8
0
  6
CONTINUOUS
 62
     7
 10
15280.95787730706
 20
19697.28863504423
 30
0.0
 40
3.000000000000028
  0
CIRCLE
  5
337E
  8
0
  6
CONTINUOUS
 62
     7
 10
15280.95787730706
 20
19707.28863504423
 30
0.0
 40
3.000000000000028
  0
CIRCLE
  5
337F
  8
0
  6
CONTINUOUS
 62
     7
 10
15269.95787730706
 20
19677.28863504423
 30
0.0
 40
3.000000000000014
  0
CIRCLE
  5
3380
  8
0
  6
CONTINUOUS
 62
     7
 10
15247.95787730706
 20
19687.28863504423
 30
0.0
 40
2.999999999999993
  0
CIRCLE
  5
3381
  8
0
  6
CONTINUOUS
 62
     7
 10
15247.95787730706
 20
19697.28863504423
 30
0.0
 40
3.000000000000007
  0
CIRCLE
  5
3382
  8
0
  6
CONTINUOUS
 62
     7
 10
15247.95787730706
 20
19707.28863504423
 30
0.0
 40
2.999999999999964
  0
CIRCLE
  5
3383
  8
0
  6
CONTINUOUS
 62
     7
 10
15236.95787730706
 20
19677.28863504423
 30
0.0
 40
2.999999999999993
  0
CIRCLE
  5
3384
  8
0
  6
CONTINUOUS
 62
     7
 10
15258.95787730706
 20
19687.28863504423
 30
0.0
 40
3.000000000000014
  0
CIRCLE
  5
3385
  8
0
  6
CONTINUOUS
 62
     7
 10
15258.95787730706
 20
19697.28863504423
 30
0.0
 40
3.000000000000028
  0
CIRCLE
  5
3386
  8
0
  6
CONTINUOUS
 62
     7
 10
15258.95787730706
 20
19707.28863504423
 30
0.0
 40
3.000000000000028
  0
CIRCLE
  5
3387
  8
0
  6
CONTINUOUS
 62
     7
 10
15247.95787730706
 20
19677.28863504423
 30
0.0
 40
3.000000000000007
  0
CIRCLE
  5
3388
  8
0
  6
CONTINUOUS
 62
     7
 10
15137.95787730706
 20
19687.28863504423
 30
0.0
 40
2.999999999999986
  0
CIRCLE
  5
3389
  8
0
  6
CONTINUOUS
 62
     7
 10
15137.95787730706
 20
19697.28863504423
 30
0.0
 40
2.999999999999986
  0
CIRCLE
  5
338A
  8
0
  6
CONTINUOUS
 62
     7
 10
15137.95787730706
 20
19707.28863504423
 30
0.0
 40
3.000000000000007
  0
CIRCLE
  5
338B
  8
0
  6
CONTINUOUS
 62
     7
 10
15126.95787730706
 20
19677.28863504423
 30
0.0
 40
3.000000000000014
  0
CIRCLE
  5
338C
  8
0
  6
CONTINUOUS
 62
     7
 10
15148.95787730706
 20
19687.28863504423
 30
0.0
 40
3.000000000000014
  0
CIRCLE
  5
338D
  8
0
  6
CONTINUOUS
 62
     7
 10
15148.95787730706
 20
19697.28863504423
 30
0.0
 40
2.999999999999993
  0
CIRCLE
  5
338E
  8
0
  6
CONTINUOUS
 62
     7
 10
15148.95787730706
 20
19707.28863504423
 30
0.0
 40
3.000000000000014
  0
CIRCLE
  5
338F
  8
0
  6
CONTINUOUS
 62
     7
 10
15137.95787730706
 20
19677.28863504423
 30
0.0
 40
2.999999999999986
  0
CIRCLE
  5
3390
  8
0
  6
CONTINUOUS
 62
     7
 10
15115.95787730706
 20
19687.28863504423
 30
0.0
 40
3.000000000000028
  0
CIRCLE
  5
3391
  8
0
  6
CONTINUOUS
 62
     7
 10
15115.95787730706
 20
19697.28863504423
 30
0.0
 40
3.000000000000014
  0
CIRCLE
  5
3392
  8
0
  6
CONTINUOUS
 62
     7
 10
15115.95787730706
 20
19707.28863504423
 30
0.0
 40
3.000000000000028
  0
CIRCLE
  5
3393
  8
0
  6
CONTINUOUS
 62
     7
 10
15104.95787730706
 20
19677.28863504423
 30
0.0
 40
2.999999999999972
  0
CIRCLE
  5
3394
  8
0
  6
CONTINUOUS
 62
     7
 10
15126.95787730706
 20
19687.28863504423
 30
0.0
 40
3.000000000000014
  0
CIRCLE
  5
3395
  8
0
  6
CONTINUOUS
 62
     7
 10
15126.95787730706
 20
19697.28863504423
 30
0.0
 40
2.999999999999986
  0
CIRCLE
  5
3396
  8
0
  6
CONTINUOUS
 62
     7
 10
15126.95787730706
 20
19707.28863504423
 30
0.0
 40
3.000000000000014
  0
CIRCLE
  5
3397
  8
0
  6
CONTINUOUS
 62
     7
 10
15115.95787730706
 20
19677.28863504423
 30
0.0
 40
3.000000000000014
  0
CIRCLE
  5
3398
  8
0
  6
CONTINUOUS
 62
     7
 10
15181.95787730706
 20
19687.28863504423
 30
0.0
 40
3.000000000000012
  0
CIRCLE
  5
3399
  8
0
  6
CONTINUOUS
 62
     7
 10
15181.95787730706
 20
19697.28863504423
 30
0.0
 40
3.000000000000004
  0
CIRCLE
  5
339A
  8
0
  6
CONTINUOUS
 62
     7
 10
15181.95787730706
 20
19707.28863504423
 30
0.0
 40
2.999999999999982
  0
CIRCLE
  5
339B
  8
0
  6
CONTINUOUS
 62
     7
 10
15170.95787730706
 20
19677.28863504423
 30
0.0
 40
2.999999999999989
  0
CIRCLE
  5
339C
  8
0
  6
CONTINUOUS
 62
     7
 10
15192.95787730706
 20
19687.28863504423
 30
0.0
 40
3.00000000000002
  0
CIRCLE
  5
339D
  8
0
  6
CONTINUOUS
 62
     7
 10
15192.95787730706
 20
19697.28863504423
 30
0.0
 40
3.000000000000002
  0
CIRCLE
  5
339E
  8
0
  6
CONTINUOUS
 62
     7
 10
15192.95787730706
 20
19707.28863504423
 30
0.0
 40
3.00000000000004
  0
CIRCLE
  5
339F
  8
0
  6
CONTINUOUS
 62
     7
 10
15181.95787730706
 20
19677.28863504423
 30
0.0
 40
3.00000000000002
  0
CIRCLE
  5
33A0
  8
0
  6
CONTINUOUS
 62
     7
 10
15159.95787730706
 20
19687.28863504423
 30
0.0
 40
3.000000000000021
  0
CIRCLE
  5
33A1
  8
0
  6
CONTINUOUS
 62
     7
 10
15159.95787730706
 20
19697.28863504423
 30
0.0
 40
3.000000000000007
  0
CIRCLE
  5
33A2
  8
0
  6
CONTINUOUS
 62
     7
 10
15159.95787730706
 20
19707.28863504423
 30
0.0
 40
3.000000000000043
  0
CIRCLE
  5
33A3
  8
0
  6
CONTINUOUS
 62
     7
 10
15148.95787730706
 20
19677.28863504423
 30
0.0
 40
2.999999999999972
  0
CIRCLE
  5
33A4
  8
0
  6
CONTINUOUS
 62
     7
 10
15170.95787730706
 20
19687.28863504423
 30
0.0
 40
2.999999999999989
  0
CIRCLE
  5
33A5
  8
0
  6
CONTINUOUS
 62
     7
 10
15170.95787730706
 20
19697.28863504423
 30
0.0
 40
3.000000000000004
  0
CIRCLE
  5
33A6
  8
0
  6
CONTINUOUS
 62
     7
 10
15170.95787730706
 20
19707.28863504423
 30
0.0
 40
3.000000000000043
  0
CIRCLE
  5
33A7
  8
0
  6
CONTINUOUS
 62
     7
 10
15159.95787730706
 20
19677.28863504423
 30
0.0
 40
3.000000000000021
  0
LINE
  5
33A8
  8
0
  6
CONTINUOUS
 62
     7
 10
15095.96494837485
 20
19717.28863504423
 30
0.0
 11
15289.95080623925
 21
19717.28863504423
 31
0.0
  0
POLYLINE
  5
33A9
  8
0
 66
     1
 10
0.0
 20
0.0
 30
0.0
 70
     1
  0
VERTEX
  5
3C47
  8
0
 10
15094.95080623925
 20
19717.28863504423
 30
0.0
  0
VERTEX
  5
3C48
  8
0
 10
15094.95080623925
 20
19667.28863504423
 30
0.0
  0
VERTEX
  5
3C49
  8
0
 10
15290.95080623926
 20
19667.28863504423
 30
0.0
  0
VERTEX
  5
3C4A
  8
0
 10
15290.95080623926
 20
19717.28863504423
 30
0.0
  0
SEQEND
  5
3D3B
  8
0
  0
TEXT
  5
33BD
  8
0
 10
14130.17056543588
 20
20018.66110904674
 30
0.0
 40
125.0
  1
Accessories
  7
STILE1
 72
     1
 11
14663.18767853112
 21
20018.66110904674
 31
0.0
  0
LINE
  5
33C2
  8
0
 10
15838.05792235769
 20
19014.27043799519
 30
0.0
 11
13638.0579223577
 21
19014.27043799519
 31
0.0
  0
POLYLINE
  5
33CD
  8
0
 66
     1
 10
0.0
 20
0.0
 30
0.0
 70
     1
  0
VERTEX
  5
3C4B
  8
0
 10
16584.18912883226
 20
20950.36389198217
 30
0.0
  0
VERTEX
  5
3C4C
  8
0
 10
26813.80466002523
 20
20950.36389198217
 30
0.0
  0
VERTEX
  5
3C4D
  8
0
 10
26813.80466002523
 20
12775.34945122068
 30
0.0
  0
VERTEX
  5
3C4E
  8
0
 10
16584.18912883226
 20
12775.34945122068
 30
0.0
  0
SEQEND
  5
3D3C
  8
0
  0
TEXT
  5
38ED
  8
0
 10
17984.75
 20
15388.83333333334
 30
0.0
 40
100.0
  1
Examples of compositions / Esempi di composizioni / Kompositionsbeispiele
  7
STILE1
  0
POLYLINE
  5
390B
  8
0
 66
     1
 10
0.0
 20
0.0
 30
0.0
 70
     1
  0
VERTEX
  5
3C4F
  8
0
 10
17501.87510295148
 20
14612.6471275019
 30
0.0
  0
VERTEX
  5
3C50
  8
0
 10
17501.87510295148
 20
14630.6471275019
 30
0.0
  0
VERTEX
  5
3C51
  8
0
 10
19301.87510295148
 20
14630.6471275019
 30
0.0
  0
VERTEX
  5
3C52
  8
0
 10
19301.87510295148
 20
14612.6471275019
 30
0.0
  0
SEQEND
  5
3D3D
  8
0
  0
POLYLINE
  5
390C
  8
0
 66
     1
 10
0.0
 20
0.0
 30
0.0
 70
     1
  0
VERTEX
  5
3C53
  8
0
 10
17501.87510295148
 20
14612.6471275019
 30
0.0
  0
VERTEX
  5
3C54
  8
0
 10
19301.87510295148
 20
14612.6471275019
 30
0.0
  0
VERTEX
  5
3C55
  8
0
 10
19301.87510295148
 20
13880.6471275019
 30
0.0
  0
VERTEX
  5
3C56
  8
0
 10
19261.87510295148
 20
13880.6471275019
 30
0.0
  0
VERTEX
  5
3C57
  8
0
 10
19261.87510295148
 20
14572.6471275019
 30
0.0
  0
VERTEX
  5
3C58
  8
0
 10
17541.87510295148
 20
14572.6471275019
 30
0.0
  0
VERTEX
  5
3C59
  8
0
 10
17541.87510295148
 20
13880.6471275019
 30
0.0
  0
VERTEX
  5
3C5A
  8
0
 10
17501.87510295148
 20
13880.6471275019
 30
0.0
  0
VERTEX
  5
3C5B
  8
0
 10
17501.87510295148
 20
14612.6471275019
 30
0.0
  0
SEQEND
  5
3D3E
  8
0
  0
LINE
  5
390D
  8
0
 10
24801.87510295148
 20
13780.6471275019
 30
0.0
 11
17084.18912883226
 21
13780.6471275019
 31
0.0
  0
POLYLINE
  5
390F
  8
0
 66
     1
 10
0.0
 20
0.0
 30
0.0
 70
     1
  0
VERTEX
  5
3C5C
  8
0
 10
20001.87510295148
 20
14512.6471275019
 30
0.0
  0
VERTEX
  5
3C5D
  8
0
 10
20001.87510295148
 20
14530.6471275019
 30
0.0
  0
VERTEX
  5
3C5E
  8
0
 10
21801.87510295148
 20
14530.6471275019
 30
0.0
  0
VERTEX
  5
3C5F
  8
0
 10
21801.87510295148
 20
14512.6471275019
 30
0.0
  0
SEQEND
  5
3D3F
  8
0
  0
POLYLINE
  5
3910
  8
0
 66
     1
 10
0.0
 20
0.0
 30
0.0
 70
     1
  0
VERTEX
  5
3C60
  8
0
 10
20001.87510295148
 20
14512.6471275019
 30
0.0
  0
VERTEX
  5
3C61
  8
0
 10
21801.87510295148
 20
14512.6471275019
 30
0.0
  0
VERTEX
  5
3C62
  8
0
 10
21801.87510295148
 20
13880.6471275019
 30
0.0
  0
VERTEX
  5
3C63
  8
0
 10
21761.87510295148
 20
13880.6471275019
 30
0.0
  0
VERTEX
  5
3C64
  8
0
 10
21761.87510295148
 20
14472.6471275019
 30
0.0
  0
VERTEX
  5
3C65
  8
0
 10
20041.87510295148
 20
14472.6471275019
 30
0.0
  0
VERTEX
  5
3C66
  8
0
 10
20041.87510295148
 20
13880.6471275019
 30
0.0
  0
VERTEX
  5
3C67
  8
0
 10
20001.87510295148
 20
13880.6471275019
 30
0.0
  0
VERTEX
  5
3C68
  8
0
 10
20001.87510295148
 20
14512.6471275019
 30
0.0
  0
SEQEND
  5
3D40
  8
0
  0
POLYLINE
  5
3911
  8
0
 66
     1
 10
0.0
 20
0.0
 30
0.0
 70
     1
  0
VERTEX
  5
3C69
  8
0
 10
22501.87510295148
 20
14512.6471275019
 30
0.0
  0
VERTEX
  5
3C6A
  8
0
 10
22501.87510295148
 20
14530.6471275019
 30
0.0
  0
VERTEX
  5
3C6B
  8
0
 10
24301.87510295148
 20
14530.6471275019
 30
0.0
  0
VERTEX
  5
3C6C
  8
0
 10
24301.87510295148
 20
14512.6471275019
 30
0.0
  0
SEQEND
  5
3D41
  8
0
  0
POLYLINE
  5
3912
  8
0
 66
     1
 10
0.0
 20
0.0
 30
0.0
 70
     1
  0
VERTEX
  5
3C6D
  8
0
 10
22501.87510295148
 20
14512.6471275019
 30
0.0
  0
VERTEX
  5
3C6E
  8
0
 10
24301.87510295148
 20
14512.6471275019
 30
0.0
  0
VERTEX
  5
3C6F
  8
0
 10
24301.87510295148
 20
13780.6471275019
 30
0.0
  0
VERTEX
  5
3C70
  8
0
 10
24261.87510295148
 20
13780.6471275019
 30
0.0
  0
VERTEX
  5
3C71
  8
0
 10
24261.87510295148
 20
14472.6471275019
 30
0.0
  0
VERTEX
  5
3C72
  8
0
 10
22541.87510295148
 20
14472.6471275019
 30
0.0
  0
VERTEX
  5
3C73
  8
0
 10
22541.87510295148
 20
13780.6471275019
 30
0.0
  0
VERTEX
  5
3C74
  8
0
 10
22501.87510295148
 20
13780.6471275019
 30
0.0
  0
VERTEX
  5
3C75
  8
0
 10
22501.87510295148
 20
14512.6471275019
 30
0.0
  0
SEQEND
  5
3D42
  8
0
  0
POLYLINE
  5
3913
  8
0
 66
     1
 10
0.0
 20
0.0
 30
0.0
1001
PE_URL
1000

  0
VERTEX
  5
3C76
  8
0
 10
17510.87510295148
 20
13857.26332059383
 30
0.0
  0
VERTEX
  5
3C77
  8
0
 10
17510.87510295148
 20
13880.6471275019
 30
0.0
  0
VERTEX
  5
3C78
  8
0
 10
17532.87510295148
 20
13880.6471275019
 30
0.0
  0
VERTEX
  5
3C79
  8
0
 10
17532.87510295148
 20
13829.84434653529
 30
0.0
  0
SEQEND
  5
3D43
  8
0
  0
CIRCLE
  5
3914
  8
0
 10
17493.62510295148
 20
13820.89712750189
 30
0.0
 40
38.00000000000004
1001
PE_URL
1000

  0
LINE
  5
3915
  8
0
 10
17508.22831451018
 20
13858.42437551629
 30
0.0
 11
17508.22972855558
 21
13858.42387983579
 31
0.0
1001
PE_URL
1000

  0
CIRCLE
  5
3916
  8
0
 10
17493.62510295148
 20
13820.89712750189
 30
0.0
 40
40.25
1001
PE_URL
1000

  0
POLYLINE
  5
3917
  8
0
 66
     1
 10
0.0
 20
0.0
 30
0.0
  0
VERTEX
  5
3C7A
  8
0
 10
17465.17610771364
 20
13849.37022304763
 30
0.0
  0
VERTEX
  5
3C7B
  8
0
 10
17465.17610771364
 20
13850.89712750189
 30
0.0
  0
VERTEX
  5
3C7C
  8
0
 10
17443.37510295148
 20
13850.89712750189
 30
0.0
  0
VERTEX
  5
3C7D
  8
0
 10
17443.37510295148
 20
13845.89712750189
 30
0.0
  0
VERTEX
  5
3C7E
  8
0
 10
17453.37510295148
 20
13845.89712750189
 30
0.0
  0
VERTEX
  5
3C7F
  8
0
 10
17453.37510295148
 20
13830.89712750189
 30
0.0
  0
VERTEX
  5
3C80
  8
0
 10
17454.56263705091
 20
13830.60208797408
 30
0.0
  0
SEQEND
  5
3D44
  8
0
  0
POLYLINE
  5
3918
  8
0
 66
     1
 10
0.0
 20
0.0
 30
0.0
1001
PE_URL
1000

  0
VERTEX
  5
3C81
  8
0
 10
19270.87510295148
 20
13857.26332059383
 30
0.0
  0
VERTEX
  5
3C82
  8
0
 10
19270.87510295148
 20
13880.6471275019
 30
0.0
  0
VERTEX
  5
3C83
  8
0
 10
19292.87510295148
 20
13880.6471275019
 30
0.0
  0
VERTEX
  5
3C84
  8
0
 10
19292.87510295148
 20
13829.84434653529
 30
0.0
  0
SEQEND
  5
3D45
  8
0
  0
CIRCLE
  5
3919
  8
0
 10
19253.62510295148
 20
13820.89712750189
 30
0.0
 40
38.00000000000004
1001
PE_URL
1000

  0
LINE
  5
391A
  8
0
 10
19268.22831451018
 20
13858.42437551629
 30
0.0
 11
19268.22972855558
 21
13858.42387983579
 31
0.0
1001
PE_URL
1000

  0
CIRCLE
  5
391B
  8
0
 10
19253.62510295148
 20
13820.89712750189
 30
0.0
 40
40.25
1001
PE_URL
1000

  0
POLYLINE
  5
391C
  8
0
 66
     1
 10
0.0
 20
0.0
 30
0.0
  0
VERTEX
  5
3C85
  8
0
 10
19225.17610771364
 20
13849.37022304763
 30
0.0
  0
VERTEX
  5
3C86
  8
0
 10
19225.17610771364
 20
13850.89712750189
 30
0.0
  0
VERTEX
  5
3C87
  8
0
 10
19203.37510295148
 20
13850.89712750189
 30
0.0
  0
VERTEX
  5
3C88
  8
0
 10
19203.37510295148
 20
13845.89712750189
 30
0.0
  0
VERTEX
  5
3C89
  8
0
 10
19213.37510295148
 20
13845.89712750189
 30
0.0
  0
VERTEX
  5
3C8A
  8
0
 10
19213.37510295148
 20
13830.89712750189
 30
0.0
  0
VERTEX
  5
3C8B
  8
0
 10
19214.56263705091
 20
13830.60208797408
 30
0.0
  0
SEQEND
  5
3D46
  8
0
  0
POLYLINE
  5
391D
  8
0
 66
     1
 10
0.0
 20
0.0
 30
0.0
1001
PE_URL
1000

  0
VERTEX
  5
3C8C
  8
0
 10
20010.87510295148
 20
13857.26332059383
 30
0.0
  0
VERTEX
  5
3C8D
  8
0
 10
20010.87510295148
 20
13880.6471275019
 30
0.0
  0
VERTEX
  5
3C8E
  8
0
 10
20032.87510295148
 20
13880.6471275019
 30
0.0
  0
VERTEX
  5
3C8F
  8
0
 10
20032.87510295148
 20
13829.84434653529
 30
0.0
  0
SEQEND
  5
3D47
  8
0
  0
CIRCLE
  5
391E
  8
0
 10
19993.62510295148
 20
13820.89712750189
 30
0.0
 40
38.00000000000004
1001
PE_URL
1000

  0
LINE
  5
391F
  8
0
 10
20008.22831451018
 20
13858.42437551629
 30
0.0
 11
20008.22972855558
 21
13858.42387983579
 31
0.0
1001
PE_URL
1000

  0
CIRCLE
  5
3920
  8
0
 10
19993.62510295148
 20
13820.89712750189
 30
0.0
 40
40.25
1001
PE_URL
1000

  0
POLYLINE
  5
3921
  8
0
 66
     1
 10
0.0
 20
0.0
 30
0.0
  0
VERTEX
  5
3C90
  8
0
 10
19965.17610771364
 20
13849.37022304763
 30
0.0
  0
VERTEX
  5
3C91
  8
0
 10
19965.17610771364
 20
13850.89712750189
 30
0.0
  0
VERTEX
  5
3C92
  8
0
 10
19943.37510295148
 20
13850.89712750189
 30
0.0
  0
VERTEX
  5
3C93
  8
0
 10
19943.37510295148
 20
13845.89712750189
 30
0.0
  0
VERTEX
  5
3C94
  8
0
 10
19953.37510295148
 20
13845.89712750189
 30
0.0
  0
VERTEX
  5
3C95
  8
0
 10
19953.37510295148
 20
13830.89712750189
 30
0.0
  0
VERTEX
  5
3C96
  8
0
 10
19954.56263705091
 20
13830.60208797408
 30
0.0
  0
SEQEND
  5
3D48
  8
0
  0
POLYLINE
  5
3922
  8
0
 66
     1
 10
0.0
 20
0.0
 30
0.0
1001
PE_URL
1000

  0
VERTEX
  5
3C97
  8
0
 10
21770.87510295148
 20
13857.26332059383
 30
0.0
  0
VERTEX
  5
3C98
  8
0
 10
21770.87510295148
 20
13880.6471275019
 30
0.0
  0
VERTEX
  5
3C99
  8
0
 10
21792.87510295148
 20
13880.6471275019
 30
0.0
  0
VERTEX
  5
3C9A
  8
0
 10
21792.87510295148
 20
13829.84434653529
 30
0.0
  0
SEQEND
  5
3D49
  8
0
  0
CIRCLE
  5
3923
  8
0
 10
21753.62510295148
 20
13820.89712750189
 30
0.0
 40
38.00000000000004
1001
PE_URL
1000

  0
LINE
  5
3924
  8
0
 10
21768.22831451018
 20
13858.42437551629
 30
0.0
 11
21768.22972855558
 21
13858.42387983579
 31
0.0
1001
PE_URL
1000

  0
CIRCLE
  5
3925
  8
0
 10
21753.62510295148
 20
13820.89712750189
 30
0.0
 40
40.25
1001
PE_URL
1000

  0
POLYLINE
  5
3926
  8
0
 66
     1
 10
0.0
 20
0.0
 30
0.0
  0
VERTEX
  5
3C9B
  8
0
 10
21725.17610771364
 20
13849.37022304763
 30
0.0
  0
VERTEX
  5
3C9C
  8
0
 10
21725.17610771364
 20
13850.89712750189
 30
0.0
  0
VERTEX
  5
3C9D
  8
0
 10
21703.37510295148
 20
13850.89712750189
 30
0.0
  0
VERTEX
  5
3C9E
  8
0
 10
21703.37510295148
 20
13845.89712750189
 30
0.0
  0
VERTEX
  5
3C9F
  8
0
 10
21713.37510295148
 20
13845.89712750189
 30
0.0
  0
VERTEX
  5
3CA0
  8
0
 10
21713.37510295148
 20
13830.89712750189
 30
0.0
  0
VERTEX
  5
3CA1
  8
0
 10
21714.56263705091
 20
13830.60208797408
 30
0.0
  0
SEQEND
  5
3D4A
  8
0
  0
LINE
  5
3927
  8
0
 10
21911.54948186797
 20
14530.6471275019
 30
0.0
 11
22384.76805924278
 21
14530.6471275019
 31
0.0
  0
LINE
  5
3929
  8
0
 10
19912.5
 20
14530.6471275019
 30
0.0
 11
19408.0
 21
14530.6471275019
 31
0.0
  0
LINE
  5
392B
  8
0
 10
19408.0
 20
14630.6471275019
 30
0.0
 11
20454.0
 21
14630.6471275019
 31
0.0
  0
ENDSEC
  0
EOF
