  0
SECTION
  2
HEADER
  9
$ACADVER
  1
AC1032
  9
$ACADMAINTVER
 90
       55
  9
$DWGCODEPAGE
  3
ANSI_1252
  9
$LASTSAVEDBY
  1
ucom07
  9
$REQUIREDVERSIONS
160
                 0
  9
$INSBASE
 10
0.0
 20
0.0
 30
0.0
  9
$EXTMIN
 10
-0.000000000007276
 20
0.0
 30
0.0
  9
$EXTMAX
 10
40100.0
 20
25069.69256525888
 30
0.0
  9
$LIMMIN
 10
0.0
 20
0.0
  9
$LIMMAX
 10
12.0
 20
9.0
  9
$ORTHOMODE
 70
     0
  9
$REGENMODE
 70
     1
  9
$FILLMODE
 70
     1
  9
$QTEXTMODE
 70
     0
  9
$MIRRTEXT
 70
     0
  9
$LTSCALE
 40
1.0
  9
$ATTMODE
 70
     1
  9
$TEXTSIZE
 40
0.2
  9
$TRACEWID
 40
0.05
  9
$TEXTSTYLE
  7
STANDARD
  9
$CLAYER
  8
0
  9
$CELTYPE
  6
ByLayer
  9
$CECOLOR
 62
   256
  9
$CELTSCALE
 40
1.0
  9
$DISPSILH
 70
     0
  9
$DIMSCALE
 40
1.0
  9
$DIMASZ
 40
0.18
  9
$DIMEXO
 40
0.0625
  9
$DIMDLI
 40
0.38
  9
$DIMRND
 40
0.0
  9
$DIMDLE
 40
0.0
  9
$DIMEXE
 40
0.18
  9
$DIMTP
 40
0.0
  9
$DIMTM
 40
0.0
  9
$DIMTXT
 40
0.18
  9
$DIMCEN
 40
0.09
  9
$DIMTSZ
 40
0.0
  9
$DIMTOL
 70
     0
  9
$DIMLIM
 70
     0
  9
$DIMTIH
 70
     1
  9
$DIMTOH
 70
     1
  9
$DIMSE1
 70
     0
  9
$DIMSE2
 70
     0
  9
$DIMTAD
 70
     0
  9
$DIMZIN
 70
     0
  9
$DIMBLK
  1

  9
$DIMASO
 70
     1
  9
$DIMSHO
 70
     1
  9
$DIMPOST
  1

  9
$DIMAPOST
  1

  9
$DIMALT
 70
     0
  9
$DIMALTD
 70
     2
  9
$DIMALTF
 40
25.4
  9
$DIMLFAC
 40
1.0
  9
$DIMTOFL
 70
     0
  9
$DIMTVP
 40
0.0
  9
$DIMTIX
 70
     0
  9
$DIMSOXD
 70
     0
  9
$DIMSAH
 70
     0
  9
$DIMBLK1
  1

  9
$DIMBLK2
  1

  9
$DIMSTYLE
  2
STANDARD
  9
$DIMCLRD
 70
     0
  9
$DIMCLRE
 70
     0
  9
$DIMCLRT
 70
     0
  9
$DIMTFAC
 40
1.0
  9
$DIMGAP
 40
0.09
  9
$DIMJUST
 70
     0
  9
$DIMSD1
 70
     0
  9
$DIMSD2
 70
     0
  9
$DIMTOLJ
 70
     1
  9
$DIMTZIN
 70
     0
  9
$DIMALTZ
 70
     0
  9
$DIMALTTZ
 70
     0
  9
$DIMUPT
 70
     0
  9
$DIMDEC
 70
     4
  9
$DIMTDEC
 70
     4
  9
$DIMALTU
 70
     2
  9
$DIMALTTD
 70
     2
  9
$DIMTXSTY
  7
STANDARD
  9
$DIMAUNIT
 70
     0
  9
$DIMADEC
 70
     0
  9
$DIMALTRND
 40
0.0
  9
$DIMAZIN
 70
     0
  9
$DIMDSEP
 70
    46
  9
$DIMATFIT
 70
     3
  9
$DIMFRAC
 70
     0
  9
$DIMLDRBLK
  1

  9
$DIMLUNIT
 70
     2
  9
$DIMLWD
 70
    -2
  9
$DIMLWE
 70
    -2
  9
$DIMTMOVE
 70
     2
  9
$DIMFXL
 40
1.0
  9
$DIMFXLON
 70
     0
  9
$DIMJOGANG
 40
0.7853981633974483
  9
$DIMTFILL
 70
     0
  9
$DIMTFILLCLR
 70
     0
  9
$DIMARCSYM
 70
     0
  9
$DIMLTYPE
  6

  9
$DIMLTEX1
  6

  9
$DIMLTEX2
  6

  9
$DIMTXTDIRECTION
 70
     0
  9
$LUNITS
 70
     2
  9
$LUPREC
 70
     4
  9
$SKETCHINC
 40
0.1
  9
$FILLETRAD
 40
0.0
  9
$AUNITS
 70
     0
  9
$AUPREC
 70
     0
  9
$MENU
  1
.
  9
$ELEVATION
 40
0.0
  9
$PELEVATION
 40
0.0
  9
$THICKNESS
 40
0.0
  9
$LIMCHECK
 70
     0
  9
$CHAMFERA
 40
0.0
  9
$CHAMFERB
 40
0.0
  9
$CHAMFERC
 40
0.0
  9
$CHAMFERD
 40
0.0
  9
$SKPOLY
 70
     0
  9
$TDCREATE
 40
2458132.306602454
  9
$TDUCREATE
 40
2458132.22326912
  9
$TDUPDATE
 40
2460453.376626864
  9
$TDUUPDATE
 40
2460453.29329353
  9
$TDINDWG
 40
0.0776483565
  9
$TDUSRTIMER
 40
0.0020135532
  9
$USRTIMER
 70
     1
  9
$ANGBASE
 50
0.0
  9
$ANGDIR
 70
     0
  9
$PDMODE
 70
     0
  9
$PDSIZE
 40
0.0
  9
$PLINEWID
 40
0.0
  9
$SPLFRAME
 70
     0
  9
$SPLINETYPE
 70
     6
  9
$SPLINESEGS
 70
     8
  9
$HANDSEED
  5
5A2C
  9
$SURFTAB1
 70
     6
  9
$SURFTAB2
 70
     6
  9
$SURFTYPE
 70
     6
  9
$SURFU
 70
     6
  9
$SURFV
 70
     6
  9
$UCSBASE
  2

  9
$UCSNAME
  2

  9
$UCSORG
 10
0.0
 20
0.0
 30
0.0
  9
$UCSXDIR
 10
1.0
 20
0.0
 30
0.0
  9
$UCSYDIR
 10
0.0
 20
1.0
 30
0.0
  9
$UCSORTHOREF
  2

  9
$UCSORTHOVIEW
 70
     0
  9
$UCSORGTOP
 10
0.0
 20
0.0
 30
0.0
  9
$UCSORGBOTTOM
 10
0.0
 20
0.0
 30
0.0
  9
$UCSORGLEFT
 10
0.0
 20
0.0
 30
0.0
  9
$UCSORGRIGHT
 10
0.0
 20
0.0
 30
0.0
  9
$UCSORGFRONT
 10
0.0
 20
0.0
 30
0.0
  9
$UCSORGBACK
 10
0.0
 20
0.0
 30
0.0
  9
$PUCSBASE
  2

  9
$PUCSNAME
  2

  9
$PUCSORG
 10
0.0
 20
0.0
 30
0.0
  9
$PUCSXDIR
 10
1.0
 20
0.0
 30
0.0
  9
$PUCSYDIR
 10
0.0
 20
1.0
 30
0.0
  9
$PUCSORTHOREF
  2

  9
$PUCSORTHOVIEW
 70
     0
  9
$PUCSORGTOP
 10
0.0
 20
0.0
 30
0.0
  9
$PUCSORGBOTTOM
 10
0.0
 20
0.0
 30
0.0
  9
$PUCSORGLEFT
 10
0.0
 20
0.0
 30
0.0
  9
$PUCSORGRIGHT
 10
0.0
 20
0.0
 30
0.0
  9
$PUCSORGFRONT
 10
0.0
 20
0.0
 30
0.0
  9
$PUCSORGBACK
 10
0.0
 20
0.0
 30
0.0
  9
$USERI1
 70
     0
  9
$USERI2
 70
     0
  9
$USERI3
 70
     0
  9
$USERI4
 70
     0
  9
$USERI5
 70
     0
  9
$USERR1
 40
0.0
  9
$USERR2
 40
0.0
  9
$USERR3
 40
0.0
  9
$USERR4
 40
0.0
  9
$USERR5
 40
0.0
  9
$WORLDVIEW
 70
     1
  9
$SHADEDGE
 70
     3
  9
$SHADEDIF
 70
    70
  9
$TILEMODE
 70
     1
  9
$MAXACTVP
 70
    64
  9
$PINSBASE
 10
0.0
 20
0.0
 30
0.0
  9
$PLIMCHECK
 70
     0
  9
$PEXTMIN
 10
0.0
 20
0.0
 30
0.0
  9
$PEXTMAX
 10
0.0
 20
0.0
 30
0.0
  9
$PLIMMIN
 10
0.0
 20
0.0
  9
$PLIMMAX
 10
0.0
 20
0.0
  9
$UNITMODE
 70
     0
  9
$VISRETAIN
 70
     1
  9
$PLINEGEN
 70
     0
  9
$PSLTSCALE
 70
     1
  9
$TREEDEPTH
 70
  3020
  9
$CMLSTYLE
  2
Standard
  9
$CMLJUST
 70
     0
  9
$CMLSCALE
 40
1.0
  9
$PROXYGRAPHICS
 70
     1
  9
$MEASUREMENT
 70
     0
  9
$CELWEIGHT
370
    -1
  9
$ENDCAPS
280
     0
  9
$JOINSTYLE
280
     0
  9
$LWDISPLAY
290
     0
  9
$INSUNITS
 70
     0
  9
$HYPERLINKBASE
  1

  9
$STYLESHEET
  1

  9
$XEDIT
290
     1
  9
$CEPSNTYPE
380
     0
  9
$PSTYLEMODE
290
     1
  9
$FINGERPRINTGUID
  2
{67870b88-da28-4835-9338-352ed355c6a0}
  9
$VERSIONGUID
  2
{FAEB1C32-E019-11D5-929B-00C0DF256EC4}
  9
$EXTNAMES
290
     1
  9
$PSVPSCALE
 40
0.0
  9
$OLESTARTUP
290
     0
  9
$SORTENTS
280
   127
  9
$INDEXCTL
280
     0
  9
$HIDETEXT
280
     1
  9
$XCLIPFRAME
280
     2
  9
$HALOGAP
280
     0
  9
$OBSCOLOR
 70
   257
  9
$OBSLTYPE
280
     0
  9
$INTERSECTIONDISPLAY
280
     0
  9
$INTERSECTIONCOLOR
 70
   257
  9
$DIMASSOC
280
     2
  9
$PROJECTNAME
  1

  9
$CAMERADISPLAY
290
     0
  9
$LENSLENGTH
 40
50.0
  9
$CAMERAHEIGHT
 40
0.0
  9
$STEPSPERSEC
 40
2.0
  9
$STEPSIZE
 40
6.0
  9
$3DDWFPREC
 40
2.0
  9
$PSOLWIDTH
 40
0.25
  9
$PSOLHEIGHT
 40
4.0
  9
$LOFTANG1
 40
1.570796326794897
  9
$LOFTANG2
 40
1.570796326794897
  9
$LOFTMAG1
 40
0.0
  9
$LOFTMAG2
 40
0.0
  9
$LOFTPARAM
 70
     7
  9
$LOFTNORMALS
280
     1
  9
$LATITUDE
 40
37.795
  9
$LONGITUDE
 40
-122.394
  9
$NORTHDIRECTION
 40
0.0
  9
$TIMEZONE
 70
 -8000
  9
$LIGHTGLYPHDISPLAY
280
     1
  9
$TILEMODELIGHTSYNCH
280
     1
  9
$SOLIDHIST
280
     0
  9
$SHOWHIST
280
     1
  9
$DWFFRAME
280
     2
  9
$DGNFRAME
280
     2
  9
$REALWORLDSCALE
290
     1
  9
$INTERFERECOLOR
 62
   256
  9
$CSHADOW
280
     0
  9
$SHADOWPLANELOCATION
 40
0.0
  0
ENDSEC
  0
SECTION
  2
CLASSES
  0
CLASS
  1
ACDBDICTIONARYWDFLT
  2
AcDbDictionaryWithDefault
  3
ObjectDBX Classes
 90
        0
 91
        3
280
     0
281
     0
  0
CLASS
  1
MATERIAL
  2
AcDbMaterial
  3
ObjectDBX Classes
 90
     1153
 91
        3
280
     0
281
     0
  0
CLASS
  1
SCALE
  2
AcDbScale
  3
ObjectDBX Classes
 90
     1153
 91
        3
280
     0
281
     0
  0
CLASS
  1
VISUALSTYLE
  2
AcDbVisualStyle
  3
ObjectDBX Classes
 90
     4095
 91
        3
280
     0
281
     0
  0
CLASS
  1
TABLESTYLE
  2
AcDbTableStyle
  3
ObjectDBX Classes
 90
     4095
 91
        3
280
     0
281
     0
  0
CLASS
  1
MLEADERSTYLE
  2
AcDbMLeaderStyle
  3
ACDB_MLEADERSTYLE_CLASS
 90
     4095
 91
        3
280
     0
281
     0
  0
CLASS
  1
DICTIONARYVAR
  2
AcDbDictionaryVar
  3
ObjectDBX Classes
 90
        0
 91
        3
280
     0
281
     0
  0
CLASS
  1
SUN
  2
AcDbSun
  3
SCENEOE
 90
     1153
 91
        3
280
     0
281
     0
  0
CLASS
  1
CELLSTYLEMAP
  2
AcDbCellStyleMap
  3
ObjectDBX Classes
 90
     1152
 91
        3
280
     0
281
     0
  0
ENDSEC
  0
SECTION
  2
TABLES
  0
TABLE
  2
VPORT
  5
59B8
330
0
100
AcDbSymbolTable
 70
     1
  0
VPORT
  5
59CF
330
59B8
100
AcDbSymbolTableRecord
100
AcDbViewportTableRecord
  2
*ACTIVE
 70
     0
 10
0.0
 20
0.0
 11
1.0
 21
1.0
 12
20050.0
 22
12534.84628262944
 13
0.0
 23
0.0
 14
0.5
 24
0.5
 15
0.5
 25
0.5
 16
0.0
 26
0.0
 36
1.0
 17
0.0
 27
0.0
 37
0.0
 40
25571.08641656406
 41
1.944065484311051
 42
50.0
 43
0.0
 44
0.0
 50
0.0
 51
0.0
 71
    16
 72
  1000
 73
     1
 74
     3
 75
     0
 76
     0
 77
     0
 78
     0
281
     0
 65
     0
110
0.0
120
0.0
130
0.0
111
1.0
121
0.0
131
0.0
112
0.0
122
1.0
132
0.0
 79
     0
146
0.0
348
5A04
 60
     3
 61
     5
292
     1
282
     1
141
0.0
142
0.0
 63
   256
361
5A27
  0
ENDTAB
  0
TABLE
  2
LTYPE
  5
59B5
330
0
100
AcDbSymbolTable
 70
     1
  0
LTYPE
  5
59C3
330
59B5
100
AcDbSymbolTableRecord
100
AcDbLinetypeTableRecord
  2
ByBlock
 70
     0
  3

 72
    65
 73
     0
 40
0.0
  0
LTYPE
  5
59C4
330
59B5
100
AcDbSymbolTableRecord
100
AcDbLinetypeTableRecord
  2
ByLayer
 70
     0
  3

 72
    65
 73
     0
 40
0.0
  0
LTYPE
  5
59C5
330
59B5
100
AcDbSymbolTableRecord
100
AcDbLinetypeTableRecord
  2
CONTINUOUS
 70
     0
  3
Solid line
 72
    65
 73
     0
 40
0.0
  0
ENDTAB
  0
TABLE
  2
LAYER
  5
59B3
330
0
100
AcDbSymbolTable
 70
     2
  0
LAYER
  5
59C0
330
59B3
100
AcDbSymbolTableRecord
100
AcDbLayerTableRecord
  2
0
 70
     0
 62
     7
  6
CONTINUOUS
370
    -3
390
59BF
347
59D5
348
0
  0
LAYER
  5
59D6
330
59B3
100
AcDbSymbolTableRecord
100
AcDbLayerTableRecord
  2
CLOTHES_RAIL
 70
     0
 62
     3
  6
CONTINUOUS
370
    -3
390
59BF
347
59D5
348
0
  0
ENDTAB
  0
TABLE
  2
STYLE
  5
59B4
330
0
100
AcDbSymbolTable
 70
     2
  0
STYLE
  5
59C1
330
59B4
100
AcDbSymbolTableRecord
100
AcDbTextStyleTableRecord
  2
STANDARD
 70
     0
 40
0.0
 41
1.0
 50
0.0
 71
     0
 42
0.2
  3
txt
  4

  0
STYLE
  5
59D8
330
59B4
100
AcDbSymbolTableRecord
100
AcDbTextStyleTableRecord
  2
STILE1
 70
     0
 40
0.0
 41
1.0
 50
0.0
 71
     0
 42
19.0
  3
ROMANS.SHX
  4

  0
ENDTAB
  0
TABLE
  2
VIEW
  5
59B6
330
0
100
AcDbSymbolTable
 70
     0
  0
ENDTAB
  0
TABLE
  2
UCS
  5
59B7
330
0
100
AcDbSymbolTable
 70
     0
  0
ENDTAB
  0
TABLE
  2
APPID
  5
59B9
330
0
100
AcDbSymbolTable
 70
     1
  0
APPID
  5
59C2
330
59B9
100
AcDbSymbolTableRecord
100
AcDbRegAppTableRecord
  2
ACAD
 70
     0
  0
ENDTAB
  0
TABLE
  2
DIMSTYLE
  5
59BA
330
0
100
AcDbSymbolTable
 70
     1
100
AcDbDimStyleTable
  0
DIMSTYLE
105
59DA
330
59BA
100
AcDbSymbolTableRecord
100
AcDbDimStyleTableRecord
  2
STANDARD
 70
     0
178
     0
340
59C1
  0
ENDTAB
  0
TABLE
  2
BLOCK_RECORD
  5
59B2
330
0
100
AcDbSymbolTable
 70
     0
  0
BLOCK_RECORD
  5
59CC
102
{ACAD_XDICTIONARY
360
5A1E
102
}
330
59B2
100
AcDbSymbolTableRecord
100
AcDbBlockTableRecord
  2
*Model_Space
340
59CD
 70
     0
280
     1
281
     0
  0
BLOCK_RECORD
  5
59CA
330
59B2
100
AcDbSymbolTableRecord
100
AcDbBlockTableRecord
  2
*Paper_Space
340
59CB
 70
     0
280
     1
281
     0
  0
ENDTAB
  0
ENDSEC
  0
SECTION
  2
BLOCKS
  0
BLOCK
  5
59DB
330
59CC
100
AcDbEntity
  8
0
100
AcDbBlockBegin
  2
*Model_Space
 70
     0
 10
0.0
 20
0.0
 30
0.0
  3
*Model_Space
  1

  0
ENDBLK
  5
442A
330
59CC
100
AcDbEntity
  8
0
100
AcDbBlockEnd
  0
BLOCK
  5
59DC
330
59CA
100
AcDbEntity
 67
     1
  8
0
100
AcDbBlockBegin
  2
*Paper_Space
 70
     0
 10
0.0
 20
0.0
 30
0.0
  3
*Paper_Space
  1

  0
ENDBLK
  5
4426
330
59CA
100
AcDbEntity
 67
     1
  8
0
100
AcDbBlockEnd
  0
ENDSEC
  0
SECTION
  2
ENTITIES
  0
LWPOLYLINE
  5
288
330
59CC
100
AcDbEntity
  8
0
100
AcDbPolyline
 90
        4
 70
     1
 43
0.0
 10
21902.18639094055
 20
4038.036426392781
 10
21902.18639094055
 20
4008.036426392783
 10
21166.18639094054
 20
4008.036426392783
 10
21166.18639094054
 20
4038.036426392781
  0
LWPOLYLINE
  5
289
330
59CC
100
AcDbEntity
  8
0
100
AcDbPolyline
 90
        4
 70
     1
 43
0.0
 10
21166.1863909405
 20
2258.036426392791
 10
21166.1863909405
 20
2288.036426392791
 10
21902.1863909405
 20
2288.036426392791
 10
21902.1863909405
 20
2258.036426392791
  0
LWPOLYLINE
  5
28A
330
59CC
100
AcDbEntity
  8
0
100
AcDbPolyline
 90
        4
 70
     1
 43
0.0
 10
21902.18639094049
 20
2508.036426392792
 10
21902.18639094049
 20
2538.036426392791
 10
21166.18639094049
 20
2538.036426392791
 10
21166.18639094049
 20
2508.036426392792
  0
LWPOLYLINE
  5
28B
330
59CC
100
AcDbEntity
  8
0
100
AcDbPolyline
 90
        4
 70
     1
 43
0.0
 10
21902.18639094055
 20
3008.036426392783
 10
21902.18639094055
 20
3038.036426392781
 10
21166.18639094054
 20
3038.036426392781
 10
21166.18639094054
 20
3008.036426392783
  0
LWPOLYLINE
  5
28C
330
59CC
100
AcDbEntity
  8
CLOTHES_RAIL
100
AcDbPolyline
 90
        4
 70
     1
 43
0.0
 10
21902.18639094055
 20
3960.536426392783
 10
21902.18639094055
 20
3935.536426392783
 10
21166.18639094054
 20
3935.536426392783
 10
21166.18639094054
 20
3960.536426392783
  0
LWPOLYLINE
  5
28D
330
59CC
100
AcDbEntity
  8
0
100
AcDbPolyline
 90
        4
 70
     1
 43
0.0
 10
21902.18639094055
 20
2758.036426392792
 10
21902.18639094055
 20
2788.036426392791
 10
21166.18639094054
 20
2788.036426392791
 10
21166.18639094054
 20
2758.036426392792
  0
LWPOLYLINE
  5
28E
330
59CC
100
AcDbEntity
  8
0
100
AcDbPolyline
 90
        4
 70
     1
 43
0.0
 10
19166.1863909405
 20
2258.036426392791
 10
19166.1863909405
 20
2288.036426392791
 10
19902.18639094052
 20
2288.036426392791
 10
19902.18639094052
 20
2258.036426392791
  0
LWPOLYLINE
  5
28F
330
59CC
100
AcDbEntity
  8
0
100
AcDbPolyline
 90
        4
 70
     1
 43
0.0
 10
19902.18639094051
 20
2508.036426392792
 10
19902.18639094051
 20
2538.036426392791
 10
19166.18639094049
 20
2538.036426392791
 10
19166.18639094049
 20
2508.036426392792
  0
LWPOLYLINE
  5
290
330
59CC
100
AcDbEntity
  8
0
100
AcDbPolyline
 90
        4
 70
     1
 43
0.0
 10
19902.18639094056
 20
3008.036426392783
 10
19902.18639094056
 20
3038.036426392781
 10
19166.18639094054
 20
3038.036426392781
 10
19166.18639094054
 20
3008.036426392783
  0
LWPOLYLINE
  5
291
330
59CC
100
AcDbEntity
  8
CLOTHES_RAIL
100
AcDbPolyline
 90
        4
 70
     1
 43
0.0
 10
19902.18639094056
 20
3960.536426392783
 10
19902.18639094056
 20
3935.536426392783
 10
19166.18639094054
 20
3935.536426392783
 10
19166.18639094054
 20
3960.536426392783
  0
LWPOLYLINE
  5
292
330
59CC
100
AcDbEntity
  8
0
100
AcDbPolyline
 90
        4
 70
     1
 43
0.0
 10
19902.18639094056
 20
4038.036426392781
 10
19902.18639094056
 20
4008.036426392783
 10
19166.18639094054
 20
4008.036426392783
 10
19166.18639094054
 20
4038.036426392781
  0
LWPOLYLINE
  5
293
330
59CC
100
AcDbEntity
  8
0
100
AcDbPolyline
 90
        4
 70
     1
 43
0.0
 10
19902.18639094056
 20
2758.036426392792
 10
19902.18639094056
 20
2788.036426392791
 10
19166.18639094054
 20
2788.036426392791
 10
19166.18639094054
 20
2758.036426392792
  0
LWPOLYLINE
  5
294
330
59CC
100
AcDbEntity
  8
0
100
AcDbPolyline
 90
        4
 70
     1
 43
0.0
 10
19166.1863909405
 20
10285.38139913677
 10
19166.1863909405
 20
10315.38139913677
 10
20102.1863909405
 20
10315.38139913677
 10
20102.1863909405
 20
10285.38139913677
  0
LWPOLYLINE
  5
295
330
59CC
100
AcDbEntity
  8
0
100
AcDbPolyline
 90
        4
 70
     1
 43
0.0
 10
20102.18639094049
 20
10535.38139913677
 10
20102.18639094049
 20
10565.38139913677
 10
19166.18639094049
 20
10565.38139913677
 10
19166.18639094049
 20
10535.38139913677
  0
LWPOLYLINE
  5
296
330
59CC
100
AcDbEntity
  8
0
100
AcDbPolyline
 90
        4
 70
     1
 43
0.0
 10
20102.18639094054
 20
11035.38139913676
 10
20102.18639094054
 20
11065.38139913676
 10
19166.18639094054
 20
11065.38139913676
 10
19166.18639094054
 20
11035.38139913676
  0
LWPOLYLINE
  5
297
330
59CC
100
AcDbEntity
  8
0
100
AcDbPolyline
 90
        4
 70
     1
 43
0.0
 10
20102.18639094054
 20
10785.38139913677
 10
20102.18639094054
 20
10815.38139913677
 10
19166.18639094054
 20
10815.38139913677
 10
19166.18639094054
 20
10785.38139913677
  0
LWPOLYLINE
  5
298
330
59CC
100
AcDbEntity
  8
CLOTHES_RAIL
100
AcDbPolyline
 90
        4
 70
     1
 43
0.0
 10
20102.18639094054
 20
11987.88139913676
 10
20102.18639094054
 20
11962.88139913676
 10
19166.18639094054
 20
11962.88139913676
 10
19166.18639094054
 20
11987.88139913676
  0
LWPOLYLINE
  5
299
330
59CC
100
AcDbEntity
  8
0
100
AcDbPolyline
 90
        4
 70
     1
 43
0.0
 10
20102.18639094054
 20
12065.38139913676
 10
20102.18639094054
 20
12035.38139913676
 10
19166.18639094054
 20
12035.38139913676
 10
19166.18639094054
 20
12065.38139913676
  0
LWPOLYLINE
  5
29A
330
59CC
100
AcDbEntity
  8
0
100
AcDbPolyline
 90
        4
 70
     1
 43
0.0
 10
22102.18639094054
 20
12065.38139913676
 10
22102.18639094054
 20
12035.38139913676
 10
21166.18639094054
 20
12035.38139913676
 10
21166.18639094054
 20
12065.38139913676
  0
LWPOLYLINE
  5
29B
330
59CC
100
AcDbEntity
  8
CLOTHES_RAIL
100
AcDbPolyline
 90
        4
 70
     1
 43
0.0
 10
22102.18639094054
 20
11987.88139913676
 10
22102.18639094054
 20
11962.88139913676
 10
21166.18639094054
 20
11962.88139913676
 10
21166.18639094054
 20
11987.88139913676
  0
LWPOLYLINE
  5
29C
330
59CC
100
AcDbEntity
  8
0
100
AcDbPolyline
 90
        4
 70
     1
 43
0.0
 10
22102.18639094054
 20
12285.38139913675
 10
22102.18639094054
 20
12315.38139913676
 10
21166.18639094054
 20
12315.38139913676
 10
21166.18639094054
 20
12285.38139913675
  0
LWPOLYLINE
  5
29D
330
59CC
100
AcDbEntity
  8
0
100
AcDbPolyline
 90
        4
 70
     1
 43
0.0
 10
21166.1863909405
 20
10285.38139913677
 10
21166.1863909405
 20
10315.38139913677
 10
22102.1863909405
 20
10315.38139913677
 10
22102.1863909405
 20
10285.38139913677
  0
LWPOLYLINE
  5
29E
330
59CC
100
AcDbEntity
  8
0
100
AcDbPolyline
 90
        4
 70
     1
 43
0.0
 10
22102.18639094049
 20
10535.38139913677
 10
22102.18639094049
 20
10565.38139913677
 10
21166.18639094049
 20
10565.38139913677
 10
21166.18639094049
 20
10535.38139913677
  0
LWPOLYLINE
  5
29F
330
59CC
100
AcDbEntity
  8
0
100
AcDbPolyline
 90
        4
 70
     1
 43
0.0
 10
22102.18639094054
 20
11035.38139913676
 10
22102.18639094054
 20
11065.38139913676
 10
21166.18639094054
 20
11065.38139913676
 10
21166.18639094054
 20
11035.38139913676
  0
LWPOLYLINE
  5
2A0
330
59CC
100
AcDbEntity
  8
0
100
AcDbPolyline
 90
        4
 70
     1
 43
0.0
 10
22102.18639094054
 20
10785.38139913677
 10
22102.18639094054
 20
10815.38139913677
 10
21166.18639094054
 20
10815.38139913677
 10
21166.18639094054
 20
10785.38139913677
  0
LWPOLYLINE
  5
2A1
330
59CC
100
AcDbEntity
  8
0
100
AcDbPolyline
 90
        4
 70
     1
 43
0.0
 10
22302.18639094054
 20
20092.72637188074
 10
22302.18639094054
 20
20062.72637188074
 10
21166.18639094054
 20
20062.72637188074
 10
21166.18639094054
 20
20092.72637188074
  0
LWPOLYLINE
  5
2A2
330
59CC
100
AcDbEntity
  8
0
100
AcDbPolyline
 90
        4
 70
     1
 43
0.0
 10
21166.1863909405
 20
18312.72637188075
 10
21166.1863909405
 20
18342.72637188075
 10
22302.1863909405
 20
18342.72637188075
 10
22302.1863909405
 20
18312.72637188075
  0
LWPOLYLINE
  5
2A3
330
59CC
100
AcDbEntity
  8
0
100
AcDbPolyline
 90
        4
 70
     1
 43
0.0
 10
22302.18639094049
 20
18562.72637188075
 10
22302.18639094049
 20
18592.72637188075
 10
21166.18639094049
 20
18592.72637188075
 10
21166.18639094049
 20
18562.72637188075
  0
LWPOLYLINE
  5
2A4
330
59CC
100
AcDbEntity
  8
0
100
AcDbPolyline
 90
        4
 70
     1
 43
0.0
 10
22302.18639094054
 20
19062.72637188074
 10
22302.18639094054
 20
19092.72637188074
 10
21166.18639094054
 20
19092.72637188074
 10
21166.18639094054
 20
19062.72637188074
  0
LWPOLYLINE
  5
2A5
330
59CC
100
AcDbEntity
  8
CLOTHES_RAIL
100
AcDbPolyline
 90
        4
 70
     1
 43
0.0
 10
22302.18639094054
 20
20015.22637188074
 10
22302.18639094054
 20
19990.22637188074
 10
21166.18639094054
 20
19990.22637188074
 10
21166.18639094054
 20
20015.22637188074
  0
LWPOLYLINE
  5
2A6
330
59CC
100
AcDbEntity
  8
0
100
AcDbPolyline
 90
        4
 70
     1
 43
0.0
 10
22302.18639094054
 20
18812.72637188075
 10
22302.18639094054
 20
18842.72637188075
 10
21166.18639094054
 20
18842.72637188075
 10
21166.18639094054
 20
18812.72637188075
  0
LWPOLYLINE
  5
2A7
330
59CC
100
AcDbEntity
  8
0
100
AcDbPolyline
 90
        4
 70
     1
 43
0.0
 10
22302.18639094054
 20
20312.72637188073
 10
22302.18639094054
 20
20342.72637188074
 10
21166.18639094054
 20
20342.72637188074
 10
21166.18639094054
 20
20312.72637188073
  0
LWPOLYLINE
  5
2A8
330
59CC
100
AcDbEntity
  8
0
100
AcDbPolyline
 90
        4
 70
     1
 43
0.0
 10
19166.1863909405
 20
18312.72637188075
 10
19166.1863909405
 20
18342.72637188075
 10
20302.1863909405
 20
18342.72637188075
 10
20302.1863909405
 20
18312.72637188075
  0
LWPOLYLINE
  5
2A9
330
59CC
100
AcDbEntity
  8
0
100
AcDbPolyline
 90
        4
 70
     1
 43
0.0
 10
20302.18639094049
 20
18562.72637188075
 10
20302.18639094049
 20
18592.72637188075
 10
19166.18639094049
 20
18592.72637188075
 10
19166.18639094049
 20
18562.72637188075
  0
LWPOLYLINE
  5
2AA
330
59CC
100
AcDbEntity
  8
0
100
AcDbPolyline
 90
        4
 70
     1
 43
0.0
 10
20302.18639094054
 20
19062.72637188074
 10
20302.18639094054
 20
19092.72637188074
 10
19166.18639094054
 20
19092.72637188074
 10
19166.18639094054
 20
19062.72637188074
  0
LWPOLYLINE
  5
2AB
330
59CC
100
AcDbEntity
  8
CLOTHES_RAIL
100
AcDbPolyline
 90
        4
 70
     1
 43
0.0
 10
20302.18639094054
 20
20015.22637188074
 10
20302.18639094054
 20
19990.22637188074
 10
19166.18639094054
 20
19990.22637188074
 10
19166.18639094054
 20
20015.22637188074
  0
LWPOLYLINE
  5
2AC
330
59CC
100
AcDbEntity
  8
0
100
AcDbPolyline
 90
        4
 70
     1
 43
0.0
 10
20302.18639094054
 20
20092.72637188074
 10
20302.18639094054
 20
20062.72637188074
 10
19166.18639094054
 20
20062.72637188074
 10
19166.18639094054
 20
20092.72637188074
  0
LWPOLYLINE
  5
2AD
330
59CC
100
AcDbEntity
  8
0
100
AcDbPolyline
 90
        4
 70
     1
 43
0.0
 10
20302.18639094054
 20
18812.72637188075
 10
20302.18639094054
 20
18842.72637188075
 10
19166.18639094054
 20
18842.72637188075
 10
19166.18639094054
 20
18812.72637188075
  0
LWPOLYLINE
  5
2AE
330
59CC
100
AcDbEntity
  8
0
100
AcDbPolyline
 90
        4
 70
     1
 43
0.0
 10
22302.41366368955
 20
24195.86185235748
 10
22302.41366368955
 20
24225.86185235747
 10
21166.41366368955
 20
24225.86185235747
 10
21166.41366368955
 20
24195.86185235748
  0
LWPOLYLINE
  5
2AF
330
59CC
100
AcDbEntity
  8
0
100
AcDbPolyline
 90
        4
 70
     1
 43
0.0
 10
17666.12986539054
 20
20342.72637188072
 10
17666.12986539054
 20
20312.72637188072
 10
16530.12986539054
 20
20312.72637188072
 10
16530.12986539054
 20
20342.72637188072
  0
LWPOLYLINE
  5
2B0
330
59CC
100
AcDbEntity
  8
0
100
AcDbPolyline
 90
        4
 70
     1
 43
0.0
 10
17666.1298653905
 20
24045.8618618942
 10
17666.1298653905
 20
24075.8618618942
 10
16530.1298653905
 20
24075.8618618942
 10
16530.1298653905
 20
24045.8618618942
  0
LWPOLYLINE
  5
2B1
330
59CC
100
AcDbEntity
  8
0
100
AcDbPolyline
 90
        4
 70
     1
 43
0.0
 10
22302.41366368955
 20
23945.86185235748
 10
22302.41366368955
 20
23975.86185235747
 10
21166.41366368955
 20
23975.86185235747
 10
21166.41366368955
 20
23945.86185235748
  0
LWPOLYLINE
  5
2B2
330
59CC
100
AcDbEntity
  8
0
100
AcDbPolyline
 90
        2
 70
     0
 43
0.0
 10
25109.50129716488
 20
18212.72637188079
 10
26105.91472428031
 20
18212.72637188079
  0
LWPOLYLINE
  5
2B3
330
59CC
100
AcDbEntity
  8
0
100
AcDbPolyline
 90
        4
 70
     1
 43
0.0
 10
25342.70801072259
 20
24485.86186189427
 10
25872.70801072259
 20
24485.86186189427
 10
25872.70801072259
 20
21962.86186189421
 10
25342.70801072259
 20
21962.86186189421
  0
LWPOLYLINE
  5
2B4
330
59CC
100
AcDbEntity
  8
0
100
AcDbPolyline
 90
        4
 70
     1
 43
0.0
 10
25342.70801072259
 20
20752.7263718808
 10
25872.70801072259
 20
20752.7263718808
 10
25872.70801072259
 20
18229.72637188075
 10
25342.70801072259
 20
18229.72637188075
  0
LWPOLYLINE
  5
2B5
330
59CC
100
AcDbEntity
  8
0
100
AcDbPolyline
 90
        2
 70
     0
 43
0.0
 10
25109.50129716488
 20
21945.86186189426
 10
26105.91472428031
 20
21945.86186189426
  0
LWPOLYLINE
  5
2B6
330
59CC
100
AcDbEntity
  8
0
100
AcDbPolyline
 90
        4
 70
     1
 43
0.0
 10
25307.7080107226
 20
21962.86186189421
 10
25907.70801072259
 20
21962.86186189421
 10
25907.70801072259
 20
24485.86186189427
 10
25307.7080107226
 20
24485.86186189427
  0
LWPOLYLINE
  5
2B7
330
59CC
100
AcDbEntity
  8
0
100
AcDbPolyline
 90
        4
 70
     1
 43
0.0
 10
25307.7080107226
 20
18229.72637188075
 10
25907.70801072259
 20
18229.72637188075
 10
25907.70801072259
 20
20752.7263718808
 10
25307.7080107226
 20
20752.7263718808
  0
LWPOLYLINE
  5
2B8
330
59CC
100
AcDbEntity
  8
0
100
AcDbPolyline
 90
        4
 70
     1
 43
0.0
 10
21129.58639094052
 20
20752.7263718808
 10
21129.58639094052
 20
18229.72637188075
 10
21099.58639094052
 20
18229.72637188075
 10
21099.58639094052
 20
20752.7263718808
  0
LWPOLYLINE
  5
2B9
330
59CC
100
AcDbEntity
  8
0
100
AcDbPolyline
 90
        4
 70
     1
 43
0.0
 10
21129.58639094058
 20
24485.86186189427
 10
21129.58639094058
 20
21962.86186189421
 10
21099.58639094059
 20
21962.86186189421
 10
21099.58639094059
 20
24485.86186189427
  0
LWPOLYLINE
  5
2BA
330
59CC
100
AcDbEntity
  8
0
100
AcDbPolyline
 90
        4
 70
     1
 43
0.0
 10
22302.41366368955
 20
23695.86185235748
 10
22302.41366368955
 20
23725.86185235748
 10
21166.41366368955
 20
23725.86185235748
 10
21166.41366368955
 20
23695.86185235748
  0
LWPOLYLINE
  5
2BB
330
59CC
100
AcDbEntity
  8
0
100
AcDbPolyline
 90
        4
 70
     1
 43
0.0
 10
22302.41366368955
 20
23445.86185235748
 10
22302.41366368955
 20
23475.86185235748
 10
21166.41366368955
 20
23475.86185235748
 10
21166.41366368955
 20
23445.86185235748
  0
LWPOLYLINE
  5
2BC
330
59CC
100
AcDbEntity
  8
0
100
AcDbPolyline
 90
        4
 70
     1
 43
0.0
 10
22302.41366368955
 20
23195.86185235749
 10
22302.41366368955
 20
23225.86185235748
 10
21166.41366368955
 20
23225.86185235748
 10
21166.41366368955
 20
23195.86185235749
  0
LWPOLYLINE
  5
2BD
330
59CC
100
AcDbEntity
  8
0
100
AcDbPolyline
 90
        4
 70
     1
 43
0.0
 10
22302.41366368955
 20
22945.86185235748
 10
22302.41366368955
 20
22975.86185235747
 10
21166.41366368955
 20
22975.86185235747
 10
21166.41366368955
 20
22945.86185235748
  0
LWPOLYLINE
  5
2BE
330
59CC
100
AcDbEntity
  8
0
100
AcDbPolyline
 90
        4
 70
     1
 43
0.0
 10
22302.41366368955
 20
22695.86185235748
 10
22302.41366368955
 20
22725.86185235748
 10
21166.41366368955
 20
22725.86185235748
 10
21166.41366368955
 20
22695.86185235748
  0
LWPOLYLINE
  5
2BF
330
59CC
100
AcDbEntity
  8
0
100
AcDbPolyline
 90
        4
 70
     1
 43
0.0
 10
22302.41366368955
 20
22445.86185235748
 10
22302.41366368955
 20
22475.86185235748
 10
21166.41366368955
 20
22475.86185235748
 10
21166.41366368955
 20
22445.86185235748
  0
LWPOLYLINE
  5
2C0
330
59CC
100
AcDbEntity
  8
0
100
AcDbPolyline
 90
        4
 70
     1
 43
0.0
 10
22221.6863909406
 20
21945.86186189426
 10
22221.6863909406
 20
21965.86186189426
 10
22241.6863909406
 20
21965.86186189426
 10
22241.6863909406
 20
21945.86186189426
  0
LWPOLYLINE
  5
2C1
330
59CC
100
AcDbEntity
  8
0
100
AcDbPolyline
 90
        4
 70
     1
 43
0.0
 10
21246.6863909406
 20
21945.86186189426
 10
21246.6863909406
 20
21965.86186189426
 10
21226.6863909406
 20
21965.86186189426
 10
21226.6863909406
 20
21945.86186189426
  0
LWPOLYLINE
  5
2C2
330
59CC
100
AcDbEntity
  8
0
100
AcDbPolyline
 90
        4
 70
     1
 43
0.0
 10
22241.6863909406
 20
21965.86186189426
 10
22241.6863909406
 20
21945.86186189426
 10
21226.6863909406
 20
21945.86186189426
 10
21226.6863909406
 20
21965.86186189426
  0
LWPOLYLINE
  5
2C3
330
59CC
100
AcDbEntity
  8
0
100
AcDbPolyline
 90
        9
 70
     1
 43
0.0
 10
21220.1863909406
 20
21986.36186189421
 10
21220.1863909406
 20
21959.46186189442
 10
21221.1863909406
 20
21958.46186189429
 10
21225.1863909406
 20
21958.46186189429
 10
21226.1863909406
 20
21959.46186189442
 10
21226.1863909406
 20
21965.96186189429
 10
21253.16862578373
 20
21966.43283855542
 10
21254.1863909406
 20
21967.45060371236
 10
21254.1863909406
 20
21986.36186189421
  0
LWPOLYLINE
  5
2C4
330
59CC
100
AcDbEntity
  8
0
100
AcDbPolyline
 90
        9
 70
     1
 43
0.0
 10
22248.18639094054
 20
21986.36186189421
 10
22248.18639094054
 20
21959.46186189442
 10
22247.1863909406
 20
21958.46186189429
 10
22243.18639094054
 20
21958.46186189429
 10
22242.1863909406
 20
21959.46186189442
 10
22242.1863909406
 20
21965.96186189429
 10
22215.20415609748
 20
21966.43283855542
 10
22214.1863909406
 20
21967.45060371236
 10
22214.1863909406
 20
21986.36186189421
  0
LWPOLYLINE
  5
2C5
330
59CC
100
AcDbEntity
  8
0
100
AcDbPolyline
 90
        4
 70
     1
 43
0.0
 10
21165.1863909406
 20
24445.86185235746
 10
21165.1863909406
 20
24485.86186189427
 10
22302.1863909406
 20
24485.86186189427
 10
22302.1863909406
 20
24445.86185235746
  0
LWPOLYLINE
  5
2C6
330
59CC
100
AcDbEntity
  8
0
100
AcDbPolyline
 90
        4
 70
     1
 43
0.0
 10
21166.1863909406
 20
22045.86186189422
 10
21166.1863909406
 20
22075.86186189421
 10
22302.1863909406
 20
22075.86186189421
 10
22302.1863909406
 20
22045.86186189422
  0
LWPOLYLINE
  5
2C7
330
59CC
100
AcDbEntity
  8
0
100
AcDbPolyline
 90
        4
 70
     1
 43
0.0
 10
22302.1863909406
 20
21986.36186189421
 10
22302.1863909406
 20
22045.86186189422
 10
21166.1863909406
 20
22045.86186189422
 10
21166.1863909406
 20
21986.36186189421
  0
LWPOLYLINE
  5
2C8
330
59CC
100
AcDbEntity
  8
0
100
AcDbPolyline
 90
        6
 70
     1
 43
0.0
 10
21166.1863909406
 20
21962.86186189421
 10
21129.58639094039
 20
21962.86186189421
 10
21129.58639094039
 20
24485.86186189427
 10
21165.1863909406
 20
24485.86186189427
 10
21165.1863909406
 20
24445.86185235746
 10
21166.1863909406
 20
24445.86185235746
  0
LWPOLYLINE
  5
2C9
330
59CC
100
AcDbEntity
  8
0
100
AcDbPolyline
 90
        4
 70
     1
 43
0.0
 10
22337.1863909406
 20
21967.86186189422
 10
22337.1863909406
 20
24485.86186189427
 10
22302.1863909406
 20
24485.86186189427
 10
22302.1863909406
 20
21967.86186189422
  0
LWPOLYLINE
  5
2CA
330
59CC
100
AcDbEntity
  8
0
100
AcDbPolyline
 90
        4
 70
     1
 43
0.0
 10
22337.18639094055
 20
18234.72637188075
 10
22337.18639094055
 20
20752.7263718808
 10
22302.18639094054
 20
20752.7263718808
 10
22302.18639094054
 20
18234.72637188075
  0
LWPOLYLINE
  5
2CB
330
59CC
100
AcDbEntity
  8
0
100
AcDbPolyline
 90
        6
 70
     1
 43
0.0
 10
21166.18639094054
 20
18229.72637188075
 10
21129.58639094035
 20
18229.72637188075
 10
21129.58639094035
 20
20752.7263718808
 10
21165.18639094054
 20
20752.7263718808
 10
21165.18639094054
 20
20712.72636234399
 10
21166.18639094054
 20
20712.72636234399
  0
LWPOLYLINE
  5
2CC
330
59CC
100
AcDbEntity
  8
0
100
AcDbPolyline
 90
        4
 70
     1
 43
0.0
 10
21165.18639094054
 20
20712.72636234399
 10
21165.18639094054
 20
20752.7263718808
 10
22302.18639094054
 20
20752.7263718808
 10
22302.18639094054
 20
20712.72636234399
  0
LWPOLYLINE
  5
2CD
330
59CC
100
AcDbEntity
  8
0
100
AcDbPolyline
 90
        9
 70
     1
 43
0.0
 10
22248.1863909405
 20
18253.22637188075
 10
22248.1863909405
 20
18226.32637188095
 10
22247.18639094054
 20
18225.32637188083
 10
22243.1863909405
 20
18225.32637188083
 10
22242.18639094055
 20
18226.32637188095
 10
22242.18639094055
 20
18232.82637188083
 10
22215.2041560974
 20
18233.29734854196
 10
22214.18639094054
 20
18234.3151136989
 10
22214.18639094054
 20
18253.22637188075
  0
LWPOLYLINE
  5
2CE
330
59CC
100
AcDbEntity
  8
0
100
AcDbPolyline
 90
        9
 70
     1
 43
0.0
 10
21220.18639094054
 20
18253.22637188075
 10
21220.18639094054
 20
18226.32637188095
 10
21221.18639094054
 20
18225.32637188083
 10
21225.18639094054
 20
18225.32637188083
 10
21226.18639094054
 20
18226.32637188095
 10
21226.18639094054
 20
18232.82637188083
 10
21253.16862578368
 20
18233.29734854196
 10
21254.18639094054
 20
18234.3151136989
 10
21254.18639094054
 20
18253.22637188075
  0
LWPOLYLINE
  5
2CF
330
59CC
100
AcDbEntity
  8
0
100
AcDbPolyline
 90
        4
 70
     1
 43
0.0
 10
22241.68639094054
 20
18232.72637188079
 10
22241.68639094054
 20
18212.72637188079
 10
21226.68639094054
 20
18212.72637188079
 10
21226.68639094054
 20
18232.72637188079
  0
LWPOLYLINE
  5
2D0
330
59CC
100
AcDbEntity
  8
0
100
AcDbPolyline
 90
        4
 70
     1
 43
0.0
 10
21246.68639094054
 20
18212.72637188079
 10
21246.68639094054
 20
18232.72637188079
 10
21226.68639094054
 20
18232.72637188079
 10
21226.68639094054
 20
18212.72637188079
  0
LWPOLYLINE
  5
2D1
330
59CC
100
AcDbEntity
  8
0
100
AcDbPolyline
 90
        4
 70
     1
 43
0.0
 10
22221.68639094054
 20
18212.72637188079
 10
22221.68639094054
 20
18232.72637188079
 10
22241.68639094054
 20
18232.72637188079
 10
22241.68639094054
 20
18212.72637188079
  0
LWPOLYLINE
  5
2D2
330
59CC
100
AcDbEntity
  8
0
100
AcDbPolyline
 90
        4
 70
     1
 43
0.0
 10
22302.1863909405
 20
18253.22637188075
 10
22302.1863909405
 20
18312.72637188075
 10
21166.1863909405
 20
18312.72637188075
 10
21166.1863909405
 20
18253.22637188075
  0
LWPOLYLINE
  5
2D3
330
59CC
100
AcDbEntity
  8
0
100
AcDbPolyline
 90
        4
 70
     1
 43
0.0
 10
16493.52986539044
 20
20752.72637188079
 10
16493.52986539044
 20
18229.72637188075
 10
16463.52986539044
 20
18229.72637188075
 10
16463.52986539044
 20
20752.72637188079
  0
LWPOLYLINE
  5
2D4
330
59CC
100
AcDbEntity
  8
0
100
AcDbPolyline
 90
        4
 70
     1
 43
0.0
 10
16493.52986539045
 20
24485.86186189427
 10
16493.52986539045
 20
21962.86186189421
 10
16463.52986539044
 20
21962.86186189421
 10
16463.52986539044
 20
24485.86186189427
  0
LWPOLYLINE
  5
2D5
330
59CC
100
AcDbEntity
  8
0
100
AcDbPolyline
 90
        4
 70
     1
 43
0.0
 10
17701.12986539054
 20
18234.72637188075
 10
17701.12986539054
 20
20752.7263718808
 10
17666.12986539054
 20
20752.7263718808
 10
17666.12986539054
 20
18234.72637188075
  0
LWPOLYLINE
  5
2D6
330
59CC
100
AcDbEntity
  8
0
100
AcDbPolyline
 90
        6
 70
     1
 43
0.0
 10
16530.12986539054
 20
18229.72637188075
 10
16493.52986539044
 20
18229.72637188075
 10
16493.52986539044
 20
20752.7263718808
 10
16529.12986539054
 20
20752.7263718808
 10
16529.12986539054
 20
20712.72636234399
 10
16530.12986539054
 20
20712.72636234399
  0
LWPOLYLINE
  5
2D7
330
59CC
100
AcDbEntity
  8
0
100
AcDbPolyline
 90
        4
 70
     1
 43
0.0
 10
17666.12986539054
 20
18253.22637188075
 10
17666.12986539054
 20
18312.72637188075
 10
16530.12986539054
 20
18312.72637188075
 10
16530.12986539054
 20
18253.22637188075
  0
LWPOLYLINE
  5
2D8
330
59CC
100
AcDbEntity
  8
0
100
AcDbPolyline
 90
        4
 70
     1
 43
0.0
 10
16530.12986539054
 20
18312.72637188075
 10
16530.12986539054
 20
18342.72637188075
 10
17666.12986539054
 20
18342.72637188075
 10
17666.12986539054
 20
18312.72637188075
  0
LWPOLYLINE
  5
2D9
330
59CC
100
AcDbEntity
  8
CLOTHES_RAIL
100
AcDbPolyline
 90
        4
 70
     1
 43
0.0
 10
17666.12986539054
 20
20240.22637188072
 10
17666.12986539054
 20
20265.22637188072
 10
16530.12986539054
 20
20265.22637188072
 10
16530.12986539054
 20
20240.22637188072
  0
LWPOLYLINE
  5
2DA
330
59CC
100
AcDbEntity
  8
0
100
AcDbPolyline
 90
        4
 70
     1
 43
0.0
 10
16529.12986539054
 20
20712.72636234399
 10
16529.12986539054
 20
20752.7263718808
 10
17666.12986539054
 20
20752.7263718808
 10
17666.12986539054
 20
20712.72636234399
  0
LWPOLYLINE
  5
2DB
330
59CC
100
AcDbEntity
  8
0
100
AcDbPolyline
 90
        9
 70
     1
 43
0.0
 10
17612.12986539054
 20
18253.22637188075
 10
17612.12986539054
 20
18226.32637188096
 10
17611.12986539054
 20
18225.32637188083
 10
17607.12986539054
 20
18225.32637188083
 10
17606.12986539054
 20
18226.32637188096
 10
17606.12986539054
 20
18232.82637188083
 10
17579.1476305474
 20
18233.29734854196
 10
17578.12986539054
 20
18234.3151136989
 10
17578.12986539054
 20
18253.22637188075
  0
LWPOLYLINE
  5
2DC
330
59CC
100
AcDbEntity
  8
0
100
AcDbPolyline
 90
        9
 70
     1
 43
0.0
 10
16584.1298653906
 20
18253.22637188075
 10
16584.1298653906
 20
18226.32637188096
 10
16585.12986539054
 20
18225.32637188083
 10
16589.12986539059
 20
18225.32637188083
 10
16590.12986539054
 20
18226.32637188096
 10
16590.12986539054
 20
18232.82637188083
 10
16617.11210023366
 20
18233.29734854196
 10
16618.12986539054
 20
18234.3151136989
 10
16618.12986539054
 20
18253.22637188075
  0
LWPOLYLINE
  5
2DD
330
59CC
100
AcDbEntity
  8
0
100
AcDbPolyline
 90
        4
 70
     1
 43
0.0
 10
17605.62986539054
 20
18232.7263718808
 10
17605.62986539054
 20
18212.7263718808
 10
16590.62986539054
 20
18212.7263718808
 10
16590.62986539054
 20
18232.7263718808
  0
LWPOLYLINE
  5
2DE
330
59CC
100
AcDbEntity
  8
0
100
AcDbPolyline
 90
        4
 70
     1
 43
0.0
 10
16610.62986539054
 20
18212.7263718808
 10
16610.62986539054
 20
18232.7263718808
 10
16590.62986539054
 20
18232.7263718808
 10
16590.62986539054
 20
18212.7263718808
  0
LWPOLYLINE
  5
2DF
330
59CC
100
AcDbEntity
  8
0
100
AcDbPolyline
 90
        4
 70
     1
 43
0.0
 10
17585.62986539054
 20
18212.7263718808
 10
17585.62986539054
 20
18232.7263718808
 10
17605.62986539054
 20
18232.7263718808
 10
17605.62986539054
 20
18212.7263718808
  0
LWPOLYLINE
  5
2E0
330
59CC
100
AcDbEntity
  8
0
100
AcDbPolyline
 90
        4
 70
     1
 43
0.0
 10
17666.12986539054
 20
19342.72637188074
 10
17666.12986539054
 20
19312.72637188074
 10
16530.12986539054
 20
19312.72637188074
 10
16530.12986539054
 20
19342.72637188074
  0
LWPOLYLINE
  5
2E1
330
59CC
100
AcDbEntity
  8
CLOTHES_RAIL
100
AcDbPolyline
 90
        4
 70
     1
 43
0.0
 10
17666.12986539054
 20
19265.22637188075
 10
17666.12986539054
 20
19240.22637188074
 10
16530.12986539054
 20
19240.22637188074
 10
16530.12986539054
 20
19265.22637188075
  0
LWPOLYLINE
  5
2E2
330
59CC
100
AcDbEntity
  8
0
100
AcDbPolyline
 90
        4
 70
     1
 43
0.0
 10
16530.1298653905
 20
23645.86186189421
 10
16530.1298653905
 20
23675.8618618942
 10
17666.1298653905
 20
23675.8618618942
 10
17666.1298653905
 20
23645.86186189421
  0
LWPOLYLINE
  5
2E3
330
59CC
100
AcDbEntity
  8
0
100
AcDbPolyline
 90
        4
 70
     1
 43
0.0
 10
17666.1298653905
 20
22445.86186189421
 10
17666.1298653905
 20
22475.86186189421
 10
16530.1298653905
 20
22475.86186189421
 10
16530.1298653905
 20
22445.86186189421
  0
LWPOLYLINE
  5
2E4
330
59CC
100
AcDbEntity
  8
0
100
AcDbPolyline
 90
        4
 70
     1
 43
0.0
 10
17666.1298653905
 20
23245.86186189421
 10
17666.1298653905
 20
23275.8618618942
 10
16530.1298653905
 20
23275.8618618942
 10
16530.1298653905
 20
23245.86186189421
  0
LWPOLYLINE
  5
2E5
330
59CC
100
AcDbEntity
  8
0
100
AcDbPolyline
 90
        4
 70
     1
 43
0.0
 10
16530.1298653905
 20
22845.86186189421
 10
16530.1298653905
 20
22875.86186189421
 10
17666.1298653905
 20
22875.86186189421
 10
17666.1298653905
 20
22845.86186189421
  0
LWPOLYLINE
  5
2E6
330
59CC
100
AcDbEntity
  8
0
100
AcDbPolyline
 90
        4
 70
     1
 43
0.0
 10
17585.6298653905
 20
21945.86186189426
 10
17585.6298653905
 20
21965.86186189426
 10
17605.6298653905
 20
21965.86186189426
 10
17605.6298653905
 20
21945.86186189426
  0
LWPOLYLINE
  5
2E7
330
59CC
100
AcDbEntity
  8
0
100
AcDbPolyline
 90
        4
 70
     1
 43
0.0
 10
16610.6298653905
 20
21945.86186189426
 10
16610.6298653905
 20
21965.86186189426
 10
16590.6298653905
 20
21965.86186189426
 10
16590.6298653905
 20
21945.86186189426
  0
LWPOLYLINE
  5
2E8
330
59CC
100
AcDbEntity
  8
0
100
AcDbPolyline
 90
        4
 70
     1
 43
0.0
 10
17605.6298653905
 20
21965.86186189426
 10
17605.6298653905
 20
21945.86186189426
 10
16590.6298653905
 20
21945.86186189426
 10
16590.6298653905
 20
21965.86186189426
  0
LWPOLYLINE
  5
2E9
330
59CC
100
AcDbEntity
  8
0
100
AcDbPolyline
 90
        9
 70
     1
 43
0.0
 10
16584.12986539058
 20
21986.36186189421
 10
16584.12986539058
 20
21959.46186189442
 10
16585.1298653905
 20
21958.46186189429
 10
16589.12986539061
 20
21958.46186189429
 10
16590.1298653905
 20
21959.46186189442
 10
16590.1298653905
 20
21965.96186189429
 10
16617.11210023374
 20
21966.43283855542
 10
16618.1298653905
 20
21967.45060371236
 10
16618.1298653905
 20
21986.36186189421
  0
LWPOLYLINE
  5
2EA
330
59CC
100
AcDbEntity
  8
0
100
AcDbPolyline
 90
        9
 70
     1
 43
0.0
 10
17612.1298653905
 20
21986.36186189421
 10
17612.1298653905
 20
21959.46186189442
 10
17611.1298653905
 20
21958.46186189429
 10
17607.1298653905
 20
21958.46186189429
 10
17606.1298653905
 20
21959.46186189442
 10
17606.1298653905
 20
21965.96186189429
 10
17579.14763054741
 20
21966.43283855542
 10
17578.1298653905
 20
21967.45060371236
 10
17578.1298653905
 20
21986.36186189421
  0
LWPOLYLINE
  5
2EB
330
59CC
100
AcDbEntity
  8
0
100
AcDbPolyline
 90
        4
 70
     1
 43
0.0
 10
16529.1298653905
 20
24445.86185235746
 10
16529.1298653905
 20
24485.86186189427
 10
17666.1298653905
 20
24485.86186189427
 10
17666.1298653905
 20
24445.86185235746
  0
LWPOLYLINE
  5
2EC
330
59CC
100
AcDbEntity
  8
0
100
AcDbPolyline
 90
        4
 70
     1
 43
0.0
 10
16530.1298653905
 20
22045.86186189422
 10
16530.1298653905
 20
22075.86186189421
 10
17666.1298653905
 20
22075.86186189421
 10
17666.1298653905
 20
22045.86186189422
  0
LWPOLYLINE
  5
2ED
330
59CC
100
AcDbEntity
  8
0
100
AcDbPolyline
 90
        4
 70
     1
 43
0.0
 10
17666.1298653905
 20
21986.36186189421
 10
17666.1298653905
 20
22045.86186189422
 10
16530.1298653905
 20
22045.86186189422
 10
16530.1298653905
 20
21986.36186189421
  0
LWPOLYLINE
  5
2EE
330
59CC
100
AcDbEntity
  8
0
100
AcDbPolyline
 90
        6
 70
     1
 43
0.0
 10
16530.1298653905
 20
21962.86186189421
 10
16493.52986539045
 20
21962.86186189421
 10
16493.52986539045
 20
24485.86186189427
 10
16529.1298653905
 20
24485.86186189427
 10
16529.1298653905
 20
24445.86185235746
 10
16530.1298653905
 20
24445.86185235746
  0
LWPOLYLINE
  5
2EF
330
59CC
100
AcDbEntity
  8
0
100
AcDbPolyline
 90
        4
 70
     1
 43
0.0
 10
17701.12986539051
 20
21967.86186189422
 10
17701.12986539051
 20
24485.86186189427
 10
17666.1298653905
 20
24485.86186189427
 10
17666.1298653905
 20
21967.86186189422
  0
LWPOLYLINE
  5
2F0
330
59CC
100
AcDbEntity
  8
0
100
AcDbPolyline
 90
        4
 70
     1
 43
0.0
 10
13550.0
 20
25069.69256525888
 10
26550.0
 20
25069.69256525888
 10
26550.0
 20
17592.34759251489
 10
13550.0
 20
17592.34759251489
  0
LWPOLYLINE
  5
2F1
330
59CC
100
AcDbEntity
  8
0
100
AcDbPolyline
 90
        4
 70
     1
 43
0.0
 10
24911.29458360715
 20
18229.72637188075
 10
24311.29458360716
 20
18229.72637188075
 10
24311.29458360716
 20
20352.72638141752
 10
24911.29458360715
 20
20352.72638141752
  0
LWPOLYLINE
  5
2F2
330
59CC
100
AcDbEntity
  8
0
100
AcDbPolyline
 90
        4
 70
     1
 43
0.0
 10
24911.29458360715
 20
21962.86186189421
 10
24311.29458360716
 20
21962.86186189421
 10
24311.29458360716
 20
24085.86187143098
 10
24911.29458360715
 20
24085.86187143098
  0
LWPOLYLINE
  5
2F3
330
59CC
100
AcDbEntity
  8
0
100
AcDbPolyline
 90
        2
 70
     0
 43
0.0
 10
25109.50129716488
 20
21945.86186189426
 10
24113.08787004944
 20
21945.86186189426
  0
LWPOLYLINE
  5
2F4
330
59CC
100
AcDbEntity
  8
0
100
AcDbPolyline
 90
        4
 70
     1
 43
0.0
 10
24876.29458360717
 20
20352.72638141752
 10
24346.29458360716
 20
20352.72638141752
 10
24346.29458360716
 20
18229.72637188075
 10
24876.29458360717
 20
18229.72637188075
  0
LWPOLYLINE
  5
2F5
330
59CC
100
AcDbEntity
  8
0
100
AcDbPolyline
 90
        4
 70
     1
 43
0.0
 10
24876.29458360717
 20
24085.86187143098
 10
24346.29458360716
 20
24085.86187143098
 10
24346.29458360716
 20
21962.86186189421
 10
24876.29458360717
 20
21962.86186189421
  0
LWPOLYLINE
  5
2F6
330
59CC
100
AcDbEntity
  8
0
100
AcDbPolyline
 90
        2
 70
     0
 43
0.0
 10
25109.50129716488
 20
18212.72637188079
 10
24113.08787004944
 20
18212.72637188079
  0
LWPOLYLINE
  5
2F7
330
59CC
100
AcDbEntity
  8
0
100
AcDbPolyline
 90
        2
 70
     0
 43
0.0
 10
14197.12986539054
 20
18212.72637188079
 10
22554.48951026663
 20
18212.72637188079
  0
LWPOLYLINE
  5
2F8
330
59CC
100
AcDbEntity
  8
0
100
AcDbPolyline
 90
        2
 70
     0
 43
0.0
 10
14197.12986539054
 20
21945.86186189426
 10
22554.48951026663
 20
21945.86186189427
  0
LWPOLYLINE
  5
2F9
330
59CC
100
AcDbEntity
  8
0
100
AcDbPolyline
 90
        4
 70
     1
 43
0.0
 10
20302.1863909405
 20
18253.22637188075
 10
20302.1863909405
 20
18312.72637188075
 10
19166.1863909405
 20
18312.72637188075
 10
19166.1863909405
 20
18253.22637188075
  0
LWPOLYLINE
  5
2FA
330
59CC
100
AcDbEntity
  8
0
100
AcDbPolyline
 90
        4
 70
     1
 43
0.0
 10
20221.68639094054
 20
18212.72637188079
 10
20221.68639094054
 20
18232.72637188079
 10
20241.68639094054
 20
18232.72637188079
 10
20241.68639094054
 20
18212.72637188079
  0
LWPOLYLINE
  5
2FB
330
59CC
100
AcDbEntity
  8
0
100
AcDbPolyline
 90
        4
 70
     1
 43
0.0
 10
19246.68639094052
 20
18212.72637188079
 10
19246.68639094052
 20
18232.72637188079
 10
19226.68639094052
 20
18232.72637188079
 10
19226.68639094052
 20
18212.72637188079
  0
LWPOLYLINE
  5
2FC
330
59CC
100
AcDbEntity
  8
0
100
AcDbPolyline
 90
        4
 70
     1
 43
0.0
 10
20241.68639094054
 20
18232.72637188079
 10
20241.68639094054
 20
18212.72637188079
 10
19226.68639094052
 20
18212.72637188079
 10
19226.68639094052
 20
18232.72637188079
  0
LWPOLYLINE
  5
2FD
330
59CC
100
AcDbEntity
  8
0
100
AcDbPolyline
 90
        9
 70
     1
 43
0.0
 10
19220.18639094052
 20
18253.22637188075
 10
19220.18639094052
 20
18226.32637188095
 10
19221.18639094052
 20
18225.32637188083
 10
19225.18639094054
 20
18225.32637188083
 10
19226.18639094054
 20
18226.32637188095
 10
19226.18639094054
 20
18232.82637188083
 10
19253.16862578368
 20
18233.29734854196
 10
19254.18639094052
 20
18234.3151136989
 10
19254.18639094052
 20
18253.22637188075
  0
LWPOLYLINE
  5
2FE
330
59CC
100
AcDbEntity
  8
0
100
AcDbPolyline
 90
        9
 70
     1
 43
0.0
 10
20248.1863909405
 20
18253.22637188075
 10
20248.1863909405
 20
18226.32637188095
 10
20247.18639094054
 20
18225.32637188083
 10
20243.1863909405
 20
18225.32637188083
 10
20242.18639094053
 20
18226.32637188095
 10
20242.18639094053
 20
18232.82637188083
 10
20215.2041560974
 20
18233.29734854196
 10
20214.18639094054
 20
18234.3151136989
 10
20214.18639094054
 20
18253.22637188075
  0
LWPOLYLINE
  5
2FF
330
59CC
100
AcDbEntity
  8
0
100
AcDbPolyline
 90
        4
 70
     1
 43
0.0
 10
19165.18639094054
 20
20312.72637188072
 10
19165.18639094054
 20
20352.72638141752
 10
20302.18639094054
 20
20352.72638141752
 10
20302.18639094054
 20
20312.72637188072
  0
LWPOLYLINE
  5
300
330
59CC
100
AcDbEntity
  8
0
100
AcDbPolyline
 90
        6
 70
     1
 43
0.0
 10
19166.18639094054
 20
18229.72637188075
 10
19129.58639094035
 20
18229.72637188075
 10
19129.58639094035
 20
20352.72638141752
 10
19165.18639094054
 20
20352.72638141752
 10
19165.18639094054
 20
20312.72637188072
 10
19166.18639094054
 20
20312.72637188072
  0
LWPOLYLINE
  5
301
330
59CC
100
AcDbEntity
  8
0
100
AcDbPolyline
 90
        4
 70
     1
 43
0.0
 10
20337.18639094054
 20
18234.72637188075
 10
20337.18639094054
 20
20352.72638141752
 10
20302.18639094054
 20
20352.72638141752
 10
20302.18639094054
 20
18234.72637188075
  0
LWPOLYLINE
  5
302
330
59CC
100
AcDbEntity
  8
0
100
AcDbPolyline
 90
        4
 70
     1
 43
0.0
 10
15701.12986539051
 20
21967.86186189422
 10
15701.12986539051
 20
24085.86187143098
 10
15666.1298653905
 20
24085.86187143098
 10
15666.1298653905
 20
21967.86186189422
  0
LWPOLYLINE
  5
303
330
59CC
100
AcDbEntity
  8
0
100
AcDbPolyline
 90
        6
 70
     1
 43
0.0
 10
14530.1298653905
 20
21962.86186189421
 10
14493.52986539045
 20
21962.86186189421
 10
14493.52986539045
 20
24085.86187143098
 10
14529.1298653905
 20
24085.86187143098
 10
14529.1298653905
 20
24045.86186189418
 10
14530.1298653905
 20
24045.86186189418
  0
LWPOLYLINE
  5
304
330
59CC
100
AcDbEntity
  8
0
100
AcDbPolyline
 90
        4
 70
     1
 43
0.0
 10
15666.1298653905
 20
21986.36186189421
 10
15666.1298653905
 20
22045.86186189422
 10
14530.1298653905
 20
22045.86186189422
 10
14530.1298653905
 20
21986.36186189421
  0
LWPOLYLINE
  5
305
330
59CC
100
AcDbEntity
  8
0
100
AcDbPolyline
 90
        4
 70
     1
 43
0.0
 10
14530.1298653905
 20
22045.86186189422
 10
14530.1298653905
 20
22075.86186189421
 10
15666.1298653905
 20
22075.86186189421
 10
15666.1298653905
 20
22045.86186189422
  0
LWPOLYLINE
  5
306
330
59CC
100
AcDbEntity
  8
0
100
AcDbPolyline
 90
        4
 70
     1
 43
0.0
 10
14529.1298653905
 20
24045.86186189418
 10
14529.1298653905
 20
24085.86187143098
 10
15666.1298653905
 20
24085.86187143098
 10
15666.1298653905
 20
24045.86186189418
  0
LWPOLYLINE
  5
307
330
59CC
100
AcDbEntity
  8
0
100
AcDbPolyline
 90
        9
 70
     1
 43
0.0
 10
15612.1298653905
 20
21986.36186189421
 10
15612.1298653905
 20
21959.46186189442
 10
15611.1298653905
 20
21958.46186189429
 10
15607.1298653905
 20
21958.46186189429
 10
15606.1298653905
 20
21959.46186189442
 10
15606.1298653905
 20
21965.96186189429
 10
15579.14763054741
 20
21966.43283855542
 10
15578.1298653905
 20
21967.45060371236
 10
15578.1298653905
 20
21986.36186189421
  0
LWPOLYLINE
  5
308
330
59CC
100
AcDbEntity
  8
0
100
AcDbPolyline
 90
        9
 70
     1
 43
0.0
 10
14584.12986539058
 20
21986.36186189421
 10
14584.12986539058
 20
21959.46186189442
 10
14585.1298653905
 20
21958.46186189429
 10
14589.12986539061
 20
21958.46186189429
 10
14590.1298653905
 20
21959.46186189442
 10
14590.1298653905
 20
21965.96186189429
 10
14617.11210023374
 20
21966.43283855542
 10
14618.1298653905
 20
21967.45060371236
 10
14618.1298653905
 20
21986.36186189421
  0
LWPOLYLINE
  5
309
330
59CC
100
AcDbEntity
  8
0
100
AcDbPolyline
 90
        4
 70
     1
 43
0.0
 10
15605.6298653905
 20
21965.86186189426
 10
15605.6298653905
 20
21945.86186189426
 10
14590.6298653905
 20
21945.86186189426
 10
14590.6298653905
 20
21965.86186189426
  0
LWPOLYLINE
  5
30A
330
59CC
100
AcDbEntity
  8
0
100
AcDbPolyline
 90
        4
 70
     1
 43
0.0
 10
14610.6298653905
 20
21945.86186189426
 10
14610.6298653905
 20
21965.86186189426
 10
14590.6298653905
 20
21965.86186189426
 10
14590.6298653905
 20
21945.86186189426
  0
LWPOLYLINE
  5
30B
330
59CC
100
AcDbEntity
  8
0
100
AcDbPolyline
 90
        4
 70
     1
 43
0.0
 10
15585.6298653905
 20
21945.86186189426
 10
15585.6298653905
 20
21965.86186189426
 10
15605.6298653905
 20
21965.86186189426
 10
15605.6298653905
 20
21945.86186189426
  0
LWPOLYLINE
  5
30C
330
59CC
100
AcDbEntity
  8
0
100
AcDbPolyline
 90
        4
 70
     1
 43
0.0
 10
14530.1298653905
 20
22845.86186189421
 10
14530.1298653905
 20
22875.86186189421
 10
15666.1298653905
 20
22875.86186189421
 10
15666.1298653905
 20
22845.86186189421
  0
LWPOLYLINE
  5
30D
330
59CC
100
AcDbEntity
  8
0
100
AcDbPolyline
 90
        4
 70
     1
 43
0.0
 10
15666.1298653905
 20
23245.86186189421
 10
15666.1298653905
 20
23275.8618618942
 10
14530.1298653905
 20
23275.8618618942
 10
14530.1298653905
 20
23245.86186189421
  0
LWPOLYLINE
  5
30E
330
59CC
100
AcDbEntity
  8
0
100
AcDbPolyline
 90
        4
 70
     1
 43
0.0
 10
15666.1298653905
 20
22445.86186189421
 10
15666.1298653905
 20
22475.86186189421
 10
14530.1298653905
 20
22475.86186189421
 10
14530.1298653905
 20
22445.86186189421
  0
LWPOLYLINE
  5
30F
330
59CC
100
AcDbEntity
  8
0
100
AcDbPolyline
 90
        4
 70
     1
 43
0.0
 10
14530.1298653905
 20
23645.86186189421
 10
14530.1298653905
 20
23675.8618618942
 10
15666.1298653905
 20
23675.8618618942
 10
15666.1298653905
 20
23645.86186189421
  0
LWPOLYLINE
  5
310
330
59CC
100
AcDbEntity
  8
0
100
AcDbPolyline
 90
        4
 70
     1
 43
0.0
 10
20337.1863909406
 20
21967.86186189422
 10
20337.1863909406
 20
24085.86187143098
 10
20302.1863909406
 20
24085.86187143098
 10
20302.1863909406
 20
21967.86186189422
  0
LWPOLYLINE
  5
311
330
59CC
100
AcDbEntity
  8
0
100
AcDbPolyline
 90
        6
 70
     1
 43
0.0
 10
19166.1863909406
 20
21962.86186189421
 10
19129.58639094039
 20
21962.86186189421
 10
19129.58639094039
 20
24085.86187143098
 10
19165.1863909406
 20
24085.86187143098
 10
19165.1863909406
 20
24045.86186189419
 10
19166.1863909406
 20
24045.86186189419
  0
LWPOLYLINE
  5
312
330
59CC
100
AcDbEntity
  8
0
100
AcDbPolyline
 90
        4
 70
     1
 43
0.0
 10
20302.1863909406
 20
21986.36186189421
 10
20302.1863909406
 20
22045.86186189422
 10
19166.1863909406
 20
22045.86186189422
 10
19166.1863909406
 20
21986.36186189421
  0
LWPOLYLINE
  5
313
330
59CC
100
AcDbEntity
  8
0
100
AcDbPolyline
 90
        4
 70
     1
 43
0.0
 10
19166.1863909406
 20
22045.86186189422
 10
19166.1863909406
 20
22075.86186189421
 10
20302.1863909406
 20
22075.86186189421
 10
20302.1863909406
 20
22045.86186189422
  0
LWPOLYLINE
  5
314
330
59CC
100
AcDbEntity
  8
0
100
AcDbPolyline
 90
        4
 70
     1
 43
0.0
 10
19165.1863909406
 20
24045.86186189419
 10
19165.1863909406
 20
24085.86187143098
 10
20302.1863909406
 20
24085.86187143098
 10
20302.1863909406
 20
24045.86186189419
  0
LWPOLYLINE
  5
315
330
59CC
100
AcDbEntity
  8
0
100
AcDbPolyline
 90
        9
 70
     1
 43
0.0
 10
20248.18639094054
 20
21986.36186189421
 10
20248.18639094054
 20
21959.46186189442
 10
20247.1863909406
 20
21958.46186189429
 10
20243.18639094054
 20
21958.46186189429
 10
20242.1863909406
 20
21959.46186189442
 10
20242.1863909406
 20
21965.96186189429
 10
20215.20415609748
 20
21966.43283855542
 10
20214.1863909406
 20
21967.45060371236
 10
20214.1863909406
 20
21986.36186189421
  0
LWPOLYLINE
  5
316
330
59CC
100
AcDbEntity
  8
0
100
AcDbPolyline
 90
        9
 70
     1
 43
0.0
 10
19220.1863909406
 20
21986.36186189421
 10
19220.1863909406
 20
21959.46186189442
 10
19221.1863909406
 20
21958.46186189429
 10
19225.18639094059
 20
21958.46186189429
 10
19226.1863909406
 20
21959.46186189442
 10
19226.1863909406
 20
21965.96186189429
 10
19253.16862578373
 20
21966.43283855542
 10
19254.1863909406
 20
21967.45060371236
 10
19254.1863909406
 20
21986.36186189421
  0
LWPOLYLINE
  5
317
330
59CC
100
AcDbEntity
  8
0
100
AcDbPolyline
 90
        4
 70
     1
 43
0.0
 10
20241.6863909406
 20
21965.86186189426
 10
20241.6863909406
 20
21945.86186189426
 10
19226.6863909406
 20
21945.86186189426
 10
19226.6863909406
 20
21965.86186189426
  0
LWPOLYLINE
  5
318
330
59CC
100
AcDbEntity
  8
0
100
AcDbPolyline
 90
        4
 70
     1
 43
0.0
 10
19246.6863909406
 20
21945.86186189426
 10
19246.6863909406
 20
21965.86186189426
 10
19226.6863909406
 20
21965.86186189426
 10
19226.6863909406
 20
21945.86186189426
  0
LWPOLYLINE
  5
319
330
59CC
100
AcDbEntity
  8
0
100
AcDbPolyline
 90
        4
 70
     1
 43
0.0
 10
20221.6863909406
 20
21945.86186189426
 10
20221.6863909406
 20
21965.86186189426
 10
20241.6863909406
 20
21965.86186189426
 10
20241.6863909406
 20
21945.86186189426
  0
LWPOLYLINE
  5
31A
330
59CC
100
AcDbEntity
  8
0
100
AcDbPolyline
 90
        4
 70
     1
 43
0.0
 10
20302.1863909406
 20
22295.86186189421
 10
20302.1863909406
 20
22325.86186189421
 10
19166.1863909406
 20
22325.86186189421
 10
19166.1863909406
 20
22295.86186189421
  0
LWPOLYLINE
  5
31B
330
59CC
100
AcDbEntity
  8
0
100
AcDbPolyline
 90
        4
 70
     1
 43
0.0
 10
20302.1863909406
 20
22545.86186189421
 10
20302.1863909406
 20
22575.86186189421
 10
19166.1863909406
 20
22575.86186189421
 10
19166.1863909406
 20
22545.86186189421
  0
LWPOLYLINE
  5
31C
330
59CC
100
AcDbEntity
  8
0
100
AcDbPolyline
 90
        4
 70
     1
 43
0.0
 10
20302.1863909406
 20
22795.86186189421
 10
20302.1863909406
 20
22825.86186189421
 10
19166.1863909406
 20
22825.86186189421
 10
19166.1863909406
 20
22795.86186189421
  0
LWPOLYLINE
  5
31D
330
59CC
100
AcDbEntity
  8
0
100
AcDbPolyline
 90
        4
 70
     1
 43
0.0
 10
20302.1863909406
 20
23045.86186189421
 10
20302.1863909406
 20
23075.8618618942
 10
19166.1863909406
 20
23075.8618618942
 10
19166.1863909406
 20
23045.86186189421
  0
LWPOLYLINE
  5
31E
330
59CC
100
AcDbEntity
  8
0
100
AcDbPolyline
 90
        4
 70
     1
 43
0.0
 10
20302.1863909406
 20
23295.86186189422
 10
20302.1863909406
 20
23325.86186189421
 10
19166.1863909406
 20
23325.86186189421
 10
19166.1863909406
 20
23295.86186189422
  0
LWPOLYLINE
  5
31F
330
59CC
100
AcDbEntity
  8
0
100
AcDbPolyline
 90
        4
 70
     1
 43
0.0
 10
20302.1863909406
 20
23545.86186189421
 10
20302.1863909406
 20
23575.86186189421
 10
19166.1863909406
 20
23575.86186189421
 10
19166.1863909406
 20
23545.86186189421
  0
LWPOLYLINE
  5
320
330
59CC
100
AcDbEntity
  8
0
100
AcDbPolyline
 90
        4
 70
     1
 43
0.0
 10
20302.1863909406
 20
23795.86186189421
 10
20302.1863909406
 20
23825.86186189421
 10
19166.1863909406
 20
23825.86186189421
 10
19166.1863909406
 20
23795.86186189421
  0
LWPOLYLINE
  5
321
330
59CC
100
AcDbEntity
  8
CLOTHES_RAIL
100
AcDbPolyline
 90
        4
 70
     1
 43
0.0
 10
15666.12986539054
 20
19265.22637188075
 10
15666.12986539054
 20
19240.22637188074
 10
14530.12986539054
 20
19240.22637188074
 10
14530.12986539054
 20
19265.22637188075
  0
LWPOLYLINE
  5
322
330
59CC
100
AcDbEntity
  8
0
100
AcDbPolyline
 90
        4
 70
     1
 43
0.0
 10
15666.12986539054
 20
19342.72637188074
 10
15666.12986539054
 20
19312.72637188074
 10
14530.12986539054
 20
19312.72637188074
 10
14530.12986539054
 20
19342.72637188074
  0
LWPOLYLINE
  5
323
330
59CC
100
AcDbEntity
  8
0
100
AcDbPolyline
 90
        4
 70
     1
 43
0.0
 10
15585.62986539054
 20
18212.7263718808
 10
15585.62986539054
 20
18232.7263718808
 10
15605.62986539054
 20
18232.7263718808
 10
15605.62986539054
 20
18212.7263718808
  0
LWPOLYLINE
  5
324
330
59CC
100
AcDbEntity
  8
0
100
AcDbPolyline
 90
        4
 70
     1
 43
0.0
 10
14610.62986539054
 20
18212.7263718808
 10
14610.62986539054
 20
18232.7263718808
 10
14590.62986539054
 20
18232.7263718808
 10
14590.62986539054
 20
18212.7263718808
  0
LWPOLYLINE
  5
325
330
59CC
100
AcDbEntity
  8
0
100
AcDbPolyline
 90
        4
 70
     1
 43
0.0
 10
15605.62986539054
 20
18232.7263718808
 10
15605.62986539054
 20
18212.7263718808
 10
14590.62986539054
 20
18212.7263718808
 10
14590.62986539054
 20
18232.7263718808
  0
LWPOLYLINE
  5
326
330
59CC
100
AcDbEntity
  8
0
100
AcDbPolyline
 90
        9
 70
     1
 43
0.0
 10
14584.1298653906
 20
18253.22637188075
 10
14584.1298653906
 20
18226.32637188096
 10
14585.12986539054
 20
18225.32637188083
 10
14589.12986539059
 20
18225.32637188083
 10
14590.12986539054
 20
18226.32637188096
 10
14590.12986539054
 20
18232.82637188083
 10
14617.11210023366
 20
18233.29734854196
 10
14618.12986539054
 20
18234.3151136989
 10
14618.12986539054
 20
18253.22637188075
  0
LWPOLYLINE
  5
327
330
59CC
100
AcDbEntity
  8
0
100
AcDbPolyline
 90
        9
 70
     1
 43
0.0
 10
15612.12986539054
 20
18253.22637188075
 10
15612.12986539054
 20
18226.32637188096
 10
15611.12986539054
 20
18225.32637188083
 10
15607.12986539054
 20
18225.32637188083
 10
15606.12986539054
 20
18226.32637188096
 10
15606.12986539054
 20
18232.82637188083
 10
15579.1476305474
 20
18233.29734854196
 10
15578.12986539054
 20
18234.3151136989
 10
15578.12986539054
 20
18253.22637188075
  0
LWPOLYLINE
  5
328
330
59CC
100
AcDbEntity
  8
0
100
AcDbPolyline
 90
        4
 70
     1
 43
0.0
 10
14529.12986539054
 20
20312.72637188072
 10
14529.12986539054
 20
20352.72638141753
 10
15666.12986539054
 20
20352.72638141753
 10
15666.12986539054
 20
20312.72637188072
  0
LWPOLYLINE
  5
329
330
59CC
100
AcDbEntity
  8
CLOTHES_RAIL
100
AcDbPolyline
 90
        4
 70
     1
 43
0.0
 10
15666.12986539054
 20
20240.22637188072
 10
15666.12986539054
 20
20265.22637188072
 10
14530.12986539054
 20
20265.22637188072
 10
14530.12986539054
 20
20240.22637188072
  0
LWPOLYLINE
  5
32A
330
59CC
100
AcDbEntity
  8
0
100
AcDbPolyline
 90
        4
 70
     1
 43
0.0
 10
14530.12986539054
 20
18312.72637188075
 10
14530.12986539054
 20
18342.72637188075
 10
15666.12986539054
 20
18342.72637188075
 10
15666.12986539054
 20
18312.72637188075
  0
LWPOLYLINE
  5
32B
330
59CC
100
AcDbEntity
  8
0
100
AcDbPolyline
 90
        4
 70
     1
 43
0.0
 10
15666.12986539054
 20
18253.22637188075
 10
15666.12986539054
 20
18312.72637188075
 10
14530.12986539054
 20
18312.72637188075
 10
14530.12986539054
 20
18253.22637188075
  0
LWPOLYLINE
  5
32C
330
59CC
100
AcDbEntity
  8
0
100
AcDbPolyline
 90
        6
 70
     1
 43
0.0
 10
14530.12986539054
 20
18229.72637188075
 10
14493.52986539044
 20
18229.72637188075
 10
14493.52986539044
 20
20352.72638141753
 10
14529.12986539054
 20
20352.72638141753
 10
14529.12986539054
 20
20312.72637188072
 10
14530.12986539054
 20
20312.72637188072
  0
LWPOLYLINE
  5
32D
330
59CC
100
AcDbEntity
  8
0
100
AcDbPolyline
 90
        4
 70
     1
 43
0.0
 10
15701.12986539054
 20
18234.72637188075
 10
15701.12986539054
 20
20352.72638141753
 10
15666.12986539054
 20
20352.72638141753
 10
15666.12986539054
 20
18234.72637188075
  0
LWPOLYLINE
  5
32E
330
59CC
100
AcDbEntity
  8
0
100
AcDbPolyline
 90
        4
 70
     1
 43
0.0
 10
14493.52986539045
 20
24085.86187143098
 10
14493.52986539045
 20
21962.86186189421
 10
14463.52986539045
 20
21962.86186189421
 10
14463.52986539045
 20
24085.86187143098
  0
LWPOLYLINE
  5
32F
330
59CC
100
AcDbEntity
  8
0
100
AcDbPolyline
 90
        4
 70
     1
 43
0.0
 10
19129.58639094058
 20
24085.86187143098
 10
19129.58639094058
 20
21962.86186189421
 10
19099.58639094058
 20
21962.86186189421
 10
19099.58639094058
 20
24085.86187143098
  0
LWPOLYLINE
  5
330
330
59CC
100
AcDbEntity
  8
0
100
AcDbPolyline
 90
        4
 70
     1
 43
0.0
 10
14493.52986539044
 20
20352.72638141752
 10
14493.52986539044
 20
18229.72637188075
 10
14463.52986539045
 20
18229.72637188075
 10
14463.52986539045
 20
20352.72638141752
  0
LWPOLYLINE
  5
331
330
59CC
100
AcDbEntity
  8
0
100
AcDbPolyline
 90
        4
 70
     1
 43
0.0
 10
19129.58639094051
 20
20352.72638141752
 10
19129.58639094051
 20
18229.72637188075
 10
19099.58639094051
 20
18229.72637188075
 10
19099.58639094051
 20
20352.72638141752
  0
TEXT
  5
332
330
59CC
100
AcDbEntity
  8
0
100
AcDbText
 10
14179.85348037868
 20
17690.15737075776
 30
0.0
 40
125.0
  1
Modular Combinations (L=120 cm) / Componibilità moduli (L=120 cm) / Zusammensetzbarkeit Module (L=120 cm)
  7
STILE1
 72
     1
 11
19971.52014704535
 21
17690.15737075776
 31
0.0
100
AcDbText
  0
LWPOLYLINE
  5
333
330
59CC
100
AcDbEntity
  8
0
100
AcDbPolyline
 90
        4
 70
     1
 43
0.0
 10
13550.0
 20
17592.34759251489
 10
26550.0
 20
17592.34759251489
 10
26550.0
 20
17892.34759251489
 10
13550.0
 20
17892.34759251489
  0
LWPOLYLINE
  5
334
330
59CC
100
AcDbEntity
  8
0
100
AcDbPolyline
 90
        4
 70
     1
 43
0.0
 10
13550.0
 20
9565.002619770918
 10
26550.0
 20
9565.002619770918
 10
26550.0
 20
9865.002619770918
 10
13550.0
 20
9865.002619770918
  0
TEXT
  5
335
330
59CC
100
AcDbEntity
  8
0
100
AcDbText
 10
14147.61208006504
 20
9662.812398013786
 30
0.0
 40
125.0
  1
Modular Combinations (L=100 cm) / Componibilità moduli (L=100 cm) / Zusammensetzbarkeit Module (L=100 cm)
  7
STILE1
 72
     1
 11
19939.27874673171
 21
9662.812398013786
 31
0.0
100
AcDbText
  0
LWPOLYLINE
  5
336
330
59CC
100
AcDbEntity
  8
0
100
AcDbPolyline
 90
        4
 70
     1
 43
0.0
 10
19129.58639094051
 20
12325.38140867354
 10
19129.58639094051
 20
10202.38139913677
 10
19099.58639094051
 20
10202.38139913677
 10
19099.58639094051
 20
12325.38140867354
  0
LWPOLYLINE
  5
337
330
59CC
100
AcDbEntity
  8
0
100
AcDbPolyline
 90
        4
 70
     1
 43
0.0
 10
14493.52986539044
 20
12325.38140867354
 10
14493.52986539044
 20
10202.38139913677
 10
14463.52986539045
 20
10202.38139913677
 10
14463.52986539045
 20
12325.38140867354
  0
LWPOLYLINE
  5
338
330
59CC
100
AcDbEntity
  8
0
100
AcDbPolyline
 90
        4
 70
     1
 43
0.0
 10
19129.58639094058
 20
16058.51689868701
 10
19129.58639094058
 20
13935.51688915023
 10
19099.58639094058
 20
13935.51688915023
 10
19099.58639094058
 20
16058.51689868701
  0
LWPOLYLINE
  5
339
330
59CC
100
AcDbEntity
  8
0
100
AcDbPolyline
 90
        4
 70
     1
 43
0.0
 10
14493.52986539045
 20
16058.516898687
 10
14493.52986539045
 20
13935.51688915023
 10
14463.52986539045
 20
13935.51688915023
 10
14463.52986539045
 20
16058.516898687
  0
LWPOLYLINE
  5
33A
330
59CC
100
AcDbEntity
  8
0
100
AcDbPolyline
 90
        4
 70
     1
 43
0.0
 10
15501.12986539054
 20
10207.38139913677
 10
15501.12986539054
 20
12325.38140867355
 10
15466.12986539054
 20
12325.38140867355
 10
15466.12986539054
 20
10207.38139913677
  0
LWPOLYLINE
  5
33B
330
59CC
100
AcDbEntity
  8
0
100
AcDbPolyline
 90
        6
 70
     1
 43
0.0
 10
14530.12986539054
 20
10202.38139913677
 10
14493.52986539044
 20
10202.38139913677
 10
14493.52986539044
 20
12325.38140867355
 10
14529.12986539054
 20
12325.38140867355
 10
14529.12986539054
 20
12285.38139913674
 10
14530.12986539054
 20
12285.38139913674
  0
LWPOLYLINE
  5
33C
330
59CC
100
AcDbEntity
  8
0
100
AcDbPolyline
 90
        4
 70
     1
 43
0.0
 10
15466.12986539054
 20
10225.88139913677
 10
15466.12986539054
 20
10285.38139913677
 10
14530.12986539054
 20
10285.38139913677
 10
14530.12986539054
 20
10225.88139913677
  0
LWPOLYLINE
  5
33D
330
59CC
100
AcDbEntity
  8
0
100
AcDbPolyline
 90
        4
 70
     1
 43
0.0
 10
14530.12986539054
 20
10285.38139913677
 10
14530.12986539054
 20
10315.38139913677
 10
15466.12986539054
 20
10315.38139913677
 10
15466.12986539054
 20
10285.38139913677
  0
LWPOLYLINE
  5
33E
330
59CC
100
AcDbEntity
  8
CLOTHES_RAIL
100
AcDbPolyline
 90
        4
 70
     1
 43
0.0
 10
15466.12986539054
 20
12212.88139913674
 10
15466.12986539054
 20
12237.88139913674
 10
14530.12986539054
 20
12237.88139913674
 10
14530.12986539054
 20
12212.88139913674
  0
LWPOLYLINE
  5
33F
330
59CC
100
AcDbEntity
  8
0
100
AcDbPolyline
 90
        4
 70
     1
 43
0.0
 10
14529.12986539054
 20
12285.38139913674
 10
14529.12986539054
 20
12325.38140867355
 10
15466.12986539054
 20
12325.38140867355
 10
15466.12986539054
 20
12285.38139913674
  0
LWPOLYLINE
  5
340
330
59CC
100
AcDbEntity
  8
0
100
AcDbPolyline
 90
        9
 70
     1
 43
0.0
 10
15412.12986539054
 20
10225.88139913677
 10
15412.12986539054
 20
10198.98139913698
 10
15411.12986539054
 20
10197.98139913685
 10
15407.12986539054
 20
10197.98139913685
 10
15406.12986539054
 20
10198.98139913698
 10
15406.12986539054
 20
10205.48139913685
 10
15379.1476305474
 20
10205.95237579798
 10
15378.12986539054
 20
10206.97014095492
 10
15378.12986539054
 20
10225.88139913677
  0
LWPOLYLINE
  5
341
330
59CC
100
AcDbEntity
  8
0
100
AcDbPolyline
 90
        9
 70
     1
 43
0.0
 10
14584.1298653906
 20
10225.88139913677
 10
14584.1298653906
 20
10198.98139913698
 10
14585.12986539054
 20
10197.98139913685
 10
14589.12986539059
 20
10197.98139913685
 10
14590.12986539054
 20
10198.98139913698
 10
14590.12986539054
 20
10205.48139913685
 10
14617.11210023366
 20
10205.95237579798
 10
14618.12986539054
 20
10206.97014095492
 10
14618.12986539054
 20
10225.88139913677
  0
LWPOLYLINE
  5
342
330
59CC
100
AcDbEntity
  8
0
100
AcDbPolyline
 90
        4
 70
     1
 43
0.0
 10
15405.62986539054
 20
10205.38139913682
 10
15405.62986539054
 20
10185.38139913682
 10
14590.62986539054
 20
10185.38139913682
 10
14590.62986539054
 20
10205.38139913682
  0
LWPOLYLINE
  5
343
330
59CC
100
AcDbEntity
  8
0
100
AcDbPolyline
 90
        4
 70
     1
 43
0.0
 10
14610.62986539054
 20
10185.38139913682
 10
14610.62986539054
 20
10205.38139913682
 10
14590.62986539054
 20
10205.38139913682
 10
14590.62986539054
 20
10185.38139913682
  0
LWPOLYLINE
  5
344
330
59CC
100
AcDbEntity
  8
0
100
AcDbPolyline
 90
        4
 70
     1
 43
0.0
 10
15385.62986539054
 20
10185.38139913682
 10
15385.62986539054
 20
10205.38139913682
 10
15405.62986539054
 20
10205.38139913682
 10
15405.62986539054
 20
10185.38139913682
  0
LWPOLYLINE
  5
345
330
59CC
100
AcDbEntity
  8
0
100
AcDbPolyline
 90
        4
 70
     1
 43
0.0
 10
15466.12986539054
 20
11315.38139913676
 10
15466.12986539054
 20
11285.38139913676
 10
14530.12986539054
 20
11285.38139913676
 10
14530.12986539054
 20
11315.38139913676
  0
LWPOLYLINE
  5
346
330
59CC
100
AcDbEntity
  8
CLOTHES_RAIL
100
AcDbPolyline
 90
        4
 70
     1
 43
0.0
 10
15466.12986539054
 20
11237.88139913677
 10
15466.12986539054
 20
11212.88139913676
 10
14530.12986539054
 20
11212.88139913676
 10
14530.12986539054
 20
11237.88139913677
  0
LWPOLYLINE
  5
347
330
59CC
100
AcDbEntity
  8
0
100
AcDbPolyline
 90
        4
 70
     1
 43
0.0
 10
20102.1863909406
 20
15768.51688915023
 10
20102.1863909406
 20
15798.51688915022
 10
19166.1863909406
 20
15798.51688915022
 10
19166.1863909406
 20
15768.51688915023
  0
LWPOLYLINE
  5
348
330
59CC
100
AcDbEntity
  8
0
100
AcDbPolyline
 90
        4
 70
     1
 43
0.0
 10
20102.1863909406
 20
15518.51688915023
 10
20102.1863909406
 20
15548.51688915022
 10
19166.1863909406
 20
15548.51688915022
 10
19166.1863909406
 20
15518.51688915023
  0
LWPOLYLINE
  5
349
330
59CC
100
AcDbEntity
  8
0
100
AcDbPolyline
 90
        4
 70
     1
 43
0.0
 10
20102.1863909406
 20
15268.51688915023
 10
20102.1863909406
 20
15298.51688915022
 10
19166.1863909406
 20
15298.51688915022
 10
19166.1863909406
 20
15268.51688915023
  0
LWPOLYLINE
  5
34A
330
59CC
100
AcDbEntity
  8
0
100
AcDbPolyline
 90
        4
 70
     1
 43
0.0
 10
20102.1863909406
 20
15018.51688915023
 10
20102.1863909406
 20
15048.51688915022
 10
19166.1863909406
 20
15048.51688915022
 10
19166.1863909406
 20
15018.51688915023
  0
LWPOLYLINE
  5
34B
330
59CC
100
AcDbEntity
  8
0
100
AcDbPolyline
 90
        4
 70
     1
 43
0.0
 10
20102.1863909406
 20
14768.51688915023
 10
20102.1863909406
 20
14798.51688915023
 10
19166.1863909406
 20
14798.51688915023
 10
19166.1863909406
 20
14768.51688915023
  0
LWPOLYLINE
  5
34C
330
59CC
100
AcDbEntity
  8
0
100
AcDbPolyline
 90
        4
 70
     1
 43
0.0
 10
20102.1863909406
 20
14518.51688915023
 10
20102.1863909406
 20
14548.51688915023
 10
19166.1863909406
 20
14548.51688915023
 10
19166.1863909406
 20
14518.51688915023
  0
LWPOLYLINE
  5
34D
330
59CC
100
AcDbEntity
  8
0
100
AcDbPolyline
 90
        4
 70
     1
 43
0.0
 10
20102.1863909406
 20
14268.51688915023
 10
20102.1863909406
 20
14298.51688915023
 10
19166.1863909406
 20
14298.51688915023
 10
19166.1863909406
 20
14268.51688915023
  0
LWPOLYLINE
  5
34E
330
59CC
100
AcDbEntity
  8
0
100
AcDbPolyline
 90
        4
 70
     1
 43
0.0
 10
20021.6863909406
 20
13918.51688915027
 10
20021.6863909406
 20
13938.51688915027
 10
20041.6863909406
 20
13938.51688915027
 10
20041.6863909406
 20
13918.51688915027
  0
LWPOLYLINE
  5
34F
330
59CC
100
AcDbEntity
  8
0
100
AcDbPolyline
 90
        4
 70
     1
 43
0.0
 10
19246.6863909406
 20
13918.51688915027
 10
19246.6863909406
 20
13938.51688915027
 10
19226.6863909406
 20
13938.51688915027
 10
19226.6863909406
 20
13918.51688915027
  0
LWPOLYLINE
  5
350
330
59CC
100
AcDbEntity
  8
0
100
AcDbPolyline
 90
        4
 70
     1
 43
0.0
 10
20041.6863909406
 20
13938.51688915027
 10
20041.6863909406
 20
13918.51688915027
 10
19226.6863909406
 20
13918.51688915027
 10
19226.6863909406
 20
13938.51688915027
  0
LWPOLYLINE
  5
351
330
59CC
100
AcDbEntity
  8
0
100
AcDbPolyline
 90
        9
 70
     1
 43
0.0
 10
19220.1863909406
 20
13959.01688915023
 10
19220.1863909406
 20
13932.11688915042
 10
19221.1863909406
 20
13931.11688915031
 10
19225.18639094059
 20
13931.11688915031
 10
19226.1863909406
 20
13932.11688915042
 10
19226.1863909406
 20
13938.61688915031
 10
19253.16862578373
 20
13939.08786581144
 10
19254.1863909406
 20
13940.10563096838
 10
19254.1863909406
 20
13959.01688915023
  0
LWPOLYLINE
  5
352
330
59CC
100
AcDbEntity
  8
0
100
AcDbPolyline
 90
        9
 70
     1
 43
0.0
 10
20048.18639094054
 20
13959.01688915023
 10
20048.18639094054
 20
13932.11688915042
 10
20047.1863909406
 20
13931.11688915031
 10
20043.18639094054
 20
13931.11688915031
 10
20042.1863909406
 20
13932.11688915042
 10
20042.1863909406
 20
13938.61688915031
 10
20015.20415609748
 20
13939.08786581144
 10
20014.1863909406
 20
13940.10563096838
 10
20014.1863909406
 20
13959.01688915023
  0
LWPOLYLINE
  5
353
330
59CC
100
AcDbEntity
  8
0
100
AcDbPolyline
 90
        4
 70
     1
 43
0.0
 10
19165.1863909406
 20
16018.5168891502
 10
19165.1863909406
 20
16058.51689868701
 10
20102.1863909406
 20
16058.51689868701
 10
20102.1863909406
 20
16018.5168891502
  0
LWPOLYLINE
  5
354
330
59CC
100
AcDbEntity
  8
0
100
AcDbPolyline
 90
        4
 70
     1
 43
0.0
 10
19166.1863909406
 20
14018.51688915023
 10
19166.1863909406
 20
14048.51688915023
 10
20102.1863909406
 20
14048.51688915023
 10
20102.1863909406
 20
14018.51688915023
  0
LWPOLYLINE
  5
355
330
59CC
100
AcDbEntity
  8
0
100
AcDbPolyline
 90
        4
 70
     1
 43
0.0
 10
20102.1863909406
 20
13959.01688915023
 10
20102.1863909406
 20
14018.51688915023
 10
19166.1863909406
 20
14018.51688915023
 10
19166.1863909406
 20
13959.01688915023
  0
LWPOLYLINE
  5
356
330
59CC
100
AcDbEntity
  8
0
100
AcDbPolyline
 90
        6
 70
     1
 43
0.0
 10
19166.1863909406
 20
13935.51688915023
 10
19129.58639094039
 20
13935.51688915023
 10
19129.58639094039
 20
16058.51689868701
 10
19165.1863909406
 20
16058.51689868701
 10
19165.1863909406
 20
16018.5168891502
 10
19166.1863909406
 20
16018.5168891502
  0
LWPOLYLINE
  5
357
330
59CC
100
AcDbEntity
  8
0
100
AcDbPolyline
 90
        4
 70
     1
 43
0.0
 10
20137.1863909406
 20
13940.51688915023
 10
20137.1863909406
 20
16058.51689868701
 10
20102.1863909406
 20
16058.51689868701
 10
20102.1863909406
 20
13940.51688915023
  0
LWPOLYLINE
  5
358
330
59CC
100
AcDbEntity
  8
0
100
AcDbPolyline
 90
        4
 70
     1
 43
0.0
 10
14530.1298653905
 20
15618.51688915022
 10
14530.1298653905
 20
15648.51688915022
 10
15466.1298653905
 20
15648.51688915022
 10
15466.1298653905
 20
15618.51688915022
  0
LWPOLYLINE
  5
359
330
59CC
100
AcDbEntity
  8
0
100
AcDbPolyline
 90
        4
 70
     1
 43
0.0
 10
15466.1298653905
 20
14418.51688915023
 10
15466.1298653905
 20
14448.51688915023
 10
14530.1298653905
 20
14448.51688915023
 10
14530.1298653905
 20
14418.51688915023
  0
LWPOLYLINE
  5
35A
330
59CC
100
AcDbEntity
  8
0
100
AcDbPolyline
 90
        4
 70
     1
 43
0.0
 10
15466.1298653905
 20
15218.51688915022
 10
15466.1298653905
 20
15248.51688915022
 10
14530.1298653905
 20
15248.51688915022
 10
14530.1298653905
 20
15218.51688915022
  0
LWPOLYLINE
  5
35B
330
59CC
100
AcDbEntity
  8
0
100
AcDbPolyline
 90
        4
 70
     1
 43
0.0
 10
14530.1298653905
 20
14818.51688915023
 10
14530.1298653905
 20
14848.51688915023
 10
15466.1298653905
 20
14848.51688915023
 10
15466.1298653905
 20
14818.51688915023
  0
LWPOLYLINE
  5
35C
330
59CC
100
AcDbEntity
  8
0
100
AcDbPolyline
 90
        4
 70
     1
 43
0.0
 10
15385.6298653905
 20
13918.51688915027
 10
15385.6298653905
 20
13938.51688915027
 10
15405.6298653905
 20
13938.51688915027
 10
15405.6298653905
 20
13918.51688915027
  0
LWPOLYLINE
  5
35D
330
59CC
100
AcDbEntity
  8
0
100
AcDbPolyline
 90
        4
 70
     1
 43
0.0
 10
14610.6298653905
 20
13918.51688915027
 10
14610.6298653905
 20
13938.51688915027
 10
14590.6298653905
 20
13938.51688915027
 10
14590.6298653905
 20
13918.51688915027
  0
LWPOLYLINE
  5
35E
330
59CC
100
AcDbEntity
  8
0
100
AcDbPolyline
 90
        4
 70
     1
 43
0.0
 10
15405.6298653905
 20
13938.51688915027
 10
15405.6298653905
 20
13918.51688915027
 10
14590.6298653905
 20
13918.51688915027
 10
14590.6298653905
 20
13938.51688915027
  0
LWPOLYLINE
  5
35F
330
59CC
100
AcDbEntity
  8
0
100
AcDbPolyline
 90
        9
 70
     1
 43
0.0
 10
14584.12986539058
 20
13959.01688915023
 10
14584.12986539058
 20
13932.11688915042
 10
14585.1298653905
 20
13931.11688915031
 10
14589.12986539061
 20
13931.11688915031
 10
14590.1298653905
 20
13932.11688915042
 10
14590.1298653905
 20
13938.61688915031
 10
14617.11210023374
 20
13939.08786581144
 10
14618.1298653905
 20
13940.10563096838
 10
14618.1298653905
 20
13959.01688915023
  0
LWPOLYLINE
  5
360
330
59CC
100
AcDbEntity
  8
0
100
AcDbPolyline
 90
        9
 70
     1
 43
0.0
 10
15412.1298653905
 20
13959.01688915023
 10
15412.1298653905
 20
13932.11688915042
 10
15411.1298653905
 20
13931.11688915031
 10
15407.1298653905
 20
13931.11688915031
 10
15406.1298653905
 20
13932.11688915042
 10
15406.1298653905
 20
13938.61688915031
 10
15379.14763054741
 20
13939.08786581144
 10
15378.1298653905
 20
13940.10563096838
 10
15378.1298653905
 20
13959.01688915023
  0
LWPOLYLINE
  5
361
330
59CC
100
AcDbEntity
  8
0
100
AcDbPolyline
 90
        4
 70
     1
 43
0.0
 10
14529.1298653905
 20
16018.5168891502
 10
14529.1298653905
 20
16058.516898687
 10
15466.1298653905
 20
16058.516898687
 10
15466.1298653905
 20
16018.5168891502
  0
LWPOLYLINE
  5
362
330
59CC
100
AcDbEntity
  8
0
100
AcDbPolyline
 90
        4
 70
     1
 43
0.0
 10
14530.1298653905
 20
14018.51688915023
 10
14530.1298653905
 20
14048.51688915023
 10
15466.1298653905
 20
14048.51688915023
 10
15466.1298653905
 20
14018.51688915023
  0
LWPOLYLINE
  5
363
330
59CC
100
AcDbEntity
  8
0
100
AcDbPolyline
 90
        4
 70
     1
 43
0.0
 10
15466.1298653905
 20
13959.01688915023
 10
15466.1298653905
 20
14018.51688915023
 10
14530.1298653905
 20
14018.51688915023
 10
14530.1298653905
 20
13959.01688915023
  0
LWPOLYLINE
  5
364
330
59CC
100
AcDbEntity
  8
0
100
AcDbPolyline
 90
        6
 70
     1
 43
0.0
 10
14530.1298653905
 20
13935.51688915023
 10
14493.52986539045
 20
13935.51688915023
 10
14493.52986539045
 20
16058.516898687
 10
14529.1298653905
 20
16058.516898687
 10
14529.1298653905
 20
16018.5168891502
 10
14530.1298653905
 20
16018.5168891502
  0
LWPOLYLINE
  5
365
330
59CC
100
AcDbEntity
  8
0
100
AcDbPolyline
 90
        4
 70
     1
 43
0.0
 10
15501.12986539051
 20
13940.51688915023
 10
15501.12986539051
 20
16058.516898687
 10
15466.1298653905
 20
16058.516898687
 10
15466.1298653905
 20
13940.51688915023
  0
LWPOLYLINE
  5
366
330
59CC
100
AcDbEntity
  8
0
100
AcDbPolyline
 90
        4
 70
     1
 43
0.0
 10
20137.18639094054
 20
10207.38139913677
 10
20137.18639094054
 20
12325.38140867354
 10
20102.18639094054
 20
12325.38140867354
 10
20102.18639094054
 20
10207.38139913677
  0
LWPOLYLINE
  5
367
330
59CC
100
AcDbEntity
  8
0
100
AcDbPolyline
 90
        6
 70
     1
 43
0.0
 10
19166.18639094054
 20
10202.38139913677
 10
19129.58639094035
 20
10202.38139913677
 10
19129.58639094035
 20
12325.38140867354
 10
19165.18639094054
 20
12325.38140867354
 10
19165.18639094054
 20
12285.38139913674
 10
19166.18639094054
 20
12285.38139913674
  0
LWPOLYLINE
  5
368
330
59CC
100
AcDbEntity
  8
0
100
AcDbPolyline
 90
        4
 70
     1
 43
0.0
 10
19165.18639094054
 20
12285.38139913674
 10
19165.18639094054
 20
12325.38140867354
 10
20102.18639094054
 20
12325.38140867354
 10
20102.18639094054
 20
12285.38139913674
  0
LWPOLYLINE
  5
369
330
59CC
100
AcDbEntity
  8
0
100
AcDbPolyline
 90
        9
 70
     1
 43
0.0
 10
20048.1863909405
 20
10225.88139913677
 10
20048.1863909405
 20
10198.98139913697
 10
20047.18639094054
 20
10197.98139913685
 10
20043.1863909405
 20
10197.98139913685
 10
20042.18639094054
 20
10198.98139913697
 10
20042.18639094054
 20
10205.48139913685
 10
20015.2041560974
 20
10205.95237579798
 10
20014.18639094054
 20
10206.97014095492
 10
20014.18639094054
 20
10225.88139913677
  0
LWPOLYLINE
  5
36A
330
59CC
100
AcDbEntity
  8
0
100
AcDbPolyline
 90
        9
 70
     1
 43
0.0
 10
19220.18639094052
 20
10225.88139913677
 10
19220.18639094052
 20
10198.98139913697
 10
19221.18639094052
 20
10197.98139913685
 10
19225.18639094054
 20
10197.98139913685
 10
19226.18639094054
 20
10198.98139913697
 10
19226.18639094054
 20
10205.48139913685
 10
19253.16862578368
 20
10205.95237579798
 10
19254.18639094052
 20
10206.97014095492
 10
19254.18639094052
 20
10225.88139913677
  0
LWPOLYLINE
  5
36B
330
59CC
100
AcDbEntity
  8
0
100
AcDbPolyline
 90
        4
 70
     1
 43
0.0
 10
20041.68639094054
 20
10205.38139913681
 10
20041.68639094054
 20
10185.38139913681
 10
19226.68639094052
 20
10185.38139913681
 10
19226.68639094052
 20
10205.38139913681
  0
LWPOLYLINE
  5
36C
330
59CC
100
AcDbEntity
  8
0
100
AcDbPolyline
 90
        4
 70
     1
 43
0.0
 10
19246.68639094052
 20
10185.38139913681
 10
19246.68639094052
 20
10205.38139913681
 10
19226.68639094052
 20
10205.38139913681
 10
19226.68639094052
 20
10185.38139913681
  0
LWPOLYLINE
  5
36D
330
59CC
100
AcDbEntity
  8
0
100
AcDbPolyline
 90
        4
 70
     1
 43
0.0
 10
20021.68639094054
 20
10185.38139913681
 10
20021.68639094054
 20
10205.38139913681
 10
20041.68639094054
 20
10205.38139913681
 10
20041.68639094054
 20
10185.38139913681
  0
LWPOLYLINE
  5
36E
330
59CC
100
AcDbEntity
  8
0
100
AcDbPolyline
 90
        4
 70
     1
 43
0.0
 10
20102.1863909405
 20
10225.88139913677
 10
20102.1863909405
 20
10285.38139913677
 10
19166.1863909405
 20
10285.38139913677
 10
19166.1863909405
 20
10225.88139913677
  0
LWPOLYLINE
  5
36F
330
59CC
100
AcDbEntity
  8
0
100
AcDbPolyline
 90
        2
 70
     0
 43
0.0
 10
14197.12986539054
 20
13918.51688915027
 10
22554.48951026663
 20
13918.51688915029
  0
LWPOLYLINE
  5
370
330
59CC
100
AcDbEntity
  8
0
100
AcDbPolyline
 90
        2
 70
     0
 43
0.0
 10
14197.12986539054
 20
10185.38139913681
 10
22554.48951026663
 20
10185.38139913681
  0
LWPOLYLINE
  5
371
330
59CC
100
AcDbEntity
  8
0
100
AcDbPolyline
 90
        2
 70
     0
 43
0.0
 10
25109.50129716488
 20
10185.38139913681
 10
24113.08787004944
 20
10185.38139913681
  0
LWPOLYLINE
  5
372
330
59CC
100
AcDbEntity
  8
0
100
AcDbPolyline
 90
        4
 70
     1
 43
0.0
 10
24876.29458360717
 20
16058.51689868701
 10
24346.29458360716
 20
16058.51689868701
 10
24346.29458360716
 20
13935.51688915023
 10
24876.29458360717
 20
13935.51688915023
  0
LWPOLYLINE
  5
373
330
59CC
100
AcDbEntity
  8
0
100
AcDbPolyline
 90
        4
 70
     1
 43
0.0
 10
24876.29458360717
 20
12325.38140867354
 10
24346.29458360716
 20
12325.38140867354
 10
24346.29458360716
 20
10202.38139913677
 10
24876.29458360717
 20
10202.38139913677
  0
LWPOLYLINE
  5
374
330
59CC
100
AcDbEntity
  8
0
100
AcDbPolyline
 90
        2
 70
     0
 43
0.0
 10
25109.50129716488
 20
13918.51688915027
 10
24113.08787004944
 20
13918.51688915027
  0
LWPOLYLINE
  5
375
330
59CC
100
AcDbEntity
  8
0
100
AcDbPolyline
 90
        4
 70
     1
 43
0.0
 10
24911.29458360715
 20
13935.51688915023
 10
24311.29458360716
 20
13935.51688915023
 10
24311.29458360716
 20
16058.51689868701
 10
24911.29458360715
 20
16058.51689868701
  0
LWPOLYLINE
  5
376
330
59CC
100
AcDbEntity
  8
0
100
AcDbPolyline
 90
        4
 70
     1
 43
0.0
 10
24911.29458360715
 20
10202.38139913677
 10
24311.29458360716
 20
10202.38139913677
 10
24311.29458360716
 20
12325.38140867354
 10
24911.29458360715
 20
12325.38140867354
  0
LWPOLYLINE
  5
377
330
59CC
100
AcDbEntity
  8
0
100
AcDbPolyline
 90
        4
 70
     1
 43
0.0
 10
13550.0
 20
17042.34759251489
 10
26550.0
 20
17042.34759251489
 10
26550.0
 20
9565.002619770918
 10
13550.0
 20
9565.002619770918
  0
LWPOLYLINE
  5
378
330
59CC
100
AcDbEntity
  8
0
100
AcDbPolyline
 90
        4
 70
     1
 43
0.0
 10
17501.12986539051
 20
13940.51688915023
 10
17501.12986539051
 20
16458.51688915028
 10
17466.1298653905
 20
16458.51688915028
 10
17466.1298653905
 20
13940.51688915023
  0
LWPOLYLINE
  5
379
330
59CC
100
AcDbEntity
  8
0
100
AcDbPolyline
 90
        6
 70
     1
 43
0.0
 10
16530.1298653905
 20
13935.51688915023
 10
16493.52986539045
 20
13935.51688915023
 10
16493.52986539045
 20
16458.51688915028
 10
16529.1298653905
 20
16458.51688915028
 10
16529.1298653905
 20
16418.51687961348
 10
16530.1298653905
 20
16418.51687961348
  0
LWPOLYLINE
  5
37A
330
59CC
100
AcDbEntity
  8
0
100
AcDbPolyline
 90
        4
 70
     1
 43
0.0
 10
17466.1298653905
 20
13959.01688915023
 10
17466.1298653905
 20
14018.51688915023
 10
16530.1298653905
 20
14018.51688915023
 10
16530.1298653905
 20
13959.01688915023
  0
LWPOLYLINE
  5
37B
330
59CC
100
AcDbEntity
  8
0
100
AcDbPolyline
 90
        4
 70
     1
 43
0.0
 10
16530.1298653905
 20
14018.51688915023
 10
16530.1298653905
 20
14048.51688915023
 10
17466.1298653905
 20
14048.51688915023
 10
17466.1298653905
 20
14018.51688915023
  0
LWPOLYLINE
  5
37C
330
59CC
100
AcDbEntity
  8
0
100
AcDbPolyline
 90
        4
 70
     1
 43
0.0
 10
16529.1298653905
 20
16418.51687961348
 10
16529.1298653905
 20
16458.51688915028
 10
17466.1298653905
 20
16458.51688915028
 10
17466.1298653905
 20
16418.51687961348
  0
LWPOLYLINE
  5
37D
330
59CC
100
AcDbEntity
  8
0
100
AcDbPolyline
 90
        9
 70
     1
 43
0.0
 10
17412.1298653905
 20
13959.01688915023
 10
17412.1298653905
 20
13932.11688915042
 10
17411.1298653905
 20
13931.11688915031
 10
17407.1298653905
 20
13931.11688915031
 10
17406.1298653905
 20
13932.11688915042
 10
17406.1298653905
 20
13938.61688915031
 10
17379.14763054741
 20
13939.08786581144
 10
17378.1298653905
 20
13940.10563096838
 10
17378.1298653905
 20
13959.01688915023
  0
LWPOLYLINE
  5
37E
330
59CC
100
AcDbEntity
  8
0
100
AcDbPolyline
 90
        9
 70
     1
 43
0.0
 10
16584.12986539058
 20
13959.01688915023
 10
16584.12986539058
 20
13932.11688915042
 10
16585.1298653905
 20
13931.11688915031
 10
16589.12986539061
 20
13931.11688915031
 10
16590.1298653905
 20
13932.11688915042
 10
16590.1298653905
 20
13938.61688915031
 10
16617.11210023374
 20
13939.08786581144
 10
16618.1298653905
 20
13940.10563096838
 10
16618.1298653905
 20
13959.01688915023
  0
LWPOLYLINE
  5
37F
330
59CC
100
AcDbEntity
  8
0
100
AcDbPolyline
 90
        4
 70
     1
 43
0.0
 10
17405.6298653905
 20
13938.51688915027
 10
17405.6298653905
 20
13918.51688915027
 10
16590.6298653905
 20
13918.51688915027
 10
16590.6298653905
 20
13938.51688915027
  0
LWPOLYLINE
  5
380
330
59CC
100
AcDbEntity
  8
0
100
AcDbPolyline
 90
        4
 70
     1
 43
0.0
 10
16610.6298653905
 20
13918.51688915027
 10
16610.6298653905
 20
13938.51688915027
 10
16590.6298653905
 20
13938.51688915027
 10
16590.6298653905
 20
13918.51688915027
  0
LWPOLYLINE
  5
381
330
59CC
100
AcDbEntity
  8
0
100
AcDbPolyline
 90
        4
 70
     1
 43
0.0
 10
17385.6298653905
 20
13918.51688915027
 10
17385.6298653905
 20
13938.51688915027
 10
17405.6298653905
 20
13938.51688915027
 10
17405.6298653905
 20
13918.51688915027
  0
LWPOLYLINE
  5
382
330
59CC
100
AcDbEntity
  8
0
100
AcDbPolyline
 90
        4
 70
     1
 43
0.0
 10
16530.1298653905
 20
14818.51688915023
 10
16530.1298653905
 20
14848.51688915023
 10
17466.1298653905
 20
14848.51688915023
 10
17466.1298653905
 20
14818.51688915023
  0
LWPOLYLINE
  5
383
330
59CC
100
AcDbEntity
  8
0
100
AcDbPolyline
 90
        4
 70
     1
 43
0.0
 10
17466.1298653905
 20
15218.51688915022
 10
17466.1298653905
 20
15248.51688915022
 10
16530.1298653905
 20
15248.51688915022
 10
16530.1298653905
 20
15218.51688915022
  0
LWPOLYLINE
  5
384
330
59CC
100
AcDbEntity
  8
0
100
AcDbPolyline
 90
        4
 70
     1
 43
0.0
 10
17466.1298653905
 20
14418.51688915023
 10
17466.1298653905
 20
14448.51688915023
 10
16530.1298653905
 20
14448.51688915023
 10
16530.1298653905
 20
14418.51688915023
  0
LWPOLYLINE
  5
385
330
59CC
100
AcDbEntity
  8
0
100
AcDbPolyline
 90
        4
 70
     1
 43
0.0
 10
16530.1298653905
 20
15618.51688915022
 10
16530.1298653905
 20
15648.51688915022
 10
17466.1298653905
 20
15648.51688915022
 10
17466.1298653905
 20
15618.51688915022
  0
LWPOLYLINE
  5
386
330
59CC
100
AcDbEntity
  8
CLOTHES_RAIL
100
AcDbPolyline
 90
        4
 70
     1
 43
0.0
 10
17466.12986539054
 20
11237.88139913677
 10
17466.12986539054
 20
11212.88139913676
 10
16530.12986539054
 20
11212.88139913676
 10
16530.12986539054
 20
11237.88139913677
  0
LWPOLYLINE
  5
387
330
59CC
100
AcDbEntity
  8
0
100
AcDbPolyline
 90
        4
 70
     1
 43
0.0
 10
17466.12986539054
 20
11315.38139913676
 10
17466.12986539054
 20
11285.38139913676
 10
16530.12986539054
 20
11285.38139913676
 10
16530.12986539054
 20
11315.38139913676
  0
LWPOLYLINE
  5
388
330
59CC
100
AcDbEntity
  8
0
100
AcDbPolyline
 90
        4
 70
     1
 43
0.0
 10
17385.62986539054
 20
10185.38139913682
 10
17385.62986539054
 20
10205.38139913682
 10
17405.62986539054
 20
10205.38139913682
 10
17405.62986539054
 20
10185.38139913682
  0
LWPOLYLINE
  5
389
330
59CC
100
AcDbEntity
  8
0
100
AcDbPolyline
 90
        4
 70
     1
 43
0.0
 10
16610.62986539054
 20
10185.38139913682
 10
16610.62986539054
 20
10205.38139913682
 10
16590.62986539054
 20
10205.38139913682
 10
16590.62986539054
 20
10185.38139913682
  0
LWPOLYLINE
  5
38A
330
59CC
100
AcDbEntity
  8
0
100
AcDbPolyline
 90
        4
 70
     1
 43
0.0
 10
17405.62986539054
 20
10205.38139913682
 10
17405.62986539054
 20
10185.38139913682
 10
16590.62986539054
 20
10185.38139913682
 10
16590.62986539054
 20
10205.38139913682
  0
LWPOLYLINE
  5
38B
330
59CC
100
AcDbEntity
  8
0
100
AcDbPolyline
 90
        9
 70
     1
 43
0.0
 10
16584.1298653906
 20
10225.88139913677
 10
16584.1298653906
 20
10198.98139913698
 10
16585.12986539054
 20
10197.98139913685
 10
16589.12986539059
 20
10197.98139913685
 10
16590.12986539054
 20
10198.98139913698
 10
16590.12986539054
 20
10205.48139913685
 10
16617.11210023366
 20
10205.95237579798
 10
16618.12986539054
 20
10206.97014095492
 10
16618.12986539054
 20
10225.88139913677
  0
LWPOLYLINE
  5
38C
330
59CC
100
AcDbEntity
  8
0
100
AcDbPolyline
 90
        9
 70
     1
 43
0.0
 10
17412.12986539054
 20
10225.88139913677
 10
17412.12986539054
 20
10198.98139913698
 10
17411.12986539054
 20
10197.98139913685
 10
17407.12986539054
 20
10197.98139913685
 10
17406.12986539054
 20
10198.98139913698
 10
17406.12986539054
 20
10205.48139913685
 10
17379.1476305474
 20
10205.95237579798
 10
17378.12986539054
 20
10206.97014095492
 10
17378.12986539054
 20
10225.88139913677
  0
LWPOLYLINE
  5
38D
330
59CC
100
AcDbEntity
  8
0
100
AcDbPolyline
 90
        4
 70
     1
 43
0.0
 10
16529.12986539054
 20
12685.38138960001
 10
16529.12986539054
 20
12725.38139913681
 10
17466.12986539054
 20
12725.38139913681
 10
17466.12986539054
 20
12685.38138960001
  0
LWPOLYLINE
  5
38E
330
59CC
100
AcDbEntity
  8
CLOTHES_RAIL
100
AcDbPolyline
 90
        4
 70
     1
 43
0.0
 10
17466.12986539054
 20
12212.88139913674
 10
17466.12986539054
 20
12237.88139913674
 10
16530.12986539054
 20
12237.88139913674
 10
16530.12986539054
 20
12212.88139913674
  0
LWPOLYLINE
  5
38F
330
59CC
100
AcDbEntity
  8
0
100
AcDbPolyline
 90
        4
 70
     1
 43
0.0
 10
16530.12986539054
 20
10285.38139913677
 10
16530.12986539054
 20
10315.38139913677
 10
17466.12986539054
 20
10315.38139913677
 10
17466.12986539054
 20
10285.38139913677
  0
LWPOLYLINE
  5
390
330
59CC
100
AcDbEntity
  8
0
100
AcDbPolyline
 90
        4
 70
     1
 43
0.0
 10
17466.12986539054
 20
10225.88139913677
 10
17466.12986539054
 20
10285.38139913677
 10
16530.12986539054
 20
10285.38139913677
 10
16530.12986539054
 20
10225.88139913677
  0
LWPOLYLINE
  5
391
330
59CC
100
AcDbEntity
  8
0
100
AcDbPolyline
 90
        6
 70
     1
 43
0.0
 10
16530.12986539054
 20
10202.38139913677
 10
16493.52986539044
 20
10202.38139913677
 10
16493.52986539044
 20
12725.38139913681
 10
16529.12986539054
 20
12725.38139913681
 10
16529.12986539054
 20
12685.38138960001
 10
16530.12986539054
 20
12685.38138960001
  0
LWPOLYLINE
  5
392
330
59CC
100
AcDbEntity
  8
0
100
AcDbPolyline
 90
        4
 70
     1
 43
0.0
 10
17501.12986539054
 20
10207.38139913677
 10
17501.12986539054
 20
12725.38139913681
 10
17466.12986539054
 20
12725.38139913681
 10
17466.12986539054
 20
10207.38139913677
  0
LWPOLYLINE
  5
393
330
59CC
100
AcDbEntity
  8
0
100
AcDbPolyline
 90
        4
 70
     1
 43
0.0
 10
16493.52986539045
 20
16458.51688915028
 10
16493.52986539045
 20
13935.51688915023
 10
16463.52986539044
 20
13935.51688915023
 10
16463.52986539044
 20
16458.51688915028
  0
LWPOLYLINE
  5
394
330
59CC
100
AcDbEntity
  8
0
100
AcDbPolyline
 90
        4
 70
     1
 43
0.0
 10
16493.52986539044
 20
12725.38139913681
 10
16493.52986539044
 20
10202.38139913677
 10
16463.52986539044
 20
10202.38139913677
 10
16463.52986539044
 20
12725.38139913681
  0
LWPOLYLINE
  5
395
330
59CC
100
AcDbEntity
  8
0
100
AcDbPolyline
 90
        4
 70
     1
 43
0.0
 10
22102.1863909405
 20
10225.88139913677
 10
22102.1863909405
 20
10285.38139913677
 10
21166.1863909405
 20
10285.38139913677
 10
21166.1863909405
 20
10225.88139913677
  0
LWPOLYLINE
  5
396
330
59CC
100
AcDbEntity
  8
0
100
AcDbPolyline
 90
        4
 70
     1
 43
0.0
 10
22021.68639094054
 20
10185.38139913681
 10
22021.68639094054
 20
10205.38139913681
 10
22041.68639094055
 20
10205.38139913681
 10
22041.68639094055
 20
10185.38139913681
  0
LWPOLYLINE
  5
397
330
59CC
100
AcDbEntity
  8
0
100
AcDbPolyline
 90
        4
 70
     1
 43
0.0
 10
21246.68639094054
 20
10185.38139913681
 10
21246.68639094054
 20
10205.38139913681
 10
21226.68639094054
 20
10205.38139913681
 10
21226.68639094054
 20
10185.38139913681
  0
LWPOLYLINE
  5
398
330
59CC
100
AcDbEntity
  8
0
100
AcDbPolyline
 90
        4
 70
     1
 43
0.0
 10
22041.68639094055
 20
10205.38139913681
 10
22041.68639094055
 20
10185.38139913681
 10
21226.68639094054
 20
10185.38139913681
 10
21226.68639094054
 20
10205.38139913681
  0
LWPOLYLINE
  5
399
330
59CC
100
AcDbEntity
  8
0
100
AcDbPolyline
 90
        9
 70
     1
 43
0.0
 10
21220.18639094054
 20
10225.88139913677
 10
21220.18639094054
 20
10198.98139913697
 10
21221.18639094054
 20
10197.98139913685
 10
21225.18639094054
 20
10197.98139913685
 10
21226.18639094054
 20
10198.98139913697
 10
21226.18639094054
 20
10205.48139913685
 10
21253.16862578368
 20
10205.95237579798
 10
21254.18639094054
 20
10206.97014095492
 10
21254.18639094054
 20
10225.88139913677
  0
LWPOLYLINE
  5
39A
330
59CC
100
AcDbEntity
  8
0
100
AcDbPolyline
 90
        9
 70
     1
 43
0.0
 10
22048.1863909405
 20
10225.88139913677
 10
22048.1863909405
 20
10198.98139913697
 10
22047.18639094054
 20
10197.98139913685
 10
22043.1863909405
 20
10197.98139913685
 10
22042.18639094055
 20
10198.98139913697
 10
22042.18639094055
 20
10205.48139913685
 10
22015.2041560974
 20
10205.95237579798
 10
22014.18639094053
 20
10206.97014095492
 10
22014.18639094053
 20
10225.88139913677
  0
LWPOLYLINE
  5
39B
330
59CC
100
AcDbEntity
  8
0
100
AcDbPolyline
 90
        4
 70
     1
 43
0.0
 10
21165.18639094054
 20
12685.38138960001
 10
21165.18639094054
 20
12725.38139913681
 10
22102.18639094054
 20
12725.38139913681
 10
22102.18639094054
 20
12685.38138960001
  0
LWPOLYLINE
  5
39C
330
59CC
100
AcDbEntity
  8
0
100
AcDbPolyline
 90
        6
 70
     1
 43
0.0
 10
21166.18639094054
 20
10202.38139913677
 10
21129.58639094035
 20
10202.38139913677
 10
21129.58639094035
 20
12725.38139913681
 10
21165.18639094054
 20
12725.38139913681
 10
21165.18639094054
 20
12685.38138960001
 10
21166.18639094054
 20
12685.38138960001
  0
LWPOLYLINE
  5
39D
330
59CC
100
AcDbEntity
  8
0
100
AcDbPolyline
 90
        4
 70
     1
 43
0.0
 10
22137.18639094055
 20
10207.38139913677
 10
22137.18639094055
 20
12725.38139913681
 10
22102.18639094054
 20
12725.38139913681
 10
22102.18639094054
 20
10207.38139913677
  0
LWPOLYLINE
  5
39E
330
59CC
100
AcDbEntity
  8
0
100
AcDbPolyline
 90
        4
 70
     1
 43
0.0
 10
22137.1863909406
 20
13940.51688915023
 10
22137.1863909406
 20
16458.51688915028
 10
22102.1863909406
 20
16458.51688915028
 10
22102.1863909406
 20
13940.51688915023
  0
LWPOLYLINE
  5
39F
330
59CC
100
AcDbEntity
  8
0
100
AcDbPolyline
 90
        6
 70
     1
 43
0.0
 10
21166.1863909406
 20
13935.51688915023
 10
21129.58639094039
 20
13935.51688915023
 10
21129.58639094039
 20
16458.51688915028
 10
21165.1863909406
 20
16458.51688915028
 10
21165.1863909406
 20
16418.51687961348
 10
21166.1863909406
 20
16418.51687961348
  0
LWPOLYLINE
  5
3A0
330
59CC
100
AcDbEntity
  8
0
100
AcDbPolyline
 90
        4
 70
     1
 43
0.0
 10
22102.1863909406
 20
13959.01688915023
 10
22102.1863909406
 20
14018.51688915023
 10
21166.1863909406
 20
14018.51688915023
 10
21166.1863909406
 20
13959.01688915023
  0
LWPOLYLINE
  5
3A1
330
59CC
100
AcDbEntity
  8
0
100
AcDbPolyline
 90
        4
 70
     1
 43
0.0
 10
21166.1863909406
 20
14018.51688915023
 10
21166.1863909406
 20
14048.51688915023
 10
22102.1863909406
 20
14048.51688915023
 10
22102.1863909406
 20
14018.51688915023
  0
LWPOLYLINE
  5
3A2
330
59CC
100
AcDbEntity
  8
0
100
AcDbPolyline
 90
        4
 70
     1
 43
0.0
 10
21165.1863909406
 20
16418.51687961348
 10
21165.1863909406
 20
16458.51688915028
 10
22102.1863909406
 20
16458.51688915028
 10
22102.1863909406
 20
16418.51687961348
  0
LWPOLYLINE
  5
3A3
330
59CC
100
AcDbEntity
  8
0
100
AcDbPolyline
 90
        9
 70
     1
 43
0.0
 10
22048.18639094054
 20
13959.01688915023
 10
22048.18639094054
 20
13932.11688915042
 10
22047.1863909406
 20
13931.11688915031
 10
22043.18639094054
 20
13931.11688915031
 10
22042.1863909406
 20
13932.11688915042
 10
22042.1863909406
 20
13938.61688915031
 10
22015.20415609748
 20
13939.08786581144
 10
22014.1863909406
 20
13940.10563096838
 10
22014.1863909406
 20
13959.01688915023
  0
LWPOLYLINE
  5
3A4
330
59CC
100
AcDbEntity
  8
0
100
AcDbPolyline
 90
        9
 70
     1
 43
0.0
 10
21220.1863909406
 20
13959.01688915023
 10
21220.1863909406
 20
13932.11688915042
 10
21221.1863909406
 20
13931.11688915031
 10
21225.1863909406
 20
13931.11688915031
 10
21226.1863909406
 20
13932.11688915042
 10
21226.1863909406
 20
13938.61688915031
 10
21253.16862578373
 20
13939.08786581144
 10
21254.1863909406
 20
13940.10563096838
 10
21254.1863909406
 20
13959.01688915023
  0
LWPOLYLINE
  5
3A5
330
59CC
100
AcDbEntity
  8
0
100
AcDbPolyline
 90
        4
 70
     1
 43
0.0
 10
22041.6863909406
 20
13938.51688915027
 10
22041.6863909406
 20
13918.51688915027
 10
21226.6863909406
 20
13918.51688915027
 10
21226.6863909406
 20
13938.51688915027
  0
LWPOLYLINE
  5
3A6
330
59CC
100
AcDbEntity
  8
0
100
AcDbPolyline
 90
        4
 70
     1
 43
0.0
 10
21246.6863909406
 20
13918.51688915027
 10
21246.6863909406
 20
13938.51688915027
 10
21226.6863909406
 20
13938.51688915027
 10
21226.6863909406
 20
13918.51688915027
  0
LWPOLYLINE
  5
3A7
330
59CC
100
AcDbEntity
  8
0
100
AcDbPolyline
 90
        4
 70
     1
 43
0.0
 10
22021.6863909406
 20
13918.51688915027
 10
22021.6863909406
 20
13938.51688915027
 10
22041.6863909406
 20
13938.51688915027
 10
22041.6863909406
 20
13918.51688915027
  0
LWPOLYLINE
  5
3A8
330
59CC
100
AcDbEntity
  8
0
100
AcDbPolyline
 90
        4
 70
     1
 43
0.0
 10
22101.6863909406
 20
14418.5168796135
 10
22101.6863909406
 20
14448.5168796135
 10
21165.6863909406
 20
14448.5168796135
 10
21165.6863909406
 20
14418.5168796135
  0
LWPOLYLINE
  5
3A9
330
59CC
100
AcDbEntity
  8
0
100
AcDbPolyline
 90
        4
 70
     1
 43
0.0
 10
22101.6863909406
 20
14668.5168796135
 10
22101.6863909406
 20
14698.5168796135
 10
21165.6863909406
 20
14698.5168796135
 10
21165.6863909406
 20
14668.5168796135
  0
LWPOLYLINE
  5
3AA
330
59CC
100
AcDbEntity
  8
0
100
AcDbPolyline
 90
        4
 70
     1
 43
0.0
 10
22101.6863909406
 20
14918.5168796135
 10
22101.6863909406
 20
14948.5168796135
 10
21165.6863909406
 20
14948.5168796135
 10
21165.6863909406
 20
14918.5168796135
  0
LWPOLYLINE
  5
3AB
330
59CC
100
AcDbEntity
  8
0
100
AcDbPolyline
 90
        4
 70
     1
 43
0.0
 10
22101.6863909406
 20
15168.5168796135
 10
22101.6863909406
 20
15198.51687961349
 10
21165.6863909406
 20
15198.51687961349
 10
21165.6863909406
 20
15168.5168796135
  0
LWPOLYLINE
  5
3AC
330
59CC
100
AcDbEntity
  8
0
100
AcDbPolyline
 90
        4
 70
     1
 43
0.0
 10
22101.6863909406
 20
15418.5168796135
 10
22101.6863909406
 20
15448.51687961349
 10
21165.6863909406
 20
15448.51687961349
 10
21165.6863909406
 20
15418.5168796135
  0
LWPOLYLINE
  5
3AD
330
59CC
100
AcDbEntity
  8
0
100
AcDbPolyline
 90
        4
 70
     1
 43
0.0
 10
22101.6863909406
 20
15668.5168796135
 10
22101.6863909406
 20
15698.51687961349
 10
21165.6863909406
 20
15698.51687961349
 10
21165.6863909406
 20
15668.5168796135
  0
LWPOLYLINE
  5
3AE
330
59CC
100
AcDbEntity
  8
0
100
AcDbPolyline
 90
        4
 70
     1
 43
0.0
 10
22101.6863909406
 20
15918.5168796135
 10
22101.6863909406
 20
15948.51687961349
 10
21165.6863909406
 20
15948.51687961349
 10
21165.6863909406
 20
15918.5168796135
  0
LWPOLYLINE
  5
3AF
330
59CC
100
AcDbEntity
  8
0
100
AcDbPolyline
 90
        4
 70
     1
 43
0.0
 10
21129.58639094058
 20
16458.51688915028
 10
21129.58639094058
 20
13935.51688915023
 10
21099.58639094059
 20
13935.51688915023
 10
21099.58639094059
 20
16458.51688915028
  0
LWPOLYLINE
  5
3B0
330
59CC
100
AcDbEntity
  8
0
100
AcDbPolyline
 90
        4
 70
     1
 43
0.0
 10
21129.58639094052
 20
12725.38139913681
 10
21129.58639094052
 20
10202.38139913677
 10
21099.58639094052
 20
10202.38139913677
 10
21099.58639094052
 20
12725.38139913681
  0
LWPOLYLINE
  5
3B1
330
59CC
100
AcDbEntity
  8
0
100
AcDbPolyline
 90
        4
 70
     1
 43
0.0
 10
25307.7080107226
 20
10202.38139913677
 10
25907.70801072259
 20
10202.38139913677
 10
25907.70801072259
 20
12725.38139913681
 10
25307.7080107226
 20
12725.38139913681
  0
LWPOLYLINE
  5
3B2
330
59CC
100
AcDbEntity
  8
0
100
AcDbPolyline
 90
        4
 70
     1
 43
0.0
 10
25307.7080107226
 20
13935.51688915023
 10
25907.70801072259
 20
13935.51688915023
 10
25907.70801072259
 20
16458.51688915028
 10
25307.7080107226
 20
16458.51688915028
  0
LWPOLYLINE
  5
3B3
330
59CC
100
AcDbEntity
  8
0
100
AcDbPolyline
 90
        2
 70
     0
 43
0.0
 10
25109.50129716488
 20
13918.51688915027
 10
26105.91472428031
 20
13918.51688915027
  0
LWPOLYLINE
  5
3B4
330
59CC
100
AcDbEntity
  8
0
100
AcDbPolyline
 90
        4
 70
     1
 43
0.0
 10
25342.70801072259
 20
12725.38139913681
 10
25872.70801072259
 20
12725.38139913681
 10
25872.70801072259
 20
10202.38139913677
 10
25342.70801072259
 20
10202.38139913677
  0
LWPOLYLINE
  5
3B5
330
59CC
100
AcDbEntity
  8
0
100
AcDbPolyline
 90
        4
 70
     1
 43
0.0
 10
25342.70801072259
 20
16458.51688915028
 10
25872.70801072259
 20
16458.51688915028
 10
25872.70801072259
 20
13935.51688915023
 10
25342.70801072259
 20
13935.51688915023
  0
LWPOLYLINE
  5
3B6
330
59CC
100
AcDbEntity
  8
0
100
AcDbPolyline
 90
        2
 70
     0
 43
0.0
 10
25109.50129716488
 20
10185.38139913681
 10
26105.91472428031
 20
10185.38139913681
  0
LWPOLYLINE
  5
3B7
330
59CC
100
AcDbEntity
  8
0
100
AcDbPolyline
 90
        4
 70
     1
 43
0.0
 10
22101.6863909406
 20
16168.5168796135
 10
22101.6863909406
 20
16198.51687961349
 10
21165.6863909406
 20
16198.51687961349
 10
21165.6863909406
 20
16168.5168796135
  0
LWPOLYLINE
  5
3B8
330
59CC
100
AcDbEntity
  8
0
100
AcDbPolyline
 90
        4
 70
     1
 43
0.0
 10
17466.1298653905
 20
16018.51688915022
 10
17466.1298653905
 20
16048.51688915022
 10
16530.1298653905
 20
16048.51688915022
 10
16530.1298653905
 20
16018.51688915022
  0
LWPOLYLINE
  5
3B9
330
59CC
100
AcDbEntity
  8
0
100
AcDbPolyline
 90
        4
 70
     1
 43
0.0
 10
17466.12986539054
 20
12315.38139913674
 10
17466.12986539054
 20
12285.38139913674
 10
16530.12986539054
 20
12285.38139913674
 10
16530.12986539054
 20
12315.38139913674
  0
LWPOLYLINE
  5
3BA
330
59CC
100
AcDbEntity
  8
0
100
AcDbPolyline
 90
        4
 70
     1
 43
0.0
 10
17266.12986539054
 20
4288.036426392761
 10
17266.12986539054
 20
4258.036426392761
 10
16530.12986539054
 20
4258.036426392761
 10
16530.12986539054
 20
4288.036426392761
  0
LWPOLYLINE
  5
3BB
330
59CC
100
AcDbEntity
  8
0
100
AcDbPolyline
 90
        4
 70
     1
 43
0.0
 10
17266.1298653905
 20
7991.171916406237
 10
17266.1298653905
 20
8021.171916406238
 10
16530.1298653905
 20
8021.171916406238
 10
16530.1298653905
 20
7991.171916406237
  0
LWPOLYLINE
  5
3BC
330
59CC
100
AcDbEntity
  8
0
100
AcDbPolyline
 90
        4
 70
     1
 43
0.0
 10
21901.6863909406
 20
8141.171906869521
 10
21901.6863909406
 20
8171.171906869515
 10
21165.6863909406
 20
8171.171906869515
 10
21165.6863909406
 20
8141.171906869521
  0
LWPOLYLINE
  5
3BD
330
59CC
100
AcDbEntity
  8
0
100
AcDbPolyline
 90
        2
 70
     0
 43
0.0
 10
25109.50129716488
 20
2158.036426392835
 10
26105.91472428031
 20
2158.036426392835
  0
LWPOLYLINE
  5
3BE
330
59CC
100
AcDbEntity
  8
0
100
AcDbPolyline
 90
        4
 70
     1
 43
0.0
 10
25342.70801072259
 20
8431.171916406303
 10
25872.70801072259
 20
8431.171916406303
 10
25872.70801072259
 20
5908.171916406253
 10
25342.70801072259
 20
5908.171916406253
  0
LWPOLYLINE
  5
3BF
330
59CC
100
AcDbEntity
  8
0
100
AcDbPolyline
 90
        4
 70
     1
 43
0.0
 10
25342.70801072259
 20
4698.036426392834
 10
25872.70801072259
 20
4698.036426392834
 10
25872.70801072259
 20
2175.036426392791
 10
25342.70801072259
 20
2175.036426392791
  0
LWPOLYLINE
  5
3C0
330
59CC
100
AcDbEntity
  8
0
100
AcDbPolyline
 90
        2
 70
     0
 43
0.0
 10
25109.50129716488
 20
5891.171916406296
 10
26105.91472428031
 20
5891.171916406296
  0
LWPOLYLINE
  5
3C1
330
59CC
100
AcDbEntity
  8
0
100
AcDbPolyline
 90
        4
 70
     1
 43
0.0
 10
25307.7080107226
 20
5908.171916406253
 10
25907.70801072259
 20
5908.171916406253
 10
25907.70801072259
 20
8431.171916406303
 10
25307.7080107226
 20
8431.171916406303
  0
LWPOLYLINE
  5
3C2
330
59CC
100
AcDbEntity
  8
0
100
AcDbPolyline
 90
        4
 70
     1
 43
0.0
 10
25307.7080107226
 20
2175.036426392791
 10
25907.70801072259
 20
2175.036426392791
 10
25907.70801072259
 20
4698.036426392834
 10
25307.7080107226
 20
4698.036426392834
  0
LWPOLYLINE
  5
3C3
330
59CC
100
AcDbEntity
  8
0
100
AcDbPolyline
 90
        4
 70
     1
 43
0.0
 10
21129.58639094052
 20
4698.036426392834
 10
21129.58639094052
 20
2175.036426392791
 10
21099.58639094052
 20
2175.036426392791
 10
21099.58639094052
 20
4698.036426392834
  0
LWPOLYLINE
  5
3C4
330
59CC
100
AcDbEntity
  8
0
100
AcDbPolyline
 90
        4
 70
     1
 43
0.0
 10
21129.58639094058
 20
8431.171916406303
 10
21129.58639094058
 20
5908.171916406253
 10
21099.58639094059
 20
5908.171916406253
 10
21099.58639094059
 20
8431.171916406303
  0
LWPOLYLINE
  5
3C5
330
59CC
100
AcDbEntity
  8
0
100
AcDbPolyline
 90
        4
 70
     1
 43
0.0
 10
21901.6863909406
 20
7891.17190686952
 10
21901.6863909406
 20
7921.171906869514
 10
21165.6863909406
 20
7921.171906869514
 10
21165.6863909406
 20
7891.17190686952
  0
LWPOLYLINE
  5
3C6
330
59CC
100
AcDbEntity
  8
0
100
AcDbPolyline
 90
        4
 70
     1
 43
0.0
 10
21901.6863909406
 20
7641.17190686952
 10
21901.6863909406
 20
7671.171906869514
 10
21165.6863909406
 20
7671.171906869514
 10
21165.6863909406
 20
7641.17190686952
  0
LWPOLYLINE
  5
3C7
330
59CC
100
AcDbEntity
  8
0
100
AcDbPolyline
 90
        4
 70
     1
 43
0.0
 10
21901.6863909406
 20
7391.17190686952
 10
21901.6863909406
 20
7421.171906869514
 10
21165.6863909406
 20
7421.171906869514
 10
21165.6863909406
 20
7391.17190686952
  0
LWPOLYLINE
  5
3C8
330
59CC
100
AcDbEntity
  8
0
100
AcDbPolyline
 90
        4
 70
     1
 43
0.0
 10
21901.6863909406
 20
7141.17190686952
 10
21901.6863909406
 20
7171.171906869513
 10
21165.6863909406
 20
7171.171906869513
 10
21165.6863909406
 20
7141.17190686952
  0
LWPOLYLINE
  5
3C9
330
59CC
100
AcDbEntity
  8
0
100
AcDbPolyline
 90
        4
 70
     1
 43
0.0
 10
21901.6863909406
 20
6891.17190686952
 10
21901.6863909406
 20
6921.17190686952
 10
21165.6863909406
 20
6921.17190686952
 10
21165.6863909406
 20
6891.17190686952
  0
LWPOLYLINE
  5
3CA
330
59CC
100
AcDbEntity
  8
0
100
AcDbPolyline
 90
        4
 70
     1
 43
0.0
 10
21901.6863909406
 20
6641.17190686952
 10
21901.6863909406
 20
6671.17190686952
 10
21165.6863909406
 20
6671.17190686952
 10
21165.6863909406
 20
6641.17190686952
  0
LWPOLYLINE
  5
3CB
330
59CC
100
AcDbEntity
  8
0
100
AcDbPolyline
 90
        4
 70
     1
 43
0.0
 10
21901.6863909406
 20
6391.171906869518
 10
21901.6863909406
 20
6421.17190686952
 10
21165.6863909406
 20
6421.17190686952
 10
21165.6863909406
 20
6391.171906869518
  0
LWPOLYLINE
  5
3CC
330
59CC
100
AcDbEntity
  8
0
100
AcDbPolyline
 90
        4
 70
     1
 43
0.0
 10
21821.6863909406
 20
5891.171916406296
 10
21821.6863909406
 20
5911.171916406296
 10
21841.6863909406
 20
5911.171916406296
 10
21841.6863909406
 20
5891.171916406296
  0
LWPOLYLINE
  5
3CD
330
59CC
100
AcDbEntity
  8
0
100
AcDbPolyline
 90
        4
 70
     1
 43
0.0
 10
21246.6863909406
 20
5891.171916406296
 10
21246.6863909406
 20
5911.171916406296
 10
21226.6863909406
 20
5911.171916406296
 10
21226.6863909406
 20
5891.171916406296
  0
LWPOLYLINE
  5
3CE
330
59CC
100
AcDbEntity
  8
0
100
AcDbPolyline
 90
        4
 70
     1
 43
0.0
 10
21841.6863909406
 20
5911.171916406296
 10
21841.6863909406
 20
5891.171916406296
 10
21226.6863909406
 20
5891.171916406296
 10
21226.6863909406
 20
5911.171916406296
  0
LWPOLYLINE
  5
3CF
330
59CC
100
AcDbEntity
  8
0
100
AcDbPolyline
 90
        9
 70
     1
 43
0.0
 10
21220.1863909406
 20
5931.67191640625
 10
21220.1863909406
 20
5904.771916406456
 10
21221.1863909406
 20
5903.771916406328
 10
21225.1863909406
 20
5903.771916406328
 10
21226.1863909406
 20
5904.771916406456
 10
21226.1863909406
 20
5911.271916406331
 10
21253.16862578373
 20
5911.742893067463
 10
21254.1863909406
 20
5912.760658224396
 10
21254.1863909406
 20
5931.67191640625
  0
LWPOLYLINE
  5
3D0
330
59CC
100
AcDbEntity
  8
0
100
AcDbPolyline
 90
        9
 70
     1
 43
0.0
 10
21848.18639094054
 20
5931.67191640625
 10
21848.18639094054
 20
5904.771916406456
 10
21847.1863909406
 20
5903.771916406328
 10
21843.18639094054
 20
5903.771916406328
 10
21842.1863909406
 20
5904.771916406456
 10
21842.1863909406
 20
5911.271916406331
 10
21815.20415609748
 20
5911.742893067463
 10
21814.1863909406
 20
5912.760658224396
 10
21814.1863909406
 20
5931.67191640625
  0
LWPOLYLINE
  5
3D1
330
59CC
100
AcDbEntity
  8
0
100
AcDbPolyline
 90
        4
 70
     1
 43
0.0
 10
21165.1863909406
 20
8391.171906869498
 10
21165.1863909406
 20
8431.171916406303
 10
21902.1863909406
 20
8431.171916406303
 10
21902.1863909406
 20
8391.171906869498
  0
LWPOLYLINE
  5
3D2
330
59CC
100
AcDbEntity
  8
0
100
AcDbPolyline
 90
        4
 70
     1
 43
0.0
 10
21166.1863909406
 20
5991.17191640625
 10
21166.1863909406
 20
6021.171916406252
 10
21902.1863909406
 20
6021.171916406252
 10
21902.1863909406
 20
5991.17191640625
  0
LWPOLYLINE
  5
3D3
330
59CC
100
AcDbEntity
  8
0
100
AcDbPolyline
 90
        4
 70
     1
 43
0.0
 10
21902.1863909406
 20
5931.67191640625
 10
21902.1863909406
 20
5991.17191640625
 10
21166.1863909406
 20
5991.17191640625
 10
21166.1863909406
 20
5931.67191640625
  0
LWPOLYLINE
  5
3D4
330
59CC
100
AcDbEntity
  8
0
100
AcDbPolyline
 90
        6
 70
     1
 43
0.0
 10
21166.1863909406
 20
5908.171916406253
 10
21129.58639094039
 20
5908.171916406253
 10
21129.58639094039
 20
8431.171916406303
 10
21165.1863909406
 20
8431.171916406303
 10
21165.1863909406
 20
8391.171906869498
 10
21166.1863909406
 20
8391.171906869498
  0
LWPOLYLINE
  5
3D5
330
59CC
100
AcDbEntity
  8
0
100
AcDbPolyline
 90
        4
 70
     1
 43
0.0
 10
21937.1863909406
 20
5913.171916406252
 10
21937.1863909406
 20
8431.171916406303
 10
21902.1863909406
 20
8431.171916406303
 10
21902.1863909406
 20
5913.171916406252
  0
LWPOLYLINE
  5
3D6
330
59CC
100
AcDbEntity
  8
0
100
AcDbPolyline
 90
        4
 70
     1
 43
0.0
 10
21937.18639094054
 20
2180.036426392792
 10
21937.18639094054
 20
4698.036426392834
 10
21902.18639094054
 20
4698.036426392834
 10
21902.18639094054
 20
2180.036426392792
  0
LWPOLYLINE
  5
3D7
330
59CC
100
AcDbEntity
  8
0
100
AcDbPolyline
 90
        6
 70
     1
 43
0.0
 10
21166.18639094054
 20
2175.036426392791
 10
21129.58639094035
 20
2175.036426392791
 10
21129.58639094035
 20
4698.036426392834
 10
21165.18639094054
 20
4698.036426392834
 10
21165.18639094054
 20
4658.036416856034
 10
21166.18639094054
 20
4658.036416856034
  0
LWPOLYLINE
  5
3D8
330
59CC
100
AcDbEntity
  8
0
100
AcDbPolyline
 90
        4
 70
     1
 43
0.0
 10
21165.18639094054
 20
4658.036416856034
 10
21165.18639094054
 20
4698.036426392834
 10
21902.18639094054
 20
4698.036426392834
 10
21902.18639094054
 20
4658.036416856034
  0
LWPOLYLINE
  5
3D9
330
59CC
100
AcDbEntity
  8
0
100
AcDbPolyline
 90
        9
 70
     1
 43
0.0
 10
21848.1863909405
 20
2198.536426392791
 10
21848.1863909405
 20
2171.636426392994
 10
21847.18639094054
 20
2170.636426392871
 10
21843.1863909405
 20
2170.636426392871
 10
21842.18639094054
 20
2171.636426392994
 10
21842.18639094054
 20
2178.136426392871
 10
21815.2041560974
 20
2178.607403054005
 10
21814.18639094053
 20
2179.625168210938
 10
21814.18639094053
 20
2198.536426392791
  0
LWPOLYLINE
  5
3DA
330
59CC
100
AcDbEntity
  8
0
100
AcDbPolyline
 90
        9
 70
     1
 43
0.0
 10
21220.18639094054
 20
2198.536426392791
 10
21220.18639094054
 20
2171.636426392994
 10
21221.18639094054
 20
2170.636426392871
 10
21225.18639094054
 20
2170.636426392871
 10
21226.18639094054
 20
2171.636426392994
 10
21226.18639094054
 20
2178.136426392871
 10
21253.16862578368
 20
2178.607403054005
 10
21254.18639094054
 20
2179.625168210938
 10
21254.18639094054
 20
2198.536426392791
  0
LWPOLYLINE
  5
3DB
330
59CC
100
AcDbEntity
  8
0
100
AcDbPolyline
 90
        4
 70
     1
 43
0.0
 10
21841.68639094054
 20
2178.036426392835
 10
21841.68639094054
 20
2158.036426392835
 10
21226.68639094054
 20
2158.036426392835
 10
21226.68639094054
 20
2178.036426392835
  0
LWPOLYLINE
  5
3DC
330
59CC
100
AcDbEntity
  8
0
100
AcDbPolyline
 90
        4
 70
     1
 43
0.0
 10
21246.68639094054
 20
2158.036426392835
 10
21246.68639094054
 20
2178.036426392835
 10
21226.68639094054
 20
2178.036426392835
 10
21226.68639094054
 20
2158.036426392835
  0
LWPOLYLINE
  5
3DD
330
59CC
100
AcDbEntity
  8
0
100
AcDbPolyline
 90
        4
 70
     1
 43
0.0
 10
21821.68639094054
 20
2158.036426392835
 10
21821.68639094054
 20
2178.036426392835
 10
21841.68639094054
 20
2178.036426392835
 10
21841.68639094054
 20
2158.036426392835
  0
LWPOLYLINE
  5
3DE
330
59CC
100
AcDbEntity
  8
0
100
AcDbPolyline
 90
        4
 70
     1
 43
0.0
 10
21902.1863909405
 20
2198.536426392791
 10
21902.1863909405
 20
2258.036426392791
 10
21166.1863909405
 20
2258.036426392791
 10
21166.1863909405
 20
2198.536426392791
  0
LWPOLYLINE
  5
3DF
330
59CC
100
AcDbEntity
  8
0
100
AcDbPolyline
 90
        4
 70
     1
 43
0.0
 10
16493.52986539044
 20
4698.036426392826
 10
16493.52986539044
 20
2175.036426392791
 10
16463.52986539044
 20
2175.036426392791
 10
16463.52986539044
 20
4698.036426392826
  0
LWPOLYLINE
  5
3E0
330
59CC
100
AcDbEntity
  8
0
100
AcDbPolyline
 90
        4
 70
     1
 43
0.0
 10
16493.52986539045
 20
8431.171916406302
 10
16493.52986539045
 20
5908.171916406249
 10
16463.52986539044
 20
5908.171916406249
 10
16463.52986539044
 20
8431.171916406302
  0
LWPOLYLINE
  5
3E1
330
59CC
100
AcDbEntity
  8
0
100
AcDbPolyline
 90
        4
 70
     1
 43
0.0
 10
17301.12986539054
 20
2180.036426392792
 10
17301.12986539054
 20
4698.036426392834
 10
17266.12986539054
 20
4698.036426392834
 10
17266.12986539054
 20
2180.036426392792
  0
LWPOLYLINE
  5
3E2
330
59CC
100
AcDbEntity
  8
0
100
AcDbPolyline
 90
        6
 70
     1
 43
0.0
 10
16530.12986539054
 20
2175.036426392791
 10
16493.52986539044
 20
2175.036426392791
 10
16493.52986539044
 20
4698.036426392834
 10
16529.12986539054
 20
4698.036426392834
 10
16529.12986539054
 20
4658.036416856027
 10
16530.12986539054
 20
4658.036416856027
  0
LWPOLYLINE
  5
3E3
330
59CC
100
AcDbEntity
  8
0
100
AcDbPolyline
 90
        4
 70
     1
 43
0.0
 10
17266.12986539054
 20
2198.536426392791
 10
17266.12986539054
 20
2258.036426392791
 10
16530.12986539054
 20
2258.036426392791
 10
16530.12986539054
 20
2198.536426392791
  0
LWPOLYLINE
  5
3E4
330
59CC
100
AcDbEntity
  8
0
100
AcDbPolyline
 90
        4
 70
     1
 43
0.0
 10
16530.12986539054
 20
2258.036426392791
 10
16530.12986539054
 20
2288.036426392791
 10
17266.12986539054
 20
2288.036426392791
 10
17266.12986539054
 20
2258.036426392791
  0
LWPOLYLINE
  5
3E5
330
59CC
100
AcDbEntity
  8
CLOTHES_RAIL
100
AcDbPolyline
 90
        4
 70
     1
 43
0.0
 10
17266.12986539054
 20
4185.536426392761
 10
17266.12986539054
 20
4210.536426392763
 10
16530.12986539054
 20
4210.536426392763
 10
16530.12986539054
 20
4185.536426392761
  0
LWPOLYLINE
  5
3E6
330
59CC
100
AcDbEntity
  8
0
100
AcDbPolyline
 90
        4
 70
     1
 43
0.0
 10
16529.12986539054
 20
4658.036416856027
 10
16529.12986539054
 20
4698.036426392834
 10
17266.12986539054
 20
4698.036426392834
 10
17266.12986539054
 20
4658.036416856027
  0
LWPOLYLINE
  5
3E7
330
59CC
100
AcDbEntity
  8
0
100
AcDbPolyline
 90
        9
 70
     1
 43
0.0
 10
17212.12986539054
 20
2198.536426392791
 10
17212.12986539054
 20
2171.636426393001
 10
17211.12986539054
 20
2170.636426392871
 10
17207.12986539054
 20
2170.636426392871
 10
17206.12986539054
 20
2171.636426393001
 10
17206.12986539054
 20
2178.136426392871
 10
17179.1476305474
 20
2178.607403054005
 10
17178.12986539054
 20
2179.625168210944
 10
17178.12986539054
 20
2198.536426392791
  0
LWPOLYLINE
  5
3E8
330
59CC
100
AcDbEntity
  8
0
100
AcDbPolyline
 90
        9
 70
     1
 43
0.0
 10
16584.1298653906
 20
2198.536426392791
 10
16584.1298653906
 20
2171.636426393001
 10
16585.12986539054
 20
2170.636426392871
 10
16589.12986539059
 20
2170.636426392871
 10
16590.12986539054
 20
2171.636426393001
 10
16590.12986539054
 20
2178.136426392871
 10
16617.11210023366
 20
2178.607403054005
 10
16618.12986539054
 20
2179.625168210944
 10
16618.12986539054
 20
2198.536426392791
  0
LWPOLYLINE
  5
3E9
330
59CC
100
AcDbEntity
  8
0
100
AcDbPolyline
 90
        4
 70
     1
 43
0.0
 10
17205.62986539054
 20
2178.036426392842
 10
17205.62986539054
 20
2158.036426392841
 10
16590.62986539054
 20
2158.036426392841
 10
16590.62986539054
 20
2178.036426392842
  0
LWPOLYLINE
  5
3EA
330
59CC
100
AcDbEntity
  8
0
100
AcDbPolyline
 90
        4
 70
     1
 43
0.0
 10
16610.62986539054
 20
2158.036426392841
 10
16610.62986539054
 20
2178.036426392842
 10
16590.62986539054
 20
2178.036426392842
 10
16590.62986539054
 20
2158.036426392841
  0
LWPOLYLINE
  5
3EB
330
59CC
100
AcDbEntity
  8
0
100
AcDbPolyline
 90
        4
 70
     1
 43
0.0
 10
17185.62986539054
 20
2158.036426392841
 10
17185.62986539054
 20
2178.036426392842
 10
17205.62986539054
 20
2178.036426392842
 10
17205.62986539054
 20
2158.036426392841
  0
LWPOLYLINE
  5
3EC
330
59CC
100
AcDbEntity
  8
0
100
AcDbPolyline
 90
        4
 70
     1
 43
0.0
 10
17266.12986539054
 20
3288.036426392784
 10
17266.12986539054
 20
3258.036426392783
 10
16530.12986539054
 20
3258.036426392783
 10
16530.12986539054
 20
3288.036426392784
  0
LWPOLYLINE
  5
3ED
330
59CC
100
AcDbEntity
  8
CLOTHES_RAIL
100
AcDbPolyline
 90
        4
 70
     1
 43
0.0
 10
17266.12986539054
 20
3210.536426392791
 10
17266.12986539054
 20
3185.536426392785
 10
16530.12986539054
 20
3185.536426392785
 10
16530.12986539054
 20
3210.536426392791
  0
LWPOLYLINE
  5
3EE
330
59CC
100
AcDbEntity
  8
0
100
AcDbPolyline
 90
        4
 70
     1
 43
0.0
 10
16530.1298653905
 20
7591.171916406245
 10
16530.1298653905
 20
7621.171916406246
 10
17266.1298653905
 20
7621.171916406246
 10
17266.1298653905
 20
7591.171916406245
  0
LWPOLYLINE
  5
3EF
330
59CC
100
AcDbEntity
  8
0
100
AcDbPolyline
 90
        4
 70
     1
 43
0.0
 10
17266.1298653905
 20
6391.17191640625
 10
17266.1298653905
 20
6421.17191640625
 10
16530.1298653905
 20
6421.17191640625
 10
16530.1298653905
 20
6391.17191640625
  0
LWPOLYLINE
  5
3F0
330
59CC
100
AcDbEntity
  8
0
100
AcDbPolyline
 90
        4
 70
     1
 43
0.0
 10
17266.1298653905
 20
7191.171916406244
 10
17266.1298653905
 20
7221.171916406246
 10
16530.1298653905
 20
7221.171916406246
 10
16530.1298653905
 20
7191.171916406244
  0
LWPOLYLINE
  5
3F1
330
59CC
100
AcDbEntity
  8
0
100
AcDbPolyline
 90
        4
 70
     1
 43
0.0
 10
16530.1298653905
 20
6791.171916406253
 10
16530.1298653905
 20
6821.171916406253
 10
17266.1298653905
 20
6821.171916406253
 10
17266.1298653905
 20
6791.171916406253
  0
LWPOLYLINE
  5
3F2
330
59CC
100
AcDbEntity
  8
0
100
AcDbPolyline
 90
        4
 70
     1
 43
0.0
 10
17185.6298653905
 20
5891.171916406295
 10
17185.6298653905
 20
5911.171916406296
 10
17205.6298653905
 20
5911.171916406296
 10
17205.6298653905
 20
5891.171916406295
  0
LWPOLYLINE
  5
3F3
330
59CC
100
AcDbEntity
  8
0
100
AcDbPolyline
 90
        4
 70
     1
 43
0.0
 10
16610.6298653905
 20
5891.171916406295
 10
16610.6298653905
 20
5911.171916406296
 10
16590.6298653905
 20
5911.171916406296
 10
16590.6298653905
 20
5891.171916406295
  0
LWPOLYLINE
  5
3F4
330
59CC
100
AcDbEntity
  8
0
100
AcDbPolyline
 90
        4
 70
     1
 43
0.0
 10
17205.6298653905
 20
5911.171916406296
 10
17205.6298653905
 20
5891.171916406295
 10
16590.6298653905
 20
5891.171916406295
 10
16590.6298653905
 20
5911.171916406296
  0
LWPOLYLINE
  5
3F5
330
59CC
100
AcDbEntity
  8
0
100
AcDbPolyline
 90
        9
 70
     1
 43
0.0
 10
16584.12986539058
 20
5931.67191640625
 10
16584.12986539058
 20
5904.771916406454
 10
16585.1298653905
 20
5903.771916406328
 10
16589.12986539061
 20
5903.771916406328
 10
16590.1298653905
 20
5904.771916406454
 10
16590.1298653905
 20
5911.271916406331
 10
16617.11210023374
 20
5911.742893067462
 10
16618.1298653905
 20
5912.760658224396
 10
16618.1298653905
 20
5931.67191640625
  0
LWPOLYLINE
  5
3F6
330
59CC
100
AcDbEntity
  8
0
100
AcDbPolyline
 90
        9
 70
     1
 43
0.0
 10
17212.1298653905
 20
5931.67191640625
 10
17212.1298653905
 20
5904.771916406454
 10
17211.1298653905
 20
5903.771916406328
 10
17207.1298653905
 20
5903.771916406328
 10
17206.1298653905
 20
5904.771916406454
 10
17206.1298653905
 20
5911.271916406331
 10
17179.14763054741
 20
5911.742893067462
 10
17178.1298653905
 20
5912.760658224396
 10
17178.1298653905
 20
5931.67191640625
  0
LWPOLYLINE
  5
3F7
330
59CC
100
AcDbEntity
  8
0
100
AcDbPolyline
 90
        4
 70
     1
 43
0.0
 10
16529.1298653905
 20
8391.171906869497
 10
16529.1298653905
 20
8431.171916406302
 10
17266.1298653905
 20
8431.171916406302
 10
17266.1298653905
 20
8391.171906869497
  0
LWPOLYLINE
  5
3F8
330
59CC
100
AcDbEntity
  8
0
100
AcDbPolyline
 90
        4
 70
     1
 43
0.0
 10
16530.1298653905
 20
5991.17191640625
 10
16530.1298653905
 20
6021.17191640625
 10
17266.1298653905
 20
6021.17191640625
 10
17266.1298653905
 20
5991.17191640625
  0
LWPOLYLINE
  5
3F9
330
59CC
100
AcDbEntity
  8
0
100
AcDbPolyline
 90
        4
 70
     1
 43
0.0
 10
17266.1298653905
 20
5931.67191640625
 10
17266.1298653905
 20
5991.17191640625
 10
16530.1298653905
 20
5991.17191640625
 10
16530.1298653905
 20
5931.67191640625
  0
LWPOLYLINE
  5
3FA
330
59CC
100
AcDbEntity
  8
0
100
AcDbPolyline
 90
        6
 70
     1
 43
0.0
 10
16530.1298653905
 20
5908.171916406249
 10
16493.52986539045
 20
5908.171916406249
 10
16493.52986539045
 20
8431.171916406302
 10
16529.1298653905
 20
8431.171916406302
 10
16529.1298653905
 20
8391.171906869497
 10
16530.1298653905
 20
8391.171906869497
  0
LWPOLYLINE
  5
3FB
330
59CC
100
AcDbEntity
  8
0
100
AcDbPolyline
 90
        4
 70
     1
 43
0.0
 10
17301.1298653905
 20
5913.171916406248
 10
17301.1298653905
 20
8431.171916406302
 10
17266.1298653905
 20
8431.171916406302
 10
17266.1298653905
 20
5913.171916406248
  0
LWPOLYLINE
  5
3FC
330
59CC
100
AcDbEntity
  8
0
100
AcDbPolyline
 90
        4
 70
     1
 43
0.0
 10
13550.0
 20
9015.002619770916
 10
26550.0
 20
9015.002619770916
 10
26550.0
 20
1537.657647026935
 10
13550.0
 20
1537.657647026935
  0
LWPOLYLINE
  5
3FD
330
59CC
100
AcDbEntity
  8
0
100
AcDbPolyline
 90
        2
 70
     0
 43
0.0
 10
9450.01997202792
 20
4891.171916406282
 10
8453.606544912513
 20
4891.171916406282
  0
LWPOLYLINE
  5
3FE
330
59CC
100
AcDbEntity
  8
0
100
AcDbPolyline
 90
        2
 70
     0
 43
0.0
 10
3402.630686210061
 20
4891.171916406282
 10
2406.217259094658
 20
4891.171916406282
  0
LWPOLYLINE
  5
3FF
330
59CC
100
AcDbEntity
  8
0
100
AcDbPolyline
 90
        4
 70
     1
 43
0.0
 10
3054.423972652367
 20
4908.171916406238
 10
2754.423972652367
 20
4908.171916406238
 10
2754.423972652367
 20
7431.171925943011
 10
3054.423972652367
 20
7431.171925943011
  0
LWPOLYLINE
  5
400
330
59CC
100
AcDbEntity
  8
0
100
AcDbPolyline
 90
        4
 70
     1
 43
0.0
 10
3054.423972652367
 20
2175.036426392791
 10
2754.423972652367
 20
2175.036426392791
 10
2754.423972652367
 20
4298.036435929563
 10
3054.423972652367
 20
4298.036435929563
  0
LWPOLYLINE
  5
401
330
59CC
100
AcDbEntity
  8
0
100
AcDbPolyline
 90
        2
 70
     0
 43
0.0
 10
3402.630686210061
 20
2158.036426392835
 10
2406.217259094658
 20
2158.036426392835
  0
LWPOLYLINE
  5
402
330
59CC
100
AcDbEntity
  8
0
100
AcDbPolyline
 90
        2
 70
     0
 43
0.0
 10
9450.01997202792
 20
2158.036426392835
 10
8453.606544912513
 20
2158.036426392835
  0
LWPOLYLINE
  5
403
330
59CC
100
AcDbEntity
  8
0
100
AcDbPolyline
 90
        4
 70
     1
 43
0.0
 10
9251.81325847022
 20
2175.036426392791
 10
8651.813258470222
 20
2175.036426392791
 10
8651.813258470222
 20
4298.036435929563
 10
9251.81325847022
 20
4298.036435929563
  0
LWPOLYLINE
  5
404
330
59CC
100
AcDbEntity
  8
0
100
AcDbPolyline
 90
        4
 70
     1
 43
0.0
 10
9216.813258470222
 20
4298.036435929563
 10
8686.813258470222
 20
4298.036435929563
 10
8686.813258470222
 20
2175.036426392791
 10
9216.813258470222
 20
2175.036426392791
  0
LWPOLYLINE
  5
405
330
59CC
100
AcDbEntity
  8
0
100
AcDbPolyline
 90
        4
 70
     1
 43
0.0
 10
9216.813258470222
 20
7431.171925943011
 10
8686.813258470222
 20
7431.171925943011
 10
8686.813258470222
 20
4908.171916406238
 10
9216.813258470222
 20
4908.171916406238
  0
LWPOLYLINE
  5
406
330
59CC
100
AcDbEntity
  8
0
100
AcDbPolyline
 90
        4
 70
     1
 43
0.0
 10
9251.81325847022
 20
4908.171916406238
 10
8651.813258470222
 20
4908.171916406238
 10
8651.813258470222
 20
7431.171925943011
 10
9251.81325847022
 20
7431.171925943011
  0
LWPOLYLINE
  5
407
330
59CC
100
AcDbEntity
  8
0
100
AcDbPolyline
 90
        4
 70
     1
 43
0.0
 10
24911.29458360715
 20
2175.036426392791
 10
24311.29458360716
 20
2175.036426392791
 10
24311.29458360716
 20
4298.036435929563
 10
24911.29458360715
 20
4298.036435929563
  0
LWPOLYLINE
  5
408
330
59CC
100
AcDbEntity
  8
0
100
AcDbPolyline
 90
        4
 70
     1
 43
0.0
 10
24911.29458360715
 20
5908.171916406253
 10
24311.29458360716
 20
5908.171916406253
 10
24311.29458360716
 20
8031.171925943024
 10
24911.29458360715
 20
8031.171925943024
  0
LWPOLYLINE
  5
409
330
59CC
100
AcDbEntity
  8
0
100
AcDbPolyline
 90
        2
 70
     0
 43
0.0
 10
25109.50129716488
 20
5891.171916406296
 10
24113.08787004944
 20
5891.171916406296
  0
LWPOLYLINE
  5
40A
330
59CC
100
AcDbEntity
  8
0
100
AcDbPolyline
 90
        4
 70
     1
 43
0.0
 10
24876.29458360717
 20
4298.036435929563
 10
24346.29458360716
 20
4298.036435929563
 10
24346.29458360716
 20
2175.036426392791
 10
24876.29458360717
 20
2175.036426392791
  0
LWPOLYLINE
  5
40B
330
59CC
100
AcDbEntity
  8
0
100
AcDbPolyline
 90
        4
 70
     1
 43
0.0
 10
24876.29458360717
 20
8031.171925943024
 10
24346.29458360716
 20
8031.171925943024
 10
24346.29458360716
 20
5908.171916406253
 10
24876.29458360717
 20
5908.171916406253
  0
LWPOLYLINE
  5
40C
330
59CC
100
AcDbEntity
  8
0
100
AcDbPolyline
 90
        2
 70
     0
 43
0.0
 10
25109.50129716488
 20
2158.036426392835
 10
24113.08787004944
 20
2158.036426392835
  0
LWPOLYLINE
  5
40D
330
59CC
100
AcDbEntity
  8
0
100
AcDbPolyline
 90
        2
 70
     0
 43
0.0
 10
14197.12986539054
 20
2158.036426392835
 10
22554.48951026663
 20
2158.036426392834
  0
LWPOLYLINE
  5
40E
330
59CC
100
AcDbEntity
  8
0
100
AcDbPolyline
 90
        2
 70
     0
 43
0.0
 10
14197.12986539054
 20
5891.171916406296
 10
22554.48951026663
 20
5891.171916406308
  0
LWPOLYLINE
  5
40F
330
59CC
100
AcDbEntity
  8
0
100
AcDbPolyline
 90
        4
 70
     1
 43
0.0
 10
19902.18639094049
 20
2198.536426392791
 10
19902.18639094049
 20
2258.036426392791
 10
19166.1863909405
 20
2258.036426392791
 10
19166.1863909405
 20
2198.536426392791
  0
LWPOLYLINE
  5
410
330
59CC
100
AcDbEntity
  8
0
100
AcDbPolyline
 90
        4
 70
     1
 43
0.0
 10
19821.68639094054
 20
2158.036426392835
 10
19821.68639094054
 20
2178.036426392835
 10
19841.68639094054
 20
2178.036426392835
 10
19841.68639094054
 20
2158.036426392835
  0
LWPOLYLINE
  5
411
330
59CC
100
AcDbEntity
  8
0
100
AcDbPolyline
 90
        4
 70
     1
 43
0.0
 10
19246.68639094052
 20
2158.036426392835
 10
19246.68639094052
 20
2178.036426392835
 10
19226.68639094052
 20
2178.036426392835
 10
19226.68639094052
 20
2158.036426392835
  0
LWPOLYLINE
  5
412
330
59CC
100
AcDbEntity
  8
0
100
AcDbPolyline
 90
        4
 70
     1
 43
0.0
 10
19841.68639094054
 20
2178.036426392835
 10
19841.68639094054
 20
2158.036426392835
 10
19226.68639094052
 20
2158.036426392835
 10
19226.68639094052
 20
2178.036426392835
  0
LWPOLYLINE
  5
413
330
59CC
100
AcDbEntity
  8
0
100
AcDbPolyline
 90
        9
 70
     1
 43
0.0
 10
19220.18639094052
 20
2198.536426392791
 10
19220.18639094052
 20
2171.636426392994
 10
19221.18639094052
 20
2170.636426392871
 10
19225.18639094054
 20
2170.636426392871
 10
19226.18639094054
 20
2171.636426392994
 10
19226.18639094054
 20
2178.136426392871
 10
19253.16862578368
 20
2178.607403054005
 10
19254.18639094052
 20
2179.625168210938
 10
19254.18639094052
 20
2198.536426392791
  0
LWPOLYLINE
  5
414
330
59CC
100
AcDbEntity
  8
0
100
AcDbPolyline
 90
        9
 70
     1
 43
0.0
 10
19848.18639094049
 20
2198.536426392791
 10
19848.18639094049
 20
2171.636426392994
 10
19847.18639094052
 20
2170.636426392871
 10
19843.18639094049
 20
2170.636426392871
 10
19842.18639094054
 20
2171.636426392994
 10
19842.18639094054
 20
2178.136426392871
 10
19815.2041560974
 20
2178.607403054005
 10
19814.18639094052
 20
2179.625168210938
 10
19814.18639094052
 20
2198.536426392791
  0
LWPOLYLINE
  5
415
330
59CC
100
AcDbEntity
  8
0
100
AcDbPolyline
 90
        4
 70
     1
 43
0.0
 10
19165.18639094054
 20
4258.036426392761
 10
19165.18639094054
 20
4298.036435929563
 10
19902.18639094052
 20
4298.036435929563
 10
19902.18639094052
 20
4258.036426392761
  0
LWPOLYLINE
  5
416
330
59CC
100
AcDbEntity
  8
0
100
AcDbPolyline
 90
        6
 70
     1
 43
0.0
 10
19166.18639094054
 20
2175.036426392791
 10
19129.58639094035
 20
2175.036426392791
 10
19129.58639094035
 20
4298.036435929563
 10
19165.18639094054
 20
4298.036435929563
 10
19165.18639094054
 20
4258.036426392761
 10
19166.18639094054
 20
4258.036426392761
  0
LWPOLYLINE
  5
417
330
59CC
100
AcDbEntity
  8
0
100
AcDbPolyline
 90
        4
 70
     1
 43
0.0
 10
19937.18639094052
 20
2180.036426392792
 10
19937.18639094052
 20
4298.036435929563
 10
19902.18639094052
 20
4298.036435929563
 10
19902.18639094052
 20
2180.036426392792
  0
LWPOLYLINE
  5
418
330
59CC
100
AcDbEntity
  8
0
100
AcDbPolyline
 90
        4
 70
     1
 43
0.0
 10
15301.12986539051
 20
5913.171916406248
 10
15301.12986539051
 20
8031.171925943024
 10
15266.1298653905
 20
8031.171925943024
 10
15266.1298653905
 20
5913.171916406248
  0
LWPOLYLINE
  5
419
330
59CC
100
AcDbEntity
  8
0
100
AcDbPolyline
 90
        6
 70
     1
 43
0.0
 10
14530.1298653905
 20
5908.171916406249
 10
14493.52986539045
 20
5908.171916406249
 10
14493.52986539045
 20
8031.171925943024
 10
14529.1298653905
 20
8031.171925943024
 10
14529.1298653905
 20
7991.17191640622
 10
14530.1298653905
 20
7991.17191640622
  0
LWPOLYLINE
  5
41A
330
59CC
100
AcDbEntity
  8
0
100
AcDbPolyline
 90
        4
 70
     1
 43
0.0
 10
15266.1298653905
 20
5931.67191640625
 10
15266.1298653905
 20
5991.17191640625
 10
14530.1298653905
 20
5991.17191640625
 10
14530.1298653905
 20
5931.67191640625
  0
LWPOLYLINE
  5
41B
330
59CC
100
AcDbEntity
  8
0
100
AcDbPolyline
 90
        4
 70
     1
 43
0.0
 10
14530.1298653905
 20
5991.17191640625
 10
14530.1298653905
 20
6021.17191640625
 10
15266.1298653905
 20
6021.17191640625
 10
15266.1298653905
 20
5991.17191640625
  0
LWPOLYLINE
  5
41C
330
59CC
100
AcDbEntity
  8
0
100
AcDbPolyline
 90
        4
 70
     1
 43
0.0
 10
14529.1298653905
 20
7991.17191640622
 10
14529.1298653905
 20
8031.171925943024
 10
15266.1298653905
 20
8031.171925943024
 10
15266.1298653905
 20
7991.17191640622
  0
LWPOLYLINE
  5
41D
330
59CC
100
AcDbEntity
  8
0
100
AcDbPolyline
 90
        9
 70
     1
 43
0.0
 10
15212.1298653905
 20
5931.67191640625
 10
15212.1298653905
 20
5904.771916406454
 10
15211.1298653905
 20
5903.771916406328
 10
15207.1298653905
 20
5903.771916406328
 10
15206.1298653905
 20
5904.771916406454
 10
15206.1298653905
 20
5911.271916406331
 10
15179.14763054741
 20
5911.742893067462
 10
15178.1298653905
 20
5912.760658224396
 10
15178.1298653905
 20
5931.67191640625
  0
LWPOLYLINE
  5
41E
330
59CC
100
AcDbEntity
  8
0
100
AcDbPolyline
 90
        9
 70
     1
 43
0.0
 10
14584.12986539058
 20
5931.67191640625
 10
14584.12986539058
 20
5904.771916406454
 10
14585.1298653905
 20
5903.771916406328
 10
14589.12986539061
 20
5903.771916406328
 10
14590.1298653905
 20
5904.771916406454
 10
14590.1298653905
 20
5911.271916406331
 10
14617.11210023374
 20
5911.742893067462
 10
14618.1298653905
 20
5912.760658224396
 10
14618.1298653905
 20
5931.67191640625
  0
LWPOLYLINE
  5
41F
330
59CC
100
AcDbEntity
  8
0
100
AcDbPolyline
 90
        4
 70
     1
 43
0.0
 10
15205.6298653905
 20
5911.171916406296
 10
15205.6298653905
 20
5891.171916406295
 10
14590.6298653905
 20
5891.171916406295
 10
14590.6298653905
 20
5911.171916406296
  0
LWPOLYLINE
  5
420
330
59CC
100
AcDbEntity
  8
0
100
AcDbPolyline
 90
        4
 70
     1
 43
0.0
 10
14610.6298653905
 20
5891.171916406295
 10
14610.6298653905
 20
5911.171916406296
 10
14590.6298653905
 20
5911.171916406296
 10
14590.6298653905
 20
5891.171916406295
  0
LWPOLYLINE
  5
421
330
59CC
100
AcDbEntity
  8
0
100
AcDbPolyline
 90
        4
 70
     1
 43
0.0
 10
15185.6298653905
 20
5891.171916406295
 10
15185.6298653905
 20
5911.171916406296
 10
15205.6298653905
 20
5911.171916406296
 10
15205.6298653905
 20
5891.171916406295
  0
LWPOLYLINE
  5
422
330
59CC
100
AcDbEntity
  8
0
100
AcDbPolyline
 90
        4
 70
     1
 43
0.0
 10
14530.1298653905
 20
6791.171916406253
 10
14530.1298653905
 20
6821.171916406253
 10
15266.1298653905
 20
6821.171916406253
 10
15266.1298653905
 20
6791.171916406253
  0
LWPOLYLINE
  5
423
330
59CC
100
AcDbEntity
  8
0
100
AcDbPolyline
 90
        4
 70
     1
 43
0.0
 10
15266.1298653905
 20
7191.171916406244
 10
15266.1298653905
 20
7221.171916406246
 10
14530.1298653905
 20
7221.171916406246
 10
14530.1298653905
 20
7191.171916406244
  0
LWPOLYLINE
  5
424
330
59CC
100
AcDbEntity
  8
0
100
AcDbPolyline
 90
        4
 70
     1
 43
0.0
 10
15266.1298653905
 20
6391.17191640625
 10
15266.1298653905
 20
6421.17191640625
 10
14530.1298653905
 20
6421.17191640625
 10
14530.1298653905
 20
6391.17191640625
  0
LWPOLYLINE
  5
425
330
59CC
100
AcDbEntity
  8
0
100
AcDbPolyline
 90
        4
 70
     1
 43
0.0
 10
14530.1298653905
 20
7591.171916406245
 10
14530.1298653905
 20
7621.171916406246
 10
15266.1298653905
 20
7621.171916406246
 10
15266.1298653905
 20
7591.171916406245
  0
LWPOLYLINE
  5
426
330
59CC
100
AcDbEntity
  8
0
100
AcDbPolyline
 90
        4
 70
     1
 43
0.0
 10
19937.1863909406
 20
5913.171916406252
 10
19937.1863909406
 20
8031.171925943024
 10
19902.1863909406
 20
8031.171925943024
 10
19902.1863909406
 20
5913.171916406252
  0
LWPOLYLINE
  5
427
330
59CC
100
AcDbEntity
  8
0
100
AcDbPolyline
 90
        6
 70
     1
 43
0.0
 10
19166.1863909406
 20
5908.171916406253
 10
19129.58639094039
 20
5908.171916406253
 10
19129.58639094039
 20
8031.171925943024
 10
19165.1863909406
 20
8031.171925943024
 10
19165.1863909406
 20
7991.171916406222
 10
19166.1863909406
 20
7991.171916406222
  0
LWPOLYLINE
  5
428
330
59CC
100
AcDbEntity
  8
0
100
AcDbPolyline
 90
        4
 70
     1
 43
0.0
 10
19902.1863909406
 20
5931.67191640625
 10
19902.1863909406
 20
5991.17191640625
 10
19166.1863909406
 20
5991.17191640625
 10
19166.1863909406
 20
5931.67191640625
  0
LWPOLYLINE
  5
429
330
59CC
100
AcDbEntity
  8
0
100
AcDbPolyline
 90
        4
 70
     1
 43
0.0
 10
19166.1863909406
 20
5991.17191640625
 10
19166.1863909406
 20
6021.171916406252
 10
19902.1863909406
 20
6021.171916406252
 10
19902.1863909406
 20
5991.17191640625
  0
LWPOLYLINE
  5
42A
330
59CC
100
AcDbEntity
  8
0
100
AcDbPolyline
 90
        4
 70
     1
 43
0.0
 10
19165.1863909406
 20
7991.171916406222
 10
19165.1863909406
 20
8031.171925943024
 10
19902.1863909406
 20
8031.171925943024
 10
19902.1863909406
 20
7991.171916406222
  0
LWPOLYLINE
  5
42B
330
59CC
100
AcDbEntity
  8
0
100
AcDbPolyline
 90
        9
 70
     1
 43
0.0
 10
19848.18639094052
 20
5931.67191640625
 10
19848.18639094052
 20
5904.771916406456
 10
19847.1863909406
 20
5903.771916406328
 10
19843.18639094052
 20
5903.771916406328
 10
19842.1863909406
 20
5904.771916406456
 10
19842.1863909406
 20
5911.271916406331
 10
19815.20415609748
 20
5911.742893067463
 10
19814.1863909406
 20
5912.760658224396
 10
19814.1863909406
 20
5931.67191640625
  0
LWPOLYLINE
  5
42C
330
59CC
100
AcDbEntity
  8
0
100
AcDbPolyline
 90
        9
 70
     1
 43
0.0
 10
19220.1863909406
 20
5931.67191640625
 10
19220.1863909406
 20
5904.771916406456
 10
19221.1863909406
 20
5903.771916406328
 10
19225.18639094059
 20
5903.771916406328
 10
19226.1863909406
 20
5904.771916406456
 10
19226.1863909406
 20
5911.271916406331
 10
19253.16862578373
 20
5911.742893067463
 10
19254.1863909406
 20
5912.760658224396
 10
19254.1863909406
 20
5931.67191640625
  0
LWPOLYLINE
  5
42D
330
59CC
100
AcDbEntity
  8
0
100
AcDbPolyline
 90
        4
 70
     1
 43
0.0
 10
19841.6863909406
 20
5911.171916406296
 10
19841.6863909406
 20
5891.171916406296
 10
19226.6863909406
 20
5891.171916406296
 10
19226.6863909406
 20
5911.171916406296
  0
LWPOLYLINE
  5
42E
330
59CC
100
AcDbEntity
  8
0
100
AcDbPolyline
 90
        4
 70
     1
 43
0.0
 10
19246.6863909406
 20
5891.171916406296
 10
19246.6863909406
 20
5911.171916406296
 10
19226.6863909406
 20
5911.171916406296
 10
19226.6863909406
 20
5891.171916406296
  0
LWPOLYLINE
  5
42F
330
59CC
100
AcDbEntity
  8
0
100
AcDbPolyline
 90
        4
 70
     1
 43
0.0
 10
19821.6863909406
 20
5891.171916406296
 10
19821.6863909406
 20
5911.171916406296
 10
19841.6863909406
 20
5911.171916406296
 10
19841.6863909406
 20
5891.171916406296
  0
LWPOLYLINE
  5
430
330
59CC
100
AcDbEntity
  8
0
100
AcDbPolyline
 90
        4
 70
     1
 43
0.0
 10
19902.1863909406
 20
6241.17191640625
 10
19902.1863909406
 20
6271.171916406252
 10
19166.1863909406
 20
6271.171916406252
 10
19166.1863909406
 20
6241.17191640625
  0
LWPOLYLINE
  5
431
330
59CC
100
AcDbEntity
  8
0
100
AcDbPolyline
 90
        4
 70
     1
 43
0.0
 10
19902.1863909406
 20
6491.171916406253
 10
19902.1863909406
 20
6521.171916406252
 10
19166.1863909406
 20
6521.171916406252
 10
19166.1863909406
 20
6491.171916406253
  0
LWPOLYLINE
  5
432
330
59CC
100
AcDbEntity
  8
0
100
AcDbPolyline
 90
        4
 70
     1
 43
0.0
 10
19902.1863909406
 20
6741.171916406253
 10
19902.1863909406
 20
6771.171916406252
 10
19166.1863909406
 20
6771.171916406252
 10
19166.1863909406
 20
6741.171916406253
  0
LWPOLYLINE
  5
433
330
59CC
100
AcDbEntity
  8
0
100
AcDbPolyline
 90
        4
 70
     1
 43
0.0
 10
19902.1863909406
 20
6991.171916406253
 10
19902.1863909406
 20
7021.171916406245
 10
19166.1863909406
 20
7021.171916406245
 10
19166.1863909406
 20
6991.171916406253
  0
LWPOLYLINE
  5
434
330
59CC
100
AcDbEntity
  8
0
100
AcDbPolyline
 90
        4
 70
     1
 43
0.0
 10
19902.1863909406
 20
7241.171916406253
 10
19902.1863909406
 20
7271.171916406245
 10
19166.1863909406
 20
7271.171916406245
 10
19166.1863909406
 20
7241.171916406253
  0
LWPOLYLINE
  5
435
330
59CC
100
AcDbEntity
  8
0
100
AcDbPolyline
 90
        4
 70
     1
 43
0.0
 10
19902.1863909406
 20
7491.171916406253
 10
19902.1863909406
 20
7521.171916406245
 10
19166.1863909406
 20
7521.171916406245
 10
19166.1863909406
 20
7491.171916406253
  0
LWPOLYLINE
  5
436
330
59CC
100
AcDbEntity
  8
0
100
AcDbPolyline
 90
        4
 70
     1
 43
0.0
 10
19902.1863909406
 20
7741.171916406253
 10
19902.1863909406
 20
7771.171916406245
 10
19166.1863909406
 20
7771.171916406245
 10
19166.1863909406
 20
7741.171916406253
  0
LWPOLYLINE
  5
437
330
59CC
100
AcDbEntity
  8
CLOTHES_RAIL
100
AcDbPolyline
 90
        4
 70
     1
 43
0.0
 10
15266.12986539054
 20
3210.536426392791
 10
15266.12986539054
 20
3185.536426392785
 10
14530.12986539054
 20
3185.536426392785
 10
14530.12986539054
 20
3210.536426392791
  0
LWPOLYLINE
  5
438
330
59CC
100
AcDbEntity
  8
0
100
AcDbPolyline
 90
        4
 70
     1
 43
0.0
 10
15266.12986539054
 20
3288.036426392784
 10
15266.12986539054
 20
3258.036426392783
 10
14530.12986539054
 20
3258.036426392783
 10
14530.12986539054
 20
3288.036426392784
  0
LWPOLYLINE
  5
439
330
59CC
100
AcDbEntity
  8
0
100
AcDbPolyline
 90
        4
 70
     1
 43
0.0
 10
15185.62986539054
 20
2158.036426392841
 10
15185.62986539054
 20
2178.036426392842
 10
15205.62986539054
 20
2178.036426392842
 10
15205.62986539054
 20
2158.036426392841
  0
LWPOLYLINE
  5
43A
330
59CC
100
AcDbEntity
  8
0
100
AcDbPolyline
 90
        4
 70
     1
 43
0.0
 10
14610.62986539054
 20
2158.036426392841
 10
14610.62986539054
 20
2178.036426392842
 10
14590.62986539054
 20
2178.036426392842
 10
14590.62986539054
 20
2158.036426392841
  0
LWPOLYLINE
  5
43B
330
59CC
100
AcDbEntity
  8
0
100
AcDbPolyline
 90
        4
 70
     1
 43
0.0
 10
15205.62986539054
 20
2178.036426392842
 10
15205.62986539054
 20
2158.036426392841
 10
14590.62986539054
 20
2158.036426392841
 10
14590.62986539054
 20
2178.036426392842
  0
LWPOLYLINE
  5
43C
330
59CC
100
AcDbEntity
  8
0
100
AcDbPolyline
 90
        9
 70
     1
 43
0.0
 10
14584.1298653906
 20
2198.536426392791
 10
14584.1298653906
 20
2171.636426393001
 10
14585.12986539054
 20
2170.636426392871
 10
14589.12986539059
 20
2170.636426392871
 10
14590.12986539054
 20
2171.636426393001
 10
14590.12986539054
 20
2178.136426392871
 10
14617.11210023366
 20
2178.607403054005
 10
14618.12986539054
 20
2179.625168210944
 10
14618.12986539054
 20
2198.536426392791
  0
LWPOLYLINE
  5
43D
330
59CC
100
AcDbEntity
  8
0
100
AcDbPolyline
 90
        9
 70
     1
 43
0.0
 10
15212.12986539054
 20
2198.536426392791
 10
15212.12986539054
 20
2171.636426393001
 10
15211.12986539054
 20
2170.636426392871
 10
15207.12986539054
 20
2170.636426392871
 10
15206.12986539054
 20
2171.636426393001
 10
15206.12986539054
 20
2178.136426392871
 10
15179.1476305474
 20
2178.607403054005
 10
15178.12986539054
 20
2179.625168210944
 10
15178.12986539054
 20
2198.536426392791
  0
LWPOLYLINE
  5
43E
330
59CC
100
AcDbEntity
  8
0
100
AcDbPolyline
 90
        4
 70
     1
 43
0.0
 10
14529.12986539054
 20
4258.036426392761
 10
14529.12986539054
 20
4298.03643592957
 10
15266.12986539054
 20
4298.03643592957
 10
15266.12986539054
 20
4258.036426392761
  0
LWPOLYLINE
  5
43F
330
59CC
100
AcDbEntity
  8
CLOTHES_RAIL
100
AcDbPolyline
 90
        4
 70
     1
 43
0.0
 10
15266.12986539054
 20
4185.536426392761
 10
15266.12986539054
 20
4210.536426392763
 10
14530.12986539054
 20
4210.536426392763
 10
14530.12986539054
 20
4185.536426392761
  0
LWPOLYLINE
  5
440
330
59CC
100
AcDbEntity
  8
0
100
AcDbPolyline
 90
        4
 70
     1
 43
0.0
 10
14530.12986539054
 20
2258.036426392791
 10
14530.12986539054
 20
2288.036426392791
 10
15266.12986539054
 20
2288.036426392791
 10
15266.12986539054
 20
2258.036426392791
  0
LWPOLYLINE
  5
441
330
59CC
100
AcDbEntity
  8
0
100
AcDbPolyline
 90
        4
 70
     1
 43
0.0
 10
15266.12986539054
 20
2198.536426392791
 10
15266.12986539054
 20
2258.036426392791
 10
14530.12986539054
 20
2258.036426392791
 10
14530.12986539054
 20
2198.536426392791
  0
LWPOLYLINE
  5
442
330
59CC
100
AcDbEntity
  8
0
100
AcDbPolyline
 90
        6
 70
     1
 43
0.0
 10
14530.12986539054
 20
2175.036426392791
 10
14493.52986539044
 20
2175.036426392791
 10
14493.52986539044
 20
4298.03643592957
 10
14529.12986539054
 20
4298.03643592957
 10
14529.12986539054
 20
4258.036426392761
 10
14530.12986539054
 20
4258.036426392761
  0
LWPOLYLINE
  5
443
330
59CC
100
AcDbEntity
  8
0
100
AcDbPolyline
 90
        4
 70
     1
 43
0.0
 10
15301.12986539054
 20
2180.036426392792
 10
15301.12986539054
 20
4298.03643592957
 10
15266.12986539054
 20
4298.03643592957
 10
15266.12986539054
 20
2180.036426392792
  0
LWPOLYLINE
  5
444
330
59CC
100
AcDbEntity
  8
0
100
AcDbPolyline
 90
        4
 70
     1
 43
0.0
 10
14493.52986539045
 20
8031.171925943024
 10
14493.52986539045
 20
5908.171916406249
 10
14463.52986539045
 20
5908.171916406249
 10
14463.52986539045
 20
8031.171925943024
  0
LWPOLYLINE
  5
445
330
59CC
100
AcDbEntity
  8
0
100
AcDbPolyline
 90
        4
 70
     1
 43
0.0
 10
19129.58639094058
 20
8031.171925943024
 10
19129.58639094058
 20
5908.171916406253
 10
19099.58639094058
 20
5908.171916406253
 10
19099.58639094058
 20
8031.171925943024
  0
LWPOLYLINE
  5
446
330
59CC
100
AcDbEntity
  8
0
100
AcDbPolyline
 90
        4
 70
     1
 43
0.0
 10
14493.52986539044
 20
4298.036435929563
 10
14493.52986539044
 20
2175.036426392791
 10
14463.52986539045
 20
2175.036426392791
 10
14463.52986539045
 20
4298.036435929563
  0
LWPOLYLINE
  5
447
330
59CC
100
AcDbEntity
  8
0
100
AcDbPolyline
 90
        4
 70
     1
 43
0.0
 10
19129.58639094051
 20
4298.036435929563
 10
19129.58639094051
 20
2175.036426392791
 10
19099.58639094051
 20
2175.036426392791
 10
19099.58639094051
 20
4298.036435929563
  0
LWPOLYLINE
  5
448
330
59CC
100
AcDbEntity
  8
0
100
AcDbPolyline
 90
        2
 70
     0
 43
0.0
 10
35698.2067135577
 20
2158.036426392829
 10
31501.7932864423
 20
2158.036426392829
  0
LWPOLYLINE
  5
449
330
59CC
100
AcDbEntity
  8
0
100
AcDbPolyline
 90
        2
 70
     0
 43
0.0
 10
35698.2067135577
 20
5891.171916406291
 10
31501.7932864423
 20
5891.171916406291
  0
LWPOLYLINE
  5
44A
330
59CC
100
AcDbEntity
  8
0
100
AcDbPolyline
 90
        4
 70
     1
 43
0.0
 10
32265.00000000001
 20
8431.1719164063
 10
31735.00000000001
 20
8431.1719164063
 10
31735.00000000001
 20
5908.171916406253
 10
32265.00000000001
 20
5908.171916406253
  0
LWPOLYLINE
  5
44B
330
59CC
100
AcDbEntity
  8
0
100
AcDbPolyline
 90
        4
 70
     1
 43
0.0
 10
32300.00000000001
 20
5908.171916406253
 10
31700.00000000001
 20
5908.171916406253
 10
31700.00000000001
 20
8431.1719164063
 10
32300.00000000001
 20
8431.1719164063
  0
LWPOLYLINE
  5
44C
330
59CC
100
AcDbEntity
  8
0
100
AcDbPolyline
 90
        4
 70
     1
 43
0.0
 10
32265.00000000001
 20
4298.036435929559
 10
31735.00000000001
 20
4298.036435929559
 10
31735.00000000001
 20
2175.036426392789
 10
32265.00000000001
 20
2175.036426392789
  0
LWPOLYLINE
  5
44D
330
59CC
100
AcDbEntity
  8
0
100
AcDbPolyline
 90
        4
 70
     1
 43
0.0
 10
32300.00000000001
 20
2175.036426392789
 10
31700.00000000001
 20
2175.036426392789
 10
31700.00000000001
 20
4298.036435929559
 10
32300.00000000001
 20
4298.036435929559
  0
LWPOLYLINE
  5
44E
330
59CC
100
AcDbEntity
  8
0
100
AcDbPolyline
 90
        4
 70
     1
 43
0.0
 10
33699.99999999999
 20
2175.036426392789
 10
33100.00000000001
 20
2175.036426392789
 10
33100.00000000001
 20
4298.036435929559
 10
33699.99999999999
 20
4298.036435929559
  0
LWPOLYLINE
  5
44F
330
59CC
100
AcDbEntity
  8
0
100
AcDbPolyline
 90
        4
 70
     1
 43
0.0
 10
33665.00000000001
 20
4298.036435929559
 10
33135.00000000001
 20
4298.036435929559
 10
33135.00000000001
 20
2175.036426392789
 10
33665.00000000001
 20
2175.036426392789
  0
LWPOLYLINE
  5
450
330
59CC
100
AcDbEntity
  8
0
100
AcDbPolyline
 90
        4
 70
     1
 43
0.0
 10
33699.99999999999
 20
5908.171916406253
 10
33100.00000000001
 20
5908.171916406253
 10
33100.00000000001
 20
8431.1719164063
 10
33699.99999999999
 20
8431.1719164063
  0
LWPOLYLINE
  5
451
330
59CC
100
AcDbEntity
  8
0
100
AcDbPolyline
 90
        4
 70
     1
 43
0.0
 10
33665.00000000001
 20
8431.1719164063
 10
33135.00000000001
 20
8431.1719164063
 10
33135.00000000001
 20
5908.171916406253
 10
33665.00000000001
 20
5908.171916406253
  0
LWPOLYLINE
  5
452
330
59CC
100
AcDbEntity
  8
0
100
AcDbPolyline
 90
        4
 70
     1
 43
0.0
 10
33735.00000000002
 20
8431.1719164063
 10
34265.00000000001
 20
8431.1719164063
 10
34265.00000000001
 20
5908.171916406253
 10
33735.00000000002
 20
5908.171916406253
  0
LWPOLYLINE
  5
453
330
59CC
100
AcDbEntity
  8
0
100
AcDbPolyline
 90
        4
 70
     1
 43
0.0
 10
33700.00000000001
 20
5908.171916406253
 10
34300.00000000001
 20
5908.171916406253
 10
34300.00000000001
 20
8431.1719164063
 10
33700.00000000001
 20
8431.1719164063
  0
LWPOLYLINE
  5
454
330
59CC
100
AcDbEntity
  8
0
100
AcDbPolyline
 90
        4
 70
     1
 43
0.0
 10
33735.00000000002
 20
4298.036435929559
 10
34265.00000000001
 20
4298.036435929559
 10
34265.00000000001
 20
2175.036426392789
 10
33735.00000000002
 20
2175.036426392789
  0
LWPOLYLINE
  5
455
330
59CC
100
AcDbEntity
  8
0
100
AcDbPolyline
 90
        4
 70
     1
 43
0.0
 10
33700.00000000001
 20
2175.036426392789
 10
34300.00000000001
 20
2175.036426392789
 10
34300.00000000001
 20
4298.036435929559
 10
33700.00000000001
 20
4298.036435929559
  0
LWPOLYLINE
  5
456
330
59CC
100
AcDbEntity
  8
0
100
AcDbPolyline
 90
        4
 70
     1
 43
0.0
 10
34899.99999999999
 20
5908.171916406253
 10
34300.00000000001
 20
5908.171916406253
 10
34300.00000000001
 20
8431.1719164063
 10
34899.99999999999
 20
8431.1719164063
  0
LWPOLYLINE
  5
457
330
59CC
100
AcDbEntity
  8
0
100
AcDbPolyline
 90
        4
 70
     1
 43
0.0
 10
34865.00000000001
 20
8431.1719164063
 10
34335.00000000001
 20
8431.1719164063
 10
34335.00000000001
 20
5908.171916406253
 10
34865.00000000001
 20
5908.171916406253
  0
LWPOLYLINE
  5
458
330
59CC
100
AcDbEntity
  8
0
100
AcDbPolyline
 90
        4
 70
     1
 43
0.0
 10
34935.00000000001
 20
8431.1719164063
 10
35465.00000000001
 20
8431.1719164063
 10
35465.00000000001
 20
5908.171916406253
 10
34935.00000000001
 20
5908.171916406253
  0
LWPOLYLINE
  5
459
330
59CC
100
AcDbEntity
  8
0
100
AcDbPolyline
 90
        4
 70
     1
 43
0.0
 10
34900.00000000001
 20
5908.171916406253
 10
35500.00000000001
 20
5908.171916406253
 10
35500.00000000001
 20
8431.1719164063
 10
34900.00000000001
 20
8431.1719164063
  0
LWPOLYLINE
  5
45A
330
59CC
100
AcDbEntity
  8
0
100
AcDbPolyline
 90
        4
 70
     1
 43
0.0
 10
34899.99999999999
 20
2175.036426392789
 10
34300.00000000001
 20
2175.036426392789
 10
34300.00000000001
 20
4298.036435929559
 10
34899.99999999999
 20
4298.036435929559
  0
LWPOLYLINE
  5
45B
330
59CC
100
AcDbEntity
  8
0
100
AcDbPolyline
 90
        4
 70
     1
 43
0.0
 10
34865.00000000001
 20
4298.036435929559
 10
34335.00000000001
 20
4298.036435929559
 10
34335.00000000001
 20
2175.036426392789
 10
34865.00000000001
 20
2175.036426392789
  0
LWPOLYLINE
  5
45C
330
59CC
100
AcDbEntity
  8
0
100
AcDbPolyline
 90
        4
 70
     1
 43
0.0
 10
27100.0
 20
1537.657647026934
 10
40100.0
 20
1537.657647026934
 10
40100.0
 20
1837.657647026935
 10
27100.0
 20
1837.657647026935
  0
TEXT
  5
45D
330
59CC
100
AcDbEntity
  8
0
100
AcDbText
 10
27319.31746728745
 20
1635.467425269805
 30
0.0
 40
125.0
  1
Examples of compositions / Esempi di composizioni / Kompositionsbeispiele
  7
STILE1
 72
     1
 11
31117.02952085888
 21
1635.467425269805
 31
0.0
100
AcDbText
  0
TEXT
  5
45E
330
59CC
100
AcDbEntity
  8
0
100
AcDbText
 10
14200.88162072467
 20
1635.467425269804
 30
0.0
 40
125.0
  1
Modular Combinations (L=80 cm) / Componibilità moduli (L=80 cm) / Zusammensetzbarkeit Module (L=80 cm)
  7
STILE1
 72
     1
 11
19813.97685881991
 21
1635.467425269804
 31
0.0
100
AcDbText
  0
TEXT
  5
45F
330
59CC
100
AcDbEntity
  8
0
100
AcDbText
 10
6435.285829406143
 20
1635.467425269804
 30
0.0
 40
125.0
  1
Sliding modules / Moduli mobili / Bewegliche Module
  7
STILE1
 72
     1
 11
9075.631811549
 21
1635.467425269804
 31
0.0
100
AcDbText
  0
TEXT
  5
460
330
59CC
100
AcDbEntity
  8
0
100
AcDbText
 10
455.5941790745374
 20
1635.467425269804
 30
0.0
 40
125.0
  1
Static modules / Moduli fissi / Feste Module
  7
STILE1
 72
     1
 11
2714.987780265014
 21
1635.467425269804
 31
0.0
100
AcDbText
  0
LINE
  5
461
330
59CC
100
AcDbEntity
  8
0
100
AcDbLine
 10
8025.371948238463
 20
987.6576470269353
 30
0.0
 11
8025.371948238463
 21
0.0
 31
0.0
  0
TEXT
  5
462
330
59CC
100
AcDbEntity
  8
0
100
AcDbText
 10
6252.7084966879
 20
778.7322304035334
 30
0.0
 40
125.0
  1
2024-06
  7
STILE1
 72
     1
 11
6687.604330021233
 21
778.7322304035334
 31
0.0
100
AcDbText
  0
LINE
  5
463
330
59CC
100
AcDbEntity
  8
0
100
AcDbLine
 10
5350.247965492308
 20
687.661092123016
 30
0.0
 11
5350.247965492308
 21
987.6576470269353
 31
0.0
  0
LINE
  5
464
330
59CC
100
AcDbEntity
  8
0
100
AcDbLine
 10
2675.123982746154
 20
987.6576470269353
 30
0.0
 11
2675.123982746154
 21
0.0
 31
0.0
  0
LWPOLYLINE
  5
465
330
59CC
100
AcDbEntity
  8
0
100
AcDbPolyline
 90
        4
 70
     1
 43
0.0
 10
0.0
 20
987.6576470269353
 10
8025.371948238463
 20
987.6576470269353
 10
8025.371948238463
 20
0.0
 10
0.0
 20
0.0
  0
LWPOLYLINE
  5
466
330
59CC
100
AcDbEntity
  8
0
100
AcDbPolyline
 90
        2
 70
     0
 43
0.0
 10
2675.123982746154
 20
687.661092123016
 10
8025.371948238463
 20
687.6610921230168
  0
TEXT
  5
467
330
59CC
100
AcDbEntity
  8
0
100
AcDbText
 10
3484.840736835664
 20
170.1637904425171
 30
0.0
 40
125.0
  1
This drawing is property of Fantin S.r.l. 
  7
STILE1
 72
     1
 11
5499.721689216617
 21
170.1637904425171
 31
0.0
100
AcDbText
  0
LWPOLYLINE
  5
468
330
59CC
100
AcDbEntity
  8
0
  6
Continuous
100
AcDbPolyline
 90
       16
 70
     1
 43
0.0
 10
847.7226611692438
 20
383.6228027346076
 10
847.7226611692438
 20
383.6228027346076
 10
872.0839436817907
 20
299.9999999999997
 10
997.8006456140432
 20
299.9999999999997
 10
880.3917914489284
 20
652.7743326826017
 42
0.1089385125692126
 10
867.6499316329131
 20
680.4454704024826
 42
0.1589313772246072
 10
855.6541064428161
 20
687.7303423592817
 42
0.058673645385263
 10
839.4089355459447
 20
689.3216281465718
 10
839.4089355459447
 20
689.3216281465718
 10
744.1606580931694
 20
689.3216281465718
 42
0.058673645385263
 10
727.9154871962947
 20
687.7303423592817
 42
0.1589313772246072
 10
715.9196620061985
 20
680.4454704024826
 42
0.1089385125692126
 10
703.1778021901849
 20
652.7743326826017
 10
585.768948029726
 20
299.9999999999997
 10
704.8348931223154
 20
299.9999999999997
 10
728.6473931185901
 20
383.6228027346076
  0
LWPOLYLINE
  5
469
330
59CC
100
AcDbEntity
  8
0
  6
Continuous
100
AcDbPolyline
 90
        5
 70
     0
 43
0.0
 10
791.2309977225952
 20
580.7787272136192
 10
824.458943684584
 20
466.6909450956151
 10
751.9104003906241
 20
466.6909450956151
 10
785.13834635727
 20
580.7787272136192
 10
791.2309977225952
 20
580.7787272136192
  0
LWPOLYLINE
  5
46A
330
59CC
100
AcDbEntity
  8
0
  6
Continuous
100
AcDbPolyline
 90
       11
 70
     0
 43
0.0
 10
605.1458875834936
 20
687.6576470269353
 10
605.1458875834936
 20
598.4968532994384
 10
419.0693901898336
 20
598.4968532994384
 10
419.0693901898336
 20
521.52136230492
 10
549.2130398191512
 20
521.52136230492
 10
549.2130398191512
 20
438.4480523003727
 10
419.0693901898336
 20
438.4480523003727
 10
419.0693901898336
 20
299.9999999999997
 10
300.0
 20
299.9999999999997
 10
300.0
 20
687.6576470269353
 10
605.1458875834936
 20
687.6576470269353
  0
LWPOLYLINE
  5
46B
330
59CC
100
AcDbEntity
  8
0
  6
Continuous
100
AcDbPolyline
 90
        4
 70
     1
 43
0.0
 10
1820.206949869171
 20
687.6593695743937
 10
1939.276340059005
 20
687.6593695743937
 10
1939.276340059005
 20
299.9999999999997
 10
1820.206949869171
 20
299.9999999999997
  0
LWPOLYLINE
  5
46C
330
59CC
100
AcDbEntity
  8
0
  6
Continuous
100
AcDbPolyline
 90
        9
 70
     0
 43
0.0
 10
1783.103271485306
 20
687.6593695743937
 10
1783.103271485306
 20
596.8363172747192
 10
1666.80718316231
 20
596.8363172747192
 10
1666.80718316231
 20
299.9999999999997
 10
1547.737792972475
 20
299.9999999999997
 10
1547.737792972475
 20
596.8363172747192
 10
1434.204671224579
 20
596.8363172747192
 10
1434.204671224579
 20
687.6593695743937
 10
1783.103271485306
 20
687.6593695743937
  0
LWPOLYLINE
  5
46D
330
59CC
100
AcDbEntity
  8
0
  6
Continuous
100
AcDbPolyline
 90
       15
 70
     0
 43
0.0
 10
1030.479098847136
 20
299.9999999999997
 10
1030.479098847136
 20
687.661092123016
 10
1131.828640410675
 20
687.661092123016
 42
-0.316444976687396
 10
1182.776435003616
 20
659.4164767791514
 10
1283.569593643768
 20
489.3975694442633
 10
1286.337727867066
 20
489.3975694442633
 10
1286.337727867066
 20
687.661092123016
 10
1398.761528860777
 20
687.661092123016
 10
1398.761528860777
 20
299.9999999999997
 10
1316.239434136078
 20
299.9999999999997
 42
-0.312959769389874
 10
1265.29163953848
 20
328.2428927952421
 10
1145.671034073457
 20
521.5196397574612
 10
1142.906344942748
 20
521.5196397574612
 10
1142.906344942748
 20
299.9999999999997
 10
1030.479098847136
 20
299.9999999999997
  0
LWPOLYLINE
  5
46E
330
59CC
100
AcDbEntity
  8
0
  6
Continuous
100
AcDbPolyline
 90
       15
 70
     0
 43
0.0
 10
2006.841552732512
 20
299.9999999999997
 10
2006.841552732512
 20
687.661092123016
 10
2108.191094296053
 20
687.661092123016
 42
-0.316444976687396
 10
2159.138888884337
 20
659.4164767791514
 10
2259.932047529146
 20
489.3975694442633
 10
2262.700181747787
 20
489.3975694442633
 10
2262.700181747787
 20
687.661092123016
 10
2375.123982746154
 20
687.661092123016
 10
2375.123982746154
 20
299.9999999999997
 10
2292.601888021454
 20
299.9999999999997
 42
-0.312959769389874
 10
2241.654093428515
 20
328.2428927952421
 10
2122.033487958833
 20
521.5196397574612
 10
2119.268798828125
 20
521.5196397574612
 10
2119.268798828125
 20
299.9999999999997
 10
2006.841552732512
 20
299.9999999999997
  0
TEXT
  5
46F
330
59CC
100
AcDbEntity
  8
0
100
AcDbText
 10
3713.516758291063
 20
778.7322304035334
 30
0.0
 40
125.0
  1
Binaria
  7
STILE1
 72
     1
 11
4032.062145195825
 21
778.7322304035334
 31
0.0
100
AcDbText
  0
TEXT
  5
470
330
59CC
100
AcDbEntity
  8
0
100
AcDbText
 10
3173.906836621409
 20
432.2479967307316
 30
0.0
 40
125.0
  1
Questo disegno è di proprietà di Fantin S.r.l.   
  7
STILE1
 72
     1
 11
5596.525884240456
 21
432.2479967307316
 31
0.0
100
AcDbText
  0
LWPOLYLINE
  5
471
330
59CC
100
AcDbEntity
  8
0
100
AcDbPolyline
 90
        4
 70
     1
 43
0.0
 10
-0.000000000007276
 20
1537.657647026935
 10
13000.0
 20
1537.657647026935
 10
13000.0
 20
1837.657647026935
 10
-0.000000000007276
 20
1837.657647026935
  0
LWPOLYLINE
  5
472
330
59CC
100
AcDbEntity
  8
0
100
AcDbPolyline
 90
        4
 70
     1
 43
0.0
 10
27100.0
 20
1537.657647026934
 10
40100.0
 20
1537.657647026934
 10
40100.0
 20
1837.657647026935
 10
27100.0
 20
1837.657647026935
  0
LWPOLYLINE
  5
473
330
59CC
100
AcDbEntity
  8
0
100
AcDbPolyline
 90
        4
 70
     1
 43
0.0
 10
13550.0
 20
1537.657647026935
 10
26550.0
 20
1537.657647026935
 10
26550.0
 20
1837.657647026935
 10
13550.0
 20
1837.657647026935
  0
LWPOLYLINE
  5
474
330
59CC
100
AcDbEntity
  8
0
100
AcDbPolyline
 90
        4
 70
     1
 43
0.0
 10
27100.0
 20
1537.657647026934
 10
40100.0
 20
1537.657647026934
 10
40100.0
 20
9015.002619770908
 10
27100.0
 20
9015.002619770908
  0
LWPOLYLINE
  5
475
330
59CC
100
AcDbEntity
  8
0
100
AcDbPolyline
 90
        4
 70
     1
 43
0.0
 10
0.0
 20
9015.002619770916
 10
13000.0
 20
9015.002619770916
 10
13000.0
 20
1537.657647026935
 10
0.0
 20
1537.657647026935
  0
ENDSEC
  0
SECTION
  2
OBJECTS
  0
DICTIONARY
  5
59BC
330
0
100
AcDbDictionary
281
     1
  3
ACAD_DETAILVIEWSTYLE
350
5A25
  3
ACAD_GROUP
350
59BD
  3
ACAD_LAYOUT
350
59C9
  3
ACAD_MATERIAL
350
59D2
  3
ACAD_MLEADERSTYLE
350
5A1A
  3
ACAD_MLINESTYLE
350
59C6
  3
ACAD_PLOTSETTINGS
350
59C8
  3
ACAD_PLOTSTYLENAME
350
59BE
  3
ACAD_SCALELIST
350
59DD
  3
ACAD_SECTIONVIEWSTYLE
350
5A26
  3
ACAD_TABLESTYLE
350
5A18
  3
ACAD_VISUALSTYLE
350
59FF
  3
ACDB_RECOMPOSE_DATA
350
5A2B
  3
AcDbVariableDictionary
350
5A20
  3
APPDATA
350
5A1C
  3
PRINTCONFIG
350
5A28
  0
SUN
  5
5A27
330
59CF
100
AcDbSun
 90
        1
290
     0
 63
     7
421
 16777215
 40
1.0
291
     1
 91
  2455826
 92
 54000000
292
     0
 70
     2
 71
   256
280
     1
  0
DICTIONARY
  5
5A1E
330
59CC
100
AcDbDictionary
280
     1
281
     1
  3
DIM_BOUNDING_BOXES_V1
360
5A1F
  0
DICTIONARY
  5
5A25
102
{ACAD_REACTORS
330
59BC
102
}
330
59BC
100
AcDbDictionary
281
     1
  0
DICTIONARY
  5
59BD
102
{ACAD_REACTORS
330
59BC
102
}
330
59BC
100
AcDbDictionary
281
     1
  0
DICTIONARY
  5
59C9
102
{ACAD_REACTORS
330
59BC
102
}
330
59BC
100
AcDbDictionary
281
     1
  3
Foglio1
350
59CB
  3
Model
350
59CD
  0
DICTIONARY
  5
59D2
102
{ACAD_REACTORS
330
59BC
102
}
330
59BC
100
AcDbDictionary
281
     1
  3
ByBlock
350
59D4
  3
ByLayer
350
59D3
  3
Global
350
59D5
  0
DICTIONARY
  5
5A1A
102
{ACAD_REACTORS
330
59BC
102
}
330
59BC
100
AcDbDictionary
281
     1
  3
Standard
350
5A1B
  0
DICTIONARY
  5
59C6
102
{ACAD_REACTORS
330
59BC
102
}
330
59BC
100
AcDbDictionary
281
     1
  3
Standard
350
59C7
  0
DICTIONARY
  5
59C8
102
{ACAD_REACTORS
330
59BC
102
}
330
59BC
100
AcDbDictionary
281
     1
  0
ACDBDICTIONARYWDFLT
  5
59BE
102
{ACAD_REACTORS
330
59BC
102
}
330
59BC
100
AcDbDictionary
281
     1
  3
Normal
350
59BF
100
AcDbDictionaryWithDefault
340
59BF
  0
DICTIONARY
  5
59DD
102
{ACAD_REACTORS
330
59BC
102
}
330
59BC
100
AcDbDictionary
281
     1
  3
A0
350
59DE
  3
A1
350
59DF
  3
A2
350
59E0
  3
A3
350
59E1
  3
A4
350
59E2
  3
A5
350
59E3
  3
A6
350
59E4
  3
A7
350
59E5
  3
A8
350
59E6
  3
A9
350
59E7
  3
B0
350
59E8
  3
B1
350
59E9
  3
B2
350
59EA
  3
B3
350
59EB
  3
B4
350
59EC
  3
B5
350
59ED
  3
B6
350
59EE
  3
B7
350
59EF
  3
B8
350
59F0
  3
B9
350
59F1
  3
C0
350
59F2
  3
C1
350
59F3
  3
C2
350
59F4
  3
C3
350
59F5
  3
C4
350
59F6
  3
C5
350
59F7
  3
C6
350
59F8
  3
C7
350
59F9
  3
C8
350
59FA
  3
C9
350
59FB
  3
D0
350
59FC
  3
D1
350
59FD
  3
D2
350
59FE
  0
DICTIONARY
  5
5A26
102
{ACAD_REACTORS
330
59BC
102
}
330
59BC
100
AcDbDictionary
281
     1
  0
DICTIONARY
  5
5A18
102
{ACAD_REACTORS
330
59BC
102
}
330
59BC
100
AcDbDictionary
281
     1
  3
Standard
350
5A19
  0
DICTIONARY
  5
59FF
102
{ACAD_REACTORS
330
59BC
102
}
330
59BC
100
AcDbDictionary
281
     1
  3
2dWireframe
350
5A04
  3
Basic
350
5A07
  3
Brighten
350
5A0B
  3
ColorChange
350
5A0F
  3
Conceptual
350
5A09
  3
Dim
350
5A0A
  3
EdgeColorOff
350
5A12
  3
Facepattern
350
5A0E
  3
Flat
350
5A00
  3
FlatWithEdges
350
5A01
  3
Gouraud
350
5A02
  3
GouraudWithEdges
350
5A03
  3
Hidden
350
5A06
  3
JitterOff
350
5A10
  3
Linepattern
350
5A0D
  3
OverhangOff
350
5A11
  3
Realistic
350
5A08
  3
Shaded
350
5A17
  3
Shaded with edges
350
5A16
  3
Shades of Gray
350
5A13
  3
Sketchy
350
5A14
  3
Thicken
350
5A0C
  3
Wireframe
350
5A05
  3
X-Ray
350
5A15
  0
XRECORD
  5
5A2B
102
{ACAD_REACTORS
330
59BC
102
}
330
59BC
100
AcDbXrecord
280
     1
 90
        1
330
5A19
  0
DICTIONARY
  5
5A20
102
{ACAD_REACTORS
330
59BC
102
}
330
59BC
100
AcDbDictionary
281
     1
  3
CANNOSCALE
350
5A21
  3
CMLEADERSTYLE
350
5A23
  3
CTABLESTYLE
350
5A22
  3
MSLTSCALE
350
5A24
  0
DICTIONARY
  5
5A1C
102
{ACAD_REACTORS
330
59BC
102
}
330
59BC
100
AcDbDictionary
281
     1
  0
DICTIONARYVAR
  5
5A28
102
{ACAD_REACTORS
330
59BC
102
}
330
59BC
100
DictionaryVariables
280
     0
  1
0
  0
DICTIONARY
  5
5A1F
102
{ACAD_REACTORS
330
5A1E
102
}
330
5A1E
100
AcDbDictionary
281
     1
  0
LAYOUT
  5
59CB
102
{ACAD_REACTORS
330
59C9
102
}
330
59C9
100
AcDbPlotSettings
  1

  2
none_device
  4

  6

 40
0.0
 41
0.0
 42
0.0
 43
0.0
 44
0.0
 45
0.0
 46
0.0
 47
0.0
 48
0.0
 49
0.0
140
0.0
141
0.0
142
1.0
143
1.0
 70
   688
 72
     0
 73
     0
 74
     5
  7

 75
    16
 76
     0
 77
     2
 78
   300
147
1.0
148
0.0
149
0.0
100
AcDbLayout
  1
Foglio1
 70
     1
 71
     1
 10
0.0
 20
0.0
 11
0.0
 21
0.0
 12
0.0
 22
0.0
 32
0.0
 14
0.0
 24
0.0
 34
0.0
 15
0.0
 25
0.0
 35
0.0
146
0.0
 13
0.0
 23
0.0
 33
0.0
 16
1.0
 26
0.0
 36
0.0
 17
0.0
 27
1.0
 37
0.0
 76
     0
330
59CA
  0
LAYOUT
  5
59CD
102
{ACAD_REACTORS
330
59C9
102
}
330
59C9
100
AcDbPlotSettings
  1

  2
none_device
  4
Letter_(8.50_x_11.00_Inches)
  6

 40
6.35
 41
6.35
 42
6.35
 43
6.35
 44
215.9
 45
279.4
 46
0.0
 47
0.0
 48
0.0
 49
0.0
140
0.0
141
0.0
142
1.0
143
1.0
 70
  1712
 72
     0
 73
     0
 74
     0
  7

 75
     0
 76
     0
 77
     2
 78
   300
147
1.0
148
0.0
149
0.0
100
AcDbLayout
  1
Model
 70
     1
 71
     0
 10
0.0
 20
0.0
 11
12.0
 21
9.0
 12
0.0
 22
0.0
 32
0.0
 14
-0.000000000007276
 24
0.0
 34
0.0
 15
40100.0
 25
25069.69256525888
 35
0.0
146
0.0
 13
0.0
 23
0.0
 33
0.0
 16
1.0
 26
0.0
 36
0.0
 17
0.0
 27
1.0
 37
0.0
 76
     0
330
59CC
331
59CF
  0
MATERIAL
  5
59D4
102
{ACAD_REACTORS
330
59D2
102
}
330
59D2
100
AcDbMaterial
  1
ByBlock
 72
     1
 94
      127
  0
MATERIAL
  5
59D3
102
{ACAD_REACTORS
330
59D2
102
}
330
59D2
100
AcDbMaterial
  1
ByLayer
 72
     1
 94
      127
  0
MATERIAL
  5
59D5
102
{ACAD_REACTORS
330
59D2
102
}
330
59D2
100
AcDbMaterial
  1
Global
 72
     1
 94
      127
  0
MLEADERSTYLE
  5
5A1B
102
{ACAD_REACTORS
330
5A1A
102
}
330
5A1A
100
AcDbMLeaderStyle
179
     2
170
     2
171
     1
172
     0
 90
        2
 40
0.0
 41
0.0
173
     1
 91
-1056964608
340
59C3
 92
       -2
290
     1
 42
0.09
291
     1
 43
0.36
  3
Standard
341
0
 44
0.18
300

342
59C1
174
     1
178
     1
175
     1
176
     0
 93
-1056964608
 45
0.18
292
     0
297
     0
 46
0.18
343
0
 94
-1056964608
 47
1.0
 49
1.0
140
1.0
293
     1
141
0.0
294
     1
177
     0
142
1.0
295
     0
296
     0
143
0.125
271
     0
272
     9
273
     9
298
     0
  0
MLINESTYLE
  5
59C7
102
{ACAD_REACTORS
330
59C6
102
}
330
59C6
100
AcDbMlineStyle
  2
Standard
 70
     0
  3

 62
   256
 51
90.0
 52
90.0
 71
     2
 49
0.5
 62
   256
  6
BYLAYER
 49
-0.5
 62
   256
  6
BYLAYER
  0
ACDBPLACEHOLDER
  5
59BF
102
{ACAD_REACTORS
330
59BE
102
}
330
59BE
  0
SCALE
  5
59DE
102
{ACAD_REACTORS
330
59DD
102
}
330
59DD
100
AcDbScale
 70
     0
300
1:1
140
1.0
141
1.0
290
     1
  0
SCALE
  5
59DF
102
{ACAD_REACTORS
330
59DD
102
}
330
59DD
100
AcDbScale
 70
     0
300
1:2
140
1.0
141
2.0
290
     0
  0
SCALE
  5
59E0
102
{ACAD_REACTORS
330
59DD
102
}
330
59DD
100
AcDbScale
 70
     0
300
1:4
140
1.0
141
4.0
290
     0
  0
SCALE
  5
59E1
102
{ACAD_REACTORS
330
59DD
102
}
330
59DD
100
AcDbScale
 70
     0
300
1:5
140
1.0
141
5.0
290
     0
  0
SCALE
  5
59E2
102
{ACAD_REACTORS
330
59DD
102
}
330
59DD
100
AcDbScale
 70
     0
300
1:8
140
1.0
141
8.0
290
     0
  0
SCALE
  5
59E3
102
{ACAD_REACTORS
330
59DD
102
}
330
59DD
100
AcDbScale
 70
     0
300
1:10
140
1.0
141
10.0
290
     0
  0
SCALE
  5
59E4
102
{ACAD_REACTORS
330
59DD
102
}
330
59DD
100
AcDbScale
 70
     0
300
1:16
140
1.0
141
16.0
290
     0
  0
SCALE
  5
59E5
102
{ACAD_REACTORS
330
59DD
102
}
330
59DD
100
AcDbScale
 70
     0
300
1:20
140
1.0
141
20.0
290
     0
  0
SCALE
  5
59E6
102
{ACAD_REACTORS
330
59DD
102
}
330
59DD
100
AcDbScale
 70
     0
300
1:30
140
1.0
141
30.0
290
     0
  0
SCALE
  5
59E7
102
{ACAD_REACTORS
330
59DD
102
}
330
59DD
100
AcDbScale
 70
     0
300
1:40
140
1.0
141
40.0
290
     0
  0
SCALE
  5
59E8
102
{ACAD_REACTORS
330
59DD
102
}
330
59DD
100
AcDbScale
 70
     0
300
1:50
140
1.0
141
50.0
290
     0
  0
SCALE
  5
59E9
102
{ACAD_REACTORS
330
59DD
102
}
330
59DD
100
AcDbScale
 70
     0
300
1:100
140
1.0
141
100.0
290
     0
  0
SCALE
  5
59EA
102
{ACAD_REACTORS
330
59DD
102
}
330
59DD
100
AcDbScale
 70
     0
300
2:1
140
2.0
141
1.0
290
     0
  0
SCALE
  5
59EB
102
{ACAD_REACTORS
330
59DD
102
}
330
59DD
100
AcDbScale
 70
     0
300
4:1
140
4.0
141
1.0
290
     0
  0
SCALE
  5
59EC
102
{ACAD_REACTORS
330
59DD
102
}
330
59DD
100
AcDbScale
 70
     0
300
8:1
140
8.0
141
1.0
290
     0
  0
SCALE
  5
59ED
102
{ACAD_REACTORS
330
59DD
102
}
330
59DD
100
AcDbScale
 70
     0
300
10:1
140
10.0
141
1.0
290
     0
  0
SCALE
  5
59EE
102
{ACAD_REACTORS
330
59DD
102
}
330
59DD
100
AcDbScale
 70
     0
300
100:1
140
100.0
141
1.0
290
     0
  0
SCALE
  5
59EF
102
{ACAD_REACTORS
330
59DD
102
}
330
59DD
100
AcDbScale
 70
     0
300
1/128" = 1'-0"
140
0.0078125
141
12.0
290
     0
  0
SCALE
  5
59F0
102
{ACAD_REACTORS
330
59DD
102
}
330
59DD
100
AcDbScale
 70
     0
300
1/64" = 1'-0"
140
0.015625
141
12.0
290
     0
  0
SCALE
  5
59F1
102
{ACAD_REACTORS
330
59DD
102
}
330
59DD
100
AcDbScale
 70
     0
300
1/32" = 1'-0"
140
0.03125
141
12.0
290
     0
  0
SCALE
  5
59F2
102
{ACAD_REACTORS
330
59DD
102
}
330
59DD
100
AcDbScale
 70
     0
300
1/16" = 1'-0"
140
0.0625
141
12.0
290
     0
  0
SCALE
  5
59F3
102
{ACAD_REACTORS
330
59DD
102
}
330
59DD
100
AcDbScale
 70
     0
300
3/32" = 1'-0"
140
0.09375
141
12.0
290
     0
  0
SCALE
  5
59F4
102
{ACAD_REACTORS
330
59DD
102
}
330
59DD
100
AcDbScale
 70
     0
300
1/8" = 1'-0"
140
0.125
141
12.0
290
     0
  0
SCALE
  5
59F5
102
{ACAD_REACTORS
330
59DD
102
}
330
59DD
100
AcDbScale
 70
     0
300
3/16" = 1'-0"
140
0.1875
141
12.0
290
     0
  0
SCALE
  5
59F6
102
{ACAD_REACTORS
330
59DD
102
}
330
59DD
100
AcDbScale
 70
     0
300
1/4" = 1'-0"
140
0.25
141
12.0
290
     0
  0
SCALE
  5
59F7
102
{ACAD_REACTORS
330
59DD
102
}
330
59DD
100
AcDbScale
 70
     0
300
3/8" = 1'-0"
140
0.375
141
12.0
290
     0
  0
SCALE
  5
59F8
102
{ACAD_REACTORS
330
59DD
102
}
330
59DD
100
AcDbScale
 70
     0
300
1/2" = 1'-0"
140
0.5
141
12.0
290
     0
  0
SCALE
  5
59F9
102
{ACAD_REACTORS
330
59DD
102
}
330
59DD
100
AcDbScale
 70
     0
300
3/4" = 1'-0"
140
0.75
141
12.0
290
     0
  0
SCALE
  5
59FA
102
{ACAD_REACTORS
330
59DD
102
}
330
59DD
100
AcDbScale
 70
     0
300
1" = 1'-0"
140
1.0
141
12.0
290
     0
  0
SCALE
  5
59FB
102
{ACAD_REACTORS
330
59DD
102
}
330
59DD
100
AcDbScale
 70
     0
300
1-1/2" = 1'-0"
140
1.5
141
12.0
290
     0
  0
SCALE
  5
59FC
102
{ACAD_REACTORS
330
59DD
102
}
330
59DD
100
AcDbScale
 70
     0
300
3" = 1'-0"
140
3.0
141
12.0
290
     0
  0
SCALE
  5
59FD
102
{ACAD_REACTORS
330
59DD
102
}
330
59DD
100
AcDbScale
 70
     0
300
6" = 1'-0"
140
6.0
141
12.0
290
     0
  0
SCALE
  5
59FE
102
{ACAD_REACTORS
330
59DD
102
}
330
59DD
100
AcDbScale
 70
     0
300
1'-0" = 1'-0"
140
12.0
141
12.0
290
     0
  0
TABLESTYLE
  5
5A19
102
{ACAD_REACTORS
330
5A18
102
}
102
{ACAD_XDICTIONARY
360
5A29
102
}
330
5A18
100
AcDbTableStyle
  3
Standard
 70
     0
 71
     0
 40
0.06
 41
0.06
280
     0
281
     0
  7
STANDARD
140
0.18
170
     2
 62
     0
 63
   257
283
     0
 90
        4
 91
        0
  1

274
    -2
284
     1
 64
     0
275
    -2
285
     1
 65
     0
276
    -2
286
     1
 66
     0
277
    -2
287
     1
 67
     0
278
    -2
288
     1
 68
     0
279
    -2
289
     1
 69
     0
  7
STANDARD
140
0.25
170
     5
 62
     0
 63
   257
283
     0
 90
        4
 91
        0
  1

274
    -2
284
     1
 64
     0
275
    -2
285
     1
 65
     0
276
    -2
286
     1
 66
     0
277
    -2
287
     1
 67
     0
278
    -2
288
     1
 68
     0
279
    -2
289
     1
 69
     0
  7
STANDARD
140
0.18
170
     5
 62
     0
 63
   257
283
     0
 90
        4
 91
        0
  1

274
    -2
284
     1
 64
     0
275
    -2
285
     1
 65
     0
276
    -2
286
     1
 66
     0
277
    -2
287
     1
 67
     0
278
    -2
288
     1
 68
     0
279
    -2
289
     1
 69
     0
  0
VISUALSTYLE
  5
5A04
102
{ACAD_REACTORS
330
59FF
102
}
330
59FF
100
AcDbVisualStyle
  2
2dWireframe
 70
     4
177
     3
291
     0
 70
    58
 90
        0
176
     1
 90
        2
176
     1
 90
        0
176
     1
 90
        0
176
     1
 40
0.6
176
     1
 40
30.0
176
     1
 62
     7
420
 16777215
176
     1
 90
        1
176
     1
 90
        4
176
     1
 62
     7
176
     1
 62
   257
176
     1
 90
        1
176
     1
 90
        1
176
     1
 40
1.0
176
     1
 90
        0
176
     1
 62
   257
176
     1
 40
1.0
176
     1
 90
        1
176
     1
 90
        6
176
     1
 90
        2
176
     1
 62
     7
176
     1
 90
        5
176
     1
 90
        0
176
     1
 90
        0
176
     1
290
     0
176
     1
 90
        1
176
     1
 40
0.0
176
     1
 90
        0
176
     1
290
     1
176
     1
290
     1
176
     1
290
     0
176
     1
290
     0
176
     1
290
     0
176
     1
290
     0
176
     1
290
     0
176
     1
290
     0
176
     1
290
     0
176
     1
 90
       50
176
     1
 40
0.0
176
     1
 40
1.0
176
     1
 90
        0
176
     1
 62
    18
420
        0
176
     1
 90
       50
176
     1
 90
        3
176
     1
 62
     5
420
      255
176
     1
290
     0
176
     1
 90
       50
176
     1
 90
       50
176
     1
 90
       50
176
     1
290
     0
176
     1
 90
       50
176
     1
 62
   256
176
     0
 40
1.0
176
     0
 90
        2
176
     1
  1
strokes_ogs.tif
176
     1
290
     0
176
     1
 40
1.0
176
     1
 40
1.0
176
     1
  0
VISUALSTYLE
  5
5A07
102
{ACAD_REACTORS
330
59FF
102
}
330
59FF
100
AcDbVisualStyle
  2
Basic
 70
     7
177
     3
291
     1
 70
    58
 90
        1
176
     1
 90
        0
176
     1
 90
        1
176
     1
 90
        0
176
     1
 40
0.6
176
     1
 40
30.0
176
     1
 62
     7
420
 16777215
176
     1
 90
        0
176
     1
 90
        4
176
     1
 62
     7
176
     1
 62
   257
176
     1
 90
        1
176
     1
 90
        1
176
     1
 40
1.0
176
     1
 90
        8
176
     1
 62
     7
176
     1
 40
1.0
176
     1
 90
        1
176
     1
 90
        6
176
     1
 90
        2
176
     1
 62
     7
176
     1
 90
        5
176
     1
 90
        0
176
     1
 90
        0
176
     1
290
     0
176
     1
 90
        1
176
     1
 40
0.0
176
     1
 90
        0
176
     1
290
     0
176
     1
290
     1
176
     1
290
     1
176
     1
290
     0
176
     1
290
     0
176
     1
290
     0
176
     1
290
     0
176
     1
290
     0
176
     1
290
     0
176
     1
 90
       50
176
     1
 40
0.0
176
     1
 40
1.0
176
     1
 90
        0
176
     1
 62
    18
420
        0
176
     1
 90
       50
176
     1
 90
        3
176
     1
 62
     5
420
      255
176
     1
290
     0
176
     1
 90
       50
176
     1
 90
       50
176
     1
 90
       50
176
     1
290
     0
176
     1
 90
       50
176
     1
 62
   256
176
     0
 40
1.0
176
     0
 90
        2
176
     1
  1
strokes_ogs.tif
176
     1
290
     0
176
     1
 40
1.0
176
     1
 40
1.0
176
     1
  0
VISUALSTYLE
  5
5A0B
102
{ACAD_REACTORS
330
59FF
102
}
330
59FF
100
AcDbVisualStyle
  2
Brighten
 70
    12
177
     3
291
     1
 70
    58
 90
        2
176
     1
 90
        2
176
     1
 90
        0
176
     1
 90
        0
176
     1
 40
0.6
176
     1
 40
30.0
176
     1
 62
     7
420
 16777215
176
     1
 90
        1
176
     1
 90
        4
176
     1
 62
     7
176
     1
 62
   257
176
     1
 90
        1
176
     1
 90
        1
176
     1
 40
1.0
176
     1
 90
        8
176
     1
 62
     7
176
     1
 40
1.0
176
     1
 90
        1
176
     1
 90
        6
176
     1
 90
        2
176
     1
 62
     7
176
     1
 90
        5
176
     1
 90
        0
176
     1
 90
        0
176
     1
290
     0
176
     1
 90
        1
176
     1
 40
50.0
176
     1
 90
        0
176
     1
290
     0
176
     1
290
     1
176
     1
290
     1
176
     1
290
     0
176
     1
290
     0
176
     1
290
     0
176
     1
290
     0
176
     1
290
     0
176
     1
290
     0
176
     1
 90
       50
176
     1
 40
0.0
176
     1
 40
1.0
176
     1
 90
        0
176
     1
 62
    18
420
        0
176
     1
 90
       50
176
     1
 90
        3
176
     1
 62
     5
420
      255
176
     1
290
     0
176
     1
 90
       50
176
     1
 90
       50
176
     1
 90
       50
176
     1
290
     0
176
     1
 90
       50
176
     1
 62
   256
176
     0
 40
1.0
176
     0
 90
        2
176
     1
  1
strokes_ogs.tif
176
     1
290
     0
176
     1
 40
1.0
176
     1
 40
1.0
176
     1
  0
VISUALSTYLE
  5
5A0F
102
{ACAD_REACTORS
330
59FF
102
}
330
59FF
100
AcDbVisualStyle
  2
ColorChange
 70
    16
177
     3
291
     1
 70
    58
 90
        2
176
     1
 90
        2
176
     1
 90
        3
176
     1
 90
        0
176
     1
 40
0.6
176
     1
 40
30.0
176
     1
 62
     8
420
  8421504
176
     1
 90
        1
176
     1
 90
        4
176
     1
 62
     7
176
     1
 62
   257
176
     1
 90
        1
176
     1
 90
        1
176
     1
 40
1.0
176
     1
 90
        8
176
     1
 62
     8
420
  8421504
176
     1
 40
1.0
176
     1
 90
        1
176
     1
 90
        6
176
     1
 90
        2
176
     1
 62
     7
176
     1
 90
        5
176
     1
 90
        0
176
     1
 90
        0
176
     1
290
     0
176
     1
 90
        1
176
     1
 40
0.0
176
     1
 90
        0
176
     1
290
     0
176
     1
290
     1
176
     1
290
     1
176
     1
290
     0
176
     1
290
     0
176
     1
290
     0
176
     1
290
     0
176
     1
290
     0
176
     1
290
     0
176
     1
 90
       50
176
     1
 40
0.0
176
     1
 40
1.0
176
     1
 90
        0
176
     1
 62
    18
420
        0
176
     1
 90
       50
176
     1
 90
        3
176
     1
 62
     5
420
      255
176
     1
290
     0
176
     1
 90
       50
176
     1
 90
       50
176
     1
 90
       50
176
     1
290
     0
176
     1
 90
       50
176
     1
 62
   256
176
     0
 40
1.0
176
     0
 90
        2
176
     1
  1
strokes_ogs.tif
176
     1
290
     0
176
     1
 40
1.0
176
     1
 40
1.0
176
     1
  0
VISUALSTYLE
  5
5A09
102
{ACAD_REACTORS
330
59FF
102
}
330
59FF
100
AcDbVisualStyle
  2
Conceptual
 70
     9
177
     3
291
     0
 70
    58
 90
        3
176
     1
 90
        2
176
     1
 90
        0
176
     1
 90
        0
176
     1
 40
0.6
176
     1
 40
30.0
176
     1
 62
     7
420
 16777215
176
     1
 90
        2
176
     1
 90
        2
176
     1
 62
     7
176
     1
 62
   257
176
     1
 90
        1
176
     1
 90
        1
176
     1
 40
179.0
176
     1
 90
        8
176
     1
 62
     7
176
     1
 40
1.0
176
     1
 90
        1
176
     1
 90
        6
176
     1
 90
        2
176
     1
 62
     7
176
     1
 90
        3
176
     1
 90
        0
176
     1
 90
        0
176
     1
290
     0
176
     1
 90
        1
176
     1
 40
0.0
176
     1
 90
        0
176
     1
290
     0
176
     1
290
     1
176
     1
290
     1
176
     1
290
     0
176
     1
290
     0
176
     1
290
     0
176
     1
290
     0
176
     1
290
     0
176
     1
290
     0
176
     1
 90
       50
176
     1
 40
0.0
176
     1
 40
1.0
176
     1
 90
        0
176
     1
 62
    18
420
        0
176
     1
 90
       50
176
     1
 90
        3
176
     1
 62
     5
420
      255
176
     1
290
     0
176
     1
 90
       50
176
     1
 90
       50
176
     1
 90
       50
176
     1
290
     0
176
     1
 90
       50
176
     1
 62
   256
176
     0
 40
1.0
176
     0
 90
        2
176
     1
  1
strokes_ogs.tif
176
     1
290
     0
176
     1
 40
1.0
176
     1
 40
1.0
176
     1
  0
VISUALSTYLE
  5
5A0A
102
{ACAD_REACTORS
330
59FF
102
}
330
59FF
100
AcDbVisualStyle
  2
Dim
 70
    11
177
     3
291
     1
 70
    58
 90
        2
176
     1
 90
        2
176
     1
 90
        0
176
     1
 90
        0
176
     1
 40
0.6
176
     1
 40
30.0
176
     1
 62
     7
420
 16777215
176
     1
 90
        1
176
     1
 90
        4
176
     1
 62
     7
176
     1
 62
   257
176
     1
 90
        1
176
     1
 90
        1
176
     1
 40
1.0
176
     1
 90
        8
176
     1
 62
     7
176
     1
 40
1.0
176
     1
 90
        1
176
     1
 90
        6
176
     1
 90
        2
176
     1
 62
     7
176
     1
 90
        5
176
     1
 90
        0
176
     1
 90
        0
176
     1
290
     0
176
     1
 90
        1
176
     1
 40
-50.0
176
     1
 90
        0
176
     1
290
     0
176
     1
290
     1
176
     1
290
     1
176
     1
290
     0
176
     1
290
     0
176
     1
290
     0
176
     1
290
     0
176
     1
290
     0
176
     1
290
     0
176
     1
 90
       50
176
     1
 40
0.0
176
     1
 40
1.0
176
     1
 90
        0
176
     1
 62
    18
420
        0
176
     1
 90
       50
176
     1
 90
        3
176
     1
 62
     5
420
      255
176
     1
290
     0
176
     1
 90
       50
176
     1
 90
       50
176
     1
 90
       50
176
     1
290
     0
176
     1
 90
       50
176
     1
 62
   256
176
     0
 40
1.0
176
     0
 90
        2
176
     1
  1
strokes_ogs.tif
176
     1
290
     0
176
     1
 40
1.0
176
     1
 40
1.0
176
     1
  0
VISUALSTYLE
  5
5A12
102
{ACAD_REACTORS
330
59FF
102
}
330
59FF
100
AcDbVisualStyle
  2
EdgeColorOff
 70
    22
177
     3
291
     1
 70
    58
 90
        2
176
     0
 90
        2
176
     0
 90
        0
176
     0
 90
        0
176
     0
 40
0.6
176
     0
 40
30.0
176
     0
 62
     7
420
 16777215
176
     0
 90
        1
176
     0
 90
        4
176
     0
 62
     7
176
     0
 62
   257
176
     0
 90
        1
176
     0
 90
        1
176
     0
 40
1.0
176
     0
 90
        8
176
     2
 62
     7
176
     0
 40
1.0
176
     0
 90
        1
176
     0
 90
        6
176
     0
 90
        2
176
     0
 62
     7
176
     0
 90
        5
176
     0
 90
        0
176
     0
 90
        0
176
     0
290
     0
176
     0
 90
        1
176
     0
 40
0.0
176
     0
 90
        0
176
     0
290
     0
176
     0
290
     1
176
     0
290
     1
176
     0
290
     0
176
     0
290
     0
176
     0
290
     0
176
     0
290
     0
176
     0
290
     0
176
     0
290
     0
176
     0
 90
       50
176
     0
 40
0.0
176
     0
 40
1.0
176
     0
 90
        0
176
     0
 62
    18
420
        0
176
     0
 90
       50
176
     0
 90
        3
176
     0
 62
     5
420
      255
176
     0
290
     0
176
     0
 90
       50
176
     0
 90
       50
176
     0
 90
       50
176
     0
290
     0
176
     0
 90
       50
176
     0
 62
   256
176
     0
 40
1.0
176
     0
 90
        2
176
     0
  1
strokes_ogs.tif
176
     0
290
     0
176
     0
 40
1.0
176
     0
 40
1.0
176
     0
  0
VISUALSTYLE
  5
5A0E
102
{ACAD_REACTORS
330
59FF
102
}
330
59FF
100
AcDbVisualStyle
  2
Facepattern
 70
    15
177
     3
291
     1
 70
    58
 90
        2
176
     1
 90
        2
176
     1
 90
        0
176
     1
 90
        0
176
     1
 40
0.6
176
     1
 40
30.0
176
     1
 62
     7
420
 16777215
176
     1
 90
        1
176
     1
 90
        4
176
     1
 62
     7
176
     1
 62
   257
176
     1
 90
        1
176
     1
 90
        1
176
     1
 40
1.0
176
     1
 90
        8
176
     1
 62
     7
176
     1
 40
1.0
176
     1
 90
        1
176
     1
 90
        6
176
     1
 90
        2
176
     1
 62
     7
176
     1
 90
        5
176
     1
 90
        0
176
     1
 90
        0
176
     1
290
     0
176
     1
 90
        1
176
     1
 40
0.0
176
     1
 90
        0
176
     1
290
     0
176
     1
290
     1
176
     1
290
     1
176
     1
290
     0
176
     1
290
     0
176
     1
290
     0
176
     1
290
     0
176
     1
290
     0
176
     1
290
     0
176
     1
 90
       50
176
     1
 40
0.0
176
     1
 40
1.0
176
     1
 90
        0
176
     1
 62
    18
420
        0
176
     1
 90
       50
176
     1
 90
        3
176
     1
 62
     5
420
      255
176
     1
290
     0
176
     1
 90
       50
176
     1
 90
       50
176
     1
 90
       50
176
     1
290
     0
176
     1
 90
       50
176
     1
 62
   256
176
     0
 40
1.0
176
     0
 90
        2
176
     1
  1
strokes_ogs.tif
176
     1
290
     0
176
     1
 40
1.0
176
     1
 40
1.0
176
     1
  0
VISUALSTYLE
  5
5A00
102
{ACAD_REACTORS
330
59FF
102
}
330
59FF
100
AcDbVisualStyle
  2
Flat
 70
     0
177
     3
291
     1
 70
    58
 90
        2
176
     1
 90
        1
176
     1
 90
        1
176
     1
 90
        2
176
     1
 40
0.6
176
     1
 40
30.0
176
     1
 62
     7
420
 16777215
176
     1
 90
        0
176
     1
 90
        0
176
     1
 62
     7
176
     1
 62
   257
176
     1
 90
        1
176
     1
 90
        1
176
     1
 40
1.0
176
     1
 90
        8
176
     1
 62
     7
176
     1
 40
1.0
176
     1
 90
        1
176
     1
 90
        6
176
     1
 90
        2
176
     1
 62
     7
176
     1
 90
        5
176
     1
 90
        0
176
     1
 90
        0
176
     1
290
     0
176
     1
 90
       13
176
     1
 40
0.0
176
     1
 90
        0
176
     1
290
     0
176
     1
290
     1
176
     1
290
     1
176
     1
290
     0
176
     1
290
     0
176
     1
290
     0
176
     1
290
     0
176
     1
290
     0
176
     1
290
     0
176
     1
 90
       50
176
     1
 40
0.0
176
     1
 40
1.0
176
     1
 90
        0
176
     1
 62
    18
420
        0
176
     1
 90
       50
176
     1
 90
        3
176
     1
 62
     5
420
      255
176
     1
290
     0
176
     1
 90
       50
176
     1
 90
       50
176
     1
 90
       50
176
     1
290
     0
176
     1
 90
       50
176
     1
 62
   256
176
     0
 40
1.0
176
     0
 90
        2
176
     1
  1
strokes_ogs.tif
176
     1
290
     0
176
     1
 40
1.0
176
     1
 40
1.0
176
     1
  0
VISUALSTYLE
  5
5A01
102
{ACAD_REACTORS
330
59FF
102
}
330
59FF
100
AcDbVisualStyle
  2
FlatWithEdges
 70
     1
177
     3
291
     1
 70
    58
 90
        2
176
     1
 90
        1
176
     1
 90
        1
176
     1
 90
        2
176
     1
 40
0.6
176
     1
 40
30.0
176
     1
 62
     7
420
 16777215
176
     1
 90
        1
176
     1
 90
        0
176
     1
 62
     7
176
     1
 62
   257
176
     1
 90
        1
176
     1
 90
        1
176
     1
 40
1.0
176
     1
 90
        0
176
     1
 62
   257
176
     1
 40
1.0
176
     1
 90
        1
176
     1
 90
        6
176
     1
 90
        2
176
     1
 62
     7
176
     1
 90
        5
176
     1
 90
        0
176
     1
 90
        0
176
     1
290
     0
176
     1
 90
       13
176
     1
 40
0.0
176
     1
 90
        0
176
     1
290
     0
176
     1
290
     1
176
     1
290
     1
176
     1
290
     0
176
     1
290
     0
176
     1
290
     0
176
     1
290
     0
176
     1
290
     0
176
     1
290
     0
176
     1
 90
       50
176
     1
 40
0.0
176
     1
 40
1.0
176
     1
 90
        0
176
     1
 62
    18
420
        0
176
     1
 90
       50
176
     1
 90
        3
176
     1
 62
     5
420
      255
176
     1
290
     0
176
     1
 90
       50
176
     1
 90
       50
176
     1
 90
       50
176
     1
290
     0
176
     1
 90
       50
176
     1
 62
   256
176
     0
 40
1.0
176
     0
 90
        2
176
     1
  1
strokes_ogs.tif
176
     1
290
     0
176
     1
 40
1.0
176
     1
 40
1.0
176
     1
  0
VISUALSTYLE
  5
5A02
102
{ACAD_REACTORS
330
59FF
102
}
330
59FF
100
AcDbVisualStyle
  2
Gouraud
 70
     2
177
     3
291
     1
 70
    58
 90
        2
176
     1
 90
        2
176
     1
 90
        1
176
     1
 90
        2
176
     1
 40
0.6
176
     1
 40
30.0
176
     1
 62
     7
420
 16777215
176
     1
 90
        0
176
     1
 90
        0
176
     1
 62
     7
176
     1
 62
   257
176
     1
 90
        1
176
     1
 90
        1
176
     1
 40
1.0
176
     1
 90
        0
176
     1
 62
     7
176
     1
 40
1.0
176
     1
 90
        1
176
     1
 90
        6
176
     1
 90
        2
176
     1
 62
     7
176
     1
 90
        5
176
     1
 90
        0
176
     1
 90
        0
176
     1
290
     0
176
     1
 90
       13
176
     1
 40
0.0
176
     1
 90
        0
176
     1
290
     0
176
     1
290
     1
176
     1
290
     1
176
     1
290
     0
176
     1
290
     0
176
     1
290
     0
176
     1
290
     0
176
     1
290
     0
176
     1
290
     0
176
     1
 90
       50
176
     1
 40
0.0
176
     1
 40
1.0
176
     1
 90
        0
176
     1
 62
    18
420
        0
176
     1
 90
       50
176
     1
 90
        3
176
     1
 62
     5
420
      255
176
     1
290
     0
176
     1
 90
       50
176
     1
 90
       50
176
     1
 90
       50
176
     1
290
     0
176
     1
 90
       50
176
     1
 62
   256
176
     0
 40
1.0
176
     0
 90
        2
176
     1
  1
strokes_ogs.tif
176
     1
290
     0
176
     1
 40
1.0
176
     1
 40
1.0
176
     1
  0
VISUALSTYLE
  5
5A03
102
{ACAD_REACTORS
330
59FF
102
}
330
59FF
100
AcDbVisualStyle
  2
GouraudWithEdges
 70
     3
177
     3
291
     1
 70
    58
 90
        2
176
     1
 90
        2
176
     1
 90
        1
176
     1
 90
        2
176
     1
 40
0.6
176
     1
 40
30.0
176
     1
 62
     7
420
 16777215
176
     1
 90
        1
176
     1
 90
        0
176
     1
 62
     7
176
     1
 62
   257
176
     1
 90
        1
176
     1
 90
        1
176
     1
 40
1.0
176
     1
 90
        0
176
     1
 62
   257
176
     1
 40
1.0
176
     1
 90
        1
176
     1
 90
        6
176
     1
 90
        2
176
     1
 62
     7
176
     1
 90
        5
176
     1
 90
        0
176
     1
 90
        0
176
     1
290
     0
176
     1
 90
       13
176
     1
 40
0.0
176
     1
 90
        0
176
     1
290
     0
176
     1
290
     1
176
     1
290
     1
176
     1
290
     0
176
     1
290
     0
176
     1
290
     0
176
     1
290
     0
176
     1
290
     0
176
     1
290
     0
176
     1
 90
       50
176
     1
 40
0.0
176
     1
 40
1.0
176
     1
 90
        0
176
     1
 62
    18
420
        0
176
     1
 90
       50
176
     1
 90
        3
176
     1
 62
     5
420
      255
176
     1
290
     0
176
     1
 90
       50
176
     1
 90
       50
176
     1
 90
       50
176
     1
290
     0
176
     1
 90
       50
176
     1
 62
   256
176
     0
 40
1.0
176
     0
 90
        2
176
     1
  1
strokes_ogs.tif
176
     1
290
     0
176
     1
 40
1.0
176
     1
 40
1.0
176
     1
  0
VISUALSTYLE
  5
5A06
102
{ACAD_REACTORS
330
59FF
102
}
330
59FF
100
AcDbVisualStyle
  2
Hidden
 70
     6
177
     3
291
     0
 70
    58
 90
        1
176
     1
 90
        2
176
     1
 90
        2
176
     1
 90
        0
176
     1
 40
0.6
176
     1
 40
30.0
176
     1
 62
     7
420
 16777215
176
     1
 90
        2
176
     1
 90
        2
176
     1
 62
     7
176
     1
 62
   257
176
     1
 90
        2
176
     1
 90
        1
176
     1
 40
40.0
176
     1
 90
        0
176
     1
 62
   257
176
     1
 40
1.0
176
     1
 90
        1
176
     1
 90
        6
176
     1
 90
        2
176
     1
 62
     7
176
     1
 90
        3
176
     1
 90
        0
176
     1
 90
        0
176
     1
290
     0
176
     1
 90
        1
176
     1
 40
0.0
176
     1
 90
        0
176
     1
290
     0
176
     1
290
     1
176
     1
290
     1
176
     1
290
     0
176
     1
290
     0
176
     1
290
     0
176
     1
290
     0
176
     1
290
     0
176
     1
290
     0
176
     1
 90
       50
176
     1
 40
0.0
176
     1
 40
1.0
176
     1
 90
        0
176
     1
 62
    18
420
        0
176
     1
 90
       50
176
     1
 90
        3
176
     1
 62
     5
420
      255
176
     1
290
     0
176
     1
 90
       50
176
     1
 90
       50
176
     1
 90
       50
176
     1
290
     0
176
     1
 90
       50
176
     1
 62
   256
176
     0
 40
1.0
176
     0
 90
        2
176
     1
  1
strokes_ogs.tif
176
     1
290
     0
176
     1
 40
1.0
176
     1
 40
1.0
176
     1
  0
VISUALSTYLE
  5
5A10
102
{ACAD_REACTORS
330
59FF
102
}
330
59FF
100
AcDbVisualStyle
  2
JitterOff
 70
    20
177
     3
291
     1
 70
    58
 90
        2
176
     0
 90
        2
176
     0
 90
        0
176
     0
 90
        0
176
     0
 40
0.6
176
     0
 40
30.0
176
     0
 62
     7
420
 16777215
176
     0
 90
        1
176
     0
 90
        4
176
     0
 62
     7
176
     0
 62
   257
176
     0
 90
        1
176
     0
 90
        1
176
     0
 40
1.0
176
     0
 90
       10
176
     2
 62
     7
176
     0
 40
1.0
176
     0
 90
        1
176
     0
 90
        6
176
     0
 90
        2
176
     0
 62
     7
176
     0
 90
        5
176
     0
 90
        0
176
     0
 90
        0
176
     0
290
     0
176
     0
 90
        1
176
     0
 40
0.0
176
     0
 90
        0
176
     0
290
     0
176
     0
290
     1
176
     0
290
     1
176
     0
290
     0
176
     0
290
     0
176
     0
290
     0
176
     0
290
     0
176
     0
290
     0
176
     0
290
     0
176
     0
 90
       50
176
     0
 40
0.0
176
     0
 40
1.0
176
     0
 90
        0
176
     0
 62
    18
420
        0
176
     0
 90
       50
176
     0
 90
        3
176
     0
 62
     5
420
      255
176
     0
290
     0
176
     0
 90
       50
176
     0
 90
       50
176
     0
 90
       50
176
     0
290
     0
176
     0
 90
       50
176
     0
 62
   256
176
     0
 40
1.0
176
     0
 90
        2
176
     0
  1
strokes_ogs.tif
176
     0
290
     0
176
     0
 40
1.0
176
     0
 40
1.0
176
     0
  0
VISUALSTYLE
  5
5A0D
102
{ACAD_REACTORS
330
59FF
102
}
330
59FF
100
AcDbVisualStyle
  2
Linepattern
 70
    14
177
     3
291
     1
 70
    58
 90
        2
176
     1
 90
        2
176
     1
 90
        0
176
     1
 90
        0
176
     1
 40
0.6
176
     1
 40
30.0
176
     1
 62
     7
420
 16777215
176
     1
 90
        1
176
     1
 90
        4
176
     1
 62
     7
176
     1
 62
   257
176
     1
 90
        7
176
     1
 90
        7
176
     1
 40
1.0
176
     1
 90
        8
176
     1
 62
     7
176
     1
 40
1.0
176
     1
 90
        1
176
     1
 90
        6
176
     1
 90
        2
176
     1
 62
     7
176
     1
 90
        5
176
     1
 90
        0
176
     1
 90
        0
176
     1
290
     0
176
     1
 90
        1
176
     1
 40
0.0
176
     1
 90
        0
176
     1
290
     0
176
     1
290
     1
176
     1
290
     1
176
     1
290
     0
176
     1
290
     0
176
     1
290
     0
176
     1
290
     0
176
     1
290
     0
176
     1
290
     0
176
     1
 90
       50
176
     1
 40
0.0
176
     1
 40
1.0
176
     1
 90
        0
176
     1
 62
    18
420
        0
176
     1
 90
       50
176
     1
 90
        3
176
     1
 62
     5
420
      255
176
     1
290
     0
176
     1
 90
       50
176
     1
 90
       50
176
     1
 90
       50
176
     1
290
     0
176
     1
 90
       50
176
     1
 62
   256
176
     0
 40
1.0
176
     0
 90
        2
176
     1
  1
strokes_ogs.tif
176
     1
290
     0
176
     1
 40
1.0
176
     1
 40
1.0
176
     1
  0
VISUALSTYLE
  5
5A11
102
{ACAD_REACTORS
330
59FF
102
}
330
59FF
100
AcDbVisualStyle
  2
OverhangOff
 70
    21
177
     3
291
     1
 70
    58
 90
        2
176
     0
 90
        2
176
     0
 90
        0
176
     0
 90
        0
176
     0
 40
0.6
176
     0
 40
30.0
176
     0
 62
     7
420
 16777215
176
     0
 90
        1
176
     0
 90
        4
176
     0
 62
     7
176
     0
 62
   257
176
     0
 90
        1
176
     0
 90
        1
176
     0
 40
1.0
176
     0
 90
        9
176
     2
 62
     7
176
     0
 40
1.0
176
     0
 90
        1
176
     0
 90
        6
176
     0
 90
        2
176
     0
 62
     7
176
     0
 90
        5
176
     0
 90
        0
176
     0
 90
        0
176
     0
290
     0
176
     0
 90
        1
176
     0
 40
0.0
176
     0
 90
        0
176
     0
290
     0
176
     0
290
     1
176
     0
290
     1
176
     0
290
     0
176
     0
290
     0
176
     0
290
     0
176
     0
290
     0
176
     0
290
     0
176
     0
290
     0
176
     0
 90
       50
176
     0
 40
0.0
176
     0
 40
1.0
176
     0
 90
        0
176
     0
 62
    18
420
        0
176
     0
 90
       50
176
     0
 90
        3
176
     0
 62
     5
420
      255
176
     0
290
     0
176
     0
 90
       50
176
     0
 90
       50
176
     0
 90
       50
176
     0
290
     0
176
     0
 90
       50
176
     0
 62
   256
176
     0
 40
1.0
176
     0
 90
        2
176
     0
  1
strokes_ogs.tif
176
     0
290
     0
176
     0
 40
1.0
176
     0
 40
1.0
176
     0
  0
VISUALSTYLE
  5
5A08
102
{ACAD_REACTORS
330
59FF
102
}
330
59FF
100
AcDbVisualStyle
  2
Realistic
 70
     8
177
     3
291
     0
 70
    58
 90
        2
176
     1
 90
        3
176
     1
 90
        0
176
     1
 90
        2
176
     1
 40
0.6
176
     1
 40
30.0
176
     1
 62
     7
420
 16777215
176
     1
 90
        0
176
     1
 90
        0
176
     1
 62
     7
176
     1
 62
   257
176
     1
 90
        1
176
     1
 90
        1
176
     1
 40
1.0
176
     1
 90
        8
176
     1
 62
   257
176
     1
 40
1.0
176
     1
 90
        1
176
     1
 90
        6
176
     1
 90
        2
176
     1
 62
     7
176
     1
 90
        3
176
     1
 90
        0
176
     1
 90
        0
176
     1
290
     0
176
     1
 90
       13
176
     1
 40
0.0
176
     1
 90
        0
176
     1
290
     0
176
     1
290
     1
176
     1
290
     1
176
     1
290
     0
176
     1
290
     0
176
     1
290
     0
176
     1
290
     0
176
     1
290
     0
176
     1
290
     0
176
     1
 90
       50
176
     1
 40
0.0
176
     1
 40
1.0
176
     1
 90
        0
176
     1
 62
    18
420
        0
176
     1
 90
       50
176
     1
 90
        3
176
     1
 62
     5
420
      255
176
     1
290
     0
176
     1
 90
       50
176
     1
 90
       50
176
     1
 90
       50
176
     1
290
     0
176
     1
 90
       50
176
     1
 62
   256
176
     0
 40
1.0
176
     0
 90
        2
176
     1
  1
strokes_ogs.tif
176
     1
290
     0
176
     1
 40
1.0
176
     1
 40
1.0
176
     1
  0
VISUALSTYLE
  5
5A17
102
{ACAD_REACTORS
330
59FF
102
}
330
59FF
100
AcDbVisualStyle
  2
Shaded
 70
    27
177
     3
291
     0
 70
    58
 90
        2
176
     1
 90
        2
176
     1
 90
        1
176
     1
 90
        2
176
     1
 40
0.6
176
     1
 40
30.0
176
     1
 62
     7
420
 16777215
176
     1
 90
        0
176
     1
 90
        4
176
     1
 62
     7
176
     1
 62
   257
176
     1
 90
        1
176
     1
 90
        1
176
     1
 40
1.0
176
     1
 90
        8
176
     1
 62
   257
176
     1
 40
1.0
176
     1
 90
        1
176
     1
 90
        6
176
     1
 90
        2
176
     1
 62
     8
420
  7895160
176
     1
 90
        3
176
     1
 90
        0
176
     1
 90
        0
176
     1
290
     0
176
     1
 90
        5
176
     1
 40
0.0
176
     1
 90
        0
176
     1
290
     0
176
     1
290
     1
176
     1
290
     1
176
     1
290
     0
176
     1
290
     0
176
     1
290
     0
176
     1
290
     0
176
     1
290
     0
176
     1
290
     0
176
     1
 90
       50
176
     1
 40
0.0
176
     1
 40
1.0
176
     1
 90
        0
176
     1
 62
    18
420
        0
176
     1
 90
       50
176
     1
 90
        3
176
     1
 62
     5
420
      255
176
     1
290
     0
176
     1
 90
       50
176
     1
 90
       50
176
     1
 90
       50
176
     1
290
     0
176
     1
 90
       50
176
     1
 62
   256
176
     0
 40
1.0
176
     0
 90
        2
176
     1
  1
strokes_ogs.tif
176
     1
290
     0
176
     1
 40
1.0
176
     1
 40
1.0
176
     1
  0
VISUALSTYLE
  5
5A16
102
{ACAD_REACTORS
330
59FF
102
}
330
59FF
100
AcDbVisualStyle
  2
Shaded with edges
 70
    26
177
     3
291
     0
 70
    58
 90
        2
176
     1
 90
        2
176
     1
 90
        1
176
     1
 90
        2
176
     1
 40
0.6
176
     1
 40
30.0
176
     1
 62
     7
420
 16777215
176
     1
 90
        1
176
     1
 90
       10
176
     1
 62
     7
176
     1
 62
   257
176
     1
 90
        2
176
     1
 90
        1
176
     1
 40
1.0
176
     1
 90
        8
176
     1
 62
   257
176
     1
 40
1.0
176
     1
 90
        1
176
     1
 90
        6
176
     1
 90
        2
176
     1
 62
     7
176
     1
 90
        3
176
     1
 90
        0
176
     1
 90
        0
176
     1
290
     0
176
     1
 90
        5
176
     1
 40
0.0
176
     1
 90
        0
176
     1
290
     0
176
     1
290
     1
176
     1
290
     1
176
     1
290
     0
176
     1
290
     0
176
     1
290
     0
176
     1
290
     0
176
     1
290
     0
176
     1
290
     0
176
     1
 90
       50
176
     1
 40
0.0
176
     1
 40
1.0
176
     1
 90
        0
176
     1
 62
    18
420
        0
176
     1
 90
       50
176
     1
 90
        3
176
     1
 62
     5
420
      255
176
     1
290
     0
176
     1
 90
       50
176
     1
 90
       50
176
     1
 90
       50
176
     1
290
     0
176
     1
 90
       50
176
     1
 62
   256
176
     0
 40
1.0
176
     0
 90
        2
176
     1
  1
strokes_ogs.tif
176
     1
290
     0
176
     1
 40
1.0
176
     1
 40
1.0
176
     1
  0
VISUALSTYLE
  5
5A13
102
{ACAD_REACTORS
330
59FF
102
}
330
59FF
100
AcDbVisualStyle
  2
Shades of Gray
 70
    23
177
     3
291
     0
 70
    58
 90
        2
176
     1
 90
        2
176
     1
 90
        3
176
     1
 90
        0
176
     1
 40
0.6
176
     1
 40
30.0
176
     1
 62
     7
420
 16777215
176
     1
 90
        2
176
     1
 90
        2
176
     1
 62
     7
176
     1
 62
     7
176
     1
 90
        1
176
     1
 90
        1
176
     1
 40
40.0
176
     1
 90
        8
176
     1
 62
     7
176
     1
 40
1.0
176
     1
 90
        1
176
     1
 90
        6
176
     1
 90
        2
176
     1
 62
     7
176
     1
 90
        3
176
     1
 90
        0
176
     1
 90
        0
176
     1
290
     0
176
     1
 90
        1
176
     1
 40
0.0
176
     1
 90
        0
176
     1
290
     0
176
     1
290
     1
176
     1
290
     1
176
     1
290
     0
176
     1
290
     0
176
     1
290
     0
176
     1
290
     0
176
     1
290
     0
176
     1
290
     0
176
     1
 90
       50
176
     1
 40
0.0
176
     1
 40
1.0
176
     1
 90
        0
176
     1
 62
    18
420
        0
176
     1
 90
       50
176
     1
 90
        3
176
     1
 62
     5
420
      255
176
     1
290
     0
176
     1
 90
       50
176
     1
 90
       50
176
     1
 90
       50
176
     1
290
     0
176
     1
 90
       50
176
     1
 62
   256
176
     0
 40
1.0
176
     0
 90
        2
176
     1
  1
strokes_ogs.tif
176
     1
290
     0
176
     1
 40
1.0
176
     1
 40
1.0
176
     1
  0
VISUALSTYLE
  5
5A14
102
{ACAD_REACTORS
330
59FF
102
}
330
59FF
100
AcDbVisualStyle
  2
Sketchy
 70
    24
177
     3
291
     0
 70
    58
 90
        1
176
     1
 90
        2
176
     1
 90
        2
176
     1
 90
        0
176
     1
 40
0.6
176
     1
 40
30.0
176
     1
 62
     7
420
 16777215
176
     1
 90
        2
176
     1
 90
        2
176
     1
 62
     7
176
     1
 62
     7
176
     1
 90
        1
176
     1
 90
        1
176
     1
 40
40.0
176
     1
 90
       11
176
     1
 62
     7
176
     1
 40
1.0
176
     1
 90
        1
176
     1
 90
        6
176
     1
 90
        2
176
     1
 62
     7
176
     1
 90
        6
176
     1
 90
        0
176
     1
 90
        0
176
     1
290
     0
176
     1
 90
        1
176
     1
 40
0.0
176
     1
 90
        0
176
     1
290
     0
176
     1
290
     1
176
     1
290
     1
176
     1
290
     0
176
     1
290
     0
176
     1
290
     0
176
     1
290
     0
176
     1
290
     0
176
     1
290
     0
176
     1
 90
       50
176
     1
 40
0.0
176
     1
 40
1.0
176
     1
 90
        0
176
     1
 62
    18
420
        0
176
     1
 90
       50
176
     1
 90
        3
176
     1
 62
     5
420
      255
176
     1
290
     0
176
     1
 90
       50
176
     1
 90
       50
176
     1
 90
       50
176
     1
290
     0
176
     1
 90
       50
176
     1
 62
   256
176
     0
 40
1.0
176
     0
 90
        2
176
     1
  1
strokes_ogs.tif
176
     1
290
     0
176
     1
 40
1.0
176
     1
 40
1.0
176
     1
  0
VISUALSTYLE
  5
5A0C
102
{ACAD_REACTORS
330
59FF
102
}
330
59FF
100
AcDbVisualStyle
  2
Thicken
 70
    13
177
     3
291
     1
 70
    58
 90
        2
176
     1
 90
        2
176
     1
 90
        0
176
     1
 90
        0
176
     1
 40
0.6
176
     1
 40
30.0
176
     1
 62
     7
420
 16777215
176
     1
 90
        1
176
     1
 90
        4
176
     1
 62
     7
176
     1
 62
   257
176
     1
 90
        1
176
     1
 90
        1
176
     1
 40
1.0
176
     1
 90
       12
176
     1
 62
     7
176
     1
 40
1.0
176
     1
 90
        1
176
     1
 90
        6
176
     1
 90
        2
176
     1
 62
     7
176
     1
 90
        5
176
     1
 90
        0
176
     1
 90
        0
176
     1
290
     0
176
     1
 90
        1
176
     1
 40
0.0
176
     1
 90
        0
176
     1
290
     0
176
     1
290
     1
176
     1
290
     1
176
     1
290
     0
176
     1
290
     0
176
     1
290
     0
176
     1
290
     0
176
     1
290
     0
176
     1
290
     0
176
     1
 90
       50
176
     1
 40
0.0
176
     1
 40
1.0
176
     1
 90
        0
176
     1
 62
    18
420
        0
176
     1
 90
       50
176
     1
 90
        3
176
     1
 62
     5
420
      255
176
     1
290
     0
176
     1
 90
       50
176
     1
 90
       50
176
     1
 90
       50
176
     1
290
     0
176
     1
 90
       50
176
     1
 62
   256
176
     0
 40
1.0
176
     0
 90
        2
176
     1
  1
strokes_ogs.tif
176
     1
290
     0
176
     1
 40
1.0
176
     1
 40
1.0
176
     1
  0
VISUALSTYLE
  5
5A05
102
{ACAD_REACTORS
330
59FF
102
}
330
59FF
100
AcDbVisualStyle
  2
Wireframe
 70
     5
177
     3
291
     0
 70
    58
 90
        0
176
     1
 90
        2
176
     1
 90
        0
176
     1
 90
        0
176
     1
 40
0.6
176
     1
 40
30.0
176
     1
 62
     7
420
 16777215
176
     1
 90
        1
176
     1
 90
        4
176
     1
 62
     7
176
     1
 62
   257
176
     1
 90
        1
176
     1
 90
        1
176
     1
 40
1.0
176
     1
 90
        0
176
     1
 62
   257
176
     1
 40
1.0
176
     1
 90
        1
176
     1
 90
        6
176
     1
 90
        2
176
     1
 62
     7
176
     1
 90
        3
176
     1
 90
        0
176
     1
 90
        0
176
     1
290
     0
176
     1
 90
        1
176
     1
 40
0.0
176
     1
 90
        0
176
     1
290
     0
176
     1
290
     1
176
     1
290
     1
176
     1
290
     0
176
     1
290
     0
176
     1
290
     0
176
     1
290
     0
176
     1
290
     0
176
     1
290
     0
176
     1
 90
       50
176
     1
 40
0.0
176
     1
 40
1.0
176
     1
 90
        0
176
     1
 62
    18
420
        0
176
     1
 90
       50
176
     1
 90
        3
176
     1
 62
     5
420
      255
176
     1
290
     0
176
     1
 90
       50
176
     1
 90
       50
176
     1
 90
       50
176
     1
290
     0
176
     1
 90
       50
176
     1
 62
   256
176
     0
 40
1.0
176
     0
 90
        2
176
     1
  1
strokes_ogs.tif
176
     1
290
     0
176
     1
 40
1.0
176
     1
 40
1.0
176
     1
  0
VISUALSTYLE
  5
5A15
102
{ACAD_REACTORS
330
59FF
102
}
330
59FF
100
AcDbVisualStyle
  2
X-Ray
 70
    25
177
     3
291
     0
 70
    58
 90
        2
176
     1
 90
        2
176
     1
 90
        1
176
     1
 90
        1
176
     1
 40
0.5
176
     1
 40
30.0
176
     1
 62
     7
420
 16777215
176
     1
 90
        1
176
     1
 90
        0
176
     1
 62
     7
176
     1
 62
   257
176
     1
 90
        1
176
     1
 90
        1
176
     1
 40
1.0
176
     1
 90
        8
176
     1
 62
     7
176
     1
 40
1.0
176
     1
 90
        1
176
     1
 90
        6
176
     1
 90
        2
176
     1
 62
     7
176
     1
 90
        3
176
     1
 90
        0
176
     1
 90
        0
176
     1
290
     0
176
     1
 90
       13
176
     1
 40
0.0
176
     1
 90
        0
176
     1
290
     0
176
     1
290
     1
176
     1
290
     1
176
     1
290
     0
176
     1
290
     0
176
     1
290
     0
176
     1
290
     0
176
     1
290
     0
176
     1
290
     0
176
     1
 90
       50
176
     1
 40
0.0
176
     1
 40
1.0
176
     1
 90
        0
176
     1
 62
    18
420
        0
176
     1
 90
       50
176
     1
 90
        3
176
     1
 62
     5
420
      255
176
     1
290
     0
176
     1
 90
       50
176
     1
 90
       50
176
     1
 90
       50
176
     1
290
     0
176
     1
 90
       50
176
     1
 62
   256
176
     0
 40
1.0
176
     0
 90
        2
176
     1
  1
strokes_ogs.tif
176
     1
290
     0
176
     1
 40
1.0
176
     1
 40
1.0
176
     1
  0
DICTIONARYVAR
  5
5A21
102
{ACAD_REACTORS
330
5A20
102
}
330
5A20
100
DictionaryVariables
280
     0
  1
1:1
  0
DICTIONARYVAR
  5
5A23
102
{ACAD_REACTORS
330
5A20
102
}
330
5A20
100
DictionaryVariables
280
     0
  1
Standard
  0
DICTIONARYVAR
  5
5A22
102
{ACAD_REACTORS
330
5A20
102
}
330
5A20
100
DictionaryVariables
280
     0
  1
Standard
  0
DICTIONARYVAR
  5
5A24
102
{ACAD_REACTORS
330
5A20
102
}
330
5A20
100
DictionaryVariables
280
     0
  1
0
  0
DICTIONARY
  5
5A29
330
5A19
100
AcDbDictionary
280
     1
281
     1
  3
ACAD_ROUNDTRIP_2008_TABLESTYLE_CELLSTYLEMAP
360
5A2A
  0
CELLSTYLEMAP
  5
5A2A
102
{ACAD_REACTORS
330
5A29
102
}
330
5A29
100
AcDbCellStyleMap
 90
        3
300
CELLSTYLE
  1
TABLEFORMAT_BEGIN
 90
        5
170
     1
 91
        0
 92
    32768
 62
   257
 93
        1
300
CONTENTFORMAT
  1
CONTENTFORMAT_BEGIN
 90
        0
 91
        0
 92
        4
 93
        0
300

 40
0.0
140
1.0
 94
        5
 62
     0
340
59C1
144
0.25
309
CONTENTFORMAT_END
171
     1
301
MARGIN
  1
CELLMARGIN_BEGIN
 40
0.06
 40
0.06
 40
0.06
 40
0.06
 40
0.06
 40
0.06
309
CELLMARGIN_END
 94
        6
 95
        1
302
GRIDFORMAT
  1
GRIDFORMAT_BEGIN
 90
        0
 91
        1
 62
     0
 92
       -2
340
59C3
 93
        0
 40
0.045
309
GRIDFORMAT_END
 95
        2
302
GRIDFORMAT
  1
GRIDFORMAT_BEGIN
 90
        0
 91
        1
 62
     0
 92
       -2
340
59C3
 93
        0
 40
0.045
309
GRIDFORMAT_END
 95
        4
302
GRIDFORMAT
  1
GRIDFORMAT_BEGIN
 90
        0
 91
        1
 62
     0
 92
       -2
340
59C3
 93
        0
 40
0.045
309
GRIDFORMAT_END
 95
        8
302
GRIDFORMAT
  1
GRIDFORMAT_BEGIN
 90
        0
 91
        1
 62
     0
 92
       -2
340
59C3
 93
        0
 40
0.045
309
GRIDFORMAT_END
 95
       16
302
GRIDFORMAT
  1
GRIDFORMAT_BEGIN
 90
        0
 91
        1
 62
     0
 92
       -2
340
59C3
 93
        0
 40
0.045
309
GRIDFORMAT_END
 95
       32
302
GRIDFORMAT
  1
GRIDFORMAT_BEGIN
 90
        0
 91
        1
 62
     0
 92
       -2
340
59C3
 93
        0
 40
0.045
309
GRIDFORMAT_END
309
TABLEFORMAT_END
  1
CELLSTYLE_BEGIN
 90
        1
 91
        1
300
_TITLE
309
CELLSTYLE_END
300
CELLSTYLE
  1
TABLEFORMAT_BEGIN
 90
        5
170
     1
 91
        0
 92
        0
 62
   257
 93
        1
300
CONTENTFORMAT
  1
CONTENTFORMAT_BEGIN
 90
        0
 91
        0
 92
        4
 93
        0
300

 40
0.0
140
1.0
 94
        5
 62
     0
340
59C1
144
0.18
309
CONTENTFORMAT_END
171
     1
301
MARGIN
  1
CELLMARGIN_BEGIN
 40
0.06
 40
0.06
 40
0.06
 40
0.06
 40
0.06
 40
0.06
309
CELLMARGIN_END
 94
        6
 95
        1
302
GRIDFORMAT
  1
GRIDFORMAT_BEGIN
 90
        0
 91
        1
 62
     0
 92
       -2
340
59C3
 93
        0
 40
0.045
309
GRIDFORMAT_END
 95
        2
302
GRIDFORMAT
  1
GRIDFORMAT_BEGIN
 90
        0
 91
        1
 62
     0
 92
       -2
340
59C3
 93
        0
 40
0.045
309
GRIDFORMAT_END
 95
        4
302
GRIDFORMAT
  1
GRIDFORMAT_BEGIN
 90
        0
 91
        1
 62
     0
 92
       -2
340
59C3
 93
        0
 40
0.045
309
GRIDFORMAT_END
 95
        8
302
GRIDFORMAT
  1
GRIDFORMAT_BEGIN
 90
        0
 91
        1
 62
     0
 92
       -2
340
59C3
 93
        0
 40
0.045
309
GRIDFORMAT_END
 95
       16
302
GRIDFORMAT
  1
GRIDFORMAT_BEGIN
 90
        0
 91
        1
 62
     0
 92
       -2
340
59C3
 93
        0
 40
0.045
309
GRIDFORMAT_END
 95
       32
302
GRIDFORMAT
  1
GRIDFORMAT_BEGIN
 90
        0
 91
        1
 62
     0
 92
       -2
340
59C3
 93
        0
 40
0.045
309
GRIDFORMAT_END
309
TABLEFORMAT_END
  1
CELLSTYLE_BEGIN
 90
        2
 91
        1
300
_HEADER
309
CELLSTYLE_END
300
CELLSTYLE
  1
TABLEFORMAT_BEGIN
 90
        5
170
     1
 91
        0
 92
        0
 62
   257
 93
        1
300
CONTENTFORMAT
  1
CONTENTFORMAT_BEGIN
 90
        0
 91
        0
 92
        4
 93
        0
300

 40
0.0
140
1.0
 94
        2
 62
     0
340
59C1
144
0.18
309
CONTENTFORMAT_END
171
     1
301
MARGIN
  1
CELLMARGIN_BEGIN
 40
0.06
 40
0.06
 40
0.06
 40
0.06
 40
0.06
 40
0.06
309
CELLMARGIN_END
 94
        6
 95
        1
302
GRIDFORMAT
  1
GRIDFORMAT_BEGIN
 90
        0
 91
        1
 62
     0
 92
       -2
340
59C3
 93
        0
 40
0.045
309
GRIDFORMAT_END
 95
        2
302
GRIDFORMAT
  1
GRIDFORMAT_BEGIN
 90
        0
 91
        1
 62
     0
 92
       -2
340
59C3
 93
        0
 40
0.045
309
GRIDFORMAT_END
 95
        4
302
GRIDFORMAT
  1
GRIDFORMAT_BEGIN
 90
        0
 91
        1
 62
     0
 92
       -2
340
59C3
 93
        0
 40
0.045
309
GRIDFORMAT_END
 95
        8
302
GRIDFORMAT
  1
GRIDFORMAT_BEGIN
 90
        0
 91
        1
 62
     0
 92
       -2
340
59C3
 93
        0
 40
0.045
309
GRIDFORMAT_END
 95
       16
302
GRIDFORMAT
  1
GRIDFORMAT_BEGIN
 90
        0
 91
        1
 62
     0
 92
       -2
340
59C3
 93
        0
 40
0.045
309
GRIDFORMAT_END
 95
       32
302
GRIDFORMAT
  1
GRIDFORMAT_BEGIN
 90
        0
 91
        1
 62
     0
 92
       -2
340
59C3
 93
        0
 40
0.045
309
GRIDFORMAT_END
309
TABLEFORMAT_END
  1
CELLSTYLE_BEGIN
 90
        3
 91
        2
300
_DATA
309
CELLSTYLE_END
  0
ENDSEC
  0
EOF
