  0
SECTION
  2
HEADER
  9
$ACADVER
  1
AC1009
  9
$DWGCODEPAGE
  3
ansi_1252
  9
$INSBASE
 10
0.0
 20
0.0
 30
0.0
  9
$EXTMIN
 10
-0.000000000007276
 20
0.0
 30
0.0
  9
$EXTMAX
 10
34375.89773943181
 20
17955.95716581255
 30
0.0
  9
$LIMMIN
 10
0.0
 20
0.0
  9
$LIMMAX
 10
12.0
 20
9.0
  9
$ORTHOMODE
 70
     1
  9
$REGENMODE
 70
     1
  9
$FILLMODE
 70
     1
  9
$QTEXTMODE
 70
     0
  9
$MIRRTEXT
 70
     0
  9
$DRAGMODE
 70
     2
  9
$LTSCALE
 40
5.0
  9
$OSMODE
 70
 16383
  9
$ATTMODE
 70
     2
  9
$TEXTSIZE
 40
19.0
  9
$TRACEWID
 40
0.05
  9
$TEXTSTYLE
  7
STILE1
  9
$CLAYER
  8
0
  9
$CELTYPE
  6
BYLAYER
  9
$CECOLOR
 62
   256
  9
$DIMSCALE
 40
20.0
  9
$DIMASZ
 40
2.5
  9
$DIMEXO
 40
1.0
  9
$DIMDLI
 40
0.0
  9
$DIMRND
 40
0.0
  9
$DIMDLE
 40
0.0
  9
$DIMEXE
 40
1.0
  9
$DIMTP
 40
0.0
  9
$DIMTM
 40
0.0
  9
$DIMTXT
 40
2.5
  9
$DIMCEN
 40
1.0
  9
$DIMTSZ
 40
0.0
  9
$DIMTOL
 70
     0
  9
$DIMLIM
 70
     0
  9
$DIMTIH
 70
     0
  9
$DIMTOH
 70
     0
  9
$DIMSE1
 70
     0
  9
$DIMSE2
 70
     0
  9
$DIMTAD
 70
     1
  9
$DIMZIN
 70
     8
  9
$DIMBLK
  1

  9
$DIMASO
 70
     1
  9
$DIMSHO
 70
     0
  9
$DIMPOST
  1

  9
$DIMAPOST
  1

  9
$DIMALT
 70
     0
  9
$DIMALTD
 70
     2
  9
$DIMALTF
 40
25.4
  9
$DIMLFAC
 40
1.0
  9
$DIMTOFL
 70
     1
  9
$DIMTVP
 40
0.0
  9
$DIMTIX
 70
     1
  9
$DIMSOXD
 70
     0
  9
$DIMSAH
 70
     0
  9
$DIMBLK1
  1

  9
$DIMBLK2
  1

  9
$DIMSTYLE
  2
STANDARD
  9
$DIMCLRD
 70
     0
  9
$DIMCLRE
 70
     0
  9
$DIMCLRT
 70
     0
  9
$DIMTFAC
 40
1.0
  9
$DIMGAP
 40
1.5
  9
$LUNITS
 70
     2
  9
$LUPREC
 70
     4
  9
$SKETCHINC
 40
0.1
  9
$FILLETRAD
 40
500.0
  9
$AUNITS
 70
     0
  9
$AUPREC
 70
     0
  9
$MENU
  1
acad
  9
$ELEVATION
 40
0.0
  9
$PELEVATION
 40
0.0
  9
$THICKNESS
 40
0.0
  9
$LIMCHECK
 70
     0
  9
$CHAMFERA
 40
0.0
  9
$CHAMFERB
 40
0.0
  9
$SKPOLY
 70
     0
  9
$TDCREATE
 40
2450277.54597441
  9
$TDUPDATE
 40
2459760.600995417
  9
$TDINDWG
 40
23.4979178472
  9
$TDUSRTIMER
 40
0.0004328935
  9
$USRTIMER
 70
     1
  9
$ANGBASE
 50
0.0
  9
$ANGDIR
 70
     0
  9
$PDMODE
 70
     0
  9
$PDSIZE
 40
0.0
  9
$PLINEWID
 40
0.0
  9
$COORDS
 70
     1
  9
$SPLFRAME
 70
     0
  9
$SPLINETYPE
 70
     6
  9
$SPLINESEGS
 70
     8
  9
$ATTDIA
 70
     0
  9
$ATTREQ
 70
     1
  9
$HANDLING
 70
     1
  9
$HANDSEED
  5
B1AD4
  9
$SURFTAB1
 70
     6
  9
$SURFTAB2
 70
     6
  9
$SURFTYPE
 70
     6
  9
$SURFU
 70
     6
  9
$SURFV
 70
     6
  9
$UCSNAME
  2

  9
$UCSORG
 10
0.0
 20
0.0
 30
0.0
  9
$UCSXDIR
 10
1.0
 20
0.0
 30
0.0
  9
$UCSYDIR
 10
0.0
 20
1.0
 30
0.0
  9
$PUCSNAME
  2

  9
$PUCSORG
 10
0.0
 20
0.0
 30
0.0
  9
$PUCSXDIR
 10
1.0
 20
0.0
 30
0.0
  9
$PUCSYDIR
 10
0.0
 20
1.0
 30
0.0
  9
$USERI1
 70
     0
  9
$USERI2
 70
     0
  9
$USERI3
 70
     0
  9
$USERI4
 70
     0
  9
$USERI5
 70
     0
  9
$USERR1
 40
0.0
  9
$USERR2
 40
0.0
  9
$USERR3
 40
0.0
  9
$USERR4
 40
0.0
  9
$USERR5
 40
0.0
  9
$WORLDVIEW
 70
     1
  9
$SHADEDGE
 70
     3
  9
$SHADEDIF
 70
    70
  9
$TILEMODE
 70
     1
  9
$MAXACTVP
 70
    16
  9
$PLIMCHECK
 70
     0
  9
$PEXTMIN
 10
5211.97193308841
 20
-46.47543711420804
 30
0.0
  9
$PEXTMAX
 10
5820.50813952323
 20
216.4264256745723
 30
0.0
  9
$PLIMMIN
 10
0.0
 20
0.0
  9
$PLIMMAX
 10
0.0
 20
0.0
  9
$UNITMODE
 70
     0
  9
$VISRETAIN
 70
     0
  9
$PLINEGEN
 70
     0
  9
$PSLTSCALE
 70
     1
  0
ENDSEC
  0
SECTION
  2
TABLES
  0
TABLE
  2
VPORT
 70
     1
  0
VPORT
  2
*ACTIVE
 70
     0
 10
0.0
 20
0.0
 11
1.0
 21
1.0
 12
17187.9488697159
 22
8977.978582906275
 13
0.0
 23
0.0
 14
1.0
 24
1.0
 15
0.0
 25
0.0
 16
0.0
 26
0.0
 36
1.0
 17
0.0
 27
0.0
 37
0.0
 40
18315.0763091288
 41
2.03629417382999
 42
50.0
 43
0.0
 44
0.0
 50
0.0
 51
0.0
 71
    16
 72
   100
 73
     1
 74
     1
 75
     0
 76
     0
 77
     0
 78
     0
  0
ENDTAB
  0
TABLE
  2
LTYPE
 70
     2
  0
LTYPE
  2
CONTINUOUS
 70
     0
  3
Solid line
 72
    65
 73
     0
 40
0.0
  0
ENDTAB
  0
TABLE
  2
LAYER
 70
     6
  0
LAYER
  2
0
 70
     0
 62
     7
  6
CONTINUOUS
  0
LAYER
  2
CLOTHES_RAIL
 70
     0
 62
     3
  6
CONTINUOUS
  0
LAYER
  2
RIPIANI
 70
     0
 62
     2
  6
CONTINUOUS
  0
LAYER
  2
RETE
 70
     0
 62
     4
  6
CONTINUOUS
  0
ENDTAB
  0
TABLE
  2
STYLE
 70
     4
  0
STYLE
  2
STANDARD
 70
     0
 40
0.0
 41
1.0
 50
0.0
 71
     0
 42
2.5
  3
txt
  4

  0
STYLE
  2
STILE1
 70
     0
 40
0.0
 41
1.0
 50
0.0
 71
     0
 42
19.0
  3
ROMANS.SHX
  4

  0
STYLE
  2
STILE4
 70
     0
 40
0.0
 41
1.0
 50
0.0
 71
     0
 42
2.5
  3
ROMANS.SHX
  4

  0
ENDTAB
  0
TABLE
  2
VIEW
 70
     0
  0
ENDTAB
  0
TABLE
  2
UCS
 70
     0
  0
ENDTAB
  0
TABLE
  2
APPID
 70
    24
  0
APPID
  2
ACAD
 70
     0
  0
APPID
  2
DCO15
 70
     0
  0
APPID
  2
ACAD_PSEXT
 70
     0
  0
APPID
  2
ACAECLAYERSTANDARD
 70
     0
  0
APPID
  2
ACDBDYNAMICBLOCKGUID
 70
     0
  0
APPID
  2
ACDBBLOCKREPETAG
 70
     0
  0
APPID
  2
ACAD_DSTYLE_DIMEXT_ENABLED
 70
     0
  0
APPID
  2
ACAD_DSTYLE_DIMEXT_LENGTH
 70
     0
  0
APPID
  2
ACAD_DSTYLE_DIMJOGGED_JOGA
 70
     0
  0
APPID
  2
ACAD_DSTYLE_DIMJOGGED_JOG0
 70
     0
  0
APPID
  2
$DDT_AUDIT_GENERATED__2CAF
 70
     0
  0
APPID
  2
ACCMTRANSPARENCY
 70
     0
  0
APPID
  2
ACAD_NAV_VCDISPLAY
 70
     0
  0
APPID
  2
GRADIENTCOLOR1ACI
 70
     0
  0
APPID
  2
GRADIENTCOLOR2ACI
 70
     0
  0
APPID
  2
RAK
 70
     0
  0
APPID
  2
ACAD_DSTYLE_DIMRADIAL_EXTE
 70
     0
  0
APPID
  2
ACAD_MLEADERVER
 70
     0
  0
APPID
  2
ACAD_DSTYLE_DIMJOGGED_JOG1
 70
     0
  0
APPID
  2
ACAD_DSTYLE_DIMBREAK
 70
     0
  0
APPID
  2
ACAD_DSTYLE_DIMJAG
 70
     0
  0
APPID
  2
ACAD_DSTYLE_DIMTALN
 70
     0
  0
APPID
  2
PE_URL
 70
     0
  0
APPID
  2
HATCHBACKGROUNDCOLOR
 70
     0
  0
ENDTAB
  0
TABLE
  2
DIMSTYLE
 70
     6
  0
DIMSTYLE
  2
STANDARD
 70
     0
  3

  4

  5

  6

  7

 40
1.0
 41
0.18
 42
0.0625
 43
0.38
 44
0.18
 45
0.0
 46
0.0
 47
0.0
 48
0.0
140
300.0
141
0.09
142
0.0
143
25.4
144
1.0
145
0.0
146
1.0
147
0.09
 71
     0
 72
     0
 73
     1
 74
     1
 75
     0
 76
     0
 77
     0
 78
     0
170
     0
171
     2
172
     0
173
     0
174
     0
175
     0
176
     0
177
     0
178
     0
  0
ENDTAB
  0
ENDSEC
  0
SECTION
  2
BLOCKS
  0
BLOCK
  8
0
  2
$MODEL_SPACE
 70
     0
 10
0.0
 20
0.0
 30
0.0
  3
$MODEL_SPACE
  1

  0
ENDBLK
  5
AF1F0
  8
0
  0
BLOCK
 67
     1
  8
0
  2
$PAPER_SPACE
 70
     0
 10
0.0
 20
0.0
 30
0.0
  3
$PAPER_SPACE
  1

  0
ENDBLK
  5
AF1EC
 67
     1
  8
0
  0
ENDSEC
  0
SECTION
  2
ENTITIES
  0
TEXT
  5
3C998
  8
CLOTHES_RAIL
 10
54216.23091534142
 20
19413.99999809511
 30
0.0
 40
137.5
  1

  7
STILE1
  0
TEXT
  5
3E8B6
  8
0
 10
41890.34487605011
 20
15396.05051007833
 30
0.0
 40
85.0
  1

 50
90.0
  7
STILE1
  0
TEXT
  5
3E8B9
  8
0
 10
39397.05051007832
 20
14327.65512394988
 30
0.0
 40
85.0
  1

  7
STILE1
  0
TEXT
  5
75F3B
  8
0
 10
201181.4559518903
 20
28290.99290028673
 30
0.0
 40
112.8125
  1

  7
STILE1
  0
TEXT
  5
76002
  8
0
 10
201181.4559518903
 20
30150.99290028673
 30
0.0
 40
112.8125
  1

  7
STILE1
  0
TEXT
  5
76061
  8
0
 10
201181.4559518903
 20
32010.99290028673
 30
0.0
 40
112.8125
  1

  7
STILE1
  0
TEXT
  5
760C0
  8
0
 10
201181.4559518904
 20
33870.99290028674
 30
0.0
 40
112.8125
  1

  7
STILE1
  0
TEXT
  5
7611D
  8
0
 10
201181.4559518904
 20
35730.99290028673
 30
0.0
 40
112.8125
  1

  7
STILE1
  0
TEXT
  5
79EA0
  8
CLOTHES_RAIL
 10
184385.7047872411
 20
38170.01720615364
 30
0.0
 40
72.0
  1

  7
STILE1
  0
POLYLINE
  5
A14E2
  8
0
 66
     1
 10
0.0
 20
0.0
 30
0.0
  0
VERTEX
  5
B12D3
  8
0
 10
24141.98945446307
 20
2163.036426392835
 30
0.0
  0
VERTEX
  5
B12D4
  8
0
 10
23145.57602734765
 20
2163.036426392835
 30
0.0
  0
SEQEND
  5
B195F
  8
0
  0
POLYLINE
  5
A6D6D
  8
0
 66
     1
 10
0.0
 20
0.0
 30
0.0
 70
     1
  0
VERTEX
  5
B12D5
  8
0
 10
17527.11111616126
 20
8157.171916405991
 30
0.0
  0
VERTEX
  5
B12D6
  8
0
 10
17527.11111616126
 20
8183.171916405992
 30
0.0
  0
VERTEX
  5
B12D7
  8
0
 10
18497.11111616126
 20
8183.171916405992
 30
0.0
  0
VERTEX
  5
B12D8
  8
0
 10
18497.11111616126
 20
8157.171916405991
 30
0.0
  0
SEQEND
  5
B1960
  8
0
  0
POLYLINE
  5
A6D6E
  8
CLOTHES_RAIL
 66
     1
 10
0.0
 20
0.0
 30
0.0
 70
     1
  0
VERTEX
  5
B12D9
  8
CLOTHES_RAIL
 10
17527.11111616078
 20
8109.671916405988
 30
0.0
  0
VERTEX
  5
B12DA
  8
CLOTHES_RAIL
 10
17527.11111616078
 20
8083.671916405988
 30
0.0
  0
VERTEX
  5
B12DB
  8
CLOTHES_RAIL
 10
18497.11111616078
 20
8083.671916405988
 30
0.0
  0
VERTEX
  5
B12DC
  8
CLOTHES_RAIL
 10
18497.11111616078
 20
8109.671916405988
 30
0.0
  0
SEQEND
  5
B1961
  8
CLOTHES_RAIL
  0
POLYLINE
  5
A6D6F
  8
0
 66
     1
 10
0.0
 20
0.0
 30
0.0
 70
     1
  0
VERTEX
  5
B12DD
  8
0
 10
19497.11111616126
 20
8183.171916405992
 30
0.0
  0
VERTEX
  5
B12DE
  8
0
 10
19497.11111616126
 20
8157.171916405991
 30
0.0
  0
VERTEX
  5
B12DF
  8
0
 10
18527.11111616126
 20
8157.171916405991
 30
0.0
  0
VERTEX
  5
B12E0
  8
0
 10
18527.11111616126
 20
8183.171916405992
 30
0.0
  0
SEQEND
  5
B1962
  8
0
  0
POLYLINE
  5
A6D70
  8
CLOTHES_RAIL
 66
     1
 10
0.0
 20
0.0
 30
0.0
 70
     1
  0
VERTEX
  5
B12E1
  8
CLOTHES_RAIL
 10
19497.11111616126
 20
8109.671916405988
 30
0.0
  0
VERTEX
  5
B12E2
  8
CLOTHES_RAIL
 10
19497.11111616126
 20
8083.671916405988
 30
0.0
  0
VERTEX
  5
B12E3
  8
CLOTHES_RAIL
 10
18527.11111616126
 20
8083.671916405988
 30
0.0
  0
VERTEX
  5
B12E4
  8
CLOTHES_RAIL
 10
18527.11111616126
 20
8109.671916405988
 30
0.0
  0
SEQEND
  5
B1963
  8
CLOTHES_RAIL
  0
POLYLINE
  5
A6D79
  8
0
 66
     1
 10
0.0
 20
0.0
 30
0.0
 70
     1
  0
VERTEX
  5
B12E5
  8
0
 10
17527.11111616126
 20
7157.171916405992
 30
0.0
  0
VERTEX
  5
B12E6
  8
0
 10
17527.11111616126
 20
7183.171916405992
 30
0.0
  0
VERTEX
  5
B12E7
  8
0
 10
18497.11111616128
 20
7183.171916405992
 30
0.0
  0
VERTEX
  5
B12E8
  8
0
 10
18497.11111616128
 20
7157.171916405992
 30
0.0
  0
SEQEND
  5
B1964
  8
0
  0
POLYLINE
  5
A6D7A
  8
0
 66
     1
 10
0.0
 20
0.0
 30
0.0
 70
     1
  0
VERTEX
  5
B12E9
  8
0
 10
17527.11111616126
 20
6757.171916405993
 30
0.0
  0
VERTEX
  5
B12EA
  8
0
 10
17527.11111616126
 20
6783.171916405992
 30
0.0
  0
VERTEX
  5
B12EB
  8
0
 10
18497.11111616128
 20
6783.171916405992
 30
0.0
  0
VERTEX
  5
B12EC
  8
0
 10
18497.11111616128
 20
6757.171916405993
 30
0.0
  0
SEQEND
  5
B1965
  8
0
  0
POLYLINE
  5
A6D7B
  8
0
 66
     1
 10
0.0
 20
0.0
 30
0.0
 70
     1
  0
VERTEX
  5
B12ED
  8
0
 10
19497.11111616128
 20
7183.171916405992
 30
0.0
  0
VERTEX
  5
B12EE
  8
0
 10
19497.11111616128
 20
7157.171916405992
 30
0.0
  0
VERTEX
  5
B12EF
  8
0
 10
18527.11111616126
 20
7157.171916405992
 30
0.0
  0
VERTEX
  5
B12F0
  8
0
 10
18527.11111616126
 20
7183.171916405992
 30
0.0
  0
SEQEND
  5
B1966
  8
0
  0
POLYLINE
  5
A6D7C
  8
0
 66
     1
 10
0.0
 20
0.0
 30
0.0
 70
     1
  0
VERTEX
  5
B12F1
  8
0
 10
19497.11111616128
 20
6783.171916405992
 30
0.0
  0
VERTEX
  5
B12F2
  8
0
 10
19497.11111616128
 20
6757.171916405993
 30
0.0
  0
VERTEX
  5
B12F3
  8
0
 10
18527.11111616126
 20
6757.171916405993
 30
0.0
  0
VERTEX
  5
B12F4
  8
0
 10
18527.11111616126
 20
6783.171916405992
 30
0.0
  0
SEQEND
  5
B1967
  8
0
  0
POLYLINE
  5
A6E03
  8
0
 66
     1
 10
0.0
 20
0.0
 30
0.0
  0
VERTEX
  5
B12F5
  8
0
 10
19527.11111616106
 20
2163.036426392835
 30
0.0
  0
VERTEX
  5
B12F6
  8
0
 10
19432.11111616107
 20
2193.036426392835
 30
0.0
  0
VERTEX
  5
B12F7
  8
0
 10
19024.61111616106
 20
2193.036426392835
 30
0.0
  0
VERTEX
  5
B12F8
  8
0
 10
19024.61111616106
 20
2168.036426392835
 30
0.0
  0
VERTEX
  5
B12F9
  8
0
 10
18999.61111616106
 20
2168.036426392835
 30
0.0
  0
VERTEX
  5
B12FA
  8
0
 10
18999.61111616106
 20
2193.036426392835
 30
0.0
  0
VERTEX
  5
B12FB
  8
0
 10
18999.61111616106
 20
2193.036426392835
 30
0.0
  0
VERTEX
  5
B12FC
  8
0
 10
18024.61111616107
 20
2193.036426392835
 30
0.0
  0
VERTEX
  5
B12FD
  8
0
 10
18024.61111616107
 20
2168.036426392835
 30
0.0
  0
VERTEX
  5
B12FE
  8
0
 10
17999.61111616106
 20
2168.036426392835
 30
0.0
  0
VERTEX
  5
B12FF
  8
0
 10
17999.61111616106
 20
2193.036426392835
 30
0.0
  0
VERTEX
  5
B1300
  8
0
 10
17527.11111616106
 20
2193.036426392835
 30
0.0
  0
VERTEX
  5
B1301
  8
0
 10
17432.11111616107
 20
2163.036426392835
 30
0.0
  0
VERTEX
  5
B1302
  8
0
 10
19527.11111616106
 20
2163.036426392835
 30
0.0
  0
SEQEND
  5
B1968
  8
0
  0
POLYLINE
  5
A6E04
  8
0
 66
     1
 10
0.0
 20
0.0
 30
0.0
  0
VERTEX
  5
B1303
  8
0
 10
19527.11111616104
 20
6207.171916406283
 30
0.0
  0
VERTEX
  5
B1304
  8
0
 10
19432.11111616104
 20
6237.171916406282
 30
0.0
  0
VERTEX
  5
B1305
  8
0
 10
19024.61111616105
 20
6237.171916406282
 30
0.0
  0
VERTEX
  5
B1306
  8
0
 10
19024.61111616105
 20
6212.171916406282
 30
0.0
  0
VERTEX
  5
B1307
  8
0
 10
18999.61111616104
 20
6212.171916406282
 30
0.0
  0
VERTEX
  5
B1308
  8
0
 10
18999.61111616104
 20
6237.171916406282
 30
0.0
  0
VERTEX
  5
B1309
  8
0
 10
18999.61111616104
 20
6237.171916406282
 30
0.0
  0
VERTEX
  5
B130A
  8
0
 10
18024.61111616104
 20
6237.171916406282
 30
0.0
  0
VERTEX
  5
B130B
  8
0
 10
18024.61111616104
 20
6212.171916406282
 30
0.0
  0
VERTEX
  5
B130C
  8
0
 10
17999.61111616104
 20
6212.171916406282
 30
0.0
  0
VERTEX
  5
B130D
  8
0
 10
17999.61111616104
 20
6237.171916406282
 30
0.0
  0
VERTEX
  5
B130E
  8
0
 10
17527.11111616104
 20
6237.171916406282
 30
0.0
  0
VERTEX
  5
B130F
  8
0
 10
17432.11111616104
 20
6207.171916406283
 30
0.0
  0
VERTEX
  5
B1310
  8
0
 10
19527.11111616104
 20
6207.171916406283
 30
0.0
  0
SEQEND
  5
B1969
  8
0
  0
POLYLINE
  5
A6E05
  8
0
 66
     1
 10
0.0
 20
0.0
 30
0.0
  0
VERTEX
  5
B1311
  8
0
 10
19527.11111616106
 20
10251.30740641973
 30
0.0
  0
VERTEX
  5
B1312
  8
0
 10
19432.11111616106
 20
10281.30740641973
 30
0.0
  0
VERTEX
  5
B1313
  8
0
 10
19024.61111616106
 20
10281.30740641973
 30
0.0
  0
VERTEX
  5
B1314
  8
0
 10
19024.61111616106
 20
10256.30740641973
 30
0.0
  0
VERTEX
  5
B1315
  8
0
 10
18999.61111616106
 20
10256.30740641973
 30
0.0
  0
VERTEX
  5
B1316
  8
0
 10
18999.61111616106
 20
10281.30740641973
 30
0.0
  0
VERTEX
  5
B1317
  8
0
 10
18999.61111616106
 20
10281.30740641973
 30
0.0
  0
VERTEX
  5
B1318
  8
0
 10
18024.61111616106
 20
10281.30740641973
 30
0.0
  0
VERTEX
  5
B1319
  8
0
 10
18024.61111616106
 20
10256.30740641973
 30
0.0
  0
VERTEX
  5
B131A
  8
0
 10
17999.61111616106
 20
10256.30740641973
 30
0.0
  0
VERTEX
  5
B131B
  8
0
 10
17999.61111616106
 20
10281.30740641973
 30
0.0
  0
VERTEX
  5
B131C
  8
0
 10
17527.11111616106
 20
10281.30740641973
 30
0.0
  0
VERTEX
  5
B131D
  8
0
 10
17432.11111616106
 20
10251.30740641973
 30
0.0
  0
VERTEX
  5
B131E
  8
0
 10
19527.11111616106
 20
10251.30740641973
 30
0.0
  0
SEQEND
  5
B196A
  8
0
  0
POLYLINE
  5
A6E06
  8
0
 66
     1
 10
0.0
 20
0.0
 30
0.0
  0
VERTEX
  5
B131F
  8
0
 10
19527.11111616104
 20
14295.44289643319
 30
0.0
  0
VERTEX
  5
B1320
  8
0
 10
19432.11111616104
 20
14325.44289643319
 30
0.0
  0
VERTEX
  5
B1321
  8
0
 10
19024.61111616105
 20
14325.44289643319
 30
0.0
  0
VERTEX
  5
B1322
  8
0
 10
19024.61111616105
 20
14300.44289643319
 30
0.0
  0
VERTEX
  5
B1323
  8
0
 10
18999.61111616104
 20
14300.44289643319
 30
0.0
  0
VERTEX
  5
B1324
  8
0
 10
18999.61111616104
 20
14325.44289643319
 30
0.0
  0
VERTEX
  5
B1325
  8
0
 10
18999.61111616104
 20
14325.44289643319
 30
0.0
  0
VERTEX
  5
B1326
  8
0
 10
18024.61111616104
 20
14325.44289643319
 30
0.0
  0
VERTEX
  5
B1327
  8
0
 10
18024.61111616104
 20
14300.44289643319
 30
0.0
  0
VERTEX
  5
B1328
  8
0
 10
17999.61111616104
 20
14300.44289643319
 30
0.0
  0
VERTEX
  5
B1329
  8
0
 10
17999.61111616104
 20
14325.44289643319
 30
0.0
  0
VERTEX
  5
B132A
  8
0
 10
17527.11111616104
 20
14325.44289643319
 30
0.0
  0
VERTEX
  5
B132B
  8
0
 10
17432.11111616104
 20
14295.44289643319
 30
0.0
  0
VERTEX
  5
B132C
  8
0
 10
19527.11111616104
 20
14295.44289643319
 30
0.0
  0
SEQEND
  5
B196B
  8
0
  0
LINE
  5
A6E07
  8
0
 10
22732.69473631098
 20
2163.036426392835
 30
0.0
 11
17223.39205753694
 21
2163.036426392835
 31
0.0
  0
LINE
  5
A6E08
  8
0
 10
22732.69473631098
 20
6207.171916406282
 30
0.0
 11
17223.39205753694
 21
6207.171916406282
 31
0.0
  0
POLYLINE
  5
A6E09
  8
0
 66
     1
 10
0.0
 20
0.0
 30
0.0
 70
     1
  0
VERTEX
  5
B132D
  8
0
 10
19024.61111616107
 20
2193.036426392835
 30
0.0
  0
VERTEX
  5
B132E
  8
0
 10
19024.61111616107
 20
2168.036426392835
 30
0.0
  0
VERTEX
  5
B132F
  8
0
 10
18999.61111616106
 20
2168.036426392835
 30
0.0
  0
VERTEX
  5
B1330
  8
0
 10
18999.61111616106
 20
2193.036426392835
 30
0.0
  0
SEQEND
  5
B196C
  8
0
  0
POLYLINE
  5
A6E0A
  8
0
 66
     1
 10
0.0
 20
0.0
 30
0.0
 70
     1
  0
VERTEX
  5
B1331
  8
0
 10
19034.61111616107
 20
2218.036426392835
 30
0.0
  0
VERTEX
  5
B1332
  8
0
 10
19034.61111616107
 20
2193.036426392835
 30
0.0
  0
VERTEX
  5
B1333
  8
0
 10
18989.61111616107
 20
2193.036426392835
 30
0.0
  0
VERTEX
  5
B1334
  8
0
 10
18989.61111616107
 20
2218.036426392835
 30
0.0
  0
SEQEND
  5
B196D
  8
0
  0
LINE
  5
A6E0B
  8
0
 10
18989.61111616107
 20
2218.036426392835
 30
0.0
 11
18989.61111616107
 21
2193.036426392835
 31
0.0
  0
LINE
  5
A6E0C
  8
0
 10
18989.61111616107
 20
2218.036426392835
 30
0.0
 11
18989.61111616107
 21
2193.036426392835
 31
0.0
  0
LINE
  5
A6E0D
  8
0
 10
18999.61111616106
 20
2193.036426392835
 30
0.0
 11
18999.61111616106
 21
2168.036426392835
 31
0.0
  0
LINE
  5
A6E0E
  8
0
 10
18999.61111616106
 20
2193.036426392835
 30
0.0
 11
18999.61111616106
 21
2168.036426392835
 31
0.0
  0
LINE
  5
A6E0F
  8
0
 10
19034.61111616107
 20
2193.036426392835
 30
0.0
 11
18989.61111616107
 21
2193.036426392835
 31
0.0
  0
LINE
  5
A6E10
  8
0
 10
19034.61111616107
 20
2193.036426392835
 30
0.0
 11
18989.61111616107
 21
2193.036426392835
 31
0.0
  0
LINE
  5
A6E11
  8
0
 10
18999.61111616106
 20
2193.036426392835
 30
0.0
 11
18999.61111616106
 21
2168.036426392835
 31
0.0
  0
LINE
  5
A6E12
  8
0
 10
18999.61111616106
 20
2193.036426392835
 30
0.0
 11
18999.61111616106
 21
2168.036426392835
 31
0.0
  0
LINE
  5
A6E13
  8
0
 10
19034.61111616107
 20
2193.036426392835
 30
0.0
 11
18989.61111616107
 21
2193.036426392835
 31
0.0
  0
LINE
  5
A6E14
  8
0
 10
19034.61111616107
 20
2193.036426392835
 30
0.0
 11
18989.61111616107
 21
2193.036426392835
 31
0.0
  0
LINE
  5
A6E15
  8
0
 10
18989.61111616107
 20
2218.036426392835
 30
0.0
 11
18989.61111616107
 21
2193.036426392835
 31
0.0
  0
LINE
  5
A6E16
  8
0
 10
18989.61111616107
 20
2218.036426392835
 30
0.0
 11
18989.61111616107
 21
2193.036426392835
 31
0.0
  0
POLYLINE
  5
A6E17
  8
0
 66
     1
 10
0.0
 20
0.0
 30
0.0
 70
     1
  0
VERTEX
  5
B1335
  8
0
 10
18024.61111616107
 20
2193.036426392835
 30
0.0
  0
VERTEX
  5
B1336
  8
0
 10
18024.61111616107
 20
2168.036426392835
 30
0.0
  0
VERTEX
  5
B1337
  8
0
 10
17999.61111616107
 20
2168.036426392835
 30
0.0
  0
VERTEX
  5
B1338
  8
0
 10
17999.61111616107
 20
2193.036426392835
 30
0.0
  0
SEQEND
  5
B196E
  8
0
  0
POLYLINE
  5
A6E18
  8
0
 66
     1
 10
0.0
 20
0.0
 30
0.0
 70
     1
  0
VERTEX
  5
B1339
  8
0
 10
18034.61111616107
 20
2218.036426392835
 30
0.0
  0
VERTEX
  5
B133A
  8
0
 10
18034.61111616107
 20
2193.036426392835
 30
0.0
  0
VERTEX
  5
B133B
  8
0
 10
17989.61111616107
 20
2193.036426392835
 30
0.0
  0
VERTEX
  5
B133C
  8
0
 10
17989.61111616107
 20
2218.036426392835
 30
0.0
  0
SEQEND
  5
B196F
  8
0
  0
LINE
  5
A6E19
  8
0
 10
17989.61111616107
 20
2218.036426392835
 30
0.0
 11
17989.61111616107
 21
2193.036426392835
 31
0.0
  0
LINE
  5
A6E1A
  8
0
 10
17989.61111616107
 20
2218.036426392835
 30
0.0
 11
17989.61111616107
 21
2193.036426392835
 31
0.0
  0
LINE
  5
A6E1B
  8
0
 10
17999.61111616107
 20
2193.036426392835
 30
0.0
 11
17999.61111616107
 21
2168.036426392835
 31
0.0
  0
LINE
  5
A6E1C
  8
0
 10
17999.61111616107
 20
2193.036426392835
 30
0.0
 11
17999.61111616107
 21
2168.036426392835
 31
0.0
  0
LINE
  5
A6E1D
  8
0
 10
18034.61111616107
 20
2193.036426392835
 30
0.0
 11
17989.61111616107
 21
2193.036426392835
 31
0.0
  0
LINE
  5
A6E1E
  8
0
 10
18034.61111616107
 20
2193.036426392835
 30
0.0
 11
17989.61111616107
 21
2193.036426392835
 31
0.0
  0
LINE
  5
A6E1F
  8
0
 10
17999.61111616107
 20
2193.036426392835
 30
0.0
 11
17999.61111616107
 21
2168.036426392835
 31
0.0
  0
LINE
  5
A6E20
  8
0
 10
17999.61111616107
 20
2193.036426392835
 30
0.0
 11
17999.61111616107
 21
2168.036426392835
 31
0.0
  0
LINE
  5
A6E21
  8
0
 10
18034.61111616107
 20
2193.036426392835
 30
0.0
 11
17989.61111616107
 21
2193.036426392835
 31
0.0
  0
LINE
  5
A6E22
  8
0
 10
18034.61111616107
 20
2193.036426392835
 30
0.0
 11
17989.61111616107
 21
2193.036426392835
 31
0.0
  0
LINE
  5
A6E23
  8
0
 10
17989.61111616107
 20
2218.036426392835
 30
0.0
 11
17989.61111616107
 21
2193.036426392835
 31
0.0
  0
LINE
  5
A6E24
  8
0
 10
17989.61111616107
 20
2218.036426392835
 30
0.0
 11
17989.61111616107
 21
2193.036426392835
 31
0.0
  0
LINE
  5
A6E25
  8
0
 10
18989.61111616107
 20
2218.036426392835
 30
0.0
 11
18989.61111616107
 21
2193.036426392835
 31
0.0
  0
LINE
  5
A6E26
  8
0
 10
18989.61111616107
 20
2218.036426392835
 30
0.0
 11
18989.61111616107
 21
2193.036426392835
 31
0.0
  0
LINE
  5
A6E27
  8
0
 10
18999.61111616106
 20
2193.036426392835
 30
0.0
 11
18999.61111616106
 21
2168.036426392835
 31
0.0
  0
LINE
  5
A6E28
  8
0
 10
18999.61111616106
 20
2193.036426392835
 30
0.0
 11
18999.61111616106
 21
2168.036426392835
 31
0.0
  0
LINE
  5
A6E29
  8
0
 10
19034.61111616107
 20
2193.036426392835
 30
0.0
 11
18989.61111616107
 21
2193.036426392835
 31
0.0
  0
LINE
  5
A6E2A
  8
0
 10
19034.61111616107
 20
2193.036426392835
 30
0.0
 11
18989.61111616107
 21
2193.036426392835
 31
0.0
  0
LINE
  5
A6E2B
  8
0
 10
18999.61111616106
 20
2193.036426392835
 30
0.0
 11
18999.61111616106
 21
2168.036426392835
 31
0.0
  0
LINE
  5
A6E2C
  8
0
 10
18999.61111616106
 20
2193.036426392835
 30
0.0
 11
18999.61111616106
 21
2168.036426392835
 31
0.0
  0
LINE
  5
A6E2D
  8
0
 10
19034.61111616107
 20
2193.036426392835
 30
0.0
 11
18989.61111616107
 21
2193.036426392835
 31
0.0
  0
LINE
  5
A6E2E
  8
0
 10
19034.61111616107
 20
2193.036426392835
 30
0.0
 11
18989.61111616107
 21
2193.036426392835
 31
0.0
  0
LINE
  5
A6E2F
  8
0
 10
18989.61111616107
 20
2218.036426392835
 30
0.0
 11
18989.61111616107
 21
2193.036426392835
 31
0.0
  0
LINE
  5
A6E30
  8
0
 10
18989.61111616107
 20
2218.036426392835
 30
0.0
 11
18989.61111616107
 21
2193.036426392835
 31
0.0
  0
POLYLINE
  5
A6E31
  8
0
 66
     1
 10
0.0
 20
0.0
 30
0.0
 70
     1
  0
VERTEX
  5
B133D
  8
0
 10
19429.61111616107
 20
4368.036426392865
 30
0.0
  0
VERTEX
  5
B133E
  8
0
 10
19429.61111616107
 20
4390.536426392864
 30
0.0
 42
-1.0
  0
VERTEX
  5
B133F
  8
0
 10
19384.61111616106
 20
4390.536426392864
 30
0.0
  0
VERTEX
  5
B1340
  8
0
 10
19384.61111616106
 20
4368.036426392835
 30
0.0
  0
VERTEX
  5
B1341
  8
0
 10
19367.11111616107
 20
4368.036426392865
 30
0.0
  0
VERTEX
  5
B1342
  8
0
 10
19357.11111616107
 20
4358.036426392835
 30
0.0
  0
VERTEX
  5
B1343
  8
0
 10
19457.11111616107
 20
4358.036426392835
 30
0.0
  0
VERTEX
  5
B1344
  8
0
 10
19447.11111616107
 20
4368.036426392865
 30
0.0
  0
SEQEND
  5
B1970
  8
0
  0
POLYLINE
  5
A6E32
  8
0
 66
     1
 10
0.0
 20
0.0
 30
0.0
 70
     1
  0
VERTEX
  5
B1345
  8
0
 10
19497.11111616107
 20
2339.036426392835
 30
0.0
  0
VERTEX
  5
B1346
  8
0
 10
19497.11111616107
 20
2313.036426392835
 30
0.0
  0
VERTEX
  5
B1347
  8
0
 10
18527.11111616106
 20
2313.036426392835
 30
0.0
  0
VERTEX
  5
B1348
  8
0
 10
18527.11111616106
 20
2339.036426392835
 30
0.0
  0
SEQEND
  5
B1971
  8
0
  0
POLYLINE
  5
A6E33
  8
0
 66
     1
 10
0.0
 20
0.0
 30
0.0
 70
     1
  0
VERTEX
  5
B1349
  8
0
 10
18497.11111616107
 20
2313.036426392835
 30
0.0
  0
VERTEX
  5
B134A
  8
0
 10
18497.11111616107
 20
4313.036426392835
 30
0.0
  0
VERTEX
  5
B134B
  8
0
 10
18527.11111616106
 20
4313.036426392835
 30
0.0
  0
VERTEX
  5
B134C
  8
0
 10
18527.11111616106
 20
2313.036426392835
 30
0.0
  0
SEQEND
  5
B1972
  8
0
  0
POLYLINE
  5
A6E34
  8
0
 66
     1
 10
0.0
 20
0.0
 30
0.0
 70
     1
  0
VERTEX
  5
B134D
  8
0
 10
17527.11111616107
 20
2313.036426392835
 30
0.0
  0
VERTEX
  5
B134E
  8
0
 10
17527.11111616107
 20
2339.036426392835
 30
0.0
  0
VERTEX
  5
B134F
  8
0
 10
18497.11111616107
 20
2339.036426392835
 30
0.0
  0
VERTEX
  5
B1350
  8
0
 10
18497.11111616107
 20
2313.036426392835
 30
0.0
  0
SEQEND
  5
B1973
  8
0
  0
POLYLINE
  5
A6E35
  8
0
 66
     1
 10
0.0
 20
0.0
 30
0.0
 70
     1
  0
VERTEX
  5
B1351
  8
0
 10
19497.11111616119
 20
2218.036426392835
 30
0.0
  0
VERTEX
  5
B1352
  8
0
 10
19497.11111616119
 20
2313.036426393126
 30
0.0
  0
VERTEX
  5
B1353
  8
0
 10
17527.11111616084
 20
2313.036426393126
 30
0.0
  0
VERTEX
  5
B1354
  8
0
 10
17527.11111616084
 20
2218.036426392835
 30
0.0
  0
SEQEND
  5
B1974
  8
0
  0
POLYLINE
  5
A6E36
  8
0
 66
     1
 10
0.0
 20
0.0
 30
0.0
 70
     1
  0
VERTEX
  5
B1355
  8
0
 10
19527.11111616107
 20
4348.036426392835
 30
0.0
  0
VERTEX
  5
B1356
  8
0
 10
19527.11111616107
 20
2218.036426392835
 30
0.0
  0
VERTEX
  5
B1357
  8
0
 10
19497.11111616119
 20
2218.036426392835
 30
0.0
  0
VERTEX
  5
B1358
  8
0
 10
19497.11111616119
 20
4348.036426392835
 30
0.0
  0
SEQEND
  5
B1975
  8
0
  0
POLYLINE
  5
A6E37
  8
0
 66
     1
 10
0.0
 20
0.0
 30
0.0
 70
     1
  0
VERTEX
  5
B1359
  8
0
 10
17527.11111616107
 20
4348.036426392835
 30
0.0
  0
VERTEX
  5
B135A
  8
0
 10
17527.11111616107
 20
2218.036426392835
 30
0.0
  0
VERTEX
  5
B135B
  8
0
 10
17497.11111616107
 20
2218.036426392835
 30
0.0
  0
VERTEX
  5
B135C
  8
0
 10
17497.11111616107
 20
4348.036426392835
 30
0.0
  0
SEQEND
  5
B1976
  8
0
  0
POLYLINE
  5
A6E39
  8
0
 66
     1
 10
0.0
 20
0.0
 30
0.0
 70
     1
  0
VERTEX
  5
B135D
  8
0
 10
19497.11111616107
 20
4348.036426392835
 30
0.0
  0
VERTEX
  5
B135E
  8
0
 10
19497.11111616107
 20
4313.036426392835
 30
0.0
  0
VERTEX
  5
B135F
  8
0
 10
17527.11111616107
 20
4313.036426392835
 30
0.0
  0
VERTEX
  5
B1360
  8
0
 10
17527.11111616107
 20
4348.036426392835
 30
0.0
  0
SEQEND
  5
B1977
  8
0
  0
CIRCLE
  5
A6E3F
  8
0
 10
19407.11111616107
 20
4390.536426392833
 30
0.0
 40
22.5
  0
CIRCLE
  5
A6E40
  8
0
 10
19407.11111616107
 20
4390.536426392833
 30
0.0
 40
12.5
  0
LINE
  5
A6E41
  8
0
 10
19357.11111616107
 20
4358.036426392835
 30
0.0
 11
19457.11111616107
 21
4358.036426392835
 31
0.0
  0
POLYLINE
  5
A6E42
  8
0
 66
     1
 10
0.0
 20
0.0
 30
0.0
 70
     1
  0
VERTEX
  5
B1361
  8
0
 10
19337.11111616107
 20
4358.036426392864
 30
0.0
  0
VERTEX
  5
B1362
  8
0
 10
19477.11111616107
 20
4358.036426392864
 30
0.0
  0
VERTEX
  5
B1363
  8
0
 10
19477.11111616107
 20
4348.036426392864
 30
0.0
  0
VERTEX
  5
B1364
  8
0
 10
19337.11111616107
 20
4348.036426392864
 30
0.0
  0
SEQEND
  5
B1978
  8
0
  0
POLYLINE
  5
A6E43
  8
0
 66
     1
 10
0.0
 20
0.0
 30
0.0
 70
     1
  0
VERTEX
  5
B1365
  8
0
 10
19024.61111616105
 20
6237.171916406282
 30
0.0
  0
VERTEX
  5
B1366
  8
0
 10
19024.61111616105
 20
6212.171916406282
 30
0.0
  0
VERTEX
  5
B1367
  8
0
 10
18999.61111616104
 20
6212.171916406282
 30
0.0
  0
VERTEX
  5
B1368
  8
0
 10
18999.61111616104
 20
6237.171916406282
 30
0.0
  0
SEQEND
  5
B1979
  8
0
  0
POLYLINE
  5
A6E44
  8
0
 66
     1
 10
0.0
 20
0.0
 30
0.0
 70
     1
  0
VERTEX
  5
B1369
  8
0
 10
19034.61111616104
 20
6262.171916406281
 30
0.0
  0
VERTEX
  5
B136A
  8
0
 10
19034.61111616104
 20
6237.171916406282
 30
0.0
  0
VERTEX
  5
B136B
  8
0
 10
18989.61111616104
 20
6237.171916406282
 30
0.0
  0
VERTEX
  5
B136C
  8
0
 10
18989.61111616104
 20
6262.171916406281
 30
0.0
  0
SEQEND
  5
B197A
  8
0
  0
LINE
  5
A6E45
  8
0
 10
18989.61111616104
 20
6262.171916406281
 30
0.0
 11
18989.61111616104
 21
6237.171916406282
 31
0.0
  0
LINE
  5
A6E46
  8
0
 10
18989.61111616104
 20
6262.171916406281
 30
0.0
 11
18989.61111616104
 21
6237.171916406282
 31
0.0
  0
LINE
  5
A6E47
  8
0
 10
18999.61111616104
 20
6237.171916406282
 30
0.0
 11
18999.61111616104
 21
6212.171916406282
 31
0.0
  0
LINE
  5
A6E48
  8
0
 10
18999.61111616104
 20
6237.171916406282
 30
0.0
 11
18999.61111616104
 21
6212.171916406282
 31
0.0
  0
LINE
  5
A6E49
  8
0
 10
19034.61111616104
 20
6237.171916406282
 30
0.0
 11
18989.61111616104
 21
6237.171916406282
 31
0.0
  0
LINE
  5
A6E4A
  8
0
 10
19034.61111616104
 20
6237.171916406282
 30
0.0
 11
18989.61111616104
 21
6237.171916406282
 31
0.0
  0
LINE
  5
A6E4B
  8
0
 10
18999.61111616104
 20
6237.171916406282
 30
0.0
 11
18999.61111616104
 21
6212.171916406282
 31
0.0
  0
LINE
  5
A6E4C
  8
0
 10
18999.61111616104
 20
6237.171916406282
 30
0.0
 11
18999.61111616104
 21
6212.171916406282
 31
0.0
  0
LINE
  5
A6E4D
  8
0
 10
19034.61111616104
 20
6237.171916406282
 30
0.0
 11
18989.61111616104
 21
6237.171916406282
 31
0.0
  0
LINE
  5
A6E4E
  8
0
 10
19034.61111616104
 20
6237.171916406282
 30
0.0
 11
18989.61111616104
 21
6237.171916406282
 31
0.0
  0
LINE
  5
A6E4F
  8
0
 10
18989.61111616104
 20
6262.171916406281
 30
0.0
 11
18989.61111616104
 21
6237.171916406282
 31
0.0
  0
LINE
  5
A6E50
  8
0
 10
18989.61111616104
 20
6262.171916406281
 30
0.0
 11
18989.61111616104
 21
6237.171916406282
 31
0.0
  0
POLYLINE
  5
A6E51
  8
0
 66
     1
 10
0.0
 20
0.0
 30
0.0
 70
     1
  0
VERTEX
  5
B136D
  8
0
 10
18024.61111616104
 20
6237.171916406282
 30
0.0
  0
VERTEX
  5
B136E
  8
0
 10
18024.61111616104
 20
6212.171916406282
 30
0.0
  0
VERTEX
  5
B136F
  8
0
 10
17999.61111616104
 20
6212.171916406282
 30
0.0
  0
VERTEX
  5
B1370
  8
0
 10
17999.61111616104
 20
6237.171916406282
 30
0.0
  0
SEQEND
  5
B197B
  8
0
  0
POLYLINE
  5
A6E52
  8
0
 66
     1
 10
0.0
 20
0.0
 30
0.0
 70
     1
  0
VERTEX
  5
B1371
  8
0
 10
18034.61111616105
 20
6262.171916406281
 30
0.0
  0
VERTEX
  5
B1372
  8
0
 10
18034.61111616105
 20
6237.171916406282
 30
0.0
  0
VERTEX
  5
B1373
  8
0
 10
17989.61111616104
 20
6237.171916406282
 30
0.0
  0
VERTEX
  5
B1374
  8
0
 10
17989.61111616104
 20
6262.171916406281
 30
0.0
  0
SEQEND
  5
B197C
  8
0
  0
LINE
  5
A6E53
  8
0
 10
17989.61111616104
 20
6262.171916406281
 30
0.0
 11
17989.61111616104
 21
6237.171916406282
 31
0.0
  0
LINE
  5
A6E54
  8
0
 10
17989.61111616104
 20
6262.171916406281
 30
0.0
 11
17989.61111616104
 21
6237.171916406282
 31
0.0
  0
LINE
  5
A6E55
  8
0
 10
17999.61111616104
 20
6237.171916406282
 30
0.0
 11
17999.61111616104
 21
6212.171916406282
 31
0.0
  0
LINE
  5
A6E56
  8
0
 10
17999.61111616104
 20
6237.171916406282
 30
0.0
 11
17999.61111616104
 21
6212.171916406282
 31
0.0
  0
LINE
  5
A6E57
  8
0
 10
18034.61111616105
 20
6237.171916406282
 30
0.0
 11
17989.61111616104
 21
6237.171916406282
 31
0.0
  0
LINE
  5
A6E58
  8
0
 10
18034.61111616105
 20
6237.171916406282
 30
0.0
 11
17989.61111616104
 21
6237.171916406282
 31
0.0
  0
LINE
  5
A6E59
  8
0
 10
17999.61111616104
 20
6237.171916406282
 30
0.0
 11
17999.61111616104
 21
6212.171916406282
 31
0.0
  0
LINE
  5
A6E5A
  8
0
 10
17999.61111616104
 20
6237.171916406282
 30
0.0
 11
17999.61111616104
 21
6212.171916406282
 31
0.0
  0
LINE
  5
A6E5B
  8
0
 10
18034.61111616105
 20
6237.171916406282
 30
0.0
 11
17989.61111616104
 21
6237.171916406282
 31
0.0
  0
LINE
  5
A6E5C
  8
0
 10
18034.61111616105
 20
6237.171916406282
 30
0.0
 11
17989.61111616104
 21
6237.171916406282
 31
0.0
  0
LINE
  5
A6E5D
  8
0
 10
17989.61111616104
 20
6262.171916406281
 30
0.0
 11
17989.61111616104
 21
6237.171916406282
 31
0.0
  0
LINE
  5
A6E5E
  8
0
 10
17989.61111616104
 20
6262.171916406281
 30
0.0
 11
17989.61111616104
 21
6237.171916406282
 31
0.0
  0
LINE
  5
A6E5F
  8
0
 10
18989.61111616104
 20
6262.171916406281
 30
0.0
 11
18989.61111616104
 21
6237.171916406282
 31
0.0
  0
LINE
  5
A6E60
  8
0
 10
18989.61111616104
 20
6262.171916406281
 30
0.0
 11
18989.61111616104
 21
6237.171916406282
 31
0.0
  0
LINE
  5
A6E61
  8
0
 10
18999.61111616104
 20
6237.171916406282
 30
0.0
 11
18999.61111616104
 21
6212.171916406282
 31
0.0
  0
LINE
  5
A6E62
  8
0
 10
18999.61111616104
 20
6237.171916406282
 30
0.0
 11
18999.61111616104
 21
6212.171916406282
 31
0.0
  0
LINE
  5
A6E63
  8
0
 10
19034.61111616104
 20
6237.171916406282
 30
0.0
 11
18989.61111616104
 21
6237.171916406282
 31
0.0
  0
LINE
  5
A6E64
  8
0
 10
19034.61111616104
 20
6237.171916406282
 30
0.0
 11
18989.61111616104
 21
6237.171916406282
 31
0.0
  0
LINE
  5
A6E65
  8
0
 10
18999.61111616104
 20
6237.171916406282
 30
0.0
 11
18999.61111616104
 21
6212.171916406282
 31
0.0
  0
LINE
  5
A6E66
  8
0
 10
18999.61111616104
 20
6237.171916406282
 30
0.0
 11
18999.61111616104
 21
6212.171916406282
 31
0.0
  0
LINE
  5
A6E67
  8
0
 10
19034.61111616104
 20
6237.171916406282
 30
0.0
 11
18989.61111616104
 21
6237.171916406282
 31
0.0
  0
LINE
  5
A6E68
  8
0
 10
19034.61111616104
 20
6237.171916406282
 30
0.0
 11
18989.61111616104
 21
6237.171916406282
 31
0.0
  0
LINE
  5
A6E69
  8
0
 10
18989.61111616104
 20
6262.171916406281
 30
0.0
 11
18989.61111616104
 21
6237.171916406282
 31
0.0
  0
LINE
  5
A6E6A
  8
0
 10
18989.61111616104
 20
6262.171916406281
 30
0.0
 11
18989.61111616104
 21
6237.171916406282
 31
0.0
  0
POLYLINE
  5
A6E6B
  8
0
 66
     1
 10
0.0
 20
0.0
 30
0.0
 70
     1
  0
VERTEX
  5
B1375
  8
0
 10
19429.61111616105
 20
8412.171916406314
 30
0.0
  0
VERTEX
  5
B1376
  8
0
 10
19429.61111616105
 20
8434.67191640631
 30
0.0
 42
-1.0
  0
VERTEX
  5
B1377
  8
0
 10
19384.61111616105
 20
8434.67191640631
 30
0.0
  0
VERTEX
  5
B1378
  8
0
 10
19384.61111616105
 20
8412.171916406278
 30
0.0
  0
VERTEX
  5
B1379
  8
0
 10
19367.11111616104
 20
8412.171916406314
 30
0.0
  0
VERTEX
  5
B137A
  8
0
 10
19357.11111616105
 20
8402.17191640628
 30
0.0
  0
VERTEX
  5
B137B
  8
0
 10
19457.11111616104
 20
8402.17191640628
 30
0.0
  0
VERTEX
  5
B137C
  8
0
 10
19447.11111616104
 20
8412.171916406314
 30
0.0
  0
SEQEND
  5
B197D
  8
0
  0
POLYLINE
  5
A6E6C
  8
0
 66
     1
 10
0.0
 20
0.0
 30
0.0
 70
     1
  0
VERTEX
  5
B137D
  8
0
 10
19497.11111616105
 20
6383.171916406283
 30
0.0
  0
VERTEX
  5
B137E
  8
0
 10
19497.11111616105
 20
6357.171916406283
 30
0.0
  0
VERTEX
  5
B137F
  8
0
 10
18527.11111616105
 20
6357.171916406283
 30
0.0
  0
VERTEX
  5
B1380
  8
0
 10
18527.11111616105
 20
6383.171916406283
 30
0.0
  0
SEQEND
  5
B197E
  8
0
  0
POLYLINE
  5
A6E6D
  8
0
 66
     1
 10
0.0
 20
0.0
 30
0.0
 70
     1
  0
VERTEX
  5
B1381
  8
0
 10
18497.11111616104
 20
6357.171916406283
 30
0.0
  0
VERTEX
  5
B1382
  8
0
 10
18497.11111616104
 20
8357.171916406278
 30
0.0
  0
VERTEX
  5
B1383
  8
0
 10
18527.11111616105
 20
8357.171916406278
 30
0.0
  0
VERTEX
  5
B1384
  8
0
 10
18527.11111616105
 20
6357.171916406283
 30
0.0
  0
SEQEND
  5
B197F
  8
0
  0
POLYLINE
  5
A6E6E
  8
0
 66
     1
 10
0.0
 20
0.0
 30
0.0
 70
     1
  0
VERTEX
  5
B1385
  8
0
 10
17527.11111616104
 20
6357.171916406283
 30
0.0
  0
VERTEX
  5
B1386
  8
0
 10
17527.11111616104
 20
6383.171916406283
 30
0.0
  0
VERTEX
  5
B1387
  8
0
 10
18497.11111616104
 20
6383.171916406283
 30
0.0
  0
VERTEX
  5
B1388
  8
0
 10
18497.11111616104
 20
6357.171916406283
 30
0.0
  0
SEQEND
  5
B1980
  8
0
  0
POLYLINE
  5
A6E6F
  8
0
 66
     1
 10
0.0
 20
0.0
 30
0.0
 70
     1
  0
VERTEX
  5
B1389
  8
0
 10
19497.11111616116
 20
6262.171916406281
 30
0.0
  0
VERTEX
  5
B138A
  8
0
 10
19497.11111616116
 20
6357.171916406573
 30
0.0
  0
VERTEX
  5
B138B
  8
0
 10
17527.1111161608
 20
6357.171916406573
 30
0.0
  0
VERTEX
  5
B138C
  8
0
 10
17527.1111161608
 20
6262.171916406281
 30
0.0
  0
SEQEND
  5
B1981
  8
0
  0
POLYLINE
  5
A6E70
  8
0
 66
     1
 10
0.0
 20
0.0
 30
0.0
 70
     1
  0
VERTEX
  5
B138D
  8
0
 10
19527.11111616104
 20
8392.171916406278
 30
0.0
  0
VERTEX
  5
B138E
  8
0
 10
19527.11111616104
 20
6262.171916406281
 30
0.0
  0
VERTEX
  5
B138F
  8
0
 10
19497.11111616116
 20
6262.171916406281
 30
0.0
  0
VERTEX
  5
B1390
  8
0
 10
19497.11111616116
 20
8392.171916406278
 30
0.0
  0
SEQEND
  5
B1982
  8
0
  0
POLYLINE
  5
A6E71
  8
0
 66
     1
 10
0.0
 20
0.0
 30
0.0
 70
     1
  0
VERTEX
  5
B1391
  8
0
 10
17527.11111616104
 20
8392.171916406278
 30
0.0
  0
VERTEX
  5
B1392
  8
0
 10
17527.11111616104
 20
6262.171916406281
 30
0.0
  0
VERTEX
  5
B1393
  8
0
 10
17497.11111616106
 20
6262.171916406281
 30
0.0
  0
VERTEX
  5
B1394
  8
0
 10
17497.11111616106
 20
8392.171916406278
 30
0.0
  0
SEQEND
  5
B1983
  8
0
  0
POLYLINE
  5
A6E73
  8
0
 66
     1
 10
0.0
 20
0.0
 30
0.0
 70
     1
  0
VERTEX
  5
B1395
  8
0
 10
19497.11111616105
 20
8392.171916406278
 30
0.0
  0
VERTEX
  5
B1396
  8
0
 10
19497.11111616105
 20
8357.171916406278
 30
0.0
  0
VERTEX
  5
B1397
  8
0
 10
17527.11111616104
 20
8357.171916406278
 30
0.0
  0
VERTEX
  5
B1398
  8
0
 10
17527.11111616104
 20
8392.171916406278
 30
0.0
  0
SEQEND
  5
B1984
  8
0
  0
CIRCLE
  5
A6E79
  8
0
 10
19407.11111616104
 20
8434.671916406282
 30
0.0
 40
22.5
  0
CIRCLE
  5
A6E7A
  8
0
 10
19407.11111616104
 20
8434.671916406282
 30
0.0
 40
12.5
  0
LINE
  5
A6E7B
  8
0
 10
19357.11111616105
 20
8402.17191640628
 30
0.0
 11
19457.11111616104
 21
8402.17191640628
 31
0.0
  0
POLYLINE
  5
A6E7C
  8
0
 66
     1
 10
0.0
 20
0.0
 30
0.0
 70
     1
  0
VERTEX
  5
B1399
  8
0
 10
19337.11111616105
 20
8402.17191640631
 30
0.0
  0
VERTEX
  5
B139A
  8
0
 10
19477.11111616104
 20
8402.17191640631
 30
0.0
  0
VERTEX
  5
B139B
  8
0
 10
19477.11111616104
 20
8392.17191640631
 30
0.0
  0
VERTEX
  5
B139C
  8
0
 10
19337.11111616105
 20
8392.17191640631
 30
0.0
  0
SEQEND
  5
B1985
  8
0
  0
LINE
  5
A6EAD
  8
0
 10
22732.69473631098
 20
10251.30740641974
 30
0.0
 11
17223.39205753694
 21
10251.30740641974
 31
0.0
  0
POLYLINE
  5
A6EAE
  8
0
 66
     1
 10
0.0
 20
0.0
 30
0.0
 70
     1
  0
VERTEX
  5
B139D
  8
0
 10
19337.11111616105
 20
16490.44289643322
 30
0.0
  0
VERTEX
  5
B139E
  8
0
 10
19477.11111616104
 20
16490.44289643322
 30
0.0
  0
VERTEX
  5
B139F
  8
0
 10
19477.11111616104
 20
16480.44289643322
 30
0.0
  0
VERTEX
  5
B13A0
  8
0
 10
19337.11111616105
 20
16480.44289643322
 30
0.0
  0
SEQEND
  5
B1986
  8
0
  0
LINE
  5
A6EAF
  8
0
 10
19357.11111616105
 20
16490.44289643319
 30
0.0
 11
19457.11111616104
 21
16490.44289643319
 31
0.0
  0
CIRCLE
  5
A6EB0
  8
0
 10
19407.11111616104
 20
16522.94289643319
 30
0.0
 40
12.5
  0
CIRCLE
  5
A6EB1
  8
0
 10
19407.11111616104
 20
16522.94289643319
 30
0.0
 40
22.5
  0
POLYLINE
  5
A6EB8
  8
0
 66
     1
 10
0.0
 20
0.0
 30
0.0
 70
     1
  0
VERTEX
  5
B13A1
  8
0
 10
19497.11111616105
 20
16480.44289643319
 30
0.0
  0
VERTEX
  5
B13A2
  8
0
 10
19497.11111616105
 20
16445.44289643319
 30
0.0
  0
VERTEX
  5
B13A3
  8
0
 10
17527.11111616104
 20
16445.44289643319
 30
0.0
  0
VERTEX
  5
B13A4
  8
0
 10
17527.11111616104
 20
16480.44289643319
 30
0.0
  0
SEQEND
  5
B1987
  8
0
  0
POLYLINE
  5
A6EB9
  8
0
 66
     1
 10
0.0
 20
0.0
 30
0.0
 70
     1
  0
VERTEX
  5
B13A5
  8
0
 10
17527.11111616104
 20
16480.44289643319
 30
0.0
  0
VERTEX
  5
B13A6
  8
0
 10
17527.11111616104
 20
14350.44289643319
 30
0.0
  0
VERTEX
  5
B13A7
  8
0
 10
17497.11111616106
 20
14350.44289643319
 30
0.0
  0
VERTEX
  5
B13A8
  8
0
 10
17497.11111616106
 20
16480.44289643319
 30
0.0
  0
SEQEND
  5
B1988
  8
0
  0
POLYLINE
  5
A6EBA
  8
0
 66
     1
 10
0.0
 20
0.0
 30
0.0
 70
     1
  0
VERTEX
  5
B13A9
  8
0
 10
19527.11111616104
 20
16480.44289643319
 30
0.0
  0
VERTEX
  5
B13AA
  8
0
 10
19527.11111616104
 20
14350.44289643319
 30
0.0
  0
VERTEX
  5
B13AB
  8
0
 10
19497.11111616116
 20
14350.44289643319
 30
0.0
  0
VERTEX
  5
B13AC
  8
0
 10
19497.11111616116
 20
16480.44289643319
 30
0.0
  0
SEQEND
  5
B1989
  8
0
  0
POLYLINE
  5
A6EBB
  8
0
 66
     1
 10
0.0
 20
0.0
 30
0.0
 70
     1
  0
VERTEX
  5
B13AD
  8
0
 10
19497.11111616116
 20
14350.44289643319
 30
0.0
  0
VERTEX
  5
B13AE
  8
0
 10
19497.11111616116
 20
14445.44289643348
 30
0.0
  0
VERTEX
  5
B13AF
  8
0
 10
17527.1111161608
 20
14445.44289643348
 30
0.0
  0
VERTEX
  5
B13B0
  8
0
 10
17527.1111161608
 20
14350.44289643319
 30
0.0
  0
SEQEND
  5
B198A
  8
0
  0
POLYLINE
  5
A6EBC
  8
0
 66
     1
 10
0.0
 20
0.0
 30
0.0
 70
     1
  0
VERTEX
  5
B13B1
  8
0
 10
17527.11111616104
 20
14445.44289643319
 30
0.0
  0
VERTEX
  5
B13B2
  8
0
 10
17527.11111616104
 20
14471.44289643319
 30
0.0
  0
VERTEX
  5
B13B3
  8
0
 10
18497.11111616104
 20
14471.44289643319
 30
0.0
  0
VERTEX
  5
B13B4
  8
0
 10
18497.11111616104
 20
14445.44289643319
 30
0.0
  0
SEQEND
  5
B198B
  8
0
  0
POLYLINE
  5
A6EBD
  8
0
 66
     1
 10
0.0
 20
0.0
 30
0.0
 70
     1
  0
VERTEX
  5
B13B5
  8
0
 10
18497.11111616104
 20
14445.44289643319
 30
0.0
  0
VERTEX
  5
B13B6
  8
0
 10
18497.11111616104
 20
16445.44289643319
 30
0.0
  0
VERTEX
  5
B13B7
  8
0
 10
18527.11111616105
 20
16445.44289643319
 30
0.0
  0
VERTEX
  5
B13B8
  8
0
 10
18527.11111616105
 20
14445.44289643319
 30
0.0
  0
SEQEND
  5
B198C
  8
0
  0
POLYLINE
  5
A6EBE
  8
0
 66
     1
 10
0.0
 20
0.0
 30
0.0
 70
     1
  0
VERTEX
  5
B13B9
  8
0
 10
19497.11111616105
 20
14471.44289643319
 30
0.0
  0
VERTEX
  5
B13BA
  8
0
 10
19497.11111616105
 20
14445.44289643319
 30
0.0
  0
VERTEX
  5
B13BB
  8
0
 10
18527.11111616105
 20
14445.44289643319
 30
0.0
  0
VERTEX
  5
B13BC
  8
0
 10
18527.11111616105
 20
14471.44289643319
 30
0.0
  0
SEQEND
  5
B198D
  8
0
  0
POLYLINE
  5
A6EBF
  8
0
 66
     1
 10
0.0
 20
0.0
 30
0.0
 70
     1
  0
VERTEX
  5
B13BD
  8
0
 10
19497.11111616128
 20
14871.4428964329
 30
0.0
  0
VERTEX
  5
B13BE
  8
0
 10
19497.11111616128
 20
14845.4428964329
 30
0.0
  0
VERTEX
  5
B13BF
  8
0
 10
18527.11111616126
 20
14845.4428964329
 30
0.0
  0
VERTEX
  5
B13C0
  8
0
 10
18527.11111616126
 20
14871.4428964329
 30
0.0
  0
SEQEND
  5
B198E
  8
0
  0
POLYLINE
  5
A6EC0
  8
0
 66
     1
 10
0.0
 20
0.0
 30
0.0
 70
     1
  0
VERTEX
  5
B13C1
  8
0
 10
17527.11111616126
 20
14845.4428964329
 30
0.0
  0
VERTEX
  5
B13C2
  8
0
 10
17527.11111616126
 20
14871.4428964329
 30
0.0
  0
VERTEX
  5
B13C3
  8
0
 10
18497.11111616128
 20
14871.4428964329
 30
0.0
  0
VERTEX
  5
B13C4
  8
0
 10
18497.11111616128
 20
14845.4428964329
 30
0.0
  0
SEQEND
  5
B198F
  8
0
  0
POLYLINE
  5
A6EC1
  8
0
 66
     1
 10
0.0
 20
0.0
 30
0.0
 70
     1
  0
VERTEX
  5
B13C5
  8
0
 10
19497.11111616128
 20
15271.4428964329
 30
0.0
  0
VERTEX
  5
B13C6
  8
0
 10
19497.11111616128
 20
15245.4428964329
 30
0.0
  0
VERTEX
  5
B13C7
  8
0
 10
18527.11111616126
 20
15245.4428964329
 30
0.0
  0
VERTEX
  5
B13C8
  8
0
 10
18527.11111616126
 20
15271.4428964329
 30
0.0
  0
SEQEND
  5
B1990
  8
0
  0
POLYLINE
  5
A6EC2
  8
0
 66
     1
 10
0.0
 20
0.0
 30
0.0
 70
     1
  0
VERTEX
  5
B13C9
  8
0
 10
17527.11111616126
 20
15245.4428964329
 30
0.0
  0
VERTEX
  5
B13CA
  8
0
 10
17527.11111616126
 20
15271.4428964329
 30
0.0
  0
VERTEX
  5
B13CB
  8
0
 10
18497.11111616128
 20
15271.4428964329
 30
0.0
  0
VERTEX
  5
B13CC
  8
0
 10
18497.11111616128
 20
15245.4428964329
 30
0.0
  0
SEQEND
  5
B1991
  8
0
  0
POLYLINE
  5
A6EC3
  8
0
 66
     1
 10
0.0
 20
0.0
 30
0.0
 70
     1
  0
VERTEX
  5
B13CD
  8
0
 10
19497.11111616128
 20
15671.4428964329
 30
0.0
  0
VERTEX
  5
B13CE
  8
0
 10
19497.11111616128
 20
15645.4428964329
 30
0.0
  0
VERTEX
  5
B13CF
  8
0
 10
18527.11111616126
 20
15645.4428964329
 30
0.0
  0
VERTEX
  5
B13D0
  8
0
 10
18527.11111616126
 20
15671.4428964329
 30
0.0
  0
SEQEND
  5
B1992
  8
0
  0
POLYLINE
  5
A6EC4
  8
0
 66
     1
 10
0.0
 20
0.0
 30
0.0
 70
     1
  0
VERTEX
  5
B13D1
  8
0
 10
17527.11111616126
 20
15645.4428964329
 30
0.0
  0
VERTEX
  5
B13D2
  8
0
 10
17527.11111616126
 20
15671.4428964329
 30
0.0
  0
VERTEX
  5
B13D3
  8
0
 10
18497.11111616128
 20
15671.4428964329
 30
0.0
  0
VERTEX
  5
B13D4
  8
0
 10
18497.11111616128
 20
15645.4428964329
 30
0.0
  0
SEQEND
  5
B1993
  8
0
  0
POLYLINE
  5
A6EC5
  8
0
 66
     1
 10
0.0
 20
0.0
 30
0.0
 70
     1
  0
VERTEX
  5
B13D5
  8
0
 10
19497.11111616128
 20
16071.4428964329
 30
0.0
  0
VERTEX
  5
B13D6
  8
0
 10
19497.11111616128
 20
16045.4428964329
 30
0.0
  0
VERTEX
  5
B13D7
  8
0
 10
18527.11111616126
 20
16045.4428964329
 30
0.0
  0
VERTEX
  5
B13D8
  8
0
 10
18527.11111616126
 20
16071.4428964329
 30
0.0
  0
SEQEND
  5
B1994
  8
0
  0
POLYLINE
  5
A6EC6
  8
0
 66
     1
 10
0.0
 20
0.0
 30
0.0
 70
     1
  0
VERTEX
  5
B13D9
  8
0
 10
17527.11111616126
 20
16045.4428964329
 30
0.0
  0
VERTEX
  5
B13DA
  8
0
 10
17527.11111616126
 20
16071.4428964329
 30
0.0
  0
VERTEX
  5
B13DB
  8
0
 10
18497.11111616128
 20
16071.4428964329
 30
0.0
  0
VERTEX
  5
B13DC
  8
0
 10
18497.11111616128
 20
16045.4428964329
 30
0.0
  0
SEQEND
  5
B1995
  8
0
  0
POLYLINE
  5
A6EC7
  8
0
 66
     1
 10
0.0
 20
0.0
 30
0.0
 70
     1
  0
VERTEX
  5
B13DD
  8
0
 10
19429.61111616105
 20
16500.44289643322
 30
0.0
  0
VERTEX
  5
B13DE
  8
0
 10
19429.61111616105
 20
16522.94289643322
 30
0.0
 42
-1.0
  0
VERTEX
  5
B13DF
  8
0
 10
19384.61111616105
 20
16522.94289643322
 30
0.0
  0
VERTEX
  5
B13E0
  8
0
 10
19384.61111616105
 20
16500.44289643319
 30
0.0
  0
VERTEX
  5
B13E1
  8
0
 10
19367.11111616104
 20
16500.44289643322
 30
0.0
  0
VERTEX
  5
B13E2
  8
0
 10
19357.11111616105
 20
16490.44289643319
 30
0.0
  0
VERTEX
  5
B13E3
  8
0
 10
19457.11111616104
 20
16490.44289643319
 30
0.0
  0
VERTEX
  5
B13E4
  8
0
 10
19447.11111616104
 20
16500.44289643322
 30
0.0
  0
SEQEND
  5
B1996
  8
0
  0
LINE
  5
A6EC8
  8
0
 10
18989.61111616104
 20
14350.44289643319
 30
0.0
 11
18989.61111616104
 21
14325.44289643319
 31
0.0
  0
LINE
  5
A6EC9
  8
0
 10
18989.61111616104
 20
14350.44289643319
 30
0.0
 11
18989.61111616104
 21
14325.44289643319
 31
0.0
  0
LINE
  5
A6ECA
  8
0
 10
19034.61111616104
 20
14325.44289643319
 30
0.0
 11
18989.61111616104
 21
14325.44289643319
 31
0.0
  0
LINE
  5
A6ECB
  8
0
 10
19034.61111616104
 20
14325.44289643319
 30
0.0
 11
18989.61111616104
 21
14325.44289643319
 31
0.0
  0
LINE
  5
A6ECC
  8
0
 10
18999.61111616104
 20
14325.44289643319
 30
0.0
 11
18999.61111616104
 21
14300.44289643319
 31
0.0
  0
LINE
  5
A6ECD
  8
0
 10
18999.61111616104
 20
14325.44289643319
 30
0.0
 11
18999.61111616104
 21
14300.44289643319
 31
0.0
  0
LINE
  5
A6ECE
  8
0
 10
19034.61111616104
 20
14325.44289643319
 30
0.0
 11
18989.61111616104
 21
14325.44289643319
 31
0.0
  0
LINE
  5
A6ECF
  8
0
 10
19034.61111616104
 20
14325.44289643319
 30
0.0
 11
18989.61111616104
 21
14325.44289643319
 31
0.0
  0
LINE
  5
A6ED0
  8
0
 10
18999.61111616104
 20
14325.44289643319
 30
0.0
 11
18999.61111616104
 21
14300.44289643319
 31
0.0
  0
LINE
  5
A6ED1
  8
0
 10
18999.61111616104
 20
14325.44289643319
 30
0.0
 11
18999.61111616104
 21
14300.44289643319
 31
0.0
  0
LINE
  5
A6ED2
  8
0
 10
18989.61111616104
 20
14350.44289643319
 30
0.0
 11
18989.61111616104
 21
14325.44289643319
 31
0.0
  0
LINE
  5
A6ED3
  8
0
 10
18989.61111616104
 20
14350.44289643319
 30
0.0
 11
18989.61111616104
 21
14325.44289643319
 31
0.0
  0
LINE
  5
A6ED4
  8
0
 10
17989.61111616104
 20
14350.44289643319
 30
0.0
 11
17989.61111616104
 21
14325.44289643319
 31
0.0
  0
LINE
  5
A6ED5
  8
0
 10
17989.61111616104
 20
14350.44289643319
 30
0.0
 11
17989.61111616104
 21
14325.44289643319
 31
0.0
  0
LINE
  5
A6ED6
  8
0
 10
18034.61111616105
 20
14325.44289643319
 30
0.0
 11
17989.61111616104
 21
14325.44289643319
 31
0.0
  0
LINE
  5
A6ED7
  8
0
 10
18034.61111616105
 20
14325.44289643319
 30
0.0
 11
17989.61111616104
 21
14325.44289643319
 31
0.0
  0
LINE
  5
A6ED8
  8
0
 10
17999.61111616104
 20
14325.44289643319
 30
0.0
 11
17999.61111616104
 21
14300.44289643319
 31
0.0
  0
LINE
  5
A6ED9
  8
0
 10
17999.61111616104
 20
14325.44289643319
 30
0.0
 11
17999.61111616104
 21
14300.44289643319
 31
0.0
  0
LINE
  5
A6EDA
  8
0
 10
18034.61111616105
 20
14325.44289643319
 30
0.0
 11
17989.61111616104
 21
14325.44289643319
 31
0.0
  0
LINE
  5
A6EDB
  8
0
 10
18034.61111616105
 20
14325.44289643319
 30
0.0
 11
17989.61111616104
 21
14325.44289643319
 31
0.0
  0
LINE
  5
A6EDC
  8
0
 10
17999.61111616104
 20
14325.44289643319
 30
0.0
 11
17999.61111616104
 21
14300.44289643319
 31
0.0
  0
LINE
  5
A6EDD
  8
0
 10
17999.61111616104
 20
14325.44289643319
 30
0.0
 11
17999.61111616104
 21
14300.44289643319
 31
0.0
  0
LINE
  5
A6EDE
  8
0
 10
17989.61111616104
 20
14350.44289643319
 30
0.0
 11
17989.61111616104
 21
14325.44289643319
 31
0.0
  0
LINE
  5
A6EDF
  8
0
 10
17989.61111616104
 20
14350.44289643319
 30
0.0
 11
17989.61111616104
 21
14325.44289643319
 31
0.0
  0
POLYLINE
  5
A6EE0
  8
0
 66
     1
 10
0.0
 20
0.0
 30
0.0
 70
     1
  0
VERTEX
  5
B13E5
  8
0
 10
18034.61111616105
 20
14350.44289643319
 30
0.0
  0
VERTEX
  5
B13E6
  8
0
 10
18034.61111616105
 20
14325.44289643319
 30
0.0
  0
VERTEX
  5
B13E7
  8
0
 10
17989.61111616104
 20
14325.44289643319
 30
0.0
  0
VERTEX
  5
B13E8
  8
0
 10
17989.61111616104
 20
14350.44289643319
 30
0.0
  0
SEQEND
  5
B1997
  8
0
  0
POLYLINE
  5
A6EE1
  8
0
 66
     1
 10
0.0
 20
0.0
 30
0.0
 70
     1
  0
VERTEX
  5
B13E9
  8
0
 10
18024.61111616104
 20
14325.44289643319
 30
0.0
  0
VERTEX
  5
B13EA
  8
0
 10
18024.61111616104
 20
14300.44289643319
 30
0.0
  0
VERTEX
  5
B13EB
  8
0
 10
17999.61111616104
 20
14300.44289643319
 30
0.0
  0
VERTEX
  5
B13EC
  8
0
 10
17999.61111616104
 20
14325.44289643319
 30
0.0
  0
SEQEND
  5
B1998
  8
0
  0
LINE
  5
A6EE2
  8
0
 10
18989.61111616104
 20
14350.44289643319
 30
0.0
 11
18989.61111616104
 21
14325.44289643319
 31
0.0
  0
LINE
  5
A6EE3
  8
0
 10
18989.61111616104
 20
14350.44289643319
 30
0.0
 11
18989.61111616104
 21
14325.44289643319
 31
0.0
  0
LINE
  5
A6EE4
  8
0
 10
19034.61111616104
 20
14325.44289643319
 30
0.0
 11
18989.61111616104
 21
14325.44289643319
 31
0.0
  0
LINE
  5
A6EE5
  8
0
 10
19034.61111616104
 20
14325.44289643319
 30
0.0
 11
18989.61111616104
 21
14325.44289643319
 31
0.0
  0
LINE
  5
A6EE6
  8
0
 10
18999.61111616104
 20
14325.44289643319
 30
0.0
 11
18999.61111616104
 21
14300.44289643319
 31
0.0
  0
LINE
  5
A6EE7
  8
0
 10
18999.61111616104
 20
14325.44289643319
 30
0.0
 11
18999.61111616104
 21
14300.44289643319
 31
0.0
  0
LINE
  5
A6EE8
  8
0
 10
19034.61111616104
 20
14325.44289643319
 30
0.0
 11
18989.61111616104
 21
14325.44289643319
 31
0.0
  0
LINE
  5
A6EE9
  8
0
 10
19034.61111616104
 20
14325.44289643319
 30
0.0
 11
18989.61111616104
 21
14325.44289643319
 31
0.0
  0
LINE
  5
A6EEA
  8
0
 10
18999.61111616104
 20
14325.44289643319
 30
0.0
 11
18999.61111616104
 21
14300.44289643319
 31
0.0
  0
LINE
  5
A6EEB
  8
0
 10
18999.61111616104
 20
14325.44289643319
 30
0.0
 11
18999.61111616104
 21
14300.44289643319
 31
0.0
  0
LINE
  5
A6EEC
  8
0
 10
18989.61111616104
 20
14350.44289643319
 30
0.0
 11
18989.61111616104
 21
14325.44289643319
 31
0.0
  0
LINE
  5
A6EED
  8
0
 10
18989.61111616104
 20
14350.44289643319
 30
0.0
 11
18989.61111616104
 21
14325.44289643319
 31
0.0
  0
POLYLINE
  5
A6EEE
  8
0
 66
     1
 10
0.0
 20
0.0
 30
0.0
 70
     1
  0
VERTEX
  5
B13ED
  8
0
 10
19034.61111616104
 20
14350.44289643319
 30
0.0
  0
VERTEX
  5
B13EE
  8
0
 10
19034.61111616104
 20
14325.44289643319
 30
0.0
  0
VERTEX
  5
B13EF
  8
0
 10
18989.61111616104
 20
14325.44289643319
 30
0.0
  0
VERTEX
  5
B13F0
  8
0
 10
18989.61111616104
 20
14350.44289643319
 30
0.0
  0
SEQEND
  5
B1999
  8
0
  0
POLYLINE
  5
A6EEF
  8
0
 66
     1
 10
0.0
 20
0.0
 30
0.0
 70
     1
  0
VERTEX
  5
B13F1
  8
0
 10
19024.61111616105
 20
14325.44289643319
 30
0.0
  0
VERTEX
  5
B13F2
  8
0
 10
19024.61111616105
 20
14300.44289643319
 30
0.0
  0
VERTEX
  5
B13F3
  8
0
 10
18999.61111616104
 20
14300.44289643319
 30
0.0
  0
VERTEX
  5
B13F4
  8
0
 10
18999.61111616104
 20
14325.44289643319
 30
0.0
  0
SEQEND
  5
B199A
  8
0
  0
POLYLINE
  5
A6EF0
  8
0
 66
     1
 10
0.0
 20
0.0
 30
0.0
 70
     1
  0
VERTEX
  5
B13F5
  8
0
 10
19337.11111616106
 20
12446.30740641976
 30
0.0
  0
VERTEX
  5
B13F6
  8
0
 10
19477.11111616106
 20
12446.30740641976
 30
0.0
  0
VERTEX
  5
B13F7
  8
0
 10
19477.11111616106
 20
12436.30740641976
 30
0.0
  0
VERTEX
  5
B13F8
  8
0
 10
19337.11111616106
 20
12436.30740641976
 30
0.0
  0
SEQEND
  5
B199B
  8
0
  0
LINE
  5
A6EF1
  8
0
 10
19357.11111616106
 20
12446.30740641973
 30
0.0
 11
19457.11111616106
 21
12446.30740641973
 31
0.0
  0
CIRCLE
  5
A6EF2
  8
0
 10
19407.11111616106
 20
12478.80740641973
 30
0.0
 40
12.5
  0
CIRCLE
  5
A6EF3
  8
0
 10
19407.11111616106
 20
12478.80740641973
 30
0.0
 40
22.5
  0
POLYLINE
  5
A6EF9
  8
0
 66
     1
 10
0.0
 20
0.0
 30
0.0
 70
     1
  0
VERTEX
  5
B13F9
  8
0
 10
19497.11111616106
 20
12436.30740641973
 30
0.0
  0
VERTEX
  5
B13FA
  8
0
 10
19497.11111616106
 20
12401.30740641973
 30
0.0
  0
VERTEX
  5
B13FB
  8
0
 10
17527.11111616106
 20
12401.30740641973
 30
0.0
  0
VERTEX
  5
B13FC
  8
0
 10
17527.11111616106
 20
12436.30740641973
 30
0.0
  0
SEQEND
  5
B199C
  8
0
  0
POLYLINE
  5
A6EFB
  8
0
 66
     1
 10
0.0
 20
0.0
 30
0.0
 70
     1
  0
VERTEX
  5
B13FD
  8
0
 10
17527.11111616106
 20
12436.30740641973
 30
0.0
  0
VERTEX
  5
B13FE
  8
0
 10
17527.11111616106
 20
10306.30740641973
 30
0.0
  0
VERTEX
  5
B13FF
  8
0
 10
17497.11111616106
 20
10306.30740641973
 30
0.0
  0
VERTEX
  5
B1400
  8
0
 10
17497.11111616106
 20
12436.30740641973
 30
0.0
  0
SEQEND
  5
B199D
  8
0
  0
POLYLINE
  5
A6EFC
  8
0
 66
     1
 10
0.0
 20
0.0
 30
0.0
 70
     1
  0
VERTEX
  5
B1401
  8
0
 10
19527.11111616106
 20
12436.30740641973
 30
0.0
  0
VERTEX
  5
B1402
  8
0
 10
19527.11111616106
 20
10306.30740641973
 30
0.0
  0
VERTEX
  5
B1403
  8
0
 10
19497.11111616118
 20
10306.30740641973
 30
0.0
  0
VERTEX
  5
B1404
  8
0
 10
19497.11111616118
 20
12436.30740641973
 30
0.0
  0
SEQEND
  5
B199E
  8
0
  0
POLYLINE
  5
A6EFD
  8
0
 66
     1
 10
0.0
 20
0.0
 30
0.0
 70
     1
  0
VERTEX
  5
B1405
  8
0
 10
19497.11111616118
 20
10306.30740641973
 30
0.0
  0
VERTEX
  5
B1406
  8
0
 10
19497.11111616118
 20
10401.30740642002
 30
0.0
  0
VERTEX
  5
B1407
  8
0
 10
17527.11111616081
 20
10401.30740642002
 30
0.0
  0
VERTEX
  5
B1408
  8
0
 10
17527.11111616081
 20
10306.30740641973
 30
0.0
  0
SEQEND
  5
B199F
  8
0
  0
POLYLINE
  5
A6EFE
  8
0
 66
     1
 10
0.0
 20
0.0
 30
0.0
 70
     1
  0
VERTEX
  5
B1409
  8
0
 10
17527.11111616106
 20
10401.30740641973
 30
0.0
  0
VERTEX
  5
B140A
  8
0
 10
17527.11111616106
 20
10427.30740641973
 30
0.0
  0
VERTEX
  5
B140B
  8
0
 10
18497.11111616106
 20
10427.30740641973
 30
0.0
  0
VERTEX
  5
B140C
  8
0
 10
18497.11111616106
 20
10401.30740641973
 30
0.0
  0
SEQEND
  5
B19A0
  8
0
  0
POLYLINE
  5
A6EFF
  8
0
 66
     1
 10
0.0
 20
0.0
 30
0.0
 70
     1
  0
VERTEX
  5
B140D
  8
0
 10
18497.11111616106
 20
10401.30740641973
 30
0.0
  0
VERTEX
  5
B140E
  8
0
 10
18497.11111616106
 20
12401.30740641973
 30
0.0
  0
VERTEX
  5
B140F
  8
0
 10
18527.11111616106
 20
12401.30740641973
 30
0.0
  0
VERTEX
  5
B1410
  8
0
 10
18527.11111616106
 20
10401.30740641973
 30
0.0
  0
SEQEND
  5
B19A1
  8
0
  0
POLYLINE
  5
A6F00
  8
0
 66
     1
 10
0.0
 20
0.0
 30
0.0
 70
     1
  0
VERTEX
  5
B1411
  8
0
 10
19497.11111616106
 20
10427.30740641973
 30
0.0
  0
VERTEX
  5
B1412
  8
0
 10
19497.11111616106
 20
10401.30740641973
 30
0.0
  0
VERTEX
  5
B1413
  8
0
 10
18527.11111616106
 20
10401.30740641973
 30
0.0
  0
VERTEX
  5
B1414
  8
0
 10
18527.11111616106
 20
10427.30740641973
 30
0.0
  0
SEQEND
  5
B19A2
  8
0
  0
POLYLINE
  5
A6F01
  8
0
 66
     1
 10
0.0
 20
0.0
 30
0.0
 70
     1
  0
VERTEX
  5
B1415
  8
0
 10
19497.1111161613
 20
10677.30740641944
 30
0.0
  0
VERTEX
  5
B1416
  8
0
 10
19497.1111161613
 20
10651.30740641943
 30
0.0
  0
VERTEX
  5
B1417
  8
0
 10
18527.1111161613
 20
10651.30740641943
 30
0.0
  0
VERTEX
  5
B1418
  8
0
 10
18527.1111161613
 20
10677.30740641944
 30
0.0
  0
SEQEND
  5
B19A3
  8
0
  0
POLYLINE
  5
A6F02
  8
0
 66
     1
 10
0.0
 20
0.0
 30
0.0
 70
     1
  0
VERTEX
  5
B1419
  8
0
 10
17527.1111161613
 20
10651.30740641943
 30
0.0
  0
VERTEX
  5
B141A
  8
0
 10
17527.1111161613
 20
10677.30740641944
 30
0.0
  0
VERTEX
  5
B141B
  8
0
 10
18497.11111616129
 20
10677.30740641944
 30
0.0
  0
VERTEX
  5
B141C
  8
0
 10
18497.11111616129
 20
10651.30740641943
 30
0.0
  0
SEQEND
  5
B19A4
  8
0
  0
POLYLINE
  5
A6F03
  8
0
 66
     1
 10
0.0
 20
0.0
 30
0.0
 70
     1
  0
VERTEX
  5
B141D
  8
0
 10
19497.1111161613
 20
10927.30740641944
 30
0.0
  0
VERTEX
  5
B141E
  8
0
 10
19497.1111161613
 20
10901.30740641944
 30
0.0
  0
VERTEX
  5
B141F
  8
0
 10
18527.1111161613
 20
10901.30740641944
 30
0.0
  0
VERTEX
  5
B1420
  8
0
 10
18527.1111161613
 20
10927.30740641944
 30
0.0
  0
SEQEND
  5
B19A5
  8
0
  0
POLYLINE
  5
A6F04
  8
0
 66
     1
 10
0.0
 20
0.0
 30
0.0
 70
     1
  0
VERTEX
  5
B1421
  8
0
 10
17527.1111161613
 20
10901.30740641944
 30
0.0
  0
VERTEX
  5
B1422
  8
0
 10
17527.1111161613
 20
10927.30740641944
 30
0.0
  0
VERTEX
  5
B1423
  8
0
 10
18497.11111616129
 20
10927.30740641944
 30
0.0
  0
VERTEX
  5
B1424
  8
0
 10
18497.11111616129
 20
10901.30740641944
 30
0.0
  0
SEQEND
  5
B19A6
  8
0
  0
POLYLINE
  5
A6F05
  8
0
 66
     1
 10
0.0
 20
0.0
 30
0.0
 70
     1
  0
VERTEX
  5
B1425
  8
0
 10
19497.1111161613
 20
11177.30740641944
 30
0.0
  0
VERTEX
  5
B1426
  8
0
 10
19497.1111161613
 20
11151.30740641944
 30
0.0
  0
VERTEX
  5
B1427
  8
0
 10
18527.1111161613
 20
11151.30740641944
 30
0.0
  0
VERTEX
  5
B1428
  8
0
 10
18527.1111161613
 20
11177.30740641944
 30
0.0
  0
SEQEND
  5
B19A7
  8
0
  0
POLYLINE
  5
A6F06
  8
0
 66
     1
 10
0.0
 20
0.0
 30
0.0
 70
     1
  0
VERTEX
  5
B1429
  8
0
 10
17527.1111161613
 20
11151.30740641944
 30
0.0
  0
VERTEX
  5
B142A
  8
0
 10
17527.1111161613
 20
11177.30740641944
 30
0.0
  0
VERTEX
  5
B142B
  8
0
 10
18497.11111616129
 20
11177.30740641944
 30
0.0
  0
VERTEX
  5
B142C
  8
0
 10
18497.11111616129
 20
11151.30740641944
 30
0.0
  0
SEQEND
  5
B19A8
  8
0
  0
POLYLINE
  5
A6F07
  8
0
 66
     1
 10
0.0
 20
0.0
 30
0.0
 70
     1
  0
VERTEX
  5
B142D
  8
0
 10
19497.1111161613
 20
11427.30740641944
 30
0.0
  0
VERTEX
  5
B142E
  8
0
 10
19497.1111161613
 20
11401.30740641944
 30
0.0
  0
VERTEX
  5
B142F
  8
0
 10
18527.1111161613
 20
11401.30740641944
 30
0.0
  0
VERTEX
  5
B1430
  8
0
 10
18527.1111161613
 20
11427.30740641944
 30
0.0
  0
SEQEND
  5
B19A9
  8
0
  0
POLYLINE
  5
A6F08
  8
0
 66
     1
 10
0.0
 20
0.0
 30
0.0
 70
     1
  0
VERTEX
  5
B1431
  8
0
 10
17527.1111161613
 20
11401.30740641944
 30
0.0
  0
VERTEX
  5
B1432
  8
0
 10
17527.1111161613
 20
11427.30740641944
 30
0.0
  0
VERTEX
  5
B1433
  8
0
 10
18497.11111616129
 20
11427.30740641944
 30
0.0
  0
VERTEX
  5
B1434
  8
0
 10
18497.11111616129
 20
11401.30740641944
 30
0.0
  0
SEQEND
  5
B19AA
  8
0
  0
POLYLINE
  5
A6F09
  8
0
 66
     1
 10
0.0
 20
0.0
 30
0.0
 70
     1
  0
VERTEX
  5
B1435
  8
0
 10
19429.61111616106
 20
12456.30740641976
 30
0.0
  0
VERTEX
  5
B1436
  8
0
 10
19429.61111616106
 20
12478.80740641976
 30
0.0
 42
-1.0
  0
VERTEX
  5
B1437
  8
0
 10
19384.61111616106
 20
12478.80740641976
 30
0.0
  0
VERTEX
  5
B1438
  8
0
 10
19384.61111616106
 20
12456.30740641973
 30
0.0
  0
VERTEX
  5
B1439
  8
0
 10
19367.11111616106
 20
12456.30740641976
 30
0.0
  0
VERTEX
  5
B143A
  8
0
 10
19357.11111616106
 20
12446.30740641973
 30
0.0
  0
VERTEX
  5
B143B
  8
0
 10
19457.11111616106
 20
12446.30740641973
 30
0.0
  0
VERTEX
  5
B143C
  8
0
 10
19447.11111616106
 20
12456.30740641976
 30
0.0
  0
SEQEND
  5
B19AB
  8
0
  0
LINE
  5
A6F0A
  8
0
 10
18989.61111616106
 20
10306.30740641973
 30
0.0
 11
18989.61111616106
 21
10281.30740641973
 31
0.0
  0
LINE
  5
A6F0B
  8
0
 10
18989.61111616106
 20
10306.30740641973
 30
0.0
 11
18989.61111616106
 21
10281.30740641973
 31
0.0
  0
LINE
  5
A6F0C
  8
0
 10
19034.61111616106
 20
10281.30740641973
 30
0.0
 11
18989.61111616106
 21
10281.30740641973
 31
0.0
  0
LINE
  5
A6F0D
  8
0
 10
19034.61111616106
 20
10281.30740641973
 30
0.0
 11
18989.61111616106
 21
10281.30740641973
 31
0.0
  0
LINE
  5
A6F0E
  8
0
 10
18999.61111616106
 20
10281.30740641973
 30
0.0
 11
18999.61111616106
 21
10256.30740641973
 31
0.0
  0
LINE
  5
A6F0F
  8
0
 10
18999.61111616106
 20
10281.30740641973
 30
0.0
 11
18999.61111616106
 21
10256.30740641973
 31
0.0
  0
LINE
  5
A6F10
  8
0
 10
19034.61111616106
 20
10281.30740641973
 30
0.0
 11
18989.61111616106
 21
10281.30740641973
 31
0.0
  0
LINE
  5
A6F11
  8
0
 10
19034.61111616106
 20
10281.30740641973
 30
0.0
 11
18989.61111616106
 21
10281.30740641973
 31
0.0
  0
LINE
  5
A6F12
  8
0
 10
18999.61111616106
 20
10281.30740641973
 30
0.0
 11
18999.61111616106
 21
10256.30740641973
 31
0.0
  0
LINE
  5
A6F13
  8
0
 10
18999.61111616106
 20
10281.30740641973
 30
0.0
 11
18999.61111616106
 21
10256.30740641973
 31
0.0
  0
LINE
  5
A6F14
  8
0
 10
18989.61111616106
 20
10306.30740641973
 30
0.0
 11
18989.61111616106
 21
10281.30740641973
 31
0.0
  0
LINE
  5
A6F15
  8
0
 10
18989.61111616106
 20
10306.30740641973
 30
0.0
 11
18989.61111616106
 21
10281.30740641973
 31
0.0
  0
LINE
  5
A6F16
  8
0
 10
17989.61111616106
 20
10306.30740641973
 30
0.0
 11
17989.61111616106
 21
10281.30740641973
 31
0.0
  0
LINE
  5
A6F17
  8
0
 10
17989.61111616106
 20
10306.30740641973
 30
0.0
 11
17989.61111616106
 21
10281.30740641973
 31
0.0
  0
LINE
  5
A6F18
  8
0
 10
18034.61111616106
 20
10281.30740641973
 30
0.0
 11
17989.61111616106
 21
10281.30740641973
 31
0.0
  0
LINE
  5
A6F19
  8
0
 10
18034.61111616106
 20
10281.30740641973
 30
0.0
 11
17989.61111616106
 21
10281.30740641973
 31
0.0
  0
LINE
  5
A6F1A
  8
0
 10
17999.61111616106
 20
10281.30740641973
 30
0.0
 11
17999.61111616106
 21
10256.30740641973
 31
0.0
  0
LINE
  5
A6F1B
  8
0
 10
17999.61111616106
 20
10281.30740641973
 30
0.0
 11
17999.61111616106
 21
10256.30740641973
 31
0.0
  0
LINE
  5
A6F1C
  8
0
 10
18034.61111616106
 20
10281.30740641973
 30
0.0
 11
17989.61111616106
 21
10281.30740641973
 31
0.0
  0
LINE
  5
A6F1D
  8
0
 10
18034.61111616106
 20
10281.30740641973
 30
0.0
 11
17989.61111616106
 21
10281.30740641973
 31
0.0
  0
LINE
  5
A6F1E
  8
0
 10
17999.61111616106
 20
10281.30740641973
 30
0.0
 11
17999.61111616106
 21
10256.30740641973
 31
0.0
  0
LINE
  5
A6F1F
  8
0
 10
17999.61111616106
 20
10281.30740641973
 30
0.0
 11
17999.61111616106
 21
10256.30740641973
 31
0.0
  0
LINE
  5
A6F20
  8
0
 10
17989.61111616106
 20
10306.30740641973
 30
0.0
 11
17989.61111616106
 21
10281.30740641973
 31
0.0
  0
LINE
  5
A6F21
  8
0
 10
17989.61111616106
 20
10306.30740641973
 30
0.0
 11
17989.61111616106
 21
10281.30740641973
 31
0.0
  0
POLYLINE
  5
A6F22
  8
0
 66
     1
 10
0.0
 20
0.0
 30
0.0
 70
     1
  0
VERTEX
  5
B143D
  8
0
 10
18034.61111616106
 20
10306.30740641973
 30
0.0
  0
VERTEX
  5
B143E
  8
0
 10
18034.61111616106
 20
10281.30740641973
 30
0.0
  0
VERTEX
  5
B143F
  8
0
 10
17989.61111616106
 20
10281.30740641973
 30
0.0
  0
VERTEX
  5
B1440
  8
0
 10
17989.61111616106
 20
10306.30740641973
 30
0.0
  0
SEQEND
  5
B19AC
  8
0
  0
POLYLINE
  5
A6F23
  8
0
 66
     1
 10
0.0
 20
0.0
 30
0.0
 70
     1
  0
VERTEX
  5
B1441
  8
0
 10
18024.61111616106
 20
10281.30740641973
 30
0.0
  0
VERTEX
  5
B1442
  8
0
 10
18024.61111616106
 20
10256.30740641973
 30
0.0
  0
VERTEX
  5
B1443
  8
0
 10
17999.61111616106
 20
10256.30740641973
 30
0.0
  0
VERTEX
  5
B1444
  8
0
 10
17999.61111616106
 20
10281.30740641973
 30
0.0
  0
SEQEND
  5
B19AD
  8
0
  0
LINE
  5
A6F24
  8
0
 10
18989.61111616106
 20
10306.30740641973
 30
0.0
 11
18989.61111616106
 21
10281.30740641973
 31
0.0
  0
LINE
  5
A6F25
  8
0
 10
18989.61111616106
 20
10306.30740641973
 30
0.0
 11
18989.61111616106
 21
10281.30740641973
 31
0.0
  0
LINE
  5
A6F26
  8
0
 10
19034.61111616106
 20
10281.30740641973
 30
0.0
 11
18989.61111616106
 21
10281.30740641973
 31
0.0
  0
LINE
  5
A6F27
  8
0
 10
19034.61111616106
 20
10281.30740641973
 30
0.0
 11
18989.61111616106
 21
10281.30740641973
 31
0.0
  0
LINE
  5
A6F28
  8
0
 10
18999.61111616106
 20
10281.30740641973
 30
0.0
 11
18999.61111616106
 21
10256.30740641973
 31
0.0
  0
LINE
  5
A6F29
  8
0
 10
18999.61111616106
 20
10281.30740641973
 30
0.0
 11
18999.61111616106
 21
10256.30740641973
 31
0.0
  0
LINE
  5
A6F2A
  8
0
 10
19034.61111616106
 20
10281.30740641973
 30
0.0
 11
18989.61111616106
 21
10281.30740641973
 31
0.0
  0
LINE
  5
A6F2B
  8
0
 10
19034.61111616106
 20
10281.30740641973
 30
0.0
 11
18989.61111616106
 21
10281.30740641973
 31
0.0
  0
LINE
  5
A6F2C
  8
0
 10
18999.61111616106
 20
10281.30740641973
 30
0.0
 11
18999.61111616106
 21
10256.30740641973
 31
0.0
  0
LINE
  5
A6F2D
  8
0
 10
18999.61111616106
 20
10281.30740641973
 30
0.0
 11
18999.61111616106
 21
10256.30740641973
 31
0.0
  0
LINE
  5
A6F2E
  8
0
 10
18989.61111616106
 20
10306.30740641973
 30
0.0
 11
18989.61111616106
 21
10281.30740641973
 31
0.0
  0
LINE
  5
A6F2F
  8
0
 10
18989.61111616106
 20
10306.30740641973
 30
0.0
 11
18989.61111616106
 21
10281.30740641973
 31
0.0
  0
POLYLINE
  5
A6F30
  8
0
 66
     1
 10
0.0
 20
0.0
 30
0.0
 70
     1
  0
VERTEX
  5
B1445
  8
0
 10
19034.61111616106
 20
10306.30740641973
 30
0.0
  0
VERTEX
  5
B1446
  8
0
 10
19034.61111616106
 20
10281.30740641973
 30
0.0
  0
VERTEX
  5
B1447
  8
0
 10
18989.61111616106
 20
10281.30740641973
 30
0.0
  0
VERTEX
  5
B1448
  8
0
 10
18989.61111616106
 20
10306.30740641973
 30
0.0
  0
SEQEND
  5
B19AE
  8
0
  0
POLYLINE
  5
A6F31
  8
0
 66
     1
 10
0.0
 20
0.0
 30
0.0
 70
     1
  0
VERTEX
  5
B1449
  8
0
 10
19024.61111616106
 20
10281.30740641973
 30
0.0
  0
VERTEX
  5
B144A
  8
0
 10
19024.61111616106
 20
10256.30740641973
 30
0.0
  0
VERTEX
  5
B144B
  8
0
 10
18999.61111616106
 20
10256.30740641973
 30
0.0
  0
VERTEX
  5
B144C
  8
0
 10
18999.61111616106
 20
10281.30740641973
 30
0.0
  0
SEQEND
  5
B19AF
  8
0
  0
POLYLINE
  5
A6F32
  8
0
 66
     1
 10
0.0
 20
0.0
 30
0.0
 70
     1
  0
VERTEX
  5
B144D
  8
0
 10
19497.1111161613
 20
11677.30740641944
 30
0.0
  0
VERTEX
  5
B144E
  8
0
 10
19497.1111161613
 20
11651.30740641944
 30
0.0
  0
VERTEX
  5
B144F
  8
0
 10
18527.1111161613
 20
11651.30740641944
 30
0.0
  0
VERTEX
  5
B1450
  8
0
 10
18527.1111161613
 20
11677.30740641944
 30
0.0
  0
SEQEND
  5
B19B0
  8
0
  0
POLYLINE
  5
A6F33
  8
0
 66
     1
 10
0.0
 20
0.0
 30
0.0
 70
     1
  0
VERTEX
  5
B1451
  8
0
 10
17527.1111161613
 20
11651.30740641944
 30
0.0
  0
VERTEX
  5
B1452
  8
0
 10
17527.1111161613
 20
11677.30740641944
 30
0.0
  0
VERTEX
  5
B1453
  8
0
 10
18497.11111616129
 20
11677.30740641944
 30
0.0
  0
VERTEX
  5
B1454
  8
0
 10
18497.11111616129
 20
11651.30740641944
 30
0.0
  0
SEQEND
  5
B19B1
  8
0
  0
POLYLINE
  5
A6F34
  8
0
 66
     1
 10
0.0
 20
0.0
 30
0.0
 70
     1
  0
VERTEX
  5
B1455
  8
0
 10
19497.1111161613
 20
11927.30740641944
 30
0.0
  0
VERTEX
  5
B1456
  8
0
 10
19497.1111161613
 20
11901.30740641944
 30
0.0
  0
VERTEX
  5
B1457
  8
0
 10
18527.1111161613
 20
11901.30740641944
 30
0.0
  0
VERTEX
  5
B1458
  8
0
 10
18527.1111161613
 20
11927.30740641944
 30
0.0
  0
SEQEND
  5
B19B2
  8
0
  0
POLYLINE
  5
A6F35
  8
0
 66
     1
 10
0.0
 20
0.0
 30
0.0
 70
     1
  0
VERTEX
  5
B1459
  8
0
 10
17527.1111161613
 20
11901.30740641944
 30
0.0
  0
VERTEX
  5
B145A
  8
0
 10
17527.1111161613
 20
11927.30740641944
 30
0.0
  0
VERTEX
  5
B145B
  8
0
 10
18497.11111616129
 20
11927.30740641944
 30
0.0
  0
VERTEX
  5
B145C
  8
0
 10
18497.11111616129
 20
11901.30740641944
 30
0.0
  0
SEQEND
  5
B19B3
  8
0
  0
POLYLINE
  5
A6F36
  8
0
 66
     1
 10
0.0
 20
0.0
 30
0.0
 70
     1
  0
VERTEX
  5
B145D
  8
0
 10
19497.1111161613
 20
12177.30740641944
 30
0.0
  0
VERTEX
  5
B145E
  8
0
 10
19497.1111161613
 20
12151.30740641944
 30
0.0
  0
VERTEX
  5
B145F
  8
0
 10
18527.1111161613
 20
12151.30740641944
 30
0.0
  0
VERTEX
  5
B1460
  8
0
 10
18527.1111161613
 20
12177.30740641944
 30
0.0
  0
SEQEND
  5
B19B4
  8
0
  0
POLYLINE
  5
A6F37
  8
0
 66
     1
 10
0.0
 20
0.0
 30
0.0
 70
     1
  0
VERTEX
  5
B1461
  8
0
 10
17527.1111161613
 20
12151.30740641944
 30
0.0
  0
VERTEX
  5
B1462
  8
0
 10
17527.1111161613
 20
12177.30740641944
 30
0.0
  0
VERTEX
  5
B1463
  8
0
 10
18497.11111616129
 20
12177.30740641944
 30
0.0
  0
VERTEX
  5
B1464
  8
0
 10
18497.11111616129
 20
12151.30740641944
 30
0.0
  0
SEQEND
  5
B19B5
  8
0
  0
POLYLINE
  5
A7374
  8
0
 66
     1
 10
0.0
 20
0.0
 30
0.0
 70
     1
  0
VERTEX
  5
B1465
  8
0
 10
17497.11111616106
 20
12436.30740641973
 30
0.0
  0
VERTEX
  5
B1466
  8
0
 10
17497.11111616106
 20
10306.30740641973
 30
0.0
  0
VERTEX
  5
B1467
  8
0
 10
17447.11111616106
 20
10306.30740641973
 30
0.0
  0
VERTEX
  5
B1468
  8
0
 10
17447.11111616106
 20
12436.30740641973
 30
0.0
  0
SEQEND
  5
B19B6
  8
0
  0
POLYLINE
  5
A7375
  8
0
 66
     1
 10
0.0
 20
0.0
 30
0.0
 70
     1
  0
VERTEX
  5
B1469
  8
0
 10
17447.11111616106
 20
11086.30740641973
 30
0.0
  0
VERTEX
  5
B146A
  8
0
 10
17412.11111616106
 20
11086.30740641973
 30
0.0
  0
VERTEX
  5
B146B
  8
0
 10
17412.11111616106
 20
11156.30740641973
 30
0.0
  0
VERTEX
  5
B146C
  8
0
 10
17447.11111616106
 20
11156.30740641973
 30
0.0
  0
SEQEND
  5
B19B7
  8
0
  0
CIRCLE
  5
A7376
  8
0
 10
17386.81112646557
 20
11233.15244655204
 30
0.0
 40
21.29998969548594
  0
POLYLINE
  5
A7377
  8
0
 66
     1
 10
0.0
 20
0.0
 30
0.0
 70
     1
  0
VERTEX
  5
B146D
  8
0
 10
17408.11111616106
 20
11304.82416800182
 30
0.0
  0
VERTEX
  5
B146E
  8
0
 10
17412.11111616106
 20
11304.82416800182
 30
0.0
  0
VERTEX
  5
B146F
  8
0
 10
17412.11111616106
 20
10954.9578958327
 30
0.0
  0
VERTEX
  5
B1470
  8
0
 10
17408.11111616106
 20
10954.9578958327
 30
0.0
  0
SEQEND
  5
B19B8
  8
0
  0
POLYLINE
  5
A7381
  8
0
 66
     1
 10
0.0
 20
0.0
 30
0.0
 70
     1
  0
VERTEX
  5
B1471
  8
0
 10
17497.11111616106
 20
16480.44289643319
 30
0.0
  0
VERTEX
  5
B1472
  8
0
 10
17497.11111616106
 20
14350.44289643319
 30
0.0
  0
VERTEX
  5
B1473
  8
0
 10
17447.11111616106
 20
14350.44289643319
 30
0.0
  0
VERTEX
  5
B1474
  8
0
 10
17447.11111616106
 20
16480.44289643319
 30
0.0
  0
SEQEND
  5
B19B9
  8
0
  0
POLYLINE
  5
A7398
  8
0
 66
     1
 10
0.0
 20
0.0
 30
0.0
 70
     1
  0
VERTEX
  5
B1475
  8
0
 10
17408.11111616106
 20
15348.95965801528
 30
0.0
  0
VERTEX
  5
B1476
  8
0
 10
17412.11111616106
 20
15348.95965801528
 30
0.0
  0
VERTEX
  5
B1477
  8
0
 10
17412.11111616106
 20
14999.09338584616
 30
0.0
  0
VERTEX
  5
B1478
  8
0
 10
17408.11111616106
 20
14999.09338584616
 30
0.0
  0
SEQEND
  5
B19BA
  8
0
  0
CIRCLE
  5
A7399
  8
0
 10
17386.81112646556
 20
15277.2879365655
 30
0.0
 40
21.29998969548594
  0
POLYLINE
  5
A739A
  8
0
 66
     1
 10
0.0
 20
0.0
 30
0.0
 70
     1
  0
VERTEX
  5
B1479
  8
0
 10
17447.11111616106
 20
15130.44289643319
 30
0.0
  0
VERTEX
  5
B147A
  8
0
 10
17412.11111616106
 20
15130.44289643319
 30
0.0
  0
VERTEX
  5
B147B
  8
0
 10
17412.11111616106
 20
15200.44289643319
 30
0.0
  0
VERTEX
  5
B147C
  8
0
 10
17447.11111616106
 20
15200.44289643319
 30
0.0
  0
SEQEND
  5
B19BB
  8
0
  0
POLYLINE
  5
A73A3
  8
0
 66
     1
 10
0.0
 20
0.0
 30
0.0
 70
     1
  0
VERTEX
  5
B147D
  8
0
 10
17497.11111616104
 20
8392.171916406278
 30
0.0
  0
VERTEX
  5
B147E
  8
0
 10
17497.11111616104
 20
6262.171916406281
 30
0.0
  0
VERTEX
  5
B147F
  8
0
 10
17447.11111616104
 20
6262.171916406281
 30
0.0
  0
VERTEX
  5
B1480
  8
0
 10
17447.11111616104
 20
8392.171916406278
 30
0.0
  0
SEQEND
  5
B19BC
  8
0
  0
POLYLINE
  5
A73A4
  8
0
 66
     1
 10
0.0
 20
0.0
 30
0.0
 70
     1
  0
VERTEX
  5
B1481
  8
0
 10
17408.11111616104
 20
7260.688677988373
 30
0.0
  0
VERTEX
  5
B1482
  8
0
 10
17412.11111616104
 20
7260.688677988373
 30
0.0
  0
VERTEX
  5
B1483
  8
0
 10
17412.11111616104
 20
6910.822405819266
 30
0.0
  0
VERTEX
  5
B1484
  8
0
 10
17408.11111616104
 20
6910.822405819266
 30
0.0
  0
SEQEND
  5
B19BD
  8
0
  0
CIRCLE
  5
A73A5
  8
0
 10
17386.81112646553
 20
7189.016956538598
 30
0.0
 40
21.29998969548594
  0
POLYLINE
  5
A73A6
  8
0
 66
     1
 10
0.0
 20
0.0
 30
0.0
 70
     1
  0
VERTEX
  5
B1485
  8
0
 10
17447.11111616104
 20
7042.171916406282
 30
0.0
  0
VERTEX
  5
B1486
  8
0
 10
17412.11111616104
 20
7042.171916406282
 30
0.0
  0
VERTEX
  5
B1487
  8
0
 10
17412.11111616104
 20
7112.171916406281
 30
0.0
  0
VERTEX
  5
B1488
  8
0
 10
17447.11111616104
 20
7112.171916406281
 30
0.0
  0
SEQEND
  5
B19BE
  8
0
  0
POLYLINE
  5
A73A7
  8
0
 66
     1
 10
0.0
 20
0.0
 30
0.0
 70
     1
  0
VERTEX
  5
B1489
  8
0
 10
17497.11111616106
 20
4348.036426392835
 30
0.0
  0
VERTEX
  5
B148A
  8
0
 10
17497.11111616106
 20
2218.036426392835
 30
0.0
  0
VERTEX
  5
B148B
  8
0
 10
17447.11111616106
 20
2218.036426392835
 30
0.0
  0
VERTEX
  5
B148C
  8
0
 10
17447.11111616106
 20
4348.036426392835
 30
0.0
  0
SEQEND
  5
B19BF
  8
0
  0
POLYLINE
  5
A73A8
  8
0
 66
     1
 10
0.0
 20
0.0
 30
0.0
 70
     1
  0
VERTEX
  5
B148D
  8
0
 10
17447.11111616106
 20
2998.036426392835
 30
0.0
  0
VERTEX
  5
B148E
  8
0
 10
17412.11111616107
 20
2998.036426392835
 30
0.0
  0
VERTEX
  5
B148F
  8
0
 10
17412.11111616107
 20
3068.036426392835
 30
0.0
  0
VERTEX
  5
B1490
  8
0
 10
17447.11111616106
 20
3068.036426392835
 30
0.0
  0
SEQEND
  5
B19C0
  8
0
  0
CIRCLE
  5
A73A9
  8
0
 10
17386.81112646556
 20
3144.881466525149
 30
0.0
 40
21.29998969548594
  0
POLYLINE
  5
A73AA
  8
0
 66
     1
 10
0.0
 20
0.0
 30
0.0
 70
     1
  0
VERTEX
  5
B1491
  8
0
 10
17408.11111616106
 20
3216.553187974926
 30
0.0
  0
VERTEX
  5
B1492
  8
0
 10
17412.11111616107
 20
3216.553187974926
 30
0.0
  0
VERTEX
  5
B1493
  8
0
 10
17412.11111616107
 20
2866.686915805818
 30
0.0
  0
VERTEX
  5
B1494
  8
0
 10
17408.11111616106
 20
2866.686915805818
 30
0.0
  0
SEQEND
  5
B19C1
  8
0
  0
POLYLINE
  5
A976A
  8
0
 66
     1
 10
0.0
 20
0.0
 30
0.0
  0
VERTEX
  5
B1495
  8
0
 10
33278.52842564187
 20
2163.036426392835
 30
0.0
  0
VERTEX
  5
B1496
  8
0
 10
27282.11499852646
 20
2163.036426392835
 30
0.0
  0
SEQEND
  5
B19C2
  8
0
  0
POLYLINE
  5
A976E
  8
0
 66
     1
 10
0.0
 20
0.0
 30
0.0
 70
     1
  0
VERTEX
  5
B1497
  8
0
 10
2344.779423368484
 20
17330.57838644666
 30
0.0
  0
VERTEX
  5
B1498
  8
0
 10
2694.779423368484
 20
17330.57838644666
 30
0.0
  0
VERTEX
  5
B1499
  8
0
 10
2694.779423368484
 20
14350.57838644662
 30
0.0
  0
VERTEX
  5
B149A
  8
0
 10
2344.779423368484
 20
14350.57838644662
 30
0.0
  0
SEQEND
  5
B19C3
  8
0
  0
POLYLINE
  5
A976F
  8
0
 66
     1
 10
0.0
 20
0.0
 30
0.0
  0
VERTEX
  5
B149B
  8
0
 10
2019.779423368484
 20
14295.57838644662
 30
0.0
  0
VERTEX
  5
B149C
  8
0
 10
3019.779423368484
 20
14295.57838644662
 30
0.0
  0
SEQEND
  5
B19C4
  8
0
  0
POLYLINE
  5
A9770
  8
0
 66
     1
 10
0.0
 20
0.0
 30
0.0
  0
VERTEX
  5
B149D
  8
0
 10
649.6913253720704
 20
14295.57838644662
 30
0.0
  0
VERTEX
  5
B149E
  8
0
 10
1649.69132537207
 20
14295.57838644662
 30
0.0
  0
SEQEND
  5
B19C5
  8
0
  0
POLYLINE
  5
A9771
  8
0
 66
     1
 10
0.0
 20
0.0
 30
0.0
 70
     1
  0
VERTEX
  5
B149F
  8
0
 10
999.6913253720704
 20
17330.57838644666
 30
0.0
  0
VERTEX
  5
B14A0
  8
0
 10
1299.69132537207
 20
17330.57838644666
 30
0.0
  0
VERTEX
  5
B14A1
  8
0
 10
1299.69132537207
 20
14350.57838644662
 30
0.0
  0
VERTEX
  5
B14A2
  8
0
 10
999.6913253720704
 20
14350.57838644662
 30
0.0
  0
SEQEND
  5
B19C6
  8
0
  0
POLYLINE
  5
A9772
  8
0
 66
     1
 10
0.0
 20
0.0
 30
0.0
 70
     1
  0
VERTEX
  5
B14A3
  8
0
 10
3689.867521364905
 20
17330.57838644666
 30
0.0
  0
VERTEX
  5
B14A4
  8
0
 10
4089.867521364904
 20
17330.57838644666
 30
0.0
  0
VERTEX
  5
B14A5
  8
0
 10
4089.867521364904
 20
14350.57838644662
 30
0.0
  0
VERTEX
  5
B14A6
  8
0
 10
3689.867521364905
 20
14350.57838644662
 30
0.0
  0
SEQEND
  5
B19C7
  8
0
  0
POLYLINE
  5
A9773
  8
0
 66
     1
 10
0.0
 20
0.0
 30
0.0
  0
VERTEX
  5
B14A7
  8
0
 10
3389.867521364904
 20
14295.57838644662
 30
0.0
  0
VERTEX
  5
B14A8
  8
0
 10
4389.867521364904
 20
14295.57838644662
 30
0.0
  0
SEQEND
  5
B19C8
  8
0
  0
POLYLINE
  5
A9774
  8
0
 66
     1
 10
0.0
 20
0.0
 30
0.0
  0
VERTEX
  5
B14A9
  8
0
 10
4759.955619361325
 20
14295.57838644662
 30
0.0
  0
VERTEX
  5
B14AA
  8
0
 10
5759.955619361324
 20
14295.57838644662
 30
0.0
  0
SEQEND
  5
B19C9
  8
0
  0
POLYLINE
  5
A9775
  8
0
 66
     1
 10
0.0
 20
0.0
 30
0.0
 70
     1
  0
VERTEX
  5
B14AB
  8
0
 10
5034.955619361325
 20
17330.57838644666
 30
0.0
  0
VERTEX
  5
B14AC
  8
0
 10
5484.955619361326
 20
17330.57838644666
 30
0.0
  0
VERTEX
  5
B14AD
  8
0
 10
5484.955619361326
 20
14350.57838644662
 30
0.0
  0
VERTEX
  5
B14AE
  8
0
 10
5034.955619361325
 20
14350.57838644662
 30
0.0
  0
SEQEND
  5
B19CA
  8
0
  0
POLYLINE
  5
A9776
  8
0
 66
     1
 10
0.0
 20
0.0
 30
0.0
 70
     1
  0
VERTEX
  5
B14AF
  8
0
 10
6380.04371735774
 20
17330.57838644666
 30
0.0
  0
VERTEX
  5
B14B0
  8
0
 10
6880.043717357738
 20
17330.57838644666
 30
0.0
  0
VERTEX
  5
B14B1
  8
0
 10
6880.043717357738
 20
14350.57838644662
 30
0.0
  0
VERTEX
  5
B14B2
  8
0
 10
6380.04371735774
 20
14350.57838644662
 30
0.0
  0
SEQEND
  5
B19CB
  8
0
  0
POLYLINE
  5
A9777
  8
0
 66
     1
 10
0.0
 20
0.0
 30
0.0
  0
VERTEX
  5
B14B3
  8
0
 10
6130.04371735774
 20
14295.57838644662
 30
0.0
  0
VERTEX
  5
B14B4
  8
0
 10
7130.043717357738
 20
14295.57838644662
 30
0.0
  0
SEQEND
  5
B19CC
  8
0
  0
POLYLINE
  5
A97BE
  8
0
 66
     1
 10
0.0
 20
0.0
 30
0.0
  0
VERTEX
  5
B14B5
  8
0
 10
6130.04371735774
 20
10862.44289643317
 30
0.0
  0
VERTEX
  5
B14B6
  8
0
 10
7130.043717357738
 20
10862.44289643317
 30
0.0
  0
SEQEND
  5
B19CD
  8
0
  0
POLYLINE
  5
A97BF
  8
0
 66
     1
 10
0.0
 20
0.0
 30
0.0
 70
     1
  0
VERTEX
  5
B14B7
  8
0
 10
6380.04371735774
 20
13747.44289643322
 30
0.0
  0
VERTEX
  5
B14B8
  8
0
 10
6880.043717357738
 20
13747.44289643322
 30
0.0
  0
VERTEX
  5
B14B9
  8
0
 10
6880.043717357738
 20
10917.44289643316
 30
0.0
  0
VERTEX
  5
B14BA
  8
0
 10
6380.04371735774
 20
10917.44289643316
 30
0.0
  0
SEQEND
  5
B19CE
  8
0
  0
POLYLINE
  5
A97C0
  8
0
 66
     1
 10
0.0
 20
0.0
 30
0.0
 70
     1
  0
VERTEX
  5
B14BB
  8
0
 10
5034.955619361325
 20
13747.44289643322
 30
0.0
  0
VERTEX
  5
B14BC
  8
0
 10
5484.955619361326
 20
13747.44289643322
 30
0.0
  0
VERTEX
  5
B14BD
  8
0
 10
5484.955619361326
 20
10917.44289643316
 30
0.0
  0
VERTEX
  5
B14BE
  8
0
 10
5034.955619361325
 20
10917.44289643316
 30
0.0
  0
SEQEND
  5
B19CF
  8
0
  0
POLYLINE
  5
A97C1
  8
0
 66
     1
 10
0.0
 20
0.0
 30
0.0
  0
VERTEX
  5
B14BF
  8
0
 10
4759.955619361325
 20
10862.44289643317
 30
0.0
  0
VERTEX
  5
B14C0
  8
0
 10
5759.955619361324
 20
10862.44289643317
 30
0.0
  0
SEQEND
  5
B19D0
  8
0
  0
POLYLINE
  5
A97C2
  8
0
 66
     1
 10
0.0
 20
0.0
 30
0.0
  0
VERTEX
  5
B14C1
  8
0
 10
3389.867521364904
 20
10862.44289643317
 30
0.0
  0
VERTEX
  5
B14C2
  8
0
 10
4389.867521364904
 20
10862.44289643317
 30
0.0
  0
SEQEND
  5
B19D1
  8
0
  0
POLYLINE
  5
A97C3
  8
0
 66
     1
 10
0.0
 20
0.0
 30
0.0
 70
     1
  0
VERTEX
  5
B14C3
  8
0
 10
3689.867521364905
 20
13747.44289643322
 30
0.0
  0
VERTEX
  5
B14C4
  8
0
 10
4089.867521364904
 20
13747.44289643322
 30
0.0
  0
VERTEX
  5
B14C5
  8
0
 10
4089.867521364904
 20
10917.44289643316
 30
0.0
  0
VERTEX
  5
B14C6
  8
0
 10
3689.867521364905
 20
10917.44289643316
 30
0.0
  0
SEQEND
  5
B19D2
  8
0
  0
POLYLINE
  5
A97C4
  8
0
 66
     1
 10
0.0
 20
0.0
 30
0.0
 70
     1
  0
VERTEX
  5
B14C7
  8
0
 10
999.6913253720704
 20
13747.44289643322
 30
0.0
  0
VERTEX
  5
B14C8
  8
0
 10
1299.69132537207
 20
13747.44289643322
 30
0.0
  0
VERTEX
  5
B14C9
  8
0
 10
1299.69132537207
 20
10917.44289643316
 30
0.0
  0
VERTEX
  5
B14CA
  8
0
 10
999.6913253720704
 20
10917.44289643316
 30
0.0
  0
SEQEND
  5
B19D3
  8
0
  0
POLYLINE
  5
A97C5
  8
0
 66
     1
 10
0.0
 20
0.0
 30
0.0
  0
VERTEX
  5
B14CB
  8
0
 10
649.6913253720704
 20
10862.44289643317
 30
0.0
  0
VERTEX
  5
B14CC
  8
0
 10
1649.69132537207
 20
10862.44289643317
 30
0.0
  0
SEQEND
  5
B19D4
  8
0
  0
POLYLINE
  5
A97C6
  8
0
 66
     1
 10
0.0
 20
0.0
 30
0.0
  0
VERTEX
  5
B14CD
  8
0
 10
2019.779423368484
 20
10862.44289643317
 30
0.0
  0
VERTEX
  5
B14CE
  8
0
 10
3019.779423368484
 20
10862.44289643317
 30
0.0
  0
SEQEND
  5
B19D5
  8
0
  0
POLYLINE
  5
A97C7
  8
0
 66
     1
 10
0.0
 20
0.0
 30
0.0
 70
     1
  0
VERTEX
  5
B14CF
  8
0
 10
2344.779423368484
 20
13747.44289643322
 30
0.0
  0
VERTEX
  5
B14D0
  8
0
 10
2694.779423368484
 20
13747.44289643322
 30
0.0
  0
VERTEX
  5
B14D1
  8
0
 10
2694.779423368484
 20
10917.44289643316
 30
0.0
  0
VERTEX
  5
B14D2
  8
0
 10
2344.779423368484
 20
10917.44289643316
 30
0.0
  0
SEQEND
  5
B19D6
  8
0
  0
POLYLINE
  5
A97C8
  8
0
 66
     1
 10
0.0
 20
0.0
 30
0.0
 70
     1
  0
VERTEX
  5
B14D3
  8
0
 10
2344.779423368484
 20
10314.30740641977
 30
0.0
  0
VERTEX
  5
B14D4
  8
0
 10
2694.779423368484
 20
10314.30740641977
 30
0.0
  0
VERTEX
  5
B14D5
  8
0
 10
2694.779423368484
 20
7784.307406419728
 30
0.0
  0
VERTEX
  5
B14D6
  8
0
 10
2344.779423368484
 20
7784.307406419728
 30
0.0
  0
SEQEND
  5
B19D7
  8
0
  0
POLYLINE
  5
A97C9
  8
0
 66
     1
 10
0.0
 20
0.0
 30
0.0
  0
VERTEX
  5
B14D7
  8
0
 10
2019.779423368484
 20
7729.307406419728
 30
0.0
  0
VERTEX
  5
B14D8
  8
0
 10
3019.779423368484
 20
7729.307406419728
 30
0.0
  0
SEQEND
  5
B19D8
  8
0
  0
POLYLINE
  5
A97CA
  8
0
 66
     1
 10
0.0
 20
0.0
 30
0.0
  0
VERTEX
  5
B14D9
  8
0
 10
649.6913253720704
 20
7729.307406419728
 30
0.0
  0
VERTEX
  5
B14DA
  8
0
 10
1649.69132537207
 20
7729.307406419728
 30
0.0
  0
SEQEND
  5
B19D9
  8
0
  0
POLYLINE
  5
A97CB
  8
0
 66
     1
 10
0.0
 20
0.0
 30
0.0
 70
     1
  0
VERTEX
  5
B14DB
  8
0
 10
999.6913253720704
 20
10314.30740641977
 30
0.0
  0
VERTEX
  5
B14DC
  8
0
 10
1299.69132537207
 20
10314.30740641977
 30
0.0
  0
VERTEX
  5
B14DD
  8
0
 10
1299.69132537207
 20
7784.307406419728
 30
0.0
  0
VERTEX
  5
B14DE
  8
0
 10
999.6913253720704
 20
7784.307406419728
 30
0.0
  0
SEQEND
  5
B19DA
  8
0
  0
POLYLINE
  5
A97CC
  8
0
 66
     1
 10
0.0
 20
0.0
 30
0.0
 70
     1
  0
VERTEX
  5
B14DF
  8
0
 10
3689.867521364905
 20
10314.30740641977
 30
0.0
  0
VERTEX
  5
B14E0
  8
0
 10
4089.867521364904
 20
10314.30740641977
 30
0.0
  0
VERTEX
  5
B14E1
  8
0
 10
4089.867521364904
 20
7784.307406419728
 30
0.0
  0
VERTEX
  5
B14E2
  8
0
 10
3689.867521364905
 20
7784.307406419728
 30
0.0
  0
SEQEND
  5
B19DB
  8
0
  0
POLYLINE
  5
A97CD
  8
0
 66
     1
 10
0.0
 20
0.0
 30
0.0
  0
VERTEX
  5
B14E3
  8
0
 10
3389.867521364904
 20
7729.307406419728
 30
0.0
  0
VERTEX
  5
B14E4
  8
0
 10
4389.867521364904
 20
7729.307406419728
 30
0.0
  0
SEQEND
  5
B19DC
  8
0
  0
POLYLINE
  5
A97CE
  8
0
 66
     1
 10
0.0
 20
0.0
 30
0.0
  0
VERTEX
  5
B14E5
  8
0
 10
4759.955619361325
 20
7729.307406419728
 30
0.0
  0
VERTEX
  5
B14E6
  8
0
 10
5759.955619361324
 20
7729.307406419728
 30
0.0
  0
SEQEND
  5
B19DD
  8
0
  0
POLYLINE
  5
A97CF
  8
0
 66
     1
 10
0.0
 20
0.0
 30
0.0
 70
     1
  0
VERTEX
  5
B14E7
  8
0
 10
5034.955619361325
 20
10314.30740641977
 30
0.0
  0
VERTEX
  5
B14E8
  8
0
 10
5484.955619361326
 20
10314.30740641977
 30
0.0
  0
VERTEX
  5
B14E9
  8
0
 10
5484.955619361326
 20
7784.307406419728
 30
0.0
  0
VERTEX
  5
B14EA
  8
0
 10
5034.955619361325
 20
7784.307406419728
 30
0.0
  0
SEQEND
  5
B19DE
  8
0
  0
POLYLINE
  5
A97D0
  8
0
 66
     1
 10
0.0
 20
0.0
 30
0.0
 70
     1
  0
VERTEX
  5
B14EB
  8
0
 10
6380.04371735774
 20
10314.30740641977
 30
0.0
  0
VERTEX
  5
B14EC
  8
0
 10
6880.043717357738
 20
10314.30740641977
 30
0.0
  0
VERTEX
  5
B14ED
  8
0
 10
6880.043717357738
 20
7784.307406419728
 30
0.0
  0
VERTEX
  5
B14EE
  8
0
 10
6380.04371735774
 20
7784.307406419728
 30
0.0
  0
SEQEND
  5
B19DF
  8
0
  0
POLYLINE
  5
A97D1
  8
0
 66
     1
 10
0.0
 20
0.0
 30
0.0
  0
VERTEX
  5
B14EF
  8
0
 10
6130.04371735774
 20
7729.307406419728
 30
0.0
  0
VERTEX
  5
B14F0
  8
0
 10
7130.043717357738
 20
7729.307406419728
 30
0.0
  0
SEQEND
  5
B19E0
  8
0
  0
POLYLINE
  5
A9818
  8
0
 66
     1
 10
0.0
 20
0.0
 30
0.0
  0
VERTEX
  5
B14F1
  8
0
 10
6130.04371735774
 20
4896.171916406281
 30
0.0
  0
VERTEX
  5
B14F2
  8
0
 10
7130.043717357738
 20
4896.171916406281
 30
0.0
  0
SEQEND
  5
B19E1
  8
0
  0
POLYLINE
  5
A9819
  8
0
 66
     1
 10
0.0
 20
0.0
 30
0.0
 70
     1
  0
VERTEX
  5
B14F3
  8
0
 10
6380.04371735774
 20
7181.171916406325
 30
0.0
  0
VERTEX
  5
B14F4
  8
0
 10
6880.043717357738
 20
7181.171916406325
 30
0.0
  0
VERTEX
  5
B14F5
  8
0
 10
6880.043717357738
 20
4951.171916406281
 30
0.0
  0
VERTEX
  5
B14F6
  8
0
 10
6380.04371735774
 20
4951.171916406281
 30
0.0
  0
SEQEND
  5
B19E2
  8
0
  0
POLYLINE
  5
A981A
  8
0
 66
     1
 10
0.0
 20
0.0
 30
0.0
 70
     1
  0
VERTEX
  5
B14F7
  8
0
 10
5034.955619361325
 20
7181.171916406325
 30
0.0
  0
VERTEX
  5
B14F8
  8
0
 10
5484.955619361326
 20
7181.171916406325
 30
0.0
  0
VERTEX
  5
B14F9
  8
0
 10
5484.955619361326
 20
4951.171916406281
 30
0.0
  0
VERTEX
  5
B14FA
  8
0
 10
5034.955619361325
 20
4951.171916406281
 30
0.0
  0
SEQEND
  5
B19E3
  8
0
  0
POLYLINE
  5
A981B
  8
0
 66
     1
 10
0.0
 20
0.0
 30
0.0
  0
VERTEX
  5
B14FB
  8
0
 10
4759.955619361325
 20
4896.171916406281
 30
0.0
  0
VERTEX
  5
B14FC
  8
0
 10
5759.955619361324
 20
4896.171916406281
 30
0.0
  0
SEQEND
  5
B19E4
  8
0
  0
POLYLINE
  5
A981C
  8
0
 66
     1
 10
0.0
 20
0.0
 30
0.0
  0
VERTEX
  5
B14FD
  8
0
 10
3389.867521364904
 20
4896.171916406281
 30
0.0
  0
VERTEX
  5
B14FE
  8
0
 10
4389.867521364904
 20
4896.171916406281
 30
0.0
  0
SEQEND
  5
B19E5
  8
0
  0
POLYLINE
  5
A981D
  8
0
 66
     1
 10
0.0
 20
0.0
 30
0.0
 70
     1
  0
VERTEX
  5
B14FF
  8
0
 10
3689.867521364905
 20
7181.171916406325
 30
0.0
  0
VERTEX
  5
B1500
  8
0
 10
4089.867521364904
 20
7181.171916406325
 30
0.0
  0
VERTEX
  5
B1501
  8
0
 10
4089.867521364904
 20
4951.171916406281
 30
0.0
  0
VERTEX
  5
B1502
  8
0
 10
3689.867521364905
 20
4951.171916406281
 30
0.0
  0
SEQEND
  5
B19E6
  8
0
  0
POLYLINE
  5
A981E
  8
0
 66
     1
 10
0.0
 20
0.0
 30
0.0
 70
     1
  0
VERTEX
  5
B1503
  8
0
 10
999.6913253720704
 20
7181.171916406325
 30
0.0
  0
VERTEX
  5
B1504
  8
0
 10
1299.69132537207
 20
7181.171916406325
 30
0.0
  0
VERTEX
  5
B1505
  8
0
 10
1299.69132537207
 20
4951.171916406281
 30
0.0
  0
VERTEX
  5
B1506
  8
0
 10
999.6913253720704
 20
4951.171916406281
 30
0.0
  0
SEQEND
  5
B19E7
  8
0
  0
POLYLINE
  5
A981F
  8
0
 66
     1
 10
0.0
 20
0.0
 30
0.0
  0
VERTEX
  5
B1507
  8
0
 10
649.6913253720704
 20
4896.171916406281
 30
0.0
  0
VERTEX
  5
B1508
  8
0
 10
1649.69132537207
 20
4896.171916406281
 30
0.0
  0
SEQEND
  5
B19E8
  8
0
  0
POLYLINE
  5
A9820
  8
0
 66
     1
 10
0.0
 20
0.0
 30
0.0
  0
VERTEX
  5
B1509
  8
0
 10
2019.779423368484
 20
4896.171916406281
 30
0.0
  0
VERTEX
  5
B150A
  8
0
 10
3019.779423368484
 20
4896.171916406281
 30
0.0
  0
SEQEND
  5
B19E9
  8
0
  0
POLYLINE
  5
A9821
  8
0
 66
     1
 10
0.0
 20
0.0
 30
0.0
 70
     1
  0
VERTEX
  5
B150B
  8
0
 10
2344.779423368484
 20
7181.171916406325
 30
0.0
  0
VERTEX
  5
B150C
  8
0
 10
2694.779423368484
 20
7181.171916406325
 30
0.0
  0
VERTEX
  5
B150D
  8
0
 10
2694.779423368484
 20
4951.171916406281
 30
0.0
  0
VERTEX
  5
B150E
  8
0
 10
2344.779423368484
 20
4951.171916406281
 30
0.0
  0
SEQEND
  5
B19EA
  8
0
  0
POLYLINE
  5
A9822
  8
0
 66
     1
 10
0.0
 20
0.0
 30
0.0
 70
     1
  0
VERTEX
  5
B150F
  8
0
 10
2344.779423368484
 20
4348.036426392877
 30
0.0
  0
VERTEX
  5
B1510
  8
0
 10
2694.779423368484
 20
4348.036426392877
 30
0.0
  0
VERTEX
  5
B1511
  8
0
 10
2694.779423368484
 20
2218.036426392835
 30
0.0
  0
VERTEX
  5
B1512
  8
0
 10
2344.779423368484
 20
2218.036426392835
 30
0.0
  0
SEQEND
  5
B19EB
  8
0
  0
POLYLINE
  5
A9823
  8
0
 66
     1
 10
0.0
 20
0.0
 30
0.0
  0
VERTEX
  5
B1513
  8
0
 10
2019.779423368484
 20
2163.036426392835
 30
0.0
  0
VERTEX
  5
B1514
  8
0
 10
3019.779423368484
 20
2163.036426392835
 30
0.0
  0
SEQEND
  5
B19EC
  8
0
  0
POLYLINE
  5
A9824
  8
0
 66
     1
 10
0.0
 20
0.0
 30
0.0
  0
VERTEX
  5
B1515
  8
0
 10
649.6913253720704
 20
2163.036426392835
 30
0.0
  0
VERTEX
  5
B1516
  8
0
 10
1649.69132537207
 20
2163.036426392835
 30
0.0
  0
SEQEND
  5
B19ED
  8
0
  0
POLYLINE
  5
A9825
  8
0
 66
     1
 10
0.0
 20
0.0
 30
0.0
 70
     1
  0
VERTEX
  5
B1517
  8
0
 10
999.6913253720704
 20
4348.036426392877
 30
0.0
  0
VERTEX
  5
B1518
  8
0
 10
1299.69132537207
 20
4348.036426392877
 30
0.0
  0
VERTEX
  5
B1519
  8
0
 10
1299.69132537207
 20
2218.036426392835
 30
0.0
  0
VERTEX
  5
B151A
  8
0
 10
999.6913253720704
 20
2218.036426392835
 30
0.0
  0
SEQEND
  5
B19EE
  8
0
  0
POLYLINE
  5
A9826
  8
0
 66
     1
 10
0.0
 20
0.0
 30
0.0
 70
     1
  0
VERTEX
  5
B151B
  8
0
 10
3689.867521364905
 20
4348.036426392877
 30
0.0
  0
VERTEX
  5
B151C
  8
0
 10
4089.867521364904
 20
4348.036426392877
 30
0.0
  0
VERTEX
  5
B151D
  8
0
 10
4089.867521364904
 20
2218.036426392835
 30
0.0
  0
VERTEX
  5
B151E
  8
0
 10
3689.867521364905
 20
2218.036426392835
 30
0.0
  0
SEQEND
  5
B19EF
  8
0
  0
POLYLINE
  5
A9827
  8
0
 66
     1
 10
0.0
 20
0.0
 30
0.0
  0
VERTEX
  5
B151F
  8
0
 10
3389.867521364904
 20
2163.036426392835
 30
0.0
  0
VERTEX
  5
B1520
  8
0
 10
4389.867521364904
 20
2163.036426392835
 30
0.0
  0
SEQEND
  5
B19F0
  8
0
  0
POLYLINE
  5
A9828
  8
0
 66
     1
 10
0.0
 20
0.0
 30
0.0
  0
VERTEX
  5
B1521
  8
0
 10
4759.955619361325
 20
2163.036426392835
 30
0.0
  0
VERTEX
  5
B1522
  8
0
 10
5759.955619361324
 20
2163.036426392835
 30
0.0
  0
SEQEND
  5
B19F1
  8
0
  0
POLYLINE
  5
A9829
  8
0
 66
     1
 10
0.0
 20
0.0
 30
0.0
 70
     1
  0
VERTEX
  5
B1523
  8
0
 10
5034.955619361325
 20
4348.036426392877
 30
0.0
  0
VERTEX
  5
B1524
  8
0
 10
5484.955619361326
 20
4348.036426392877
 30
0.0
  0
VERTEX
  5
B1525
  8
0
 10
5484.955619361326
 20
2218.036426392835
 30
0.0
  0
VERTEX
  5
B1526
  8
0
 10
5034.955619361325
 20
2218.036426392835
 30
0.0
  0
SEQEND
  5
B19F2
  8
0
  0
POLYLINE
  5
A982A
  8
0
 66
     1
 10
0.0
 20
0.0
 30
0.0
 70
     1
  0
VERTEX
  5
B1527
  8
0
 10
6380.04371735774
 20
4348.036426392877
 30
0.0
  0
VERTEX
  5
B1528
  8
0
 10
6880.043717357738
 20
4348.036426392877
 30
0.0
  0
VERTEX
  5
B1529
  8
0
 10
6880.043717357738
 20
2218.036426392835
 30
0.0
  0
VERTEX
  5
B152A
  8
0
 10
6380.04371735774
 20
2218.036426392835
 30
0.0
  0
SEQEND
  5
B19F3
  8
0
  0
POLYLINE
  5
A982B
  8
0
 66
     1
 10
0.0
 20
0.0
 30
0.0
  0
VERTEX
  5
B152B
  8
0
 10
6130.04371735774
 20
2163.036426392835
 30
0.0
  0
VERTEX
  5
B152C
  8
0
 10
7130.043717357738
 20
2163.036426392835
 30
0.0
  0
SEQEND
  5
B19F4
  8
0
  0
POLYLINE
  5
A98A4
  8
0
 66
     1
 10
0.0
 20
0.0
 30
0.0
 70
     1
  0
VERTEX
  5
B152D
  8
0
 10
0.0
 20
17955.95716581255
 30
0.0
  0
VERTEX
  5
B152E
  8
0
 10
16000.0
 20
17955.95716581255
 30
0.0
  0
VERTEX
  5
B152F
  8
0
 10
16000.0
 20
1537.657647026935
 30
0.0
  0
VERTEX
  5
B1530
  8
0
 10
0.0
 20
1537.657647026935
 30
0.0
  0
SEQEND
  5
B19F5
  8
0
  0
POLYLINE
  5
A98A5
  8
0
 66
     1
 10
0.0
 20
0.0
 30
0.0
 70
     1
  0
VERTEX
  5
B1531
  8
0
 10
16550.0
 20
1537.657647026935
 30
0.0
  0
VERTEX
  5
B1532
  8
0
 10
25825.89773943182
 20
1537.657647026935
 30
0.0
  0
VERTEX
  5
B1533
  8
0
 10
25825.89773943182
 20
17955.95716581255
 30
0.0
  0
VERTEX
  5
B1534
  8
0
 10
16550.0
 20
17955.95716581255
 30
0.0
  0
SEQEND
  5
B19F6
  8
0
  0
POLYLINE
  5
A98A6
  8
0
 66
     1
 10
0.0
 20
0.0
 30
0.0
 70
     1
  0
VERTEX
  5
B1535
  8
0
 10
26375.89773943182
 20
1537.657647026935
 30
0.0
  0
VERTEX
  5
B1536
  8
0
 10
34375.89773943181
 20
1537.657647026935
 30
0.0
  0
VERTEX
  5
B1537
  8
0
 10
34375.89773943181
 20
10251.30740641974
 30
0.0
  0
VERTEX
  5
B1538
  8
0
 10
26375.89773943182
 20
10251.30740641974
 30
0.0
  0
SEQEND
  5
B19F7
  8
0
  0
POLYLINE
  5
A98D6
  8
0
 66
     1
 10
0.0
 20
0.0
 30
0.0
 70
     1
  0
VERTEX
  5
B1539
  8
0
 10
16550.0
 20
1537.657647026935
 30
0.0
  0
VERTEX
  5
B153A
  8
0
 10
25825.89773943182
 20
1537.657647026935
 30
0.0
  0
VERTEX
  5
B153B
  8
0
 10
25825.89773943182
 20
1837.657647026935
 30
0.0
  0
VERTEX
  5
B153C
  8
0
 10
16550.0
 20
1837.657647026935
 30
0.0
  0
SEQEND
  5
B19F8
  8
0
  0
POLYLINE
  5
A98D7
  8
0
 66
     1
 10
0.0
 20
0.0
 30
0.0
 70
     1
  0
VERTEX
  5
B153D
  8
0
 10
26375.89773943182
 20
1537.657647026935
 30
0.0
  0
VERTEX
  5
B153E
  8
0
 10
34375.89773943181
 20
1537.657647026935
 30
0.0
  0
VERTEX
  5
B153F
  8
0
 10
34375.89773943181
 20
1837.657647026935
 30
0.0
  0
VERTEX
  5
B1540
  8
0
 10
26375.89773943182
 20
1837.657647026935
 30
0.0
  0
SEQEND
  5
B19F9
  8
0
  0
POLYLINE
  5
A9926
  8
0
 66
     1
 10
0.0
 20
0.0
 30
0.0
 70
     1
  0
VERTEX
  5
B1541
  8
0
 10
-0.000000000007276
 20
1537.657647026935
 30
0.0
  0
VERTEX
  5
B1542
  8
0
 10
16000.0
 20
1537.657647026935
 30
0.0
  0
VERTEX
  5
B1543
  8
0
 10
16000.0
 20
1837.657647026935
 30
0.0
  0
VERTEX
  5
B1544
  8
0
 10
-0.000000000007276
 20
1837.657647026935
 30
0.0
  0
SEQEND
  5
B19FA
  8
0
  0
TEXT
  5
A9927
  8
0
 10
3173.906836621409
 20
432.2479967307316
 30
0.0
 40
125.0
  1
Questo disegno è di proprietà di Fantin S.r.l.   
  7
STILE1
 72
     1
 11
5596.525884240456
 21
432.2479967307316
 31
0.0
  0
TEXT
  5
A9928
  8
0
 10
3591.771966624397
 20
778.7322304035333
 30
0.0
 40
125.0
  1
Discovery
  7
STILE1
 72
     1
 11
4032.062145195825
 21
778.7322304035333
 31
0.0
  0
POLYLINE
  5
A9929
  8
0
  6
CONTINUOUS
 66
     1
 10
0.0
 20
0.0
 30
0.0
  0
VERTEX
  5
B1545
  8
0
  6
CONTINUOUS
 10
2006.841552732512
 20
299.9999999999997
 30
0.0
  0
VERTEX
  5
B1546
  8
0
  6
CONTINUOUS
 10
2006.841552732512
 20
687.661092123016
 30
0.0
  0
VERTEX
  5
B1547
  8
0
  6
CONTINUOUS
 10
2108.191094296053
 20
687.661092123016
 30
0.0
 42
-0.316444976687396
  0
VERTEX
  5
B1548
  8
0
  6
CONTINUOUS
 10
2159.138888884337
 20
659.4164767791514
 30
0.0
  0
VERTEX
  5
B1549
  8
0
  6
CONTINUOUS
 10
2259.932047529146
 20
489.3975694442633
 30
0.0
  0
VERTEX
  5
B154A
  8
0
  6
CONTINUOUS
 10
2262.700181747787
 20
489.3975694442633
 30
0.0
  0
VERTEX
  5
B154B
  8
0
  6
CONTINUOUS
 10
2262.700181747787
 20
687.661092123016
 30
0.0
  0
VERTEX
  5
B154C
  8
0
  6
CONTINUOUS
 10
2375.123982746154
 20
687.661092123016
 30
0.0
  0
VERTEX
  5
B154D
  8
0
  6
CONTINUOUS
 10
2375.123982746154
 20
299.9999999999997
 30
0.0
  0
VERTEX
  5
B154E
  8
0
  6
CONTINUOUS
 10
2292.601888021454
 20
299.9999999999997
 30
0.0
 42
-0.312959769389874
  0
VERTEX
  5
B154F
  8
0
  6
CONTINUOUS
 10
2241.654093428515
 20
328.2428927952421
 30
0.0
  0
VERTEX
  5
B1550
  8
0
  6
CONTINUOUS
 10
2122.033487958833
 20
521.5196397574612
 30
0.0
  0
VERTEX
  5
B1551
  8
0
  6
CONTINUOUS
 10
2119.268798828125
 20
521.5196397574612
 30
0.0
  0
VERTEX
  5
B1552
  8
0
  6
CONTINUOUS
 10
2119.268798828125
 20
299.9999999999997
 30
0.0
  0
VERTEX
  5
B1553
  8
0
  6
CONTINUOUS
 10
2006.841552732512
 20
299.9999999999997
 30
0.0
  0
SEQEND
  5
B19FB
  8
0
  6
CONTINUOUS
  0
POLYLINE
  5
A992A
  8
0
  6
CONTINUOUS
 66
     1
 10
0.0
 20
0.0
 30
0.0
  0
VERTEX
  5
B1554
  8
0
  6
CONTINUOUS
 10
1030.479098847136
 20
299.9999999999997
 30
0.0
  0
VERTEX
  5
B1555
  8
0
  6
CONTINUOUS
 10
1030.479098847136
 20
687.661092123016
 30
0.0
  0
VERTEX
  5
B1556
  8
0
  6
CONTINUOUS
 10
1131.828640410675
 20
687.661092123016
 30
0.0
 42
-0.316444976687396
  0
VERTEX
  5
B1557
  8
0
  6
CONTINUOUS
 10
1182.776435003616
 20
659.4164767791514
 30
0.0
  0
VERTEX
  5
B1558
  8
0
  6
CONTINUOUS
 10
1283.569593643768
 20
489.3975694442633
 30
0.0
  0
VERTEX
  5
B1559
  8
0
  6
CONTINUOUS
 10
1286.337727867066
 20
489.3975694442633
 30
0.0
  0
VERTEX
  5
B155A
  8
0
  6
CONTINUOUS
 10
1286.337727867066
 20
687.661092123016
 30
0.0
  0
VERTEX
  5
B155B
  8
0
  6
CONTINUOUS
 10
1398.761528860777
 20
687.661092123016
 30
0.0
  0
VERTEX
  5
B155C
  8
0
  6
CONTINUOUS
 10
1398.761528860777
 20
299.9999999999997
 30
0.0
  0
VERTEX
  5
B155D
  8
0
  6
CONTINUOUS
 10
1316.239434136078
 20
299.9999999999997
 30
0.0
 42
-0.312959769389874
  0
VERTEX
  5
B155E
  8
0
  6
CONTINUOUS
 10
1265.29163953848
 20
328.2428927952421
 30
0.0
  0
VERTEX
  5
B155F
  8
0
  6
CONTINUOUS
 10
1145.671034073457
 20
521.5196397574612
 30
0.0
  0
VERTEX
  5
B1560
  8
0
  6
CONTINUOUS
 10
1142.906344942748
 20
521.5196397574612
 30
0.0
  0
VERTEX
  5
B1561
  8
0
  6
CONTINUOUS
 10
1142.906344942748
 20
299.9999999999997
 30
0.0
  0
VERTEX
  5
B1562
  8
0
  6
CONTINUOUS
 10
1030.479098847136
 20
299.9999999999997
 30
0.0
  0
SEQEND
  5
B19FC
  8
0
  6
CONTINUOUS
  0
POLYLINE
  5
A992B
  8
0
  6
CONTINUOUS
 66
     1
 10
0.0
 20
0.0
 30
0.0
  0
VERTEX
  5
B1563
  8
0
  6
CONTINUOUS
 10
1783.103271485306
 20
687.6593695743937
 30
0.0
  0
VERTEX
  5
B1564
  8
0
  6
CONTINUOUS
 10
1783.103271485306
 20
596.8363172747192
 30
0.0
  0
VERTEX
  5
B1565
  8
0
  6
CONTINUOUS
 10
1666.80718316231
 20
596.8363172747192
 30
0.0
  0
VERTEX
  5
B1566
  8
0
  6
CONTINUOUS
 10
1666.80718316231
 20
299.9999999999997
 30
0.0
  0
VERTEX
  5
B1567
  8
0
  6
CONTINUOUS
 10
1547.737792972475
 20
299.9999999999997
 30
0.0
  0
VERTEX
  5
B1568
  8
0
  6
CONTINUOUS
 10
1547.737792972475
 20
596.8363172747192
 30
0.0
  0
VERTEX
  5
B1569
  8
0
  6
CONTINUOUS
 10
1434.204671224579
 20
596.8363172747192
 30
0.0
  0
VERTEX
  5
B156A
  8
0
  6
CONTINUOUS
 10
1434.204671224579
 20
687.6593695743937
 30
0.0
  0
VERTEX
  5
B156B
  8
0
  6
CONTINUOUS
 10
1783.103271485306
 20
687.6593695743937
 30
0.0
  0
SEQEND
  5
B19FD
  8
0
  6
CONTINUOUS
  0
POLYLINE
  5
A992C
  8
0
  6
CONTINUOUS
 66
     1
 10
0.0
 20
0.0
 30
0.0
 70
     1
  0
VERTEX
  5
B156C
  8
0
  6
CONTINUOUS
 10
1820.206949869171
 20
687.6593695743937
 30
0.0
  0
VERTEX
  5
B156D
  8
0
  6
CONTINUOUS
 10
1939.276340059005
 20
687.6593695743937
 30
0.0
  0
VERTEX
  5
B156E
  8
0
  6
CONTINUOUS
 10
1939.276340059005
 20
299.9999999999997
 30
0.0
  0
VERTEX
  5
B156F
  8
0
  6
CONTINUOUS
 10
1820.206949869171
 20
299.9999999999997
 30
0.0
  0
SEQEND
  5
B19FE
  8
0
  6
CONTINUOUS
  0
POLYLINE
  5
A992D
  8
0
  6
CONTINUOUS
 66
     1
 10
0.0
 20
0.0
 30
0.0
  0
VERTEX
  5
B1570
  8
0
  6
CONTINUOUS
 10
605.1458875834936
 20
687.6576470269353
 30
0.0
  0
VERTEX
  5
B1571
  8
0
  6
CONTINUOUS
 10
605.1458875834936
 20
598.4968532994384
 30
0.0
  0
VERTEX
  5
B1572
  8
0
  6
CONTINUOUS
 10
419.0693901898336
 20
598.4968532994384
 30
0.0
  0
VERTEX
  5
B1573
  8
0
  6
CONTINUOUS
 10
419.0693901898336
 20
521.52136230492
 30
0.0
  0
VERTEX
  5
B1574
  8
0
  6
CONTINUOUS
 10
549.2130398191512
 20
521.52136230492
 30
0.0
  0
VERTEX
  5
B1575
  8
0
  6
CONTINUOUS
 10
549.2130398191512
 20
438.4480523003727
 30
0.0
  0
VERTEX
  5
B1576
  8
0
  6
CONTINUOUS
 10
419.0693901898336
 20
438.4480523003727
 30
0.0
  0
VERTEX
  5
B1577
  8
0
  6
CONTINUOUS
 10
419.0693901898336
 20
299.9999999999997
 30
0.0
  0
VERTEX
  5
B1578
  8
0
  6
CONTINUOUS
 10
300.0
 20
299.9999999999997
 30
0.0
  0
VERTEX
  5
B1579
  8
0
  6
CONTINUOUS
 10
300.0
 20
687.6576470269353
 30
0.0
  0
VERTEX
  5
B157A
  8
0
  6
CONTINUOUS
 10
605.1458875834936
 20
687.6576470269353
 30
0.0
  0
SEQEND
  5
B19FF
  8
0
  6
CONTINUOUS
  0
POLYLINE
  5
A992E
  8
0
  6
CONTINUOUS
 66
     1
 10
0.0
 20
0.0
 30
0.0
  0
VERTEX
  5
B157B
  8
0
  6
CONTINUOUS
 10
791.2309977225952
 20
580.7787272136192
 30
0.0
  0
VERTEX
  5
B157C
  8
0
  6
CONTINUOUS
 10
824.458943684584
 20
466.6909450956151
 30
0.0
  0
VERTEX
  5
B157D
  8
0
  6
CONTINUOUS
 10
751.9104003906241
 20
466.6909450956151
 30
0.0
  0
VERTEX
  5
B157E
  8
0
  6
CONTINUOUS
 10
785.13834635727
 20
580.7787272136192
 30
0.0
  0
VERTEX
  5
B157F
  8
0
  6
CONTINUOUS
 10
791.2309977225952
 20
580.7787272136192
 30
0.0
  0
SEQEND
  5
B1A00
  8
0
  6
CONTINUOUS
  0
POLYLINE
  5
A992F
  8
0
  6
CONTINUOUS
 66
     1
 10
0.0
 20
0.0
 30
0.0
 70
     1
  0
VERTEX
  5
B1580
  8
0
  6
CONTINUOUS
 10
847.7226611692438
 20
383.6228027346076
 30
0.0
  0
VERTEX
  5
B1581
  8
0
  6
CONTINUOUS
 10
847.7226611692438
 20
383.6228027346076
 30
0.0
  0
VERTEX
  5
B1582
  8
0
  6
CONTINUOUS
 10
872.0839436817907
 20
299.9999999999997
 30
0.0
  0
VERTEX
  5
B1583
  8
0
  6
CONTINUOUS
 10
997.8006456140432
 20
299.9999999999997
 30
0.0
  0
VERTEX
  5
B1584
  8
0
  6
CONTINUOUS
 10
880.3917914489284
 20
652.7743326826017
 30
0.0
 42
0.1089385125692126
  0
VERTEX
  5
B1585
  8
0
  6
CONTINUOUS
 10
867.6499316329131
 20
680.4454704024826
 30
0.0
 42
0.1589313772246072
  0
VERTEX
  5
B1586
  8
0
  6
CONTINUOUS
 10
855.6541064428161
 20
687.7303423592817
 30
0.0
 42
0.058673645385263
  0
VERTEX
  5
B1587
  8
0
  6
CONTINUOUS
 10
839.4089355459447
 20
689.3216281465718
 30
0.0
  0
VERTEX
  5
B1588
  8
0
  6
CONTINUOUS
 10
839.4089355459447
 20
689.3216281465718
 30
0.0
  0
VERTEX
  5
B1589
  8
0
  6
CONTINUOUS
 10
744.1606580931694
 20
689.3216281465718
 30
0.0
 42
0.058673645385263
  0
VERTEX
  5
B158A
  8
0
  6
CONTINUOUS
 10
727.9154871962947
 20
687.7303423592817
 30
0.0
 42
0.1589313772246072
  0
VERTEX
  5
B158B
  8
0
  6
CONTINUOUS
 10
715.9196620061985
 20
680.4454704024826
 30
0.0
 42
0.1089385125692126
  0
VERTEX
  5
B158C
  8
0
  6
CONTINUOUS
 10
703.1778021901849
 20
652.7743326826017
 30
0.0
  0
VERTEX
  5
B158D
  8
0
  6
CONTINUOUS
 10
585.768948029726
 20
299.9999999999997
 30
0.0
  0
VERTEX
  5
B158E
  8
0
  6
CONTINUOUS
 10
704.8348931223154
 20
299.9999999999997
 30
0.0
  0
VERTEX
  5
B158F
  8
0
  6
CONTINUOUS
 10
728.6473931185901
 20
383.6228027346076
 30
0.0
  0
SEQEND
  5
B1A01
  8
0
  6
CONTINUOUS
  0
TEXT
  5
A9930
  8
0
 10
3484.840736835664
 20
170.1637904425171
 30
0.0
 40
125.0
  1
This drawing is property of Fantin S.r.l. 
  7
STILE1
 72
     1
 11
5499.721689216617
 21
170.1637904425171
 31
0.0
  0
POLYLINE
  5
A9931
  8
0
 66
     1
 10
0.0
 20
0.0
 30
0.0
  0
VERTEX
  5
B1590
  8
0
 10
2675.123982746154
 20
687.661092123016
 30
0.0
  0
VERTEX
  5
B1591
  8
0
 10
8025.371948238463
 20
687.6610921230168
 30
0.0
  0
SEQEND
  5
B1A02
  8
0
  0
POLYLINE
  5
A9932
  8
0
 66
     1
 10
0.0
 20
0.0
 30
0.0
 70
     1
  0
VERTEX
  5
B1592
  8
0
 10
0.0
 20
987.6576470269353
 30
0.0
  0
VERTEX
  5
B1593
  8
0
 10
8025.371948238463
 20
987.6576470269353
 30
0.0
  0
VERTEX
  5
B1594
  8
0
 10
8025.371948238463
 20
0.0
 30
0.0
  0
VERTEX
  5
B1595
  8
0
 10
0.0
 20
0.0
 30
0.0
  0
SEQEND
  5
B1A03
  8
0
  0
LINE
  5
A9933
  8
0
 10
2675.123982746154
 20
987.6576470269353
 30
0.0
 11
2675.123982746154
 21
0.0
 31
0.0
  0
LINE
  5
A9934
  8
0
 10
5350.247965492308
 20
687.661092123016
 30
0.0
 11
5350.247965492308
 21
987.6576470269353
 31
0.0
  0
TEXT
  5
A9935
  8
0
 10
6252.7084966879
 20
778.7322304035333
 30
0.0
 40
125.0
  1
2022-06
  7
STILE1
 72
     1
 11
6687.604330021233
 21
778.7322304035333
 31
0.0
  0
LINE
  5
A9936
  8
0
 10
8025.371948238463
 20
987.6576470269353
 30
0.0
 11
8025.371948238463
 21
0.0
 31
0.0
  0
TEXT
  5
A9944
  8
0
 10
639.9104241626874
 20
1635.467425269804
 30
0.0
 40
125.0
  1
Static modules / Moduli fissi / Feste Module
  7
STILE1
 72
     1
 11
2899.304025353164
 21
1635.467425269804
 31
0.0
  0
TEXT
  5
A9945
  8
0
 10
8869.377825356363
 20
1635.467425269804
 30
0.0
 40
125.0
  1
Sliding modules / Moduli mobili / Bewegliche Module
  7
STILE1
 72
     1
 11
11509.72380749922
 21
1635.467425269804
 31
0.0
  0
TEXT
  5
A9946
  8
0
 10
16745.50794347793
 20
1635.467425269804
 30
0.0
 40
125.0
  1
Modular Combinations / Componibilità moduli / Zusammensetzbarkeit Module
  7
STILE1
 72
     1
 11
20567.02952085888
 21
1635.467425269804
 31
0.0
  0
TEXT
  5
A9947
  8
0
 10
26595.21520671927
 20
1635.467425269804
 30
0.0
 40
125.0
  1
Examples of compositions / Esempi di composizioni / Kompositionsbeispiele
  7
STILE1
 72
     1
 11
30392.9272602907
 21
1635.467425269804
 31
0.0
  0
LINE
  5
AAA5A
  8
0
 10
22732.69473631098
 20
14295.44289643319
 30
0.0
 11
17223.39205753694
 21
14295.44289643319
 31
0.0
  0
POLYLINE
  5
AAB8E
  8
0
 66
     1
 10
0.0
 20
0.0
 30
0.0
 70
     1
  0
VERTEX
  5
B1596
  8
0
 10
20408.11111616106
 20
3216.553187974926
 30
0.0
  0
VERTEX
  5
B1597
  8
0
 10
20412.11111616107
 20
3216.553187974926
 30
0.0
  0
VERTEX
  5
B1598
  8
0
 10
20412.11111616107
 20
2866.686915805818
 30
0.0
  0
VERTEX
  5
B1599
  8
0
 10
20408.11111616106
 20
2866.686915805818
 30
0.0
  0
SEQEND
  5
B1A04
  8
0
  0
CIRCLE
  5
AAB8F
  8
0
 10
20386.81112646556
 20
3144.881466525149
 30
0.0
 40
21.29998969548594
  0
POLYLINE
  5
AAB90
  8
0
 66
     1
 10
0.0
 20
0.0
 30
0.0
 70
     1
  0
VERTEX
  5
B159A
  8
0
 10
20447.11111616106
 20
2998.036426392835
 30
0.0
  0
VERTEX
  5
B159B
  8
0
 10
20412.11111616107
 20
2998.036426392835
 30
0.0
  0
VERTEX
  5
B159C
  8
0
 10
20412.11111616107
 20
3068.036426392835
 30
0.0
  0
VERTEX
  5
B159D
  8
0
 10
20447.11111616106
 20
3068.036426392835
 30
0.0
  0
SEQEND
  5
B1A05
  8
0
  0
POLYLINE
  5
AAB91
  8
0
 66
     1
 10
0.0
 20
0.0
 30
0.0
 70
     1
  0
VERTEX
  5
B159E
  8
0
 10
20497.11111616106
 20
4748.036426392835
 30
0.0
  0
VERTEX
  5
B159F
  8
0
 10
20497.11111616106
 20
2218.036426392835
 30
0.0
  0
VERTEX
  5
B15A0
  8
0
 10
20447.11111616106
 20
2218.036426392835
 30
0.0
  0
VERTEX
  5
B15A1
  8
0
 10
20447.11111616106
 20
4748.036426392835
 30
0.0
  0
SEQEND
  5
B1A06
  8
0
  0
POLYLINE
  5
AAB92
  8
0
 66
     1
 10
0.0
 20
0.0
 30
0.0
 70
     1
  0
VERTEX
  5
B15A2
  8
0
 10
20447.11111616104
 20
7042.171916406282
 30
0.0
  0
VERTEX
  5
B15A3
  8
0
 10
20412.11111616104
 20
7042.171916406282
 30
0.0
  0
VERTEX
  5
B15A4
  8
0
 10
20412.11111616104
 20
7112.171916406281
 30
0.0
  0
VERTEX
  5
B15A5
  8
0
 10
20447.11111616104
 20
7112.171916406281
 30
0.0
  0
SEQEND
  5
B1A07
  8
0
  0
CIRCLE
  5
AAB93
  8
0
 10
20386.81112646553
 20
7189.016956538598
 30
0.0
 40
21.29998969548594
  0
POLYLINE
  5
AAB94
  8
0
 66
     1
 10
0.0
 20
0.0
 30
0.0
 70
     1
  0
VERTEX
  5
B15A6
  8
0
 10
20408.11111616104
 20
7260.688677988373
 30
0.0
  0
VERTEX
  5
B15A7
  8
0
 10
20412.11111616104
 20
7260.688677988373
 30
0.0
  0
VERTEX
  5
B15A8
  8
0
 10
20412.11111616104
 20
6910.822405819266
 30
0.0
  0
VERTEX
  5
B15A9
  8
0
 10
20408.11111616104
 20
6910.822405819266
 30
0.0
  0
SEQEND
  5
B1A08
  8
0
  0
POLYLINE
  5
AAB95
  8
0
 66
     1
 10
0.0
 20
0.0
 30
0.0
 70
     1
  0
VERTEX
  5
B15AA
  8
0
 10
20497.11111616104
 20
8792.171916406282
 30
0.0
  0
VERTEX
  5
B15AB
  8
0
 10
20497.11111616104
 20
6262.171916406281
 30
0.0
  0
VERTEX
  5
B15AC
  8
0
 10
20447.11111616104
 20
6262.171916406281
 30
0.0
  0
VERTEX
  5
B15AD
  8
0
 10
20447.11111616104
 20
8792.171916406282
 30
0.0
  0
SEQEND
  5
B1A09
  8
0
  0
POLYLINE
  5
AAB96
  8
0
 66
     1
 10
0.0
 20
0.0
 30
0.0
 70
     1
  0
VERTEX
  5
B15AE
  8
0
 10
20447.11111616106
 20
15130.44289643319
 30
0.0
  0
VERTEX
  5
B15AF
  8
0
 10
20412.11111616106
 20
15130.44289643319
 30
0.0
  0
VERTEX
  5
B15B0
  8
0
 10
20412.11111616106
 20
15200.44289643319
 30
0.0
  0
VERTEX
  5
B15B1
  8
0
 10
20447.11111616106
 20
15200.44289643319
 30
0.0
  0
SEQEND
  5
B1A0A
  8
0
  0
CIRCLE
  5
AAB97
  8
0
 10
20386.81112646556
 20
15277.2879365655
 30
0.0
 40
21.29998969548594
  0
POLYLINE
  5
AAB98
  8
0
 66
     1
 10
0.0
 20
0.0
 30
0.0
 70
     1
  0
VERTEX
  5
B15B2
  8
0
 10
20408.11111616106
 20
15348.95965801528
 30
0.0
  0
VERTEX
  5
B15B3
  8
0
 10
20412.11111616106
 20
15348.95965801528
 30
0.0
  0
VERTEX
  5
B15B4
  8
0
 10
20412.11111616106
 20
14999.09338584616
 30
0.0
  0
VERTEX
  5
B15B5
  8
0
 10
20408.11111616106
 20
14999.09338584616
 30
0.0
  0
SEQEND
  5
B1A0B
  8
0
  0
POLYLINE
  5
AAB99
  8
0
 66
     1
 10
0.0
 20
0.0
 30
0.0
 70
     1
  0
VERTEX
  5
B15B6
  8
0
 10
20497.11111616106
 20
16880.44289643319
 30
0.0
  0
VERTEX
  5
B15B7
  8
0
 10
20497.11111616106
 20
14350.44289643319
 30
0.0
  0
VERTEX
  5
B15B8
  8
0
 10
20447.11111616106
 20
14350.44289643319
 30
0.0
  0
VERTEX
  5
B15B9
  8
0
 10
20447.11111616106
 20
16880.44289643319
 30
0.0
  0
SEQEND
  5
B1A0C
  8
0
  0
POLYLINE
  5
AAB9A
  8
0
 66
     1
 10
0.0
 20
0.0
 30
0.0
 70
     1
  0
VERTEX
  5
B15BA
  8
0
 10
20408.11111616106
 20
11304.82416800182
 30
0.0
  0
VERTEX
  5
B15BB
  8
0
 10
20412.11111616106
 20
11304.82416800182
 30
0.0
  0
VERTEX
  5
B15BC
  8
0
 10
20412.11111616106
 20
10954.9578958327
 30
0.0
  0
VERTEX
  5
B15BD
  8
0
 10
20408.11111616106
 20
10954.9578958327
 30
0.0
  0
SEQEND
  5
B1A0D
  8
0
  0
CIRCLE
  5
AAB9B
  8
0
 10
20386.81112646557
 20
11233.15244655204
 30
0.0
 40
21.29998969548594
  0
POLYLINE
  5
AAB9C
  8
0
 66
     1
 10
0.0
 20
0.0
 30
0.0
 70
     1
  0
VERTEX
  5
B15BE
  8
0
 10
20447.11111616106
 20
11086.30740641973
 30
0.0
  0
VERTEX
  5
B15BF
  8
0
 10
20412.11111616106
 20
11086.30740641973
 30
0.0
  0
VERTEX
  5
B15C0
  8
0
 10
20412.11111616106
 20
11156.30740641973
 30
0.0
  0
VERTEX
  5
B15C1
  8
0
 10
20447.11111616106
 20
11156.30740641973
 30
0.0
  0
SEQEND
  5
B1A0E
  8
0
  0
POLYLINE
  5
AAB9D
  8
0
 66
     1
 10
0.0
 20
0.0
 30
0.0
 70
     1
  0
VERTEX
  5
B15C2
  8
0
 10
20497.11111616106
 20
12836.30740641974
 30
0.0
  0
VERTEX
  5
B15C3
  8
0
 10
20497.11111616106
 20
10306.30740641973
 30
0.0
  0
VERTEX
  5
B15C4
  8
0
 10
20447.11111616106
 20
10306.30740641973
 30
0.0
  0
VERTEX
  5
B15C5
  8
0
 10
20447.11111616106
 20
12836.30740641974
 30
0.0
  0
SEQEND
  5
B1A0F
  8
0
  0
POLYLINE
  5
AAB9E
  8
0
 66
     1
 10
0.0
 20
0.0
 30
0.0
 70
     1
  0
VERTEX
  5
B15C6
  8
0
 10
20527.1111161613
 20
12301.30740641974
 30
0.0
  0
VERTEX
  5
B15C7
  8
0
 10
20527.1111161613
 20
12327.30740641974
 30
0.0
  0
VERTEX
  5
B15C8
  8
0
 10
21497.1111161613
 20
12327.30740641974
 30
0.0
  0
VERTEX
  5
B15C9
  8
0
 10
21497.1111161613
 20
12301.30740641974
 30
0.0
  0
SEQEND
  5
B1A10
  8
0
  0
POLYLINE
  5
AAB9F
  8
0
 66
     1
 10
0.0
 20
0.0
 30
0.0
 70
     1
  0
VERTEX
  5
B15CA
  8
0
 10
22497.1111161613
 20
12327.30740641974
 30
0.0
  0
VERTEX
  5
B15CB
  8
0
 10
22497.1111161613
 20
12301.30740641974
 30
0.0
  0
VERTEX
  5
B15CC
  8
0
 10
21527.1111161613
 20
12301.30740641974
 30
0.0
  0
VERTEX
  5
B15CD
  8
0
 10
21527.1111161613
 20
12327.30740641974
 30
0.0
  0
SEQEND
  5
B1A11
  8
0
  0
POLYLINE
  5
AABA0
  8
0
 66
     1
 10
0.0
 20
0.0
 30
0.0
 70
     1
  0
VERTEX
  5
B15CE
  8
0
 10
20527.1111161613
 20
12051.30740641974
 30
0.0
  0
VERTEX
  5
B15CF
  8
0
 10
20527.1111161613
 20
12077.30740641974
 30
0.0
  0
VERTEX
  5
B15D0
  8
0
 10
21497.1111161613
 20
12077.30740641974
 30
0.0
  0
VERTEX
  5
B15D1
  8
0
 10
21497.1111161613
 20
12051.30740641974
 30
0.0
  0
SEQEND
  5
B1A12
  8
0
  0
POLYLINE
  5
AABA1
  8
0
 66
     1
 10
0.0
 20
0.0
 30
0.0
 70
     1
  0
VERTEX
  5
B15D2
  8
0
 10
22497.1111161613
 20
12077.30740641974
 30
0.0
  0
VERTEX
  5
B15D3
  8
0
 10
22497.1111161613
 20
12051.30740641974
 30
0.0
  0
VERTEX
  5
B15D4
  8
0
 10
21527.1111161613
 20
12051.30740641974
 30
0.0
  0
VERTEX
  5
B15D5
  8
0
 10
21527.1111161613
 20
12077.30740641974
 30
0.0
  0
SEQEND
  5
B1A13
  8
0
  0
POLYLINE
  5
AABA2
  8
0
 66
     1
 10
0.0
 20
0.0
 30
0.0
 70
     1
  0
VERTEX
  5
B15D6
  8
0
 10
20527.1111161613
 20
11801.30740641974
 30
0.0
  0
VERTEX
  5
B15D7
  8
0
 10
20527.1111161613
 20
11827.30740641974
 30
0.0
  0
VERTEX
  5
B15D8
  8
0
 10
21497.1111161613
 20
11827.30740641974
 30
0.0
  0
VERTEX
  5
B15D9
  8
0
 10
21497.1111161613
 20
11801.30740641974
 30
0.0
  0
SEQEND
  5
B1A14
  8
0
  0
POLYLINE
  5
AABA3
  8
0
 66
     1
 10
0.0
 20
0.0
 30
0.0
 70
     1
  0
VERTEX
  5
B15DA
  8
0
 10
22497.1111161613
 20
11827.30740641974
 30
0.0
  0
VERTEX
  5
B15DB
  8
0
 10
22497.1111161613
 20
11801.30740641974
 30
0.0
  0
VERTEX
  5
B15DC
  8
0
 10
21527.1111161613
 20
11801.30740641974
 30
0.0
  0
VERTEX
  5
B15DD
  8
0
 10
21527.1111161613
 20
11827.30740641974
 30
0.0
  0
SEQEND
  5
B1A15
  8
0
  0
POLYLINE
  5
AABA4
  8
0
 66
     1
 10
0.0
 20
0.0
 30
0.0
 70
     1
  0
VERTEX
  5
B15DE
  8
0
 10
22024.61111616106
 20
10281.30740641973
 30
0.0
  0
VERTEX
  5
B15DF
  8
0
 10
22024.61111616106
 20
10256.30740641973
 30
0.0
  0
VERTEX
  5
B15E0
  8
0
 10
21999.61111616106
 20
10256.30740641973
 30
0.0
  0
VERTEX
  5
B15E1
  8
0
 10
21999.61111616106
 20
10281.30740641973
 30
0.0
  0
SEQEND
  5
B1A16
  8
0
  0
POLYLINE
  5
AABA5
  8
0
 66
     1
 10
0.0
 20
0.0
 30
0.0
 70
     1
  0
VERTEX
  5
B15E2
  8
0
 10
22034.61111616106
 20
10306.30740641973
 30
0.0
  0
VERTEX
  5
B15E3
  8
0
 10
22034.61111616106
 20
10281.30740641973
 30
0.0
  0
VERTEX
  5
B15E4
  8
0
 10
21989.61111616106
 20
10281.30740641973
 30
0.0
  0
VERTEX
  5
B15E5
  8
0
 10
21989.61111616106
 20
10306.30740641973
 30
0.0
  0
SEQEND
  5
B1A17
  8
0
  0
LINE
  5
AABA6
  8
0
 10
21989.61111616106
 20
10306.30740641973
 30
0.0
 11
21989.61111616106
 21
10281.30740641973
 31
0.0
  0
LINE
  5
AABA7
  8
0
 10
21989.61111616106
 20
10306.30740641973
 30
0.0
 11
21989.61111616106
 21
10281.30740641973
 31
0.0
  0
LINE
  5
AABA8
  8
0
 10
21999.61111616106
 20
10281.30740641973
 30
0.0
 11
21999.61111616106
 21
10256.30740641973
 31
0.0
  0
LINE
  5
AABA9
  8
0
 10
21999.61111616106
 20
10281.30740641973
 30
0.0
 11
21999.61111616106
 21
10256.30740641973
 31
0.0
  0
LINE
  5
AABAA
  8
0
 10
22034.61111616106
 20
10281.30740641973
 30
0.0
 11
21989.61111616106
 21
10281.30740641973
 31
0.0
  0
LINE
  5
AABAB
  8
0
 10
22034.61111616106
 20
10281.30740641973
 30
0.0
 11
21989.61111616106
 21
10281.30740641973
 31
0.0
  0
LINE
  5
AABAC
  8
0
 10
21999.61111616106
 20
10281.30740641973
 30
0.0
 11
21999.61111616106
 21
10256.30740641973
 31
0.0
  0
LINE
  5
AABAD
  8
0
 10
21999.61111616106
 20
10281.30740641973
 30
0.0
 11
21999.61111616106
 21
10256.30740641973
 31
0.0
  0
LINE
  5
AABAE
  8
0
 10
22034.61111616106
 20
10281.30740641973
 30
0.0
 11
21989.61111616106
 21
10281.30740641973
 31
0.0
  0
LINE
  5
AABAF
  8
0
 10
22034.61111616106
 20
10281.30740641973
 30
0.0
 11
21989.61111616106
 21
10281.30740641973
 31
0.0
  0
LINE
  5
AABB0
  8
0
 10
21989.61111616106
 20
10306.30740641973
 30
0.0
 11
21989.61111616106
 21
10281.30740641973
 31
0.0
  0
LINE
  5
AABB1
  8
0
 10
21989.61111616106
 20
10306.30740641973
 30
0.0
 11
21989.61111616106
 21
10281.30740641973
 31
0.0
  0
POLYLINE
  5
AABB2
  8
0
 66
     1
 10
0.0
 20
0.0
 30
0.0
 70
     1
  0
VERTEX
  5
B15E6
  8
0
 10
21024.61111616106
 20
10281.30740641973
 30
0.0
  0
VERTEX
  5
B15E7
  8
0
 10
21024.61111616106
 20
10256.30740641973
 30
0.0
  0
VERTEX
  5
B15E8
  8
0
 10
20999.61111616106
 20
10256.30740641973
 30
0.0
  0
VERTEX
  5
B15E9
  8
0
 10
20999.61111616106
 20
10281.30740641973
 30
0.0
  0
SEQEND
  5
B1A18
  8
0
  0
POLYLINE
  5
AABB3
  8
0
 66
     1
 10
0.0
 20
0.0
 30
0.0
 70
     1
  0
VERTEX
  5
B15EA
  8
0
 10
21034.61111616106
 20
10306.30740641973
 30
0.0
  0
VERTEX
  5
B15EB
  8
0
 10
21034.61111616106
 20
10281.30740641973
 30
0.0
  0
VERTEX
  5
B15EC
  8
0
 10
20989.61111616106
 20
10281.30740641973
 30
0.0
  0
VERTEX
  5
B15ED
  8
0
 10
20989.61111616106
 20
10306.30740641973
 30
0.0
  0
SEQEND
  5
B1A19
  8
0
  0
LINE
  5
AABB4
  8
0
 10
20989.61111616106
 20
10306.30740641973
 30
0.0
 11
20989.61111616106
 21
10281.30740641973
 31
0.0
  0
LINE
  5
AABB5
  8
0
 10
20989.61111616106
 20
10306.30740641973
 30
0.0
 11
20989.61111616106
 21
10281.30740641973
 31
0.0
  0
LINE
  5
AABB6
  8
0
 10
20999.61111616106
 20
10281.30740641973
 30
0.0
 11
20999.61111616106
 21
10256.30740641973
 31
0.0
  0
LINE
  5
AABB7
  8
0
 10
20999.61111616106
 20
10281.30740641973
 30
0.0
 11
20999.61111616106
 21
10256.30740641973
 31
0.0
  0
LINE
  5
AABB8
  8
0
 10
21034.61111616106
 20
10281.30740641973
 30
0.0
 11
20989.61111616106
 21
10281.30740641973
 31
0.0
  0
LINE
  5
AABB9
  8
0
 10
21034.61111616106
 20
10281.30740641973
 30
0.0
 11
20989.61111616106
 21
10281.30740641973
 31
0.0
  0
LINE
  5
AABBA
  8
0
 10
20999.61111616106
 20
10281.30740641973
 30
0.0
 11
20999.61111616106
 21
10256.30740641973
 31
0.0
  0
LINE
  5
AABBB
  8
0
 10
20999.61111616106
 20
10281.30740641973
 30
0.0
 11
20999.61111616106
 21
10256.30740641973
 31
0.0
  0
LINE
  5
AABBC
  8
0
 10
21034.61111616106
 20
10281.30740641973
 30
0.0
 11
20989.61111616106
 21
10281.30740641973
 31
0.0
  0
LINE
  5
AABBD
  8
0
 10
21034.61111616106
 20
10281.30740641973
 30
0.0
 11
20989.61111616106
 21
10281.30740641973
 31
0.0
  0
LINE
  5
AABBE
  8
0
 10
20989.61111616106
 20
10306.30740641973
 30
0.0
 11
20989.61111616106
 21
10281.30740641973
 31
0.0
  0
LINE
  5
AABBF
  8
0
 10
20989.61111616106
 20
10306.30740641973
 30
0.0
 11
20989.61111616106
 21
10281.30740641973
 31
0.0
  0
LINE
  5
AABC0
  8
0
 10
21989.61111616106
 20
10306.30740641973
 30
0.0
 11
21989.61111616106
 21
10281.30740641973
 31
0.0
  0
LINE
  5
AABC1
  8
0
 10
21989.61111616106
 20
10306.30740641973
 30
0.0
 11
21989.61111616106
 21
10281.30740641973
 31
0.0
  0
LINE
  5
AABC2
  8
0
 10
21999.61111616106
 20
10281.30740641973
 30
0.0
 11
21999.61111616106
 21
10256.30740641973
 31
0.0
  0
LINE
  5
AABC3
  8
0
 10
21999.61111616106
 20
10281.30740641973
 30
0.0
 11
21999.61111616106
 21
10256.30740641973
 31
0.0
  0
LINE
  5
AABC4
  8
0
 10
22034.61111616106
 20
10281.30740641973
 30
0.0
 11
21989.61111616106
 21
10281.30740641973
 31
0.0
  0
LINE
  5
AABC5
  8
0
 10
22034.61111616106
 20
10281.30740641973
 30
0.0
 11
21989.61111616106
 21
10281.30740641973
 31
0.0
  0
LINE
  5
AABC6
  8
0
 10
21999.61111616106
 20
10281.30740641973
 30
0.0
 11
21999.61111616106
 21
10256.30740641973
 31
0.0
  0
LINE
  5
AABC7
  8
0
 10
21999.61111616106
 20
10281.30740641973
 30
0.0
 11
21999.61111616106
 21
10256.30740641973
 31
0.0
  0
LINE
  5
AABC8
  8
0
 10
22034.61111616106
 20
10281.30740641973
 30
0.0
 11
21989.61111616106
 21
10281.30740641973
 31
0.0
  0
LINE
  5
AABC9
  8
0
 10
22034.61111616106
 20
10281.30740641973
 30
0.0
 11
21989.61111616106
 21
10281.30740641973
 31
0.0
  0
LINE
  5
AABCA
  8
0
 10
21989.61111616106
 20
10306.30740641973
 30
0.0
 11
21989.61111616106
 21
10281.30740641973
 31
0.0
  0
LINE
  5
AABCB
  8
0
 10
21989.61111616106
 20
10306.30740641973
 30
0.0
 11
21989.61111616106
 21
10281.30740641973
 31
0.0
  0
POLYLINE
  5
AABCC
  8
0
 66
     1
 10
0.0
 20
0.0
 30
0.0
 70
     1
  0
VERTEX
  5
B15EE
  8
0
 10
22429.61111616106
 20
12856.30740641977
 30
0.0
  0
VERTEX
  5
B15EF
  8
0
 10
22429.61111616106
 20
12878.80740641977
 30
0.0
 42
-1.0
  0
VERTEX
  5
B15F0
  8
0
 10
22384.61111616106
 20
12878.80740641977
 30
0.0
  0
VERTEX
  5
B15F1
  8
0
 10
22384.61111616106
 20
12856.30740641974
 30
0.0
  0
VERTEX
  5
B15F2
  8
0
 10
22367.11111616106
 20
12856.30740641977
 30
0.0
  0
VERTEX
  5
B15F3
  8
0
 10
22357.11111616106
 20
12846.30740641974
 30
0.0
  0
VERTEX
  5
B15F4
  8
0
 10
22457.11111616106
 20
12846.30740641974
 30
0.0
  0
VERTEX
  5
B15F5
  8
0
 10
22447.11111616106
 20
12856.30740641977
 30
0.0
  0
SEQEND
  5
B1A1A
  8
0
  0
POLYLINE
  5
AABCD
  8
0
 66
     1
 10
0.0
 20
0.0
 30
0.0
 70
     1
  0
VERTEX
  5
B15F6
  8
0
 10
20527.1111161613
 20
11551.30740641974
 30
0.0
  0
VERTEX
  5
B15F7
  8
0
 10
20527.1111161613
 20
11577.30740641974
 30
0.0
  0
VERTEX
  5
B15F8
  8
0
 10
21497.1111161613
 20
11577.30740641974
 30
0.0
  0
VERTEX
  5
B15F9
  8
0
 10
21497.1111161613
 20
11551.30740641974
 30
0.0
  0
SEQEND
  5
B1A1B
  8
0
  0
POLYLINE
  5
AABCE
  8
0
 66
     1
 10
0.0
 20
0.0
 30
0.0
 70
     1
  0
VERTEX
  5
B15FA
  8
0
 10
22497.1111161613
 20
11577.30740641974
 30
0.0
  0
VERTEX
  5
B15FB
  8
0
 10
22497.1111161613
 20
11551.30740641974
 30
0.0
  0
VERTEX
  5
B15FC
  8
0
 10
21527.1111161613
 20
11551.30740641974
 30
0.0
  0
VERTEX
  5
B15FD
  8
0
 10
21527.1111161613
 20
11577.30740641974
 30
0.0
  0
SEQEND
  5
B1A1C
  8
0
  0
POLYLINE
  5
AABCF
  8
0
 66
     1
 10
0.0
 20
0.0
 30
0.0
 70
     1
  0
VERTEX
  5
B15FE
  8
0
 10
20527.1111161613
 20
11301.30740641974
 30
0.0
  0
VERTEX
  5
B15FF
  8
0
 10
20527.1111161613
 20
11327.30740641974
 30
0.0
  0
VERTEX
  5
B1600
  8
0
 10
21497.1111161613
 20
11327.30740641974
 30
0.0
  0
VERTEX
  5
B1601
  8
0
 10
21497.1111161613
 20
11301.30740641974
 30
0.0
  0
SEQEND
  5
B1A1D
  8
0
  0
POLYLINE
  5
AABD0
  8
0
 66
     1
 10
0.0
 20
0.0
 30
0.0
 70
     1
  0
VERTEX
  5
B1602
  8
0
 10
22497.1111161613
 20
11327.30740641974
 30
0.0
  0
VERTEX
  5
B1603
  8
0
 10
22497.1111161613
 20
11301.30740641974
 30
0.0
  0
VERTEX
  5
B1604
  8
0
 10
21527.1111161613
 20
11301.30740641974
 30
0.0
  0
VERTEX
  5
B1605
  8
0
 10
21527.1111161613
 20
11327.30740641974
 30
0.0
  0
SEQEND
  5
B1A1E
  8
0
  0
POLYLINE
  5
AABD1
  8
0
 66
     1
 10
0.0
 20
0.0
 30
0.0
 70
     1
  0
VERTEX
  5
B1606
  8
0
 10
20527.1111161613
 20
11051.30740641974
 30
0.0
  0
VERTEX
  5
B1607
  8
0
 10
20527.1111161613
 20
11077.30740641974
 30
0.0
  0
VERTEX
  5
B1608
  8
0
 10
21497.1111161613
 20
11077.30740641974
 30
0.0
  0
VERTEX
  5
B1609
  8
0
 10
21497.1111161613
 20
11051.30740641974
 30
0.0
  0
SEQEND
  5
B1A1F
  8
0
  0
POLYLINE
  5
AABD2
  8
0
 66
     1
 10
0.0
 20
0.0
 30
0.0
 70
     1
  0
VERTEX
  5
B160A
  8
0
 10
22497.1111161613
 20
11077.30740641974
 30
0.0
  0
VERTEX
  5
B160B
  8
0
 10
22497.1111161613
 20
11051.30740641974
 30
0.0
  0
VERTEX
  5
B160C
  8
0
 10
21527.1111161613
 20
11051.30740641974
 30
0.0
  0
VERTEX
  5
B160D
  8
0
 10
21527.1111161613
 20
11077.30740641974
 30
0.0
  0
SEQEND
  5
B1A20
  8
0
  0
POLYLINE
  5
AABD3
  8
0
 66
     1
 10
0.0
 20
0.0
 30
0.0
 70
     1
  0
VERTEX
  5
B160E
  8
0
 10
20527.1111161613
 20
10801.30740641974
 30
0.0
  0
VERTEX
  5
B160F
  8
0
 10
20527.1111161613
 20
10827.30740641974
 30
0.0
  0
VERTEX
  5
B1610
  8
0
 10
21497.1111161613
 20
10827.30740641974
 30
0.0
  0
VERTEX
  5
B1611
  8
0
 10
21497.1111161613
 20
10801.30740641974
 30
0.0
  0
SEQEND
  5
B1A21
  8
0
  0
POLYLINE
  5
AABD4
  8
0
 66
     1
 10
0.0
 20
0.0
 30
0.0
 70
     1
  0
VERTEX
  5
B1612
  8
0
 10
22497.1111161613
 20
10827.30740641974
 30
0.0
  0
VERTEX
  5
B1613
  8
0
 10
22497.1111161613
 20
10801.30740641974
 30
0.0
  0
VERTEX
  5
B1614
  8
0
 10
21527.1111161613
 20
10801.30740641974
 30
0.0
  0
VERTEX
  5
B1615
  8
0
 10
21527.1111161613
 20
10827.30740641974
 30
0.0
  0
SEQEND
  5
B1A22
  8
0
  0
POLYLINE
  5
AABD5
  8
0
 66
     1
 10
0.0
 20
0.0
 30
0.0
 70
     1
  0
VERTEX
  5
B1616
  8
0
 10
22497.11111616106
 20
10427.30740641973
 30
0.0
  0
VERTEX
  5
B1617
  8
0
 10
22497.11111616106
 20
10401.30740641973
 30
0.0
  0
VERTEX
  5
B1618
  8
0
 10
21527.11111616106
 20
10401.30740641973
 30
0.0
  0
VERTEX
  5
B1619
  8
0
 10
21527.11111616106
 20
10427.30740641973
 30
0.0
  0
SEQEND
  5
B1A23
  8
0
  0
POLYLINE
  5
AABD6
  8
0
 66
     1
 10
0.0
 20
0.0
 30
0.0
 70
     1
  0
VERTEX
  5
B161A
  8
0
 10
21497.11111616106
 20
10401.30740641973
 30
0.0
  0
VERTEX
  5
B161B
  8
0
 10
21497.11111616106
 20
12801.30740641974
 30
0.0
  0
VERTEX
  5
B161C
  8
0
 10
21527.11111616106
 20
12801.30740641974
 30
0.0
  0
VERTEX
  5
B161D
  8
0
 10
21527.11111616106
 20
10401.30740641973
 30
0.0
  0
SEQEND
  5
B1A24
  8
0
  0
POLYLINE
  5
AABD7
  8
0
 66
     1
 10
0.0
 20
0.0
 30
0.0
 70
     1
  0
VERTEX
  5
B161E
  8
0
 10
20527.11111616106
 20
10401.30740641973
 30
0.0
  0
VERTEX
  5
B161F
  8
0
 10
20527.11111616106
 20
10427.30740641973
 30
0.0
  0
VERTEX
  5
B1620
  8
0
 10
21497.11111616106
 20
10427.30740641973
 30
0.0
  0
VERTEX
  5
B1621
  8
0
 10
21497.11111616106
 20
10401.30740641973
 30
0.0
  0
SEQEND
  5
B1A25
  8
0
  0
POLYLINE
  5
AABD8
  8
0
 66
     1
 10
0.0
 20
0.0
 30
0.0
 70
     1
  0
VERTEX
  5
B1622
  8
0
 10
22497.11111616119
 20
10306.30740641973
 30
0.0
  0
VERTEX
  5
B1623
  8
0
 10
22497.11111616119
 20
10401.30740642002
 30
0.0
  0
VERTEX
  5
B1624
  8
0
 10
20527.11111616081
 20
10401.30740642002
 30
0.0
  0
VERTEX
  5
B1625
  8
0
 10
20527.11111616081
 20
10306.30740641973
 30
0.0
  0
SEQEND
  5
B1A26
  8
0
  0
POLYLINE
  5
AABD9
  8
0
 66
     1
 10
0.0
 20
0.0
 30
0.0
 70
     1
  0
VERTEX
  5
B1626
  8
0
 10
22527.11111616106
 20
12836.30740641974
 30
0.0
  0
VERTEX
  5
B1627
  8
0
 10
22527.11111616106
 20
10306.30740641973
 30
0.0
  0
VERTEX
  5
B1628
  8
0
 10
22497.11111616119
 20
10306.30740641973
 30
0.0
  0
VERTEX
  5
B1629
  8
0
 10
22497.11111616119
 20
12836.30740641974
 30
0.0
  0
SEQEND
  5
B1A27
  8
0
  0
POLYLINE
  5
AABDA
  8
0
 66
     1
 10
0.0
 20
0.0
 30
0.0
 70
     1
  0
VERTEX
  5
B162A
  8
0
 10
20527.11111616106
 20
12836.30740641974
 30
0.0
  0
VERTEX
  5
B162B
  8
0
 10
20527.11111616106
 20
10306.30740641973
 30
0.0
  0
VERTEX
  5
B162C
  8
0
 10
20497.11111616106
 20
10306.30740641973
 30
0.0
  0
VERTEX
  5
B162D
  8
0
 10
20497.11111616106
 20
12836.30740641974
 30
0.0
  0
SEQEND
  5
B1A28
  8
0
  0
POLYLINE
  5
AABDB
  8
0
 66
     1
 10
0.0
 20
0.0
 30
0.0
 70
     1
  0
VERTEX
  5
B162E
  8
0
 10
22497.11111616106
 20
12836.30740641974
 30
0.0
  0
VERTEX
  5
B162F
  8
0
 10
22497.11111616106
 20
12801.30740641974
 30
0.0
  0
VERTEX
  5
B1630
  8
0
 10
20527.11111616106
 20
12801.30740641974
 30
0.0
  0
VERTEX
  5
B1631
  8
0
 10
20527.11111616106
 20
12836.30740641974
 30
0.0
  0
SEQEND
  5
B1A29
  8
0
  0
CIRCLE
  5
AABDC
  8
0
 10
22407.11111616106
 20
12878.80740641974
 30
0.0
 40
22.5
  0
CIRCLE
  5
AABDD
  8
0
 10
22407.11111616106
 20
12878.80740641974
 30
0.0
 40
12.5
  0
LINE
  5
AABDE
  8
0
 10
22357.11111616106
 20
12846.30740641974
 30
0.0
 11
22457.11111616106
 21
12846.30740641974
 31
0.0
  0
POLYLINE
  5
AABDF
  8
0
 66
     1
 10
0.0
 20
0.0
 30
0.0
 70
     1
  0
VERTEX
  5
B1632
  8
0
 10
22337.11111616106
 20
12846.30740641977
 30
0.0
  0
VERTEX
  5
B1633
  8
0
 10
22477.11111616106
 20
12846.30740641977
 30
0.0
  0
VERTEX
  5
B1634
  8
0
 10
22477.11111616106
 20
12836.30740641977
 30
0.0
  0
VERTEX
  5
B1635
  8
0
 10
22337.11111616106
 20
12836.30740641977
 30
0.0
  0
SEQEND
  5
B1A2A
  8
0
  0
POLYLINE
  5
AABE0
  8
0
 66
     1
 10
0.0
 20
0.0
 30
0.0
 70
     1
  0
VERTEX
  5
B1636
  8
0
 10
22024.61111616105
 20
14325.44289643319
 30
0.0
  0
VERTEX
  5
B1637
  8
0
 10
22024.61111616105
 20
14300.44289643319
 30
0.0
  0
VERTEX
  5
B1638
  8
0
 10
21999.61111616104
 20
14300.44289643319
 30
0.0
  0
VERTEX
  5
B1639
  8
0
 10
21999.61111616104
 20
14325.44289643319
 30
0.0
  0
SEQEND
  5
B1A2B
  8
0
  0
POLYLINE
  5
AABE1
  8
0
 66
     1
 10
0.0
 20
0.0
 30
0.0
 70
     1
  0
VERTEX
  5
B163A
  8
0
 10
22034.61111616104
 20
14350.44289643319
 30
0.0
  0
VERTEX
  5
B163B
  8
0
 10
22034.61111616104
 20
14325.44289643319
 30
0.0
  0
VERTEX
  5
B163C
  8
0
 10
21989.61111616104
 20
14325.44289643319
 30
0.0
  0
VERTEX
  5
B163D
  8
0
 10
21989.61111616104
 20
14350.44289643319
 30
0.0
  0
SEQEND
  5
B1A2C
  8
0
  0
LINE
  5
AABE2
  8
0
 10
21989.61111616104
 20
14350.44289643319
 30
0.0
 11
21989.61111616104
 21
14325.44289643319
 31
0.0
  0
LINE
  5
AABE3
  8
0
 10
21989.61111616104
 20
14350.44289643319
 30
0.0
 11
21989.61111616104
 21
14325.44289643319
 31
0.0
  0
LINE
  5
AABE4
  8
0
 10
21999.61111616104
 20
14325.44289643319
 30
0.0
 11
21999.61111616104
 21
14300.44289643319
 31
0.0
  0
LINE
  5
AABE5
  8
0
 10
21999.61111616104
 20
14325.44289643319
 30
0.0
 11
21999.61111616104
 21
14300.44289643319
 31
0.0
  0
LINE
  5
AABE6
  8
0
 10
22034.61111616104
 20
14325.44289643319
 30
0.0
 11
21989.61111616104
 21
14325.44289643319
 31
0.0
  0
LINE
  5
AABE7
  8
0
 10
22034.61111616104
 20
14325.44289643319
 30
0.0
 11
21989.61111616104
 21
14325.44289643319
 31
0.0
  0
LINE
  5
AABE8
  8
0
 10
21999.61111616104
 20
14325.44289643319
 30
0.0
 11
21999.61111616104
 21
14300.44289643319
 31
0.0
  0
LINE
  5
AABE9
  8
0
 10
21999.61111616104
 20
14325.44289643319
 30
0.0
 11
21999.61111616104
 21
14300.44289643319
 31
0.0
  0
LINE
  5
AABEA
  8
0
 10
22034.61111616104
 20
14325.44289643319
 30
0.0
 11
21989.61111616104
 21
14325.44289643319
 31
0.0
  0
LINE
  5
AABEB
  8
0
 10
22034.61111616104
 20
14325.44289643319
 30
0.0
 11
21989.61111616104
 21
14325.44289643319
 31
0.0
  0
LINE
  5
AABEC
  8
0
 10
21989.61111616104
 20
14350.44289643319
 30
0.0
 11
21989.61111616104
 21
14325.44289643319
 31
0.0
  0
LINE
  5
AABED
  8
0
 10
21989.61111616104
 20
14350.44289643319
 30
0.0
 11
21989.61111616104
 21
14325.44289643319
 31
0.0
  0
POLYLINE
  5
AABEE
  8
0
 66
     1
 10
0.0
 20
0.0
 30
0.0
 70
     1
  0
VERTEX
  5
B163E
  8
0
 10
21024.61111616104
 20
14325.44289643319
 30
0.0
  0
VERTEX
  5
B163F
  8
0
 10
21024.61111616104
 20
14300.44289643319
 30
0.0
  0
VERTEX
  5
B1640
  8
0
 10
20999.61111616104
 20
14300.44289643319
 30
0.0
  0
VERTEX
  5
B1641
  8
0
 10
20999.61111616104
 20
14325.44289643319
 30
0.0
  0
SEQEND
  5
B1A2D
  8
0
  0
POLYLINE
  5
AABEF
  8
0
 66
     1
 10
0.0
 20
0.0
 30
0.0
 70
     1
  0
VERTEX
  5
B1642
  8
0
 10
21034.61111616105
 20
14350.44289643319
 30
0.0
  0
VERTEX
  5
B1643
  8
0
 10
21034.61111616105
 20
14325.44289643319
 30
0.0
  0
VERTEX
  5
B1644
  8
0
 10
20989.61111616104
 20
14325.44289643319
 30
0.0
  0
VERTEX
  5
B1645
  8
0
 10
20989.61111616104
 20
14350.44289643319
 30
0.0
  0
SEQEND
  5
B1A2E
  8
0
  0
LINE
  5
AABF0
  8
0
 10
20989.61111616104
 20
14350.44289643319
 30
0.0
 11
20989.61111616104
 21
14325.44289643319
 31
0.0
  0
LINE
  5
AABF1
  8
0
 10
20989.61111616104
 20
14350.44289643319
 30
0.0
 11
20989.61111616104
 21
14325.44289643319
 31
0.0
  0
LINE
  5
AABF2
  8
0
 10
20999.61111616104
 20
14325.44289643319
 30
0.0
 11
20999.61111616104
 21
14300.44289643319
 31
0.0
  0
LINE
  5
AABF3
  8
0
 10
20999.61111616104
 20
14325.44289643319
 30
0.0
 11
20999.61111616104
 21
14300.44289643319
 31
0.0
  0
LINE
  5
AABF4
  8
0
 10
21034.61111616105
 20
14325.44289643319
 30
0.0
 11
20989.61111616104
 21
14325.44289643319
 31
0.0
  0
LINE
  5
AABF5
  8
0
 10
21034.61111616105
 20
14325.44289643319
 30
0.0
 11
20989.61111616104
 21
14325.44289643319
 31
0.0
  0
LINE
  5
AABF6
  8
0
 10
20999.61111616104
 20
14325.44289643319
 30
0.0
 11
20999.61111616104
 21
14300.44289643319
 31
0.0
  0
LINE
  5
AABF7
  8
0
 10
20999.61111616104
 20
14325.44289643319
 30
0.0
 11
20999.61111616104
 21
14300.44289643319
 31
0.0
  0
LINE
  5
AABF8
  8
0
 10
21034.61111616105
 20
14325.44289643319
 30
0.0
 11
20989.61111616104
 21
14325.44289643319
 31
0.0
  0
LINE
  5
AABF9
  8
0
 10
21034.61111616105
 20
14325.44289643319
 30
0.0
 11
20989.61111616104
 21
14325.44289643319
 31
0.0
  0
LINE
  5
AABFA
  8
0
 10
20989.61111616104
 20
14350.44289643319
 30
0.0
 11
20989.61111616104
 21
14325.44289643319
 31
0.0
  0
LINE
  5
AABFB
  8
0
 10
20989.61111616104
 20
14350.44289643319
 30
0.0
 11
20989.61111616104
 21
14325.44289643319
 31
0.0
  0
LINE
  5
AABFC
  8
0
 10
21989.61111616104
 20
14350.44289643319
 30
0.0
 11
21989.61111616104
 21
14325.44289643319
 31
0.0
  0
LINE
  5
AABFD
  8
0
 10
21989.61111616104
 20
14350.44289643319
 30
0.0
 11
21989.61111616104
 21
14325.44289643319
 31
0.0
  0
LINE
  5
AABFE
  8
0
 10
21999.61111616104
 20
14325.44289643319
 30
0.0
 11
21999.61111616104
 21
14300.44289643319
 31
0.0
  0
LINE
  5
AABFF
  8
0
 10
21999.61111616104
 20
14325.44289643319
 30
0.0
 11
21999.61111616104
 21
14300.44289643319
 31
0.0
  0
LINE
  5
AAC00
  8
0
 10
22034.61111616104
 20
14325.44289643319
 30
0.0
 11
21989.61111616104
 21
14325.44289643319
 31
0.0
  0
LINE
  5
AAC01
  8
0
 10
22034.61111616104
 20
14325.44289643319
 30
0.0
 11
21989.61111616104
 21
14325.44289643319
 31
0.0
  0
LINE
  5
AAC02
  8
0
 10
21999.61111616104
 20
14325.44289643319
 30
0.0
 11
21999.61111616104
 21
14300.44289643319
 31
0.0
  0
LINE
  5
AAC03
  8
0
 10
21999.61111616104
 20
14325.44289643319
 30
0.0
 11
21999.61111616104
 21
14300.44289643319
 31
0.0
  0
LINE
  5
AAC04
  8
0
 10
22034.61111616104
 20
14325.44289643319
 30
0.0
 11
21989.61111616104
 21
14325.44289643319
 31
0.0
  0
LINE
  5
AAC05
  8
0
 10
22034.61111616104
 20
14325.44289643319
 30
0.0
 11
21989.61111616104
 21
14325.44289643319
 31
0.0
  0
LINE
  5
AAC06
  8
0
 10
21989.61111616104
 20
14350.44289643319
 30
0.0
 11
21989.61111616104
 21
14325.44289643319
 31
0.0
  0
LINE
  5
AAC07
  8
0
 10
21989.61111616104
 20
14350.44289643319
 30
0.0
 11
21989.61111616104
 21
14325.44289643319
 31
0.0
  0
POLYLINE
  5
AAC08
  8
0
 66
     1
 10
0.0
 20
0.0
 30
0.0
 70
     1
  0
VERTEX
  5
B1646
  8
0
 10
22429.61111616105
 20
16900.44289643322
 30
0.0
  0
VERTEX
  5
B1647
  8
0
 10
22429.61111616105
 20
16922.94289643322
 30
0.0
 42
-1.0
  0
VERTEX
  5
B1648
  8
0
 10
22384.61111616105
 20
16922.94289643322
 30
0.0
  0
VERTEX
  5
B1649
  8
0
 10
22384.61111616105
 20
16900.44289643319
 30
0.0
  0
VERTEX
  5
B164A
  8
0
 10
22367.11111616104
 20
16900.44289643322
 30
0.0
  0
VERTEX
  5
B164B
  8
0
 10
22357.11111616105
 20
16890.44289643319
 30
0.0
  0
VERTEX
  5
B164C
  8
0
 10
22457.11111616104
 20
16890.44289643319
 30
0.0
  0
VERTEX
  5
B164D
  8
0
 10
22447.11111616104
 20
16900.44289643322
 30
0.0
  0
SEQEND
  5
B1A2F
  8
0
  0
POLYLINE
  5
AAC09
  8
0
 66
     1
 10
0.0
 20
0.0
 30
0.0
 70
     1
  0
VERTEX
  5
B164E
  8
0
 10
20527.11111616126
 20
16045.4428964329
 30
0.0
  0
VERTEX
  5
B164F
  8
0
 10
20527.11111616126
 20
16071.4428964329
 30
0.0
  0
VERTEX
  5
B1650
  8
0
 10
21497.11111616128
 20
16071.4428964329
 30
0.0
  0
VERTEX
  5
B1651
  8
0
 10
21497.11111616128
 20
16045.4428964329
 30
0.0
  0
SEQEND
  5
B1A30
  8
0
  0
POLYLINE
  5
AAC0A
  8
0
 66
     1
 10
0.0
 20
0.0
 30
0.0
 70
     1
  0
VERTEX
  5
B1652
  8
0
 10
22497.11111616128
 20
16071.4428964329
 30
0.0
  0
VERTEX
  5
B1653
  8
0
 10
22497.11111616128
 20
16045.4428964329
 30
0.0
  0
VERTEX
  5
B1654
  8
0
 10
21527.11111616126
 20
16045.4428964329
 30
0.0
  0
VERTEX
  5
B1655
  8
0
 10
21527.11111616126
 20
16071.4428964329
 30
0.0
  0
SEQEND
  5
B1A31
  8
0
  0
POLYLINE
  5
AAC0B
  8
0
 66
     1
 10
0.0
 20
0.0
 30
0.0
 70
     1
  0
VERTEX
  5
B1656
  8
0
 10
20527.11111616126
 20
15645.4428964329
 30
0.0
  0
VERTEX
  5
B1657
  8
0
 10
20527.11111616126
 20
15671.4428964329
 30
0.0
  0
VERTEX
  5
B1658
  8
0
 10
21497.11111616128
 20
15671.4428964329
 30
0.0
  0
VERTEX
  5
B1659
  8
0
 10
21497.11111616128
 20
15645.4428964329
 30
0.0
  0
SEQEND
  5
B1A32
  8
0
  0
POLYLINE
  5
AAC0C
  8
0
 66
     1
 10
0.0
 20
0.0
 30
0.0
 70
     1
  0
VERTEX
  5
B165A
  8
0
 10
22497.11111616128
 20
15671.4428964329
 30
0.0
  0
VERTEX
  5
B165B
  8
0
 10
22497.11111616128
 20
15645.4428964329
 30
0.0
  0
VERTEX
  5
B165C
  8
0
 10
21527.11111616126
 20
15645.4428964329
 30
0.0
  0
VERTEX
  5
B165D
  8
0
 10
21527.11111616126
 20
15671.4428964329
 30
0.0
  0
SEQEND
  5
B1A33
  8
0
  0
POLYLINE
  5
AAC0D
  8
0
 66
     1
 10
0.0
 20
0.0
 30
0.0
 70
     1
  0
VERTEX
  5
B165E
  8
0
 10
20527.11111616126
 20
15245.4428964329
 30
0.0
  0
VERTEX
  5
B165F
  8
0
 10
20527.11111616126
 20
15271.4428964329
 30
0.0
  0
VERTEX
  5
B1660
  8
0
 10
21497.11111616128
 20
15271.4428964329
 30
0.0
  0
VERTEX
  5
B1661
  8
0
 10
21497.11111616128
 20
15245.4428964329
 30
0.0
  0
SEQEND
  5
B1A34
  8
0
  0
POLYLINE
  5
AAC0E
  8
0
 66
     1
 10
0.0
 20
0.0
 30
0.0
 70
     1
  0
VERTEX
  5
B1662
  8
0
 10
22497.11111616128
 20
15271.4428964329
 30
0.0
  0
VERTEX
  5
B1663
  8
0
 10
22497.11111616128
 20
15245.4428964329
 30
0.0
  0
VERTEX
  5
B1664
  8
0
 10
21527.11111616126
 20
15245.4428964329
 30
0.0
  0
VERTEX
  5
B1665
  8
0
 10
21527.11111616126
 20
15271.4428964329
 30
0.0
  0
SEQEND
  5
B1A35
  8
0
  0
POLYLINE
  5
AAC0F
  8
0
 66
     1
 10
0.0
 20
0.0
 30
0.0
 70
     1
  0
VERTEX
  5
B1666
  8
0
 10
20527.11111616126
 20
14845.4428964329
 30
0.0
  0
VERTEX
  5
B1667
  8
0
 10
20527.11111616126
 20
14871.4428964329
 30
0.0
  0
VERTEX
  5
B1668
  8
0
 10
21497.11111616128
 20
14871.4428964329
 30
0.0
  0
VERTEX
  5
B1669
  8
0
 10
21497.11111616128
 20
14845.4428964329
 30
0.0
  0
SEQEND
  5
B1A36
  8
0
  0
POLYLINE
  5
AAC10
  8
0
 66
     1
 10
0.0
 20
0.0
 30
0.0
 70
     1
  0
VERTEX
  5
B166A
  8
0
 10
22497.11111616128
 20
14871.4428964329
 30
0.0
  0
VERTEX
  5
B166B
  8
0
 10
22497.11111616128
 20
14845.4428964329
 30
0.0
  0
VERTEX
  5
B166C
  8
0
 10
21527.11111616126
 20
14845.4428964329
 30
0.0
  0
VERTEX
  5
B166D
  8
0
 10
21527.11111616126
 20
14871.4428964329
 30
0.0
  0
SEQEND
  5
B1A37
  8
0
  0
POLYLINE
  5
AAC11
  8
0
 66
     1
 10
0.0
 20
0.0
 30
0.0
 70
     1
  0
VERTEX
  5
B166E
  8
0
 10
22497.11111616105
 20
14471.44289643319
 30
0.0
  0
VERTEX
  5
B166F
  8
0
 10
22497.11111616105
 20
14445.44289643319
 30
0.0
  0
VERTEX
  5
B1670
  8
0
 10
21527.11111616105
 20
14445.44289643319
 30
0.0
  0
VERTEX
  5
B1671
  8
0
 10
21527.11111616105
 20
14471.44289643319
 30
0.0
  0
SEQEND
  5
B1A38
  8
0
  0
POLYLINE
  5
AAC12
  8
0
 66
     1
 10
0.0
 20
0.0
 30
0.0
 70
     1
  0
VERTEX
  5
B1672
  8
0
 10
21497.11111616104
 20
14445.44289643319
 30
0.0
  0
VERTEX
  5
B1673
  8
0
 10
21497.11111616104
 20
16845.44289643319
 30
0.0
  0
VERTEX
  5
B1674
  8
0
 10
21527.11111616105
 20
16845.44289643319
 30
0.0
  0
VERTEX
  5
B1675
  8
0
 10
21527.11111616105
 20
14445.44289643319
 30
0.0
  0
SEQEND
  5
B1A39
  8
0
  0
POLYLINE
  5
AAC13
  8
0
 66
     1
 10
0.0
 20
0.0
 30
0.0
 70
     1
  0
VERTEX
  5
B1676
  8
0
 10
20527.11111616104
 20
14445.44289643319
 30
0.0
  0
VERTEX
  5
B1677
  8
0
 10
20527.11111616104
 20
14471.44289643319
 30
0.0
  0
VERTEX
  5
B1678
  8
0
 10
21497.11111616104
 20
14471.44289643319
 30
0.0
  0
VERTEX
  5
B1679
  8
0
 10
21497.11111616104
 20
14445.44289643319
 30
0.0
  0
SEQEND
  5
B1A3A
  8
0
  0
POLYLINE
  5
AAC14
  8
0
 66
     1
 10
0.0
 20
0.0
 30
0.0
 70
     1
  0
VERTEX
  5
B167A
  8
0
 10
22497.11111616116
 20
14350.44289643319
 30
0.0
  0
VERTEX
  5
B167B
  8
0
 10
22497.11111616116
 20
14445.44289643348
 30
0.0
  0
VERTEX
  5
B167C
  8
0
 10
20527.1111161608
 20
14445.44289643348
 30
0.0
  0
VERTEX
  5
B167D
  8
0
 10
20527.1111161608
 20
14350.44289643319
 30
0.0
  0
SEQEND
  5
B1A3B
  8
0
  0
POLYLINE
  5
AAC15
  8
0
 66
     1
 10
0.0
 20
0.0
 30
0.0
 70
     1
  0
VERTEX
  5
B167E
  8
0
 10
22527.11111616104
 20
16880.44289643319
 30
0.0
  0
VERTEX
  5
B167F
  8
0
 10
22527.11111616104
 20
14350.44289643319
 30
0.0
  0
VERTEX
  5
B1680
  8
0
 10
22497.11111616116
 20
14350.44289643319
 30
0.0
  0
VERTEX
  5
B1681
  8
0
 10
22497.11111616116
 20
16880.44289643319
 30
0.0
  0
SEQEND
  5
B1A3C
  8
0
  0
POLYLINE
  5
AAC16
  8
0
 66
     1
 10
0.0
 20
0.0
 30
0.0
 70
     1
  0
VERTEX
  5
B1682
  8
0
 10
20527.11111616104
 20
16880.44289643319
 30
0.0
  0
VERTEX
  5
B1683
  8
0
 10
20527.11111616104
 20
14350.44289643319
 30
0.0
  0
VERTEX
  5
B1684
  8
0
 10
20497.11111616106
 20
14350.44289643319
 30
0.0
  0
VERTEX
  5
B1685
  8
0
 10
20497.11111616106
 20
16880.44289643319
 30
0.0
  0
SEQEND
  5
B1A3D
  8
0
  0
POLYLINE
  5
AAC17
  8
0
 66
     1
 10
0.0
 20
0.0
 30
0.0
 70
     1
  0
VERTEX
  5
B1686
  8
0
 10
22497.11111616105
 20
16880.44289643319
 30
0.0
  0
VERTEX
  5
B1687
  8
0
 10
22497.11111616105
 20
16845.44289643319
 30
0.0
  0
VERTEX
  5
B1688
  8
0
 10
20527.11111616104
 20
16845.44289643319
 30
0.0
  0
VERTEX
  5
B1689
  8
0
 10
20527.11111616104
 20
16880.44289643319
 30
0.0
  0
SEQEND
  5
B1A3E
  8
0
  0
CIRCLE
  5
AAC18
  8
0
 10
22407.11111616104
 20
16922.94289643319
 30
0.0
 40
22.5
  0
CIRCLE
  5
AAC19
  8
0
 10
22407.11111616104
 20
16922.94289643319
 30
0.0
 40
12.5
  0
LINE
  5
AAC1A
  8
0
 10
22357.11111616105
 20
16890.44289643319
 30
0.0
 11
22457.11111616104
 21
16890.44289643319
 31
0.0
  0
POLYLINE
  5
AAC1B
  8
0
 66
     1
 10
0.0
 20
0.0
 30
0.0
 70
     1
  0
VERTEX
  5
B168A
  8
0
 10
22337.11111616105
 20
16890.44289643322
 30
0.0
  0
VERTEX
  5
B168B
  8
0
 10
22477.11111616104
 20
16890.44289643322
 30
0.0
  0
VERTEX
  5
B168C
  8
0
 10
22477.11111616104
 20
16880.44289643322
 30
0.0
  0
VERTEX
  5
B168D
  8
0
 10
22337.11111616105
 20
16880.44289643322
 30
0.0
  0
SEQEND
  5
B1A3F
  8
0
  0
POLYLINE
  5
AAC4C
  8
0
 66
     1
 10
0.0
 20
0.0
 30
0.0
 70
     1
  0
VERTEX
  5
B168E
  8
0
 10
22337.11111616105
 20
8802.171916406312
 30
0.0
  0
VERTEX
  5
B168F
  8
0
 10
22477.11111616104
 20
8802.171916406312
 30
0.0
  0
VERTEX
  5
B1690
  8
0
 10
22477.11111616104
 20
8792.17191640631
 30
0.0
  0
VERTEX
  5
B1691
  8
0
 10
22337.11111616105
 20
8792.17191640631
 30
0.0
  0
SEQEND
  5
B1A40
  8
0
  0
LINE
  5
AAC4D
  8
0
 10
22357.11111616105
 20
8802.171916406278
 30
0.0
 11
22457.11111616104
 21
8802.171916406278
 31
0.0
  0
CIRCLE
  5
AAC4E
  8
0
 10
22407.11111616104
 20
8834.671916406278
 30
0.0
 40
12.5
  0
CIRCLE
  5
AAC4F
  8
0
 10
22407.11111616104
 20
8834.671916406278
 30
0.0
 40
22.5
  0
POLYLINE
  5
AAC50
  8
0
 66
     1
 10
0.0
 20
0.0
 30
0.0
 70
     1
  0
VERTEX
  5
B1692
  8
0
 10
22497.11111616105
 20
8792.171916406282
 30
0.0
  0
VERTEX
  5
B1693
  8
0
 10
22497.11111616105
 20
8757.171916406282
 30
0.0
  0
VERTEX
  5
B1694
  8
0
 10
20527.11111616104
 20
8757.171916406282
 30
0.0
  0
VERTEX
  5
B1695
  8
0
 10
20527.11111616104
 20
8792.171916406282
 30
0.0
  0
SEQEND
  5
B1A41
  8
0
  0
POLYLINE
  5
AAC51
  8
0
 66
     1
 10
0.0
 20
0.0
 30
0.0
 70
     1
  0
VERTEX
  5
B1696
  8
0
 10
20527.11111616104
 20
8792.171916406282
 30
0.0
  0
VERTEX
  5
B1697
  8
0
 10
20527.11111616104
 20
6262.171916406281
 30
0.0
  0
VERTEX
  5
B1698
  8
0
 10
20497.11111616106
 20
6262.171916406281
 30
0.0
  0
VERTEX
  5
B1699
  8
0
 10
20497.11111616106
 20
8792.171916406282
 30
0.0
  0
SEQEND
  5
B1A42
  8
0
  0
POLYLINE
  5
AAC52
  8
0
 66
     1
 10
0.0
 20
0.0
 30
0.0
 70
     1
  0
VERTEX
  5
B169A
  8
0
 10
22527.11111616104
 20
8792.171916406282
 30
0.0
  0
VERTEX
  5
B169B
  8
0
 10
22527.11111616104
 20
6262.171916406281
 30
0.0
  0
VERTEX
  5
B169C
  8
0
 10
22497.11111616116
 20
6262.171916406281
 30
0.0
  0
VERTEX
  5
B169D
  8
0
 10
22497.11111616116
 20
8792.171916406282
 30
0.0
  0
SEQEND
  5
B1A43
  8
0
  0
POLYLINE
  5
AAC53
  8
0
 66
     1
 10
0.0
 20
0.0
 30
0.0
 70
     1
  0
VERTEX
  5
B169E
  8
0
 10
22497.11111616116
 20
6262.171916406281
 30
0.0
  0
VERTEX
  5
B169F
  8
0
 10
22497.11111616116
 20
6357.171916406573
 30
0.0
  0
VERTEX
  5
B16A0
  8
0
 10
20527.1111161608
 20
6357.171916406573
 30
0.0
  0
VERTEX
  5
B16A1
  8
0
 10
20527.1111161608
 20
6262.171916406281
 30
0.0
  0
SEQEND
  5
B1A44
  8
0
  0
POLYLINE
  5
AAC54
  8
0
 66
     1
 10
0.0
 20
0.0
 30
0.0
 70
     1
  0
VERTEX
  5
B16A2
  8
0
 10
20527.11111616104
 20
6357.171916406283
 30
0.0
  0
VERTEX
  5
B16A3
  8
0
 10
20527.11111616104
 20
6383.171916406283
 30
0.0
  0
VERTEX
  5
B16A4
  8
0
 10
21497.11111616104
 20
6383.171916406283
 30
0.0
  0
VERTEX
  5
B16A5
  8
0
 10
21497.11111616104
 20
6357.171916406283
 30
0.0
  0
SEQEND
  5
B1A45
  8
0
  0
POLYLINE
  5
AAC55
  8
0
 66
     1
 10
0.0
 20
0.0
 30
0.0
 70
     1
  0
VERTEX
  5
B16A6
  8
0
 10
21497.11111616104
 20
6357.171916406283
 30
0.0
  0
VERTEX
  5
B16A7
  8
0
 10
21497.11111616104
 20
8757.171916406282
 30
0.0
  0
VERTEX
  5
B16A8
  8
0
 10
21527.11111616105
 20
8757.171916406282
 30
0.0
  0
VERTEX
  5
B16A9
  8
0
 10
21527.11111616105
 20
6357.171916406283
 30
0.0
  0
SEQEND
  5
B1A46
  8
0
  0
POLYLINE
  5
AAC56
  8
0
 66
     1
 10
0.0
 20
0.0
 30
0.0
 70
     1
  0
VERTEX
  5
B16AA
  8
0
 10
22497.11111616105
 20
6383.171916406283
 30
0.0
  0
VERTEX
  5
B16AB
  8
0
 10
22497.11111616105
 20
6357.171916406283
 30
0.0
  0
VERTEX
  5
B16AC
  8
0
 10
21527.11111616105
 20
6357.171916406283
 30
0.0
  0
VERTEX
  5
B16AD
  8
0
 10
21527.11111616105
 20
6383.171916406283
 30
0.0
  0
SEQEND
  5
B1A47
  8
0
  0
POLYLINE
  5
AAC57
  8
0
 66
     1
 10
0.0
 20
0.0
 30
0.0
 70
     1
  0
VERTEX
  5
B16AE
  8
0
 10
22429.61111616105
 20
8812.17191640631
 30
0.0
  0
VERTEX
  5
B16AF
  8
0
 10
22429.61111616105
 20
8834.67191640631
 30
0.0
 42
-1.0
  0
VERTEX
  5
B16B0
  8
0
 10
22384.61111616105
 20
8834.67191640631
 30
0.0
  0
VERTEX
  5
B16B1
  8
0
 10
22384.61111616105
 20
8812.171916406278
 30
0.0
  0
VERTEX
  5
B16B2
  8
0
 10
22367.11111616104
 20
8812.17191640631
 30
0.0
  0
VERTEX
  5
B16B3
  8
0
 10
22357.11111616105
 20
8802.171916406278
 30
0.0
  0
VERTEX
  5
B16B4
  8
0
 10
22457.11111616104
 20
8802.171916406278
 30
0.0
  0
VERTEX
  5
B16B5
  8
0
 10
22447.11111616104
 20
8812.17191640631
 30
0.0
  0
SEQEND
  5
B1A48
  8
0
  0
LINE
  5
AAC58
  8
0
 10
21989.61111616104
 20
6262.171916406281
 30
0.0
 11
21989.61111616104
 21
6237.171916406282
 31
0.0
  0
LINE
  5
AAC59
  8
0
 10
21989.61111616104
 20
6262.171916406281
 30
0.0
 11
21989.61111616104
 21
6237.171916406282
 31
0.0
  0
LINE
  5
AAC5A
  8
0
 10
22034.61111616104
 20
6237.171916406282
 30
0.0
 11
21989.61111616104
 21
6237.171916406282
 31
0.0
  0
LINE
  5
AAC5B
  8
0
 10
22034.61111616104
 20
6237.171916406282
 30
0.0
 11
21989.61111616104
 21
6237.171916406282
 31
0.0
  0
LINE
  5
AAC5C
  8
0
 10
21999.61111616104
 20
6237.171916406282
 30
0.0
 11
21999.61111616104
 21
6212.171916406282
 31
0.0
  0
LINE
  5
AAC5D
  8
0
 10
21999.61111616104
 20
6237.171916406282
 30
0.0
 11
21999.61111616104
 21
6212.171916406282
 31
0.0
  0
LINE
  5
AAC5E
  8
0
 10
22034.61111616104
 20
6237.171916406282
 30
0.0
 11
21989.61111616104
 21
6237.171916406282
 31
0.0
  0
LINE
  5
AAC5F
  8
0
 10
22034.61111616104
 20
6237.171916406282
 30
0.0
 11
21989.61111616104
 21
6237.171916406282
 31
0.0
  0
LINE
  5
AAC60
  8
0
 10
21999.61111616104
 20
6237.171916406282
 30
0.0
 11
21999.61111616104
 21
6212.171916406282
 31
0.0
  0
LINE
  5
AAC61
  8
0
 10
21999.61111616104
 20
6237.171916406282
 30
0.0
 11
21999.61111616104
 21
6212.171916406282
 31
0.0
  0
LINE
  5
AAC62
  8
0
 10
21989.61111616104
 20
6262.171916406281
 30
0.0
 11
21989.61111616104
 21
6237.171916406282
 31
0.0
  0
LINE
  5
AAC63
  8
0
 10
21989.61111616104
 20
6262.171916406281
 30
0.0
 11
21989.61111616104
 21
6237.171916406282
 31
0.0
  0
LINE
  5
AAC64
  8
0
 10
20989.61111616104
 20
6262.171916406281
 30
0.0
 11
20989.61111616104
 21
6237.171916406282
 31
0.0
  0
LINE
  5
AAC65
  8
0
 10
20989.61111616104
 20
6262.171916406281
 30
0.0
 11
20989.61111616104
 21
6237.171916406282
 31
0.0
  0
LINE
  5
AAC66
  8
0
 10
21034.61111616105
 20
6237.171916406282
 30
0.0
 11
20989.61111616104
 21
6237.171916406282
 31
0.0
  0
LINE
  5
AAC67
  8
0
 10
21034.61111616105
 20
6237.171916406282
 30
0.0
 11
20989.61111616104
 21
6237.171916406282
 31
0.0
  0
LINE
  5
AAC68
  8
0
 10
20999.61111616104
 20
6237.171916406282
 30
0.0
 11
20999.61111616104
 21
6212.171916406282
 31
0.0
  0
LINE
  5
AAC69
  8
0
 10
20999.61111616104
 20
6237.171916406282
 30
0.0
 11
20999.61111616104
 21
6212.171916406282
 31
0.0
  0
LINE
  5
AAC6A
  8
0
 10
21034.61111616105
 20
6237.171916406282
 30
0.0
 11
20989.61111616104
 21
6237.171916406282
 31
0.0
  0
LINE
  5
AAC6B
  8
0
 10
21034.61111616105
 20
6237.171916406282
 30
0.0
 11
20989.61111616104
 21
6237.171916406282
 31
0.0
  0
LINE
  5
AAC6C
  8
0
 10
20999.61111616104
 20
6237.171916406282
 30
0.0
 11
20999.61111616104
 21
6212.171916406282
 31
0.0
  0
LINE
  5
AAC6D
  8
0
 10
20999.61111616104
 20
6237.171916406282
 30
0.0
 11
20999.61111616104
 21
6212.171916406282
 31
0.0
  0
LINE
  5
AAC6E
  8
0
 10
20989.61111616104
 20
6262.171916406281
 30
0.0
 11
20989.61111616104
 21
6237.171916406282
 31
0.0
  0
LINE
  5
AAC6F
  8
0
 10
20989.61111616104
 20
6262.171916406281
 30
0.0
 11
20989.61111616104
 21
6237.171916406282
 31
0.0
  0
POLYLINE
  5
AAC70
  8
0
 66
     1
 10
0.0
 20
0.0
 30
0.0
 70
     1
  0
VERTEX
  5
B16B6
  8
0
 10
21034.61111616105
 20
6262.171916406281
 30
0.0
  0
VERTEX
  5
B16B7
  8
0
 10
21034.61111616105
 20
6237.171916406282
 30
0.0
  0
VERTEX
  5
B16B8
  8
0
 10
20989.61111616104
 20
6237.171916406282
 30
0.0
  0
VERTEX
  5
B16B9
  8
0
 10
20989.61111616104
 20
6262.171916406281
 30
0.0
  0
SEQEND
  5
B1A49
  8
0
  0
POLYLINE
  5
AAC71
  8
0
 66
     1
 10
0.0
 20
0.0
 30
0.0
 70
     1
  0
VERTEX
  5
B16BA
  8
0
 10
21024.61111616104
 20
6237.171916406282
 30
0.0
  0
VERTEX
  5
B16BB
  8
0
 10
21024.61111616104
 20
6212.171916406282
 30
0.0
  0
VERTEX
  5
B16BC
  8
0
 10
20999.61111616104
 20
6212.171916406282
 30
0.0
  0
VERTEX
  5
B16BD
  8
0
 10
20999.61111616104
 20
6237.171916406282
 30
0.0
  0
SEQEND
  5
B1A4A
  8
0
  0
LINE
  5
AAC72
  8
0
 10
21989.61111616104
 20
6262.171916406281
 30
0.0
 11
21989.61111616104
 21
6237.171916406282
 31
0.0
  0
LINE
  5
AAC73
  8
0
 10
21989.61111616104
 20
6262.171916406281
 30
0.0
 11
21989.61111616104
 21
6237.171916406282
 31
0.0
  0
LINE
  5
AAC74
  8
0
 10
22034.61111616104
 20
6237.171916406282
 30
0.0
 11
21989.61111616104
 21
6237.171916406282
 31
0.0
  0
LINE
  5
AAC75
  8
0
 10
22034.61111616104
 20
6237.171916406282
 30
0.0
 11
21989.61111616104
 21
6237.171916406282
 31
0.0
  0
LINE
  5
AAC76
  8
0
 10
21999.61111616104
 20
6237.171916406282
 30
0.0
 11
21999.61111616104
 21
6212.171916406282
 31
0.0
  0
LINE
  5
AAC77
  8
0
 10
21999.61111616104
 20
6237.171916406282
 30
0.0
 11
21999.61111616104
 21
6212.171916406282
 31
0.0
  0
LINE
  5
AAC78
  8
0
 10
22034.61111616104
 20
6237.171916406282
 30
0.0
 11
21989.61111616104
 21
6237.171916406282
 31
0.0
  0
LINE
  5
AAC79
  8
0
 10
22034.61111616104
 20
6237.171916406282
 30
0.0
 11
21989.61111616104
 21
6237.171916406282
 31
0.0
  0
LINE
  5
AAC7A
  8
0
 10
21999.61111616104
 20
6237.171916406282
 30
0.0
 11
21999.61111616104
 21
6212.171916406282
 31
0.0
  0
LINE
  5
AAC7B
  8
0
 10
21999.61111616104
 20
6237.171916406282
 30
0.0
 11
21999.61111616104
 21
6212.171916406282
 31
0.0
  0
LINE
  5
AAC7C
  8
0
 10
21989.61111616104
 20
6262.171916406281
 30
0.0
 11
21989.61111616104
 21
6237.171916406282
 31
0.0
  0
LINE
  5
AAC7D
  8
0
 10
21989.61111616104
 20
6262.171916406281
 30
0.0
 11
21989.61111616104
 21
6237.171916406282
 31
0.0
  0
POLYLINE
  5
AAC7E
  8
0
 66
     1
 10
0.0
 20
0.0
 30
0.0
 70
     1
  0
VERTEX
  5
B16BE
  8
0
 10
22034.61111616104
 20
6262.171916406281
 30
0.0
  0
VERTEX
  5
B16BF
  8
0
 10
22034.61111616104
 20
6237.171916406282
 30
0.0
  0
VERTEX
  5
B16C0
  8
0
 10
21989.61111616104
 20
6237.171916406282
 30
0.0
  0
VERTEX
  5
B16C1
  8
0
 10
21989.61111616104
 20
6262.171916406281
 30
0.0
  0
SEQEND
  5
B1A4B
  8
0
  0
POLYLINE
  5
AAC7F
  8
0
 66
     1
 10
0.0
 20
0.0
 30
0.0
 70
     1
  0
VERTEX
  5
B16C2
  8
0
 10
22024.61111616105
 20
6237.171916406282
 30
0.0
  0
VERTEX
  5
B16C3
  8
0
 10
22024.61111616105
 20
6212.171916406282
 30
0.0
  0
VERTEX
  5
B16C4
  8
0
 10
21999.61111616104
 20
6212.171916406282
 30
0.0
  0
VERTEX
  5
B16C5
  8
0
 10
21999.61111616104
 20
6237.171916406282
 30
0.0
  0
SEQEND
  5
B1A4C
  8
0
  0
POLYLINE
  5
AAC80
  8
0
 66
     1
 10
0.0
 20
0.0
 30
0.0
 70
     1
  0
VERTEX
  5
B16C6
  8
0
 10
22337.11111616107
 20
4758.036426392864
 30
0.0
  0
VERTEX
  5
B16C7
  8
0
 10
22477.11111616108
 20
4758.036426392864
 30
0.0
  0
VERTEX
  5
B16C8
  8
0
 10
22477.11111616108
 20
4748.036426392864
 30
0.0
  0
VERTEX
  5
B16C9
  8
0
 10
22337.11111616107
 20
4748.036426392864
 30
0.0
  0
SEQEND
  5
B1A4D
  8
0
  0
LINE
  5
AAC81
  8
0
 10
22357.11111616108
 20
4758.036426392835
 30
0.0
 11
22457.11111616107
 21
4758.036426392835
 31
0.0
  0
CIRCLE
  5
AAC82
  8
0
 10
22407.11111616108
 20
4790.536426392833
 30
0.0
 40
12.5
  0
CIRCLE
  5
AAC83
  8
0
 10
22407.11111616108
 20
4790.536426392833
 30
0.0
 40
22.5
  0
POLYLINE
  5
AAC84
  8
0
 66
     1
 10
0.0
 20
0.0
 30
0.0
 70
     1
  0
VERTEX
  5
B16CA
  8
0
 10
22497.11111616107
 20
4748.036426392835
 30
0.0
  0
VERTEX
  5
B16CB
  8
0
 10
22497.11111616107
 20
4713.036426392835
 30
0.0
  0
VERTEX
  5
B16CC
  8
0
 10
20527.11111616107
 20
4713.036426392835
 30
0.0
  0
VERTEX
  5
B16CD
  8
0
 10
20527.11111616107
 20
4748.036426392835
 30
0.0
  0
SEQEND
  5
B1A4E
  8
0
  0
POLYLINE
  5
AAC85
  8
0
 66
     1
 10
0.0
 20
0.0
 30
0.0
 70
     1
  0
VERTEX
  5
B16CE
  8
0
 10
20527.11111616107
 20
4748.036426392835
 30
0.0
  0
VERTEX
  5
B16CF
  8
0
 10
20527.11111616107
 20
2218.036426392835
 30
0.0
  0
VERTEX
  5
B16D0
  8
0
 10
20497.11111616107
 20
2218.036426392835
 30
0.0
  0
VERTEX
  5
B16D1
  8
0
 10
20497.11111616107
 20
4748.036426392835
 30
0.0
  0
SEQEND
  5
B1A4F
  8
0
  0
POLYLINE
  5
AAC86
  8
0
 66
     1
 10
0.0
 20
0.0
 30
0.0
 70
     1
  0
VERTEX
  5
B16D2
  8
0
 10
22527.11111616108
 20
4748.036426392835
 30
0.0
  0
VERTEX
  5
B16D3
  8
0
 10
22527.11111616108
 20
2218.036426392835
 30
0.0
  0
VERTEX
  5
B16D4
  8
0
 10
22497.11111616119
 20
2218.036426392835
 30
0.0
  0
VERTEX
  5
B16D5
  8
0
 10
22497.11111616119
 20
4748.036426392835
 30
0.0
  0
SEQEND
  5
B1A50
  8
0
  0
POLYLINE
  5
AAC87
  8
0
 66
     1
 10
0.0
 20
0.0
 30
0.0
 70
     1
  0
VERTEX
  5
B16D6
  8
0
 10
22497.11111616119
 20
2218.036426392835
 30
0.0
  0
VERTEX
  5
B16D7
  8
0
 10
22497.11111616119
 20
2313.036426393126
 30
0.0
  0
VERTEX
  5
B16D8
  8
0
 10
20527.11111616084
 20
2313.036426393126
 30
0.0
  0
VERTEX
  5
B16D9
  8
0
 10
20527.11111616084
 20
2218.036426392835
 30
0.0
  0
SEQEND
  5
B1A51
  8
0
  0
POLYLINE
  5
AAC88
  8
0
 66
     1
 10
0.0
 20
0.0
 30
0.0
 70
     1
  0
VERTEX
  5
B16DA
  8
0
 10
20527.11111616107
 20
2313.036426392835
 30
0.0
  0
VERTEX
  5
B16DB
  8
0
 10
20527.11111616107
 20
2339.036426392835
 30
0.0
  0
VERTEX
  5
B16DC
  8
0
 10
21497.11111616107
 20
2339.036426392835
 30
0.0
  0
VERTEX
  5
B16DD
  8
0
 10
21497.11111616107
 20
2313.036426392835
 30
0.0
  0
SEQEND
  5
B1A52
  8
0
  0
POLYLINE
  5
AAC89
  8
0
 66
     1
 10
0.0
 20
0.0
 30
0.0
 70
     1
  0
VERTEX
  5
B16DE
  8
0
 10
21497.11111616107
 20
2313.036426392835
 30
0.0
  0
VERTEX
  5
B16DF
  8
0
 10
21497.11111616107
 20
4713.036426392835
 30
0.0
  0
VERTEX
  5
B16E0
  8
0
 10
21527.11111616107
 20
4713.036426392835
 30
0.0
  0
VERTEX
  5
B16E1
  8
0
 10
21527.11111616107
 20
2313.036426392835
 30
0.0
  0
SEQEND
  5
B1A53
  8
0
  0
POLYLINE
  5
AAC8A
  8
0
 66
     1
 10
0.0
 20
0.0
 30
0.0
 70
     1
  0
VERTEX
  5
B16E2
  8
0
 10
22497.11111616107
 20
2339.036426392835
 30
0.0
  0
VERTEX
  5
B16E3
  8
0
 10
22497.11111616107
 20
2313.036426392835
 30
0.0
  0
VERTEX
  5
B16E4
  8
0
 10
21527.11111616107
 20
2313.036426392835
 30
0.0
  0
VERTEX
  5
B16E5
  8
0
 10
21527.11111616107
 20
2339.036426392835
 30
0.0
  0
SEQEND
  5
B1A54
  8
0
  0
POLYLINE
  5
AAC8B
  8
0
 66
     1
 10
0.0
 20
0.0
 30
0.0
 70
     1
  0
VERTEX
  5
B16E6
  8
0
 10
22429.61111616108
 20
4768.036426392865
 30
0.0
  0
VERTEX
  5
B16E7
  8
0
 10
22429.61111616108
 20
4790.536426392864
 30
0.0
 42
-1.0
  0
VERTEX
  5
B16E8
  8
0
 10
22384.61111616107
 20
4790.536426392864
 30
0.0
  0
VERTEX
  5
B16E9
  8
0
 10
22384.61111616107
 20
4768.036426392835
 30
0.0
  0
VERTEX
  5
B16EA
  8
0
 10
22367.11111616108
 20
4768.036426392865
 30
0.0
  0
VERTEX
  5
B16EB
  8
0
 10
22357.11111616108
 20
4758.036426392835
 30
0.0
  0
VERTEX
  5
B16EC
  8
0
 10
22457.11111616107
 20
4758.036426392835
 30
0.0
  0
VERTEX
  5
B16ED
  8
0
 10
22447.11111616108
 20
4768.036426392865
 30
0.0
  0
SEQEND
  5
B1A55
  8
0
  0
LINE
  5
AAC8C
  8
0
 10
21989.61111616107
 20
2218.036426392835
 30
0.0
 11
21989.61111616107
 21
2193.036426392835
 31
0.0
  0
LINE
  5
AAC8D
  8
0
 10
21989.61111616107
 20
2218.036426392835
 30
0.0
 11
21989.61111616107
 21
2193.036426392835
 31
0.0
  0
LINE
  5
AAC8E
  8
0
 10
22034.61111616108
 20
2193.036426392835
 30
0.0
 11
21989.61111616107
 21
2193.036426392835
 31
0.0
  0
LINE
  5
AAC8F
  8
0
 10
22034.61111616108
 20
2193.036426392835
 30
0.0
 11
21989.61111616107
 21
2193.036426392835
 31
0.0
  0
LINE
  5
AAC90
  8
0
 10
21999.61111616107
 20
2193.036426392835
 30
0.0
 11
21999.61111616107
 21
2168.036426392835
 31
0.0
  0
LINE
  5
AAC91
  8
0
 10
21999.61111616107
 20
2193.036426392835
 30
0.0
 11
21999.61111616107
 21
2168.036426392835
 31
0.0
  0
LINE
  5
AAC92
  8
0
 10
22034.61111616108
 20
2193.036426392835
 30
0.0
 11
21989.61111616107
 21
2193.036426392835
 31
0.0
  0
LINE
  5
AAC93
  8
0
 10
22034.61111616108
 20
2193.036426392835
 30
0.0
 11
21989.61111616107
 21
2193.036426392835
 31
0.0
  0
LINE
  5
AAC94
  8
0
 10
21999.61111616107
 20
2193.036426392835
 30
0.0
 11
21999.61111616107
 21
2168.036426392835
 31
0.0
  0
LINE
  5
AAC95
  8
0
 10
21999.61111616107
 20
2193.036426392835
 30
0.0
 11
21999.61111616107
 21
2168.036426392835
 31
0.0
  0
LINE
  5
AAC96
  8
0
 10
21989.61111616107
 20
2218.036426392835
 30
0.0
 11
21989.61111616107
 21
2193.036426392835
 31
0.0
  0
LINE
  5
AAC97
  8
0
 10
21989.61111616107
 20
2218.036426392835
 30
0.0
 11
21989.61111616107
 21
2193.036426392835
 31
0.0
  0
LINE
  5
AAC98
  8
0
 10
20989.61111616107
 20
2218.036426392835
 30
0.0
 11
20989.61111616107
 21
2193.036426392835
 31
0.0
  0
LINE
  5
AAC99
  8
0
 10
20989.61111616107
 20
2218.036426392835
 30
0.0
 11
20989.61111616107
 21
2193.036426392835
 31
0.0
  0
LINE
  5
AAC9A
  8
0
 10
21034.61111616107
 20
2193.036426392835
 30
0.0
 11
20989.61111616107
 21
2193.036426392835
 31
0.0
  0
LINE
  5
AAC9B
  8
0
 10
21034.61111616107
 20
2193.036426392835
 30
0.0
 11
20989.61111616107
 21
2193.036426392835
 31
0.0
  0
LINE
  5
AAC9C
  8
0
 10
20999.61111616107
 20
2193.036426392835
 30
0.0
 11
20999.61111616107
 21
2168.036426392835
 31
0.0
  0
LINE
  5
AAC9D
  8
0
 10
20999.61111616107
 20
2193.036426392835
 30
0.0
 11
20999.61111616107
 21
2168.036426392835
 31
0.0
  0
LINE
  5
AAC9E
  8
0
 10
21034.61111616107
 20
2193.036426392835
 30
0.0
 11
20989.61111616107
 21
2193.036426392835
 31
0.0
  0
LINE
  5
AAC9F
  8
0
 10
21034.61111616107
 20
2193.036426392835
 30
0.0
 11
20989.61111616107
 21
2193.036426392835
 31
0.0
  0
LINE
  5
AACA0
  8
0
 10
20999.61111616107
 20
2193.036426392835
 30
0.0
 11
20999.61111616107
 21
2168.036426392835
 31
0.0
  0
LINE
  5
AACA1
  8
0
 10
20999.61111616107
 20
2193.036426392835
 30
0.0
 11
20999.61111616107
 21
2168.036426392835
 31
0.0
  0
LINE
  5
AACA2
  8
0
 10
20989.61111616107
 20
2218.036426392835
 30
0.0
 11
20989.61111616107
 21
2193.036426392835
 31
0.0
  0
LINE
  5
AACA3
  8
0
 10
20989.61111616107
 20
2218.036426392835
 30
0.0
 11
20989.61111616107
 21
2193.036426392835
 31
0.0
  0
POLYLINE
  5
AACA4
  8
0
 66
     1
 10
0.0
 20
0.0
 30
0.0
 70
     1
  0
VERTEX
  5
B16EE
  8
0
 10
21034.61111616107
 20
2218.036426392835
 30
0.0
  0
VERTEX
  5
B16EF
  8
0
 10
21034.61111616107
 20
2193.036426392835
 30
0.0
  0
VERTEX
  5
B16F0
  8
0
 10
20989.61111616107
 20
2193.036426392835
 30
0.0
  0
VERTEX
  5
B16F1
  8
0
 10
20989.61111616107
 20
2218.036426392835
 30
0.0
  0
SEQEND
  5
B1A56
  8
0
  0
POLYLINE
  5
AACA5
  8
0
 66
     1
 10
0.0
 20
0.0
 30
0.0
 70
     1
  0
VERTEX
  5
B16F2
  8
0
 10
21024.61111616107
 20
2193.036426392835
 30
0.0
  0
VERTEX
  5
B16F3
  8
0
 10
21024.61111616107
 20
2168.036426392835
 30
0.0
  0
VERTEX
  5
B16F4
  8
0
 10
20999.61111616107
 20
2168.036426392835
 30
0.0
  0
VERTEX
  5
B16F5
  8
0
 10
20999.61111616107
 20
2193.036426392835
 30
0.0
  0
SEQEND
  5
B1A57
  8
0
  0
LINE
  5
AACA6
  8
0
 10
21989.61111616107
 20
2218.036426392835
 30
0.0
 11
21989.61111616107
 21
2193.036426392835
 31
0.0
  0
LINE
  5
AACA7
  8
0
 10
21989.61111616107
 20
2218.036426392835
 30
0.0
 11
21989.61111616107
 21
2193.036426392835
 31
0.0
  0
LINE
  5
AACA8
  8
0
 10
22034.61111616108
 20
2193.036426392835
 30
0.0
 11
21989.61111616107
 21
2193.036426392835
 31
0.0
  0
LINE
  5
AACA9
  8
0
 10
22034.61111616108
 20
2193.036426392835
 30
0.0
 11
21989.61111616107
 21
2193.036426392835
 31
0.0
  0
LINE
  5
AACAA
  8
0
 10
21999.61111616107
 20
2193.036426392835
 30
0.0
 11
21999.61111616107
 21
2168.036426392835
 31
0.0
  0
LINE
  5
AACAB
  8
0
 10
21999.61111616107
 20
2193.036426392835
 30
0.0
 11
21999.61111616107
 21
2168.036426392835
 31
0.0
  0
LINE
  5
AACAC
  8
0
 10
22034.61111616108
 20
2193.036426392835
 30
0.0
 11
21989.61111616107
 21
2193.036426392835
 31
0.0
  0
LINE
  5
AACAD
  8
0
 10
22034.61111616108
 20
2193.036426392835
 30
0.0
 11
21989.61111616107
 21
2193.036426392835
 31
0.0
  0
LINE
  5
AACAE
  8
0
 10
21999.61111616107
 20
2193.036426392835
 30
0.0
 11
21999.61111616107
 21
2168.036426392835
 31
0.0
  0
LINE
  5
AACAF
  8
0
 10
21999.61111616107
 20
2193.036426392835
 30
0.0
 11
21999.61111616107
 21
2168.036426392835
 31
0.0
  0
LINE
  5
AACB0
  8
0
 10
21989.61111616107
 20
2218.036426392835
 30
0.0
 11
21989.61111616107
 21
2193.036426392835
 31
0.0
  0
LINE
  5
AACB1
  8
0
 10
21989.61111616107
 20
2218.036426392835
 30
0.0
 11
21989.61111616107
 21
2193.036426392835
 31
0.0
  0
POLYLINE
  5
AACB2
  8
0
 66
     1
 10
0.0
 20
0.0
 30
0.0
 70
     1
  0
VERTEX
  5
B16F6
  8
0
 10
22034.61111616108
 20
2218.036426392835
 30
0.0
  0
VERTEX
  5
B16F7
  8
0
 10
22034.61111616108
 20
2193.036426392835
 30
0.0
  0
VERTEX
  5
B16F8
  8
0
 10
21989.61111616107
 20
2193.036426392835
 30
0.0
  0
VERTEX
  5
B16F9
  8
0
 10
21989.61111616107
 20
2218.036426392835
 30
0.0
  0
SEQEND
  5
B1A58
  8
0
  0
POLYLINE
  5
AACB3
  8
0
 66
     1
 10
0.0
 20
0.0
 30
0.0
 70
     1
  0
VERTEX
  5
B16FA
  8
0
 10
22024.61111616107
 20
2193.036426392835
 30
0.0
  0
VERTEX
  5
B16FB
  8
0
 10
22024.61111616107
 20
2168.036426392835
 30
0.0
  0
VERTEX
  5
B16FC
  8
0
 10
21999.61111616107
 20
2168.036426392835
 30
0.0
  0
VERTEX
  5
B16FD
  8
0
 10
21999.61111616107
 20
2193.036426392835
 30
0.0
  0
SEQEND
  5
B1A59
  8
0
  0
POLYLINE
  5
AACB4
  8
0
 66
     1
 10
0.0
 20
0.0
 30
0.0
  0
VERTEX
  5
B16FE
  8
0
 10
22527.11111616104
 20
14295.44289643319
 30
0.0
  0
VERTEX
  5
B16FF
  8
0
 10
22432.11111616104
 20
14325.44289643319
 30
0.0
  0
VERTEX
  5
B1700
  8
0
 10
22024.61111616105
 20
14325.44289643319
 30
0.0
  0
VERTEX
  5
B1701
  8
0
 10
22024.61111616105
 20
14300.44289643319
 30
0.0
  0
VERTEX
  5
B1702
  8
0
 10
21999.61111616104
 20
14300.44289643319
 30
0.0
  0
VERTEX
  5
B1703
  8
0
 10
21999.61111616104
 20
14325.44289643319
 30
0.0
  0
VERTEX
  5
B1704
  8
0
 10
21999.61111616104
 20
14325.44289643319
 30
0.0
  0
VERTEX
  5
B1705
  8
0
 10
21024.61111616104
 20
14325.44289643319
 30
0.0
  0
VERTEX
  5
B1706
  8
0
 10
21024.61111616104
 20
14300.44289643319
 30
0.0
  0
VERTEX
  5
B1707
  8
0
 10
20999.61111616104
 20
14300.44289643319
 30
0.0
  0
VERTEX
  5
B1708
  8
0
 10
20999.61111616104
 20
14325.44289643319
 30
0.0
  0
VERTEX
  5
B1709
  8
0
 10
20527.11111616104
 20
14325.44289643319
 30
0.0
  0
VERTEX
  5
B170A
  8
0
 10
20432.11111616104
 20
14295.44289643319
 30
0.0
  0
VERTEX
  5
B170B
  8
0
 10
22527.11111616104
 20
14295.44289643319
 30
0.0
  0
SEQEND
  5
B1A5A
  8
0
  0
POLYLINE
  5
AACB5
  8
0
 66
     1
 10
0.0
 20
0.0
 30
0.0
  0
VERTEX
  5
B170C
  8
0
 10
22527.11111616106
 20
10251.30740641973
 30
0.0
  0
VERTEX
  5
B170D
  8
0
 10
22432.11111616106
 20
10281.30740641973
 30
0.0
  0
VERTEX
  5
B170E
  8
0
 10
22024.61111616106
 20
10281.30740641973
 30
0.0
  0
VERTEX
  5
B170F
  8
0
 10
22024.61111616106
 20
10256.30740641973
 30
0.0
  0
VERTEX
  5
B1710
  8
0
 10
21999.61111616106
 20
10256.30740641973
 30
0.0
  0
VERTEX
  5
B1711
  8
0
 10
21999.61111616106
 20
10281.30740641973
 30
0.0
  0
VERTEX
  5
B1712
  8
0
 10
21999.61111616106
 20
10281.30740641973
 30
0.0
  0
VERTEX
  5
B1713
  8
0
 10
21024.61111616106
 20
10281.30740641973
 30
0.0
  0
VERTEX
  5
B1714
  8
0
 10
21024.61111616106
 20
10256.30740641973
 30
0.0
  0
VERTEX
  5
B1715
  8
0
 10
20999.61111616106
 20
10256.30740641973
 30
0.0
  0
VERTEX
  5
B1716
  8
0
 10
20999.61111616106
 20
10281.30740641973
 30
0.0
  0
VERTEX
  5
B1717
  8
0
 10
20527.11111616106
 20
10281.30740641973
 30
0.0
  0
VERTEX
  5
B1718
  8
0
 10
20432.11111616106
 20
10251.30740641973
 30
0.0
  0
VERTEX
  5
B1719
  8
0
 10
22527.11111616106
 20
10251.30740641973
 30
0.0
  0
SEQEND
  5
B1A5B
  8
0
  0
POLYLINE
  5
AACB6
  8
0
 66
     1
 10
0.0
 20
0.0
 30
0.0
  0
VERTEX
  5
B171A
  8
0
 10
22527.11111616104
 20
6207.171916406283
 30
0.0
  0
VERTEX
  5
B171B
  8
0
 10
22432.11111616104
 20
6237.171916406282
 30
0.0
  0
VERTEX
  5
B171C
  8
0
 10
22024.61111616105
 20
6237.171916406282
 30
0.0
  0
VERTEX
  5
B171D
  8
0
 10
22024.61111616105
 20
6212.171916406282
 30
0.0
  0
VERTEX
  5
B171E
  8
0
 10
21999.61111616104
 20
6212.171916406282
 30
0.0
  0
VERTEX
  5
B171F
  8
0
 10
21999.61111616104
 20
6237.171916406282
 30
0.0
  0
VERTEX
  5
B1720
  8
0
 10
21999.61111616104
 20
6237.171916406282
 30
0.0
  0
VERTEX
  5
B1721
  8
0
 10
21024.61111616104
 20
6237.171916406282
 30
0.0
  0
VERTEX
  5
B1722
  8
0
 10
21024.61111616104
 20
6212.171916406282
 30
0.0
  0
VERTEX
  5
B1723
  8
0
 10
20999.61111616104
 20
6212.171916406282
 30
0.0
  0
VERTEX
  5
B1724
  8
0
 10
20999.61111616104
 20
6237.171916406282
 30
0.0
  0
VERTEX
  5
B1725
  8
0
 10
20527.11111616104
 20
6237.171916406282
 30
0.0
  0
VERTEX
  5
B1726
  8
0
 10
20432.11111616104
 20
6207.171916406283
 30
0.0
  0
VERTEX
  5
B1727
  8
0
 10
22527.11111616104
 20
6207.171916406283
 30
0.0
  0
SEQEND
  5
B1A5C
  8
0
  0
POLYLINE
  5
AACB7
  8
0
 66
     1
 10
0.0
 20
0.0
 30
0.0
  0
VERTEX
  5
B1728
  8
0
 10
22527.11111616108
 20
2163.036426392835
 30
0.0
  0
VERTEX
  5
B1729
  8
0
 10
22432.11111616107
 20
2193.036426392835
 30
0.0
  0
VERTEX
  5
B172A
  8
0
 10
22024.61111616106
 20
2193.036426392835
 30
0.0
  0
VERTEX
  5
B172B
  8
0
 10
22024.61111616106
 20
2168.036426392835
 30
0.0
  0
VERTEX
  5
B172C
  8
0
 10
21999.61111616106
 20
2168.036426392835
 30
0.0
  0
VERTEX
  5
B172D
  8
0
 10
21999.61111616106
 20
2193.036426392835
 30
0.0
  0
VERTEX
  5
B172E
  8
0
 10
21999.61111616106
 20
2193.036426392835
 30
0.0
  0
VERTEX
  5
B172F
  8
0
 10
21024.61111616107
 20
2193.036426392835
 30
0.0
  0
VERTEX
  5
B1730
  8
0
 10
21024.61111616107
 20
2168.036426392835
 30
0.0
  0
VERTEX
  5
B1731
  8
0
 10
20999.61111616106
 20
2168.036426392835
 30
0.0
  0
VERTEX
  5
B1732
  8
0
 10
20999.61111616106
 20
2193.036426392835
 30
0.0
  0
VERTEX
  5
B1733
  8
0
 10
20527.11111616106
 20
2193.036426392835
 30
0.0
  0
VERTEX
  5
B1734
  8
0
 10
20432.11111616107
 20
2163.036426392835
 30
0.0
  0
VERTEX
  5
B1735
  8
0
 10
22527.11111616108
 20
2163.036426392835
 30
0.0
  0
SEQEND
  5
B1A5D
  8
0
  0
POLYLINE
  5
AACB8
  8
0
 66
     1
 10
0.0
 20
0.0
 30
0.0
 70
     1
  0
VERTEX
  5
B1736
  8
0
 10
22497.11111616128
 20
6783.171916405992
 30
0.0
  0
VERTEX
  5
B1737
  8
0
 10
22497.11111616128
 20
6757.171916405993
 30
0.0
  0
VERTEX
  5
B1738
  8
0
 10
21527.11111616126
 20
6757.171916405993
 30
0.0
  0
VERTEX
  5
B1739
  8
0
 10
21527.11111616126
 20
6783.171916405992
 30
0.0
  0
SEQEND
  5
B1A5E
  8
0
  0
POLYLINE
  5
AACB9
  8
0
 66
     1
 10
0.0
 20
0.0
 30
0.0
 70
     1
  0
VERTEX
  5
B173A
  8
0
 10
22497.11111616128
 20
7183.171916405992
 30
0.0
  0
VERTEX
  5
B173B
  8
0
 10
22497.11111616128
 20
7157.171916405992
 30
0.0
  0
VERTEX
  5
B173C
  8
0
 10
21527.11111616126
 20
7157.171916405992
 30
0.0
  0
VERTEX
  5
B173D
  8
0
 10
21527.11111616126
 20
7183.171916405992
 30
0.0
  0
SEQEND
  5
B1A5F
  8
0
  0
POLYLINE
  5
AACBA
  8
0
 66
     1
 10
0.0
 20
0.0
 30
0.0
 70
     1
  0
VERTEX
  5
B173E
  8
0
 10
20527.11111616126
 20
6757.171916405993
 30
0.0
  0
VERTEX
  5
B173F
  8
0
 10
20527.11111616126
 20
6783.171916405992
 30
0.0
  0
VERTEX
  5
B1740
  8
0
 10
21497.11111616128
 20
6783.171916405992
 30
0.0
  0
VERTEX
  5
B1741
  8
0
 10
21497.11111616128
 20
6757.171916405993
 30
0.0
  0
SEQEND
  5
B1A60
  8
0
  0
POLYLINE
  5
AACBB
  8
0
 66
     1
 10
0.0
 20
0.0
 30
0.0
 70
     1
  0
VERTEX
  5
B1742
  8
0
 10
20527.11111616126
 20
7157.171916405992
 30
0.0
  0
VERTEX
  5
B1743
  8
0
 10
20527.11111616126
 20
7183.171916405992
 30
0.0
  0
VERTEX
  5
B1744
  8
0
 10
21497.11111616128
 20
7183.171916405992
 30
0.0
  0
VERTEX
  5
B1745
  8
0
 10
21497.11111616128
 20
7157.171916405992
 30
0.0
  0
SEQEND
  5
B1A61
  8
0
  0
POLYLINE
  5
AACBC
  8
CLOTHES_RAIL
 66
     1
 10
0.0
 20
0.0
 30
0.0
 70
     1
  0
VERTEX
  5
B1746
  8
CLOTHES_RAIL
 10
22497.11111616126
 20
8109.671916405988
 30
0.0
  0
VERTEX
  5
B1747
  8
CLOTHES_RAIL
 10
22497.11111616126
 20
8083.671916405988
 30
0.0
  0
VERTEX
  5
B1748
  8
CLOTHES_RAIL
 10
21527.11111616126
 20
8083.671916405988
 30
0.0
  0
VERTEX
  5
B1749
  8
CLOTHES_RAIL
 10
21527.11111616126
 20
8109.671916405988
 30
0.0
  0
SEQEND
  5
B1A62
  8
CLOTHES_RAIL
  0
POLYLINE
  5
AACBD
  8
0
 66
     1
 10
0.0
 20
0.0
 30
0.0
 70
     1
  0
VERTEX
  5
B174A
  8
0
 10
22497.11111616126
 20
8183.171916405992
 30
0.0
  0
VERTEX
  5
B174B
  8
0
 10
22497.11111616126
 20
8157.171916405991
 30
0.0
  0
VERTEX
  5
B174C
  8
0
 10
21527.11111616126
 20
8157.171916405991
 30
0.0
  0
VERTEX
  5
B174D
  8
0
 10
21527.11111616126
 20
8183.171916405992
 30
0.0
  0
SEQEND
  5
B1A63
  8
0
  0
POLYLINE
  5
AACBE
  8
CLOTHES_RAIL
 66
     1
 10
0.0
 20
0.0
 30
0.0
 70
     1
  0
VERTEX
  5
B174E
  8
CLOTHES_RAIL
 10
20527.11111616078
 20
8109.671916405988
 30
0.0
  0
VERTEX
  5
B174F
  8
CLOTHES_RAIL
 10
20527.11111616078
 20
8083.671916405988
 30
0.0
  0
VERTEX
  5
B1750
  8
CLOTHES_RAIL
 10
21497.11111616078
 20
8083.671916405988
 30
0.0
  0
VERTEX
  5
B1751
  8
CLOTHES_RAIL
 10
21497.11111616078
 20
8109.671916405988
 30
0.0
  0
SEQEND
  5
B1A64
  8
CLOTHES_RAIL
  0
POLYLINE
  5
AACBF
  8
0
 66
     1
 10
0.0
 20
0.0
 30
0.0
 70
     1
  0
VERTEX
  5
B1752
  8
0
 10
20527.11111616126
 20
8157.171916405991
 30
0.0
  0
VERTEX
  5
B1753
  8
0
 10
20527.11111616126
 20
8183.171916405992
 30
0.0
  0
VERTEX
  5
B1754
  8
0
 10
21497.11111616126
 20
8183.171916405992
 30
0.0
  0
VERTEX
  5
B1755
  8
0
 10
21497.11111616126
 20
8157.171916405991
 30
0.0
  0
SEQEND
  5
B1A65
  8
0
  0
POLYLINE
  5
AACE3
  8
0
 66
     1
 10
0.0
 20
0.0
 30
0.0
 70
     1
  0
VERTEX
  5
B1756
  8
0
 10
22497.11111616126
 20
8483.17191640599
 30
0.0
  0
VERTEX
  5
B1757
  8
0
 10
22497.11111616126
 20
8457.171916405992
 30
0.0
  0
VERTEX
  5
B1758
  8
0
 10
21527.11111616126
 20
8457.171916405992
 30
0.0
  0
VERTEX
  5
B1759
  8
0
 10
21527.11111616126
 20
8483.17191640599
 30
0.0
  0
SEQEND
  5
B1A66
  8
0
  0
POLYLINE
  5
AACE4
  8
0
 66
     1
 10
0.0
 20
0.0
 30
0.0
 70
     1
  0
VERTEX
  5
B175A
  8
0
 10
20527.11111616127
 20
8457.171916405992
 30
0.0
  0
VERTEX
  5
B175B
  8
0
 10
20527.11111616127
 20
8483.17191640599
 30
0.0
  0
VERTEX
  5
B175C
  8
0
 10
21497.11111616127
 20
8483.17191640599
 30
0.0
  0
VERTEX
  5
B175D
  8
0
 10
21497.11111616127
 20
8457.171916405992
 30
0.0
  0
SEQEND
  5
B1A67
  8
0
  0
POLYLINE
  5
AACE5
  8
0
 66
     1
 10
0.0
 20
0.0
 30
0.0
 70
     1
  0
VERTEX
  5
B175E
  8
0
 10
22497.1111161613
 20
12577.30740641974
 30
0.0
  0
VERTEX
  5
B175F
  8
0
 10
22497.1111161613
 20
12551.30740641974
 30
0.0
  0
VERTEX
  5
B1760
  8
0
 10
21527.1111161613
 20
12551.30740641974
 30
0.0
  0
VERTEX
  5
B1761
  8
0
 10
21527.1111161613
 20
12577.30740641974
 30
0.0
  0
SEQEND
  5
B1A68
  8
0
  0
POLYLINE
  5
AACE7
  8
0
 66
     1
 10
0.0
 20
0.0
 30
0.0
 70
     1
  0
VERTEX
  5
B1762
  8
0
 10
20527.1111161613
 20
12551.30740641974
 30
0.0
  0
VERTEX
  5
B1763
  8
0
 10
20527.1111161613
 20
12577.30740641974
 30
0.0
  0
VERTEX
  5
B1764
  8
0
 10
21497.1111161613
 20
12577.30740641974
 30
0.0
  0
VERTEX
  5
B1765
  8
0
 10
21497.1111161613
 20
12551.30740641974
 30
0.0
  0
SEQEND
  5
B1A69
  8
0
  0
POLYLINE
  5
AACE9
  8
0
 66
     1
 10
0.0
 20
0.0
 30
0.0
 70
     1
  0
VERTEX
  5
B1766
  8
0
 10
22497.11111616128
 20
16471.4428964329
 30
0.0
  0
VERTEX
  5
B1767
  8
0
 10
22497.11111616128
 20
16445.4428964329
 30
0.0
  0
VERTEX
  5
B1768
  8
0
 10
21527.11111616126
 20
16445.4428964329
 30
0.0
  0
VERTEX
  5
B1769
  8
0
 10
21527.11111616126
 20
16471.4428964329
 30
0.0
  0
SEQEND
  5
B1A6A
  8
0
  0
POLYLINE
  5
AACEB
  8
0
 66
     1
 10
0.0
 20
0.0
 30
0.0
 70
     1
  0
VERTEX
  5
B176A
  8
0
 10
20527.11111616126
 20
16445.4428964329
 30
0.0
  0
VERTEX
  5
B176B
  8
0
 10
20527.11111616126
 20
16471.4428964329
 30
0.0
  0
VERTEX
  5
B176C
  8
0
 10
21497.11111616128
 20
16471.4428964329
 30
0.0
  0
VERTEX
  5
B176D
  8
0
 10
21497.11111616128
 20
16445.4428964329
 30
0.0
  0
SEQEND
  5
B1A6B
  8
0
  0
POLYLINE
  5
AAD25
  8
0
 66
     1
 10
0.0
 20
0.0
 30
0.0
  0
VERTEX
  5
B176E
  8
0
 10
23145.57602734765
 20
2163.036426392835
 30
0.0
  0
VERTEX
  5
B176F
  8
0
 10
25138.40288157848
 20
2163.036426392835
 30
0.0
  0
SEQEND
  5
B1A6C
  8
0
  0
POLYLINE
  5
AAD6E
  8
0
 66
     1
 10
0.0
 20
0.0
 30
0.0
  0
VERTEX
  5
B1770
  8
0
 10
33278.52842564187
 20
6207.171916406281
 30
0.0
  0
VERTEX
  5
B1771
  8
0
 10
27282.11499852646
 20
6207.171916406281
 30
0.0
  0
SEQEND
  5
B1A6D
  8
0
  0
POLYLINE
  5
ABFC8
  8
0
 66
     1
 10
0.0
 20
0.0
 30
0.0
  0
VERTEX
  5
B1772
  8
0
 10
8870.219913350578
 20
14295.57838644662
 30
0.0
  0
VERTEX
  5
B1773
  8
0
 10
9870.21991335058
 20
14295.57838644662
 30
0.0
  0
SEQEND
  5
B1A6E
  8
0
  0
POLYLINE
  5
ABFC9
  8
0
 66
     1
 10
0.0
 20
0.0
 30
0.0
  0
VERTEX
  5
B1774
  8
0
 10
10240.30801134699
 20
14295.57838644662
 30
0.0
  0
VERTEX
  5
B1775
  8
0
 10
11240.30801134699
 20
14295.57838644662
 30
0.0
  0
SEQEND
  5
B1A6F
  8
0
  0
POLYLINE
  5
ABFCA
  8
0
 66
     1
 10
0.0
 20
0.0
 30
0.0
  0
VERTEX
  5
B1776
  8
0
 10
11610.3961093434
 20
14295.57838644662
 30
0.0
  0
VERTEX
  5
B1777
  8
0
 10
12610.3961093434
 20
14295.57838644662
 30
0.0
  0
SEQEND
  5
B1A70
  8
0
  0
POLYLINE
  5
ABFCB
  8
0
 66
     1
 10
0.0
 20
0.0
 30
0.0
  0
VERTEX
  5
B1778
  8
0
 10
12980.48420733981
 20
14295.57838644662
 30
0.0
  0
VERTEX
  5
B1779
  8
0
 10
13980.48420733982
 20
14295.57838644662
 30
0.0
  0
SEQEND
  5
B1A71
  8
0
  0
POLYLINE
  5
ABFCC
  8
0
 66
     1
 10
0.0
 20
0.0
 30
0.0
  0
VERTEX
  5
B177A
  8
0
 10
14350.57230533624
 20
14295.57838644662
 30
0.0
  0
VERTEX
  5
B177B
  8
0
 10
15350.57230533624
 20
14295.57838644662
 30
0.0
  0
SEQEND
  5
B1A72
  8
0
  0
POLYLINE
  5
AC009
  8
0
 66
     1
 10
0.0
 20
0.0
 30
0.0
  0
VERTEX
  5
B177C
  8
0
 10
14350.57230533624
 20
10862.44289643317
 30
0.0
  0
VERTEX
  5
B177D
  8
0
 10
15350.57230533624
 20
10862.44289643317
 30
0.0
  0
SEQEND
  5
B1A73
  8
0
  0
POLYLINE
  5
AC00A
  8
0
 66
     1
 10
0.0
 20
0.0
 30
0.0
  0
VERTEX
  5
B177E
  8
0
 10
12980.48420733981
 20
10862.44289643317
 30
0.0
  0
VERTEX
  5
B177F
  8
0
 10
13980.48420733982
 20
10862.44289643317
 30
0.0
  0
SEQEND
  5
B1A74
  8
0
  0
POLYLINE
  5
AC00B
  8
0
 66
     1
 10
0.0
 20
0.0
 30
0.0
  0
VERTEX
  5
B1780
  8
0
 10
11610.3961093434
 20
10862.44289643317
 30
0.0
  0
VERTEX
  5
B1781
  8
0
 10
12610.3961093434
 20
10862.44289643317
 30
0.0
  0
SEQEND
  5
B1A75
  8
0
  0
POLYLINE
  5
AC00C
  8
0
 66
     1
 10
0.0
 20
0.0
 30
0.0
  0
VERTEX
  5
B1782
  8
0
 10
10240.30801134699
 20
10862.44289643317
 30
0.0
  0
VERTEX
  5
B1783
  8
0
 10
11240.30801134699
 20
10862.44289643317
 30
0.0
  0
SEQEND
  5
B1A76
  8
0
  0
POLYLINE
  5
AC00D
  8
0
 66
     1
 10
0.0
 20
0.0
 30
0.0
  0
VERTEX
  5
B1784
  8
0
 10
8870.219913350578
 20
10862.44289643317
 30
0.0
  0
VERTEX
  5
B1785
  8
0
 10
9870.21991335058
 20
10862.44289643317
 30
0.0
  0
SEQEND
  5
B1A77
  8
0
  0
POLYLINE
  5
AC00E
  8
0
 66
     1
 10
0.0
 20
0.0
 30
0.0
  0
VERTEX
  5
B1786
  8
0
 10
8870.219913350578
 20
7729.307406419728
 30
0.0
  0
VERTEX
  5
B1787
  8
0
 10
9870.21991335058
 20
7729.307406419728
 30
0.0
  0
SEQEND
  5
B1A78
  8
0
  0
POLYLINE
  5
AC00F
  8
0
 66
     1
 10
0.0
 20
0.0
 30
0.0
  0
VERTEX
  5
B1788
  8
0
 10
10240.30801134699
 20
7729.307406419728
 30
0.0
  0
VERTEX
  5
B1789
  8
0
 10
11240.30801134699
 20
7729.307406419728
 30
0.0
  0
SEQEND
  5
B1A79
  8
0
  0
POLYLINE
  5
AC010
  8
0
 66
     1
 10
0.0
 20
0.0
 30
0.0
  0
VERTEX
  5
B178A
  8
0
 10
11610.3961093434
 20
7729.307406419728
 30
0.0
  0
VERTEX
  5
B178B
  8
0
 10
12610.3961093434
 20
7729.307406419728
 30
0.0
  0
SEQEND
  5
B1A7A
  8
0
  0
POLYLINE
  5
AC011
  8
0
 66
     1
 10
0.0
 20
0.0
 30
0.0
  0
VERTEX
  5
B178C
  8
0
 10
12980.48420733981
 20
7729.307406419728
 30
0.0
  0
VERTEX
  5
B178D
  8
0
 10
13980.48420733982
 20
7729.307406419728
 30
0.0
  0
SEQEND
  5
B1A7B
  8
0
  0
POLYLINE
  5
AC012
  8
0
 66
     1
 10
0.0
 20
0.0
 30
0.0
  0
VERTEX
  5
B178E
  8
0
 10
14350.57230533624
 20
7729.307406419728
 30
0.0
  0
VERTEX
  5
B178F
  8
0
 10
15350.57230533624
 20
7729.307406419728
 30
0.0
  0
SEQEND
  5
B1A7C
  8
0
  0
POLYLINE
  5
AC04F
  8
0
 66
     1
 10
0.0
 20
0.0
 30
0.0
  0
VERTEX
  5
B1790
  8
0
 10
14350.57230533624
 20
4896.171916406281
 30
0.0
  0
VERTEX
  5
B1791
  8
0
 10
15350.57230533624
 20
4896.171916406281
 30
0.0
  0
SEQEND
  5
B1A7D
  8
0
  0
POLYLINE
  5
AC050
  8
0
 66
     1
 10
0.0
 20
0.0
 30
0.0
  0
VERTEX
  5
B1792
  8
0
 10
12980.48420733981
 20
4896.171916406281
 30
0.0
  0
VERTEX
  5
B1793
  8
0
 10
13980.48420733982
 20
4896.171916406281
 30
0.0
  0
SEQEND
  5
B1A7E
  8
0
  0
POLYLINE
  5
AC051
  8
0
 66
     1
 10
0.0
 20
0.0
 30
0.0
  0
VERTEX
  5
B1794
  8
0
 10
11610.3961093434
 20
4896.171916406281
 30
0.0
  0
VERTEX
  5
B1795
  8
0
 10
12610.3961093434
 20
4896.171916406281
 30
0.0
  0
SEQEND
  5
B1A7F
  8
0
  0
POLYLINE
  5
AC052
  8
0
 66
     1
 10
0.0
 20
0.0
 30
0.0
  0
VERTEX
  5
B1796
  8
0
 10
10240.30801134699
 20
4896.171916406281
 30
0.0
  0
VERTEX
  5
B1797
  8
0
 10
11240.30801134699
 20
4896.171916406281
 30
0.0
  0
SEQEND
  5
B1A80
  8
0
  0
POLYLINE
  5
AC053
  8
0
 66
     1
 10
0.0
 20
0.0
 30
0.0
  0
VERTEX
  5
B1798
  8
0
 10
8870.219913350578
 20
4896.171916406281
 30
0.0
  0
VERTEX
  5
B1799
  8
0
 10
9870.21991335058
 20
4896.171916406281
 30
0.0
  0
SEQEND
  5
B1A81
  8
0
  0
POLYLINE
  5
AC054
  8
0
 66
     1
 10
0.0
 20
0.0
 30
0.0
  0
VERTEX
  5
B179A
  8
0
 10
8870.219913350578
 20
2163.036426392835
 30
0.0
  0
VERTEX
  5
B179B
  8
0
 10
9870.21991335058
 20
2163.036426392835
 30
0.0
  0
SEQEND
  5
B1A82
  8
0
  0
POLYLINE
  5
AC055
  8
0
 66
     1
 10
0.0
 20
0.0
 30
0.0
  0
VERTEX
  5
B179C
  8
0
 10
10240.30801134699
 20
2163.036426392835
 30
0.0
  0
VERTEX
  5
B179D
  8
0
 10
11240.30801134699
 20
2163.036426392835
 30
0.0
  0
SEQEND
  5
B1A83
  8
0
  0
POLYLINE
  5
AC056
  8
0
 66
     1
 10
0.0
 20
0.0
 30
0.0
  0
VERTEX
  5
B179E
  8
0
 10
11610.3961093434
 20
2163.036426392835
 30
0.0
  0
VERTEX
  5
B179F
  8
0
 10
12610.3961093434
 20
2163.036426392835
 30
0.0
  0
SEQEND
  5
B1A84
  8
0
  0
POLYLINE
  5
AC057
  8
0
 66
     1
 10
0.0
 20
0.0
 30
0.0
  0
VERTEX
  5
B17A0
  8
0
 10
12980.48420733981
 20
2163.036426392835
 30
0.0
  0
VERTEX
  5
B17A1
  8
0
 10
13980.48420733982
 20
2163.036426392835
 30
0.0
  0
SEQEND
  5
B1A85
  8
0
  0
POLYLINE
  5
AC058
  8
0
 66
     1
 10
0.0
 20
0.0
 30
0.0
  0
VERTEX
  5
B17A2
  8
0
 10
14350.57230533624
 20
2163.036426392835
 30
0.0
  0
VERTEX
  5
B17A3
  8
0
 10
15350.57230533624
 20
2163.036426392835
 30
0.0
  0
SEQEND
  5
B1A86
  8
0
  0
LINE
  5
B093A
  8
0
 10
27781.88412464747
 20
2218.036426392835
 30
0.0
 11
27781.88412464747
 21
2218.036426392835
 31
0.0
  0
POLYLINE
  5
B093D
  8
0
 66
     1
 10
0.0
 20
0.0
 30
0.0
 70
     1
  0
VERTEX
  5
B17A4
  8
0
 10
28081.67368907836
 20
4348.036426392877
 30
0.0
  0
VERTEX
  5
B17A5
  8
0
 10
27481.67368907836
 20
4348.036426392877
 30
0.0
  0
VERTEX
  5
B17A6
  8
0
 10
27481.67368907836
 20
2218.036426392835
 30
0.0
  0
VERTEX
  5
B17A7
  8
0
 10
28081.67368907836
 20
2218.036426392835
 30
0.0
  0
SEQEND
  5
B1A87
  8
0
  0
POLYLINE
  5
B0950
  8
0
 66
     1
 10
0.0
 20
0.0
 30
0.0
 70
     1
  0
VERTEX
  5
B17A8
  8
0
 10
29481.88412464747
 20
4348.036426392877
 30
0.0
  0
VERTEX
  5
B17A9
  8
0
 10
28881.88412464747
 20
4348.036426392877
 30
0.0
  0
VERTEX
  5
B17AA
  8
0
 10
28881.88412464748
 20
2218.036426392835
 30
0.0
  0
VERTEX
  5
B17AB
  8
0
 10
29481.88412464747
 20
2218.036426392835
 30
0.0
  0
SEQEND
  5
B1A88
  8
0
  0
POLYLINE
  5
B0951
  8
0
 66
     1
 10
0.0
 20
0.0
 30
0.0
 70
     1
  0
VERTEX
  5
B17AC
  8
0
 10
30081.88412464747
 20
4348.036426392877
 30
0.0
  0
VERTEX
  5
B17AD
  8
0
 10
29481.88412464747
 20
4348.036426392877
 30
0.0
  0
VERTEX
  5
B17AE
  8
0
 10
29481.88412464747
 20
2218.036426392835
 30
0.0
  0
VERTEX
  5
B17AF
  8
0
 10
30081.88412464747
 20
2218.036426392835
 30
0.0
  0
SEQEND
  5
B1A89
  8
0
  0
POLYLINE
  5
B0952
  8
0
 66
     1
 10
0.0
 20
0.0
 30
0.0
 70
     1
  0
VERTEX
  5
B17B0
  8
0
 10
30681.88412464747
 20
4348.036426392877
 30
0.0
  0
VERTEX
  5
B17B1
  8
0
 10
30081.88412464747
 20
4348.036426392877
 30
0.0
  0
VERTEX
  5
B17B2
  8
0
 10
30081.88412464747
 20
2218.036426392835
 30
0.0
  0
VERTEX
  5
B17B3
  8
0
 10
30681.88412464747
 20
2218.036426392835
 30
0.0
  0
SEQEND
  5
B1A8A
  8
0
  0
POLYLINE
  5
B096C
  8
0
 66
     1
 10
0.0
 20
0.0
 30
0.0
 70
     1
  0
VERTEX
  5
B17B4
  8
0
 10
23945.57602734765
 20
4348.036426392877
 30
0.0
  0
VERTEX
  5
B17B5
  8
0
 10
23345.57602734765
 20
4348.036426392877
 30
0.0
  0
VERTEX
  5
B17B6
  8
0
 10
23345.57602734765
 20
2218.036426392835
 30
0.0
  0
VERTEX
  5
B17B7
  8
0
 10
23945.57602734765
 20
2218.036426392835
 30
0.0
  0
SEQEND
  5
B1A8B
  8
0
  0
POLYLINE
  5
B096E
  8
0
 66
     1
 10
0.0
 20
0.0
 30
0.0
 70
     1
  0
VERTEX
  5
B17B8
  8
0
 10
24938.8441910266
 20
4748.036426392877
 30
0.0
  0
VERTEX
  5
B17B9
  8
0
 10
24338.8441910266
 20
4748.036426392877
 30
0.0
  0
VERTEX
  5
B17BA
  8
0
 10
24338.8441910266
 20
2218.036426392835
 30
0.0
  0
VERTEX
  5
B17BB
  8
0
 10
24938.8441910266
 20
2218.036426392835
 30
0.0
  0
SEQEND
  5
B1A8C
  8
0
  0
POLYLINE
  5
B0975
  8
0
 66
     1
 10
0.0
 20
0.0
 30
0.0
 70
     1
  0
VERTEX
  5
B17BC
  8
0
 10
23945.57602734765
 20
8392.171916406322
 30
0.0
  0
VERTEX
  5
B17BD
  8
0
 10
23345.57602734765
 20
8392.171916406322
 30
0.0
  0
VERTEX
  5
B17BE
  8
0
 10
23345.57602734765
 20
6262.171916406281
 30
0.0
  0
VERTEX
  5
B17BF
  8
0
 10
23945.57602734765
 20
6262.171916406281
 30
0.0
  0
SEQEND
  5
B1A8D
  8
0
  0
POLYLINE
  5
B0976
  8
0
 66
     1
 10
0.0
 20
0.0
 30
0.0
 70
     1
  0
VERTEX
  5
B17C0
  8
0
 10
24938.8441910266
 20
8792.171916406322
 30
0.0
  0
VERTEX
  5
B17C1
  8
0
 10
24338.8441910266
 20
8792.171916406322
 30
0.0
  0
VERTEX
  5
B17C2
  8
0
 10
24338.8441910266
 20
6262.171916406281
 30
0.0
  0
VERTEX
  5
B17C3
  8
0
 10
24938.8441910266
 20
6262.171916406281
 30
0.0
  0
SEQEND
  5
B1A8E
  8
0
  0
POLYLINE
  5
B0977
  8
0
 66
     1
 10
0.0
 20
0.0
 30
0.0
  0
VERTEX
  5
B17C4
  8
0
 10
23145.57602734765
 20
6207.171916406281
 30
0.0
  0
VERTEX
  5
B17C5
  8
0
 10
25138.40288157848
 20
6207.171916406281
 30
0.0
  0
SEQEND
  5
B1A8F
  8
0
  0
POLYLINE
  5
B0978
  8
0
 66
     1
 10
0.0
 20
0.0
 30
0.0
  0
VERTEX
  5
B17C6
  8
0
 10
23145.57602734765
 20
10251.30740641973
 30
0.0
  0
VERTEX
  5
B17C7
  8
0
 10
25138.40288157848
 20
10251.30740641973
 30
0.0
  0
SEQEND
  5
B1A90
  8
0
  0
POLYLINE
  5
B0979
  8
0
 66
     1
 10
0.0
 20
0.0
 30
0.0
  0
VERTEX
  5
B17C8
  8
0
 10
23145.57602734765
 20
14295.57838644662
 30
0.0
  0
VERTEX
  5
B17C9
  8
0
 10
25138.40288157848
 20
14295.57838644662
 30
0.0
  0
SEQEND
  5
B1A91
  8
0
  0
POLYLINE
  5
B097A
  8
0
 66
     1
 10
0.0
 20
0.0
 30
0.0
 70
     1
  0
VERTEX
  5
B17CA
  8
0
 10
23945.57602734765
 20
12436.30740641977
 30
0.0
  0
VERTEX
  5
B17CB
  8
0
 10
23345.57602734765
 20
12436.30740641977
 30
0.0
  0
VERTEX
  5
B17CC
  8
0
 10
23345.57602734765
 20
10306.30740641973
 30
0.0
  0
VERTEX
  5
B17CD
  8
0
 10
23945.57602734765
 20
10306.30740641973
 30
0.0
  0
SEQEND
  5
B1A92
  8
0
  0
POLYLINE
  5
B097B
  8
0
 66
     1
 10
0.0
 20
0.0
 30
0.0
 70
     1
  0
VERTEX
  5
B17CE
  8
0
 10
24938.8441910266
 20
12836.30740641977
 30
0.0
  0
VERTEX
  5
B17CF
  8
0
 10
24338.8441910266
 20
12836.30740641977
 30
0.0
  0
VERTEX
  5
B17D0
  8
0
 10
24338.8441910266
 20
10306.30740641973
 30
0.0
  0
VERTEX
  5
B17D1
  8
0
 10
24938.8441910266
 20
10306.30740641973
 30
0.0
  0
SEQEND
  5
B1A93
  8
0
  0
POLYLINE
  5
B097C
  8
0
 66
     1
 10
0.0
 20
0.0
 30
0.0
 70
     1
  0
VERTEX
  5
B17D2
  8
0
 10
23945.57602734765
 20
16480.57838644666
 30
0.0
  0
VERTEX
  5
B17D3
  8
0
 10
23345.57602734765
 20
16480.57838644666
 30
0.0
  0
VERTEX
  5
B17D4
  8
0
 10
23345.57602734765
 20
14350.57838644662
 30
0.0
  0
VERTEX
  5
B17D5
  8
0
 10
23945.57602734765
 20
14350.57838644662
 30
0.0
  0
SEQEND
  5
B1A94
  8
0
  0
POLYLINE
  5
B097D
  8
0
 66
     1
 10
0.0
 20
0.0
 30
0.0
 70
     1
  0
VERTEX
  5
B17D6
  8
0
 10
24938.8441910266
 20
16880.57838644666
 30
0.0
  0
VERTEX
  5
B17D7
  8
0
 10
24338.8441910266
 20
16880.57838644666
 30
0.0
  0
VERTEX
  5
B17D8
  8
0
 10
24338.8441910266
 20
14350.57838644662
 30
0.0
  0
VERTEX
  5
B17D9
  8
0
 10
24938.8441910266
 20
14350.57838644662
 30
0.0
  0
SEQEND
  5
B1A95
  8
0
  0
POLYLINE
  5
B0985
  8
0
 66
     1
 10
0.0
 20
0.0
 30
0.0
 70
     1
  0
VERTEX
  5
B17DA
  8
0
 10
28081.67368907836
 20
8792.171916406323
 30
0.0
  0
VERTEX
  5
B17DB
  8
0
 10
27481.67368907836
 20
8792.171916406323
 30
0.0
  0
VERTEX
  5
B17DC
  8
0
 10
27481.67368907836
 20
6262.171916406282
 30
0.0
  0
VERTEX
  5
B17DD
  8
0
 10
28081.67368907836
 20
6262.171916406282
 30
0.0
  0
SEQEND
  5
B1A96
  8
0
  0
POLYLINE
  5
B0986
  8
0
 66
     1
 10
0.0
 20
0.0
 30
0.0
 70
     1
  0
VERTEX
  5
B17DE
  8
0
 10
29481.88412464748
 20
8792.171916406323
 30
0.0
  0
VERTEX
  5
B17DF
  8
0
 10
28881.88412464748
 20
8792.171916406323
 30
0.0
  0
VERTEX
  5
B17E0
  8
0
 10
28881.88412464748
 20
6262.171916406282
 30
0.0
  0
VERTEX
  5
B17E1
  8
0
 10
29481.88412464748
 20
6262.171916406282
 30
0.0
  0
SEQEND
  5
B1A97
  8
0
  0
POLYLINE
  5
B0987
  8
0
 66
     1
 10
0.0
 20
0.0
 30
0.0
 70
     1
  0
VERTEX
  5
B17E2
  8
0
 10
30081.88412464748
 20
8792.171916406323
 30
0.0
  0
VERTEX
  5
B17E3
  8
0
 10
29481.88412464748
 20
8792.171916406323
 30
0.0
  0
VERTEX
  5
B17E4
  8
0
 10
29481.88412464748
 20
6262.171916406282
 30
0.0
  0
VERTEX
  5
B17E5
  8
0
 10
30081.88412464748
 20
6262.171916406282
 30
0.0
  0
SEQEND
  5
B1A98
  8
0
  0
POLYLINE
  5
B0988
  8
0
 66
     1
 10
0.0
 20
0.0
 30
0.0
 70
     1
  0
VERTEX
  5
B17E6
  8
0
 10
30681.88412464748
 20
8792.171916406323
 30
0.0
  0
VERTEX
  5
B17E7
  8
0
 10
30081.88412464748
 20
8792.171916406323
 30
0.0
  0
VERTEX
  5
B17E8
  8
0
 10
30081.88412464748
 20
6262.171916406282
 30
0.0
  0
VERTEX
  5
B17E9
  8
0
 10
30681.88412464748
 20
6262.171916406282
 30
0.0
  0
SEQEND
  5
B1A99
  8
0
  0
POLYLINE
  5
B0989
  8
0
 66
     1
 10
0.0
 20
0.0
 30
0.0
 70
     1
  0
VERTEX
  5
B17EA
  8
0
 10
31281.88412464748
 20
8792.171916406323
 30
0.0
  0
VERTEX
  5
B17EB
  8
0
 10
30681.88412464748
 20
8792.171916406323
 30
0.0
  0
VERTEX
  5
B17EC
  8
0
 10
30681.88412464748
 20
6262.171916406282
 30
0.0
  0
VERTEX
  5
B17ED
  8
0
 10
31281.88412464748
 20
6262.171916406282
 30
0.0
  0
SEQEND
  5
B1A9A
  8
0
  0
POLYLINE
  5
B098A
  8
0
 66
     1
 10
0.0
 20
0.0
 30
0.0
 70
     1
  0
VERTEX
  5
B17EE
  8
0
 10
31881.88412464748
 20
8792.171916406323
 30
0.0
  0
VERTEX
  5
B17EF
  8
0
 10
31281.88412464748
 20
8792.171916406323
 30
0.0
  0
VERTEX
  5
B17F0
  8
0
 10
31281.88412464748
 20
6262.171916406282
 30
0.0
  0
VERTEX
  5
B17F1
  8
0
 10
31881.88412464748
 20
6262.171916406282
 30
0.0
  0
SEQEND
  5
B1A9B
  8
0
  0
POLYLINE
  5
B098B
  8
0
 66
     1
 10
0.0
 20
0.0
 30
0.0
 70
     1
  0
VERTEX
  5
B17F2
  8
0
 10
32481.88412464748
 20
8792.171916406323
 30
0.0
  0
VERTEX
  5
B17F3
  8
0
 10
31881.88412464748
 20
8792.171916406323
 30
0.0
  0
VERTEX
  5
B17F4
  8
0
 10
31881.88412464748
 20
6262.171916406282
 30
0.0
  0
VERTEX
  5
B17F5
  8
0
 10
32481.88412464748
 20
6262.171916406282
 30
0.0
  0
SEQEND
  5
B1A9C
  8
0
  0
POLYLINE
  5
B098C
  8
0
 66
     1
 10
0.0
 20
0.0
 30
0.0
 70
     1
  0
VERTEX
  5
B17F6
  8
0
 10
9070.219913350578
 20
4348.036426392877
 30
0.0
  0
VERTEX
  5
B17F7
  8
0
 10
9670.219913350576
 20
4348.036426392877
 30
0.0
  0
VERTEX
  5
B17F8
  8
0
 10
9670.219913350576
 20
2218.036426392835
 30
0.0
  0
VERTEX
  5
B17F9
  8
0
 10
9070.219913350578
 20
2218.036426392835
 30
0.0
  0
SEQEND
  5
B1A9D
  8
0
  0
POLYLINE
  5
B098D
  8
0
 66
     1
 10
0.0
 20
0.0
 30
0.0
 70
     1
  0
VERTEX
  5
B17FA
  8
0
 10
10390.30801134699
 20
4348.036426392877
 30
0.0
  0
VERTEX
  5
B17FB
  8
0
 10
11090.30801134699
 20
4348.036426392877
 30
0.0
  0
VERTEX
  5
B17FC
  8
0
 10
11090.30801134699
 20
2218.036426392835
 30
0.0
  0
VERTEX
  5
B17FD
  8
0
 10
10390.30801134699
 20
2218.036426392835
 30
0.0
  0
SEQEND
  5
B1A9E
  8
0
  0
POLYLINE
  5
B098E
  8
0
 66
     1
 10
0.0
 20
0.0
 30
0.0
 70
     1
  0
VERTEX
  5
B17FE
  8
0
 10
11710.3961093434
 20
4348.036426392877
 30
0.0
  0
VERTEX
  5
B17FF
  8
0
 10
12510.3961093434
 20
4348.036426392877
 30
0.0
  0
VERTEX
  5
B1800
  8
0
 10
12510.3961093434
 20
2218.036426392835
 30
0.0
  0
VERTEX
  5
B1801
  8
0
 10
11710.3961093434
 20
2218.036426392835
 30
0.0
  0
SEQEND
  5
B1A9F
  8
0
  0
POLYLINE
  5
B098F
  8
0
 66
     1
 10
0.0
 20
0.0
 30
0.0
 70
     1
  0
VERTEX
  5
B1802
  8
0
 10
13030.48420733982
 20
4348.036426392877
 30
0.0
  0
VERTEX
  5
B1803
  8
0
 10
13930.48420733982
 20
4348.036426392877
 30
0.0
  0
VERTEX
  5
B1804
  8
0
 10
13930.48420733982
 20
2218.036426392835
 30
0.0
  0
VERTEX
  5
B1805
  8
0
 10
13030.48420733982
 20
2218.036426392835
 30
0.0
  0
SEQEND
  5
B1AA0
  8
0
  0
POLYLINE
  5
B0990
  8
0
 66
     1
 10
0.0
 20
0.0
 30
0.0
 70
     1
  0
VERTEX
  5
B1806
  8
0
 10
14350.57230533624
 20
4348.036426392877
 30
0.0
  0
VERTEX
  5
B1807
  8
0
 10
15350.57230533624
 20
4348.036426392878
 30
0.0
  0
VERTEX
  5
B1808
  8
0
 10
15350.57230533624
 20
2218.036426392836
 30
0.0
  0
VERTEX
  5
B1809
  8
0
 10
14350.57230533624
 20
2218.036426392835
 30
0.0
  0
SEQEND
  5
B1AA1
  8
0
  0
POLYLINE
  5
B0991
  8
0
 66
     1
 10
0.0
 20
0.0
 30
0.0
 70
     1
  0
VERTEX
  5
B180A
  8
0
 10
9070.219913350578
 20
7181.171916406325
 30
0.0
  0
VERTEX
  5
B180B
  8
0
 10
9670.219913350576
 20
7181.171916406325
 30
0.0
  0
VERTEX
  5
B180C
  8
0
 10
9670.219913350576
 20
4951.171916406281
 30
0.0
  0
VERTEX
  5
B180D
  8
0
 10
9070.219913350578
 20
4951.171916406281
 30
0.0
  0
SEQEND
  5
B1AA2
  8
0
  0
POLYLINE
  5
B0992
  8
0
 66
     1
 10
0.0
 20
0.0
 30
0.0
 70
     1
  0
VERTEX
  5
B180E
  8
0
 10
10390.30801134699
 20
7181.171916406325
 30
0.0
  0
VERTEX
  5
B180F
  8
0
 10
11090.30801134699
 20
7181.171916406325
 30
0.0
  0
VERTEX
  5
B1810
  8
0
 10
11090.30801134699
 20
4951.171916406281
 30
0.0
  0
VERTEX
  5
B1811
  8
0
 10
10390.30801134699
 20
4951.171916406281
 30
0.0
  0
SEQEND
  5
B1AA3
  8
0
  0
POLYLINE
  5
B0993
  8
0
 66
     1
 10
0.0
 20
0.0
 30
0.0
 70
     1
  0
VERTEX
  5
B1812
  8
0
 10
11710.3961093434
 20
7181.171916406325
 30
0.0
  0
VERTEX
  5
B1813
  8
0
 10
12510.3961093434
 20
7181.171916406325
 30
0.0
  0
VERTEX
  5
B1814
  8
0
 10
12510.3961093434
 20
4951.171916406282
 30
0.0
  0
VERTEX
  5
B1815
  8
0
 10
11710.3961093434
 20
4951.171916406281
 30
0.0
  0
SEQEND
  5
B1AA4
  8
0
  0
POLYLINE
  5
B0994
  8
0
 66
     1
 10
0.0
 20
0.0
 30
0.0
 70
     1
  0
VERTEX
  5
B1816
  8
0
 10
13030.48420733982
 20
7181.171916406325
 30
0.0
  0
VERTEX
  5
B1817
  8
0
 10
13930.48420733982
 20
7181.171916406325
 30
0.0
  0
VERTEX
  5
B1818
  8
0
 10
13930.48420733982
 20
4951.171916406282
 30
0.0
  0
VERTEX
  5
B1819
  8
0
 10
13030.48420733982
 20
4951.171916406281
 30
0.0
  0
SEQEND
  5
B1AA5
  8
0
  0
POLYLINE
  5
B0995
  8
0
 66
     1
 10
0.0
 20
0.0
 30
0.0
 70
     1
  0
VERTEX
  5
B181A
  8
0
 10
14350.57230533624
 20
7181.171916406325
 30
0.0
  0
VERTEX
  5
B181B
  8
0
 10
15350.57230533624
 20
7181.171916406326
 30
0.0
  0
VERTEX
  5
B181C
  8
0
 10
15350.57230533624
 20
4951.171916406282
 30
0.0
  0
VERTEX
  5
B181D
  8
0
 10
14350.57230533624
 20
4951.171916406281
 30
0.0
  0
SEQEND
  5
B1AA6
  8
0
  0
POLYLINE
  5
B0996
  8
0
 66
     1
 10
0.0
 20
0.0
 30
0.0
 70
     1
  0
VERTEX
  5
B181E
  8
0
 10
9070.219913350578
 20
10314.30740641977
 30
0.0
  0
VERTEX
  5
B181F
  8
0
 10
9670.219913350576
 20
10314.30740641977
 30
0.0
  0
VERTEX
  5
B1820
  8
0
 10
9670.219913350576
 20
7784.307406419728
 30
0.0
  0
VERTEX
  5
B1821
  8
0
 10
9070.219913350578
 20
7784.307406419728
 30
0.0
  0
SEQEND
  5
B1AA7
  8
0
  0
POLYLINE
  5
B0997
  8
0
 66
     1
 10
0.0
 20
0.0
 30
0.0
 70
     1
  0
VERTEX
  5
B1822
  8
0
 10
10390.30801134699
 20
10314.30740641977
 30
0.0
  0
VERTEX
  5
B1823
  8
0
 10
11090.30801134699
 20
10314.30740641977
 30
0.0
  0
VERTEX
  5
B1824
  8
0
 10
11090.30801134699
 20
7784.307406419728
 30
0.0
  0
VERTEX
  5
B1825
  8
0
 10
10390.30801134699
 20
7784.307406419728
 30
0.0
  0
SEQEND
  5
B1AA8
  8
0
  0
POLYLINE
  5
B0998
  8
0
 66
     1
 10
0.0
 20
0.0
 30
0.0
 70
     1
  0
VERTEX
  5
B1826
  8
0
 10
11710.3961093434
 20
10314.30740641977
 30
0.0
  0
VERTEX
  5
B1827
  8
0
 10
12510.3961093434
 20
10314.30740641977
 30
0.0
  0
VERTEX
  5
B1828
  8
0
 10
12510.3961093434
 20
7784.307406419728
 30
0.0
  0
VERTEX
  5
B1829
  8
0
 10
11710.3961093434
 20
7784.307406419728
 30
0.0
  0
SEQEND
  5
B1AA9
  8
0
  0
POLYLINE
  5
B0999
  8
0
 66
     1
 10
0.0
 20
0.0
 30
0.0
 70
     1
  0
VERTEX
  5
B182A
  8
0
 10
13030.48420733982
 20
10314.30740641977
 30
0.0
  0
VERTEX
  5
B182B
  8
0
 10
13930.48420733982
 20
10314.30740641977
 30
0.0
  0
VERTEX
  5
B182C
  8
0
 10
13930.48420733982
 20
7784.307406419728
 30
0.0
  0
VERTEX
  5
B182D
  8
0
 10
13030.48420733982
 20
7784.307406419728
 30
0.0
  0
SEQEND
  5
B1AAA
  8
0
  0
POLYLINE
  5
B099A
  8
0
 66
     1
 10
0.0
 20
0.0
 30
0.0
 70
     1
  0
VERTEX
  5
B182E
  8
0
 10
14350.57230533624
 20
10314.30740641977
 30
0.0
  0
VERTEX
  5
B182F
  8
0
 10
15350.57230533624
 20
10314.30740641977
 30
0.0
  0
VERTEX
  5
B1830
  8
0
 10
15350.57230533624
 20
7784.307406419729
 30
0.0
  0
VERTEX
  5
B1831
  8
0
 10
14350.57230533624
 20
7784.307406419728
 30
0.0
  0
SEQEND
  5
B1AAB
  8
0
  0
POLYLINE
  5
B099B
  8
0
 66
     1
 10
0.0
 20
0.0
 30
0.0
 70
     1
  0
VERTEX
  5
B1832
  8
0
 10
9070.219913350578
 20
13747.44289643322
 30
0.0
  0
VERTEX
  5
B1833
  8
0
 10
9670.219913350576
 20
13747.44289643322
 30
0.0
  0
VERTEX
  5
B1834
  8
0
 10
9670.219913350576
 20
10917.44289643316
 30
0.0
  0
VERTEX
  5
B1835
  8
0
 10
9070.219913350578
 20
10917.44289643316
 30
0.0
  0
SEQEND
  5
B1AAC
  8
0
  0
POLYLINE
  5
B099C
  8
0
 66
     1
 10
0.0
 20
0.0
 30
0.0
 70
     1
  0
VERTEX
  5
B1836
  8
0
 10
10390.30801134699
 20
13747.44289643322
 30
0.0
  0
VERTEX
  5
B1837
  8
0
 10
11090.30801134699
 20
13747.44289643322
 30
0.0
  0
VERTEX
  5
B1838
  8
0
 10
11090.30801134699
 20
10917.44289643316
 30
0.0
  0
VERTEX
  5
B1839
  8
0
 10
10390.30801134699
 20
10917.44289643316
 30
0.0
  0
SEQEND
  5
B1AAD
  8
0
  0
POLYLINE
  5
B099D
  8
0
 66
     1
 10
0.0
 20
0.0
 30
0.0
 70
     1
  0
VERTEX
  5
B183A
  8
0
 10
11710.3961093434
 20
13747.44289643322
 30
0.0
  0
VERTEX
  5
B183B
  8
0
 10
12510.3961093434
 20
13747.44289643322
 30
0.0
  0
VERTEX
  5
B183C
  8
0
 10
12510.3961093434
 20
10917.44289643316
 30
0.0
  0
VERTEX
  5
B183D
  8
0
 10
11710.3961093434
 20
10917.44289643316
 30
0.0
  0
SEQEND
  5
B1AAE
  8
0
  0
POLYLINE
  5
B099E
  8
0
 66
     1
 10
0.0
 20
0.0
 30
0.0
 70
     1
  0
VERTEX
  5
B183E
  8
0
 10
13030.48420733982
 20
13747.44289643322
 30
0.0
  0
VERTEX
  5
B183F
  8
0
 10
13930.48420733982
 20
13747.44289643322
 30
0.0
  0
VERTEX
  5
B1840
  8
0
 10
13930.48420733982
 20
10917.44289643316
 30
0.0
  0
VERTEX
  5
B1841
  8
0
 10
13030.48420733982
 20
10917.44289643316
 30
0.0
  0
SEQEND
  5
B1AAF
  8
0
  0
POLYLINE
  5
B099F
  8
0
 66
     1
 10
0.0
 20
0.0
 30
0.0
 70
     1
  0
VERTEX
  5
B1842
  8
0
 10
14350.57230533624
 20
13747.44289643322
 30
0.0
  0
VERTEX
  5
B1843
  8
0
 10
15350.57230533624
 20
13747.44289643322
 30
0.0
  0
VERTEX
  5
B1844
  8
0
 10
15350.57230533624
 20
10917.44289643316
 30
0.0
  0
VERTEX
  5
B1845
  8
0
 10
14350.57230533624
 20
10917.44289643316
 30
0.0
  0
SEQEND
  5
B1AB0
  8
0
  0
POLYLINE
  5
B09A0
  8
0
 66
     1
 10
0.0
 20
0.0
 30
0.0
 70
     1
  0
VERTEX
  5
B1846
  8
0
 10
9070.219913350578
 20
17330.57838644666
 30
0.0
  0
VERTEX
  5
B1847
  8
0
 10
9670.219913350576
 20
17330.57838644666
 30
0.0
  0
VERTEX
  5
B1848
  8
0
 10
9670.219913350576
 20
14350.57838644662
 30
0.0
  0
VERTEX
  5
B1849
  8
0
 10
9070.219913350578
 20
14350.57838644662
 30
0.0
  0
SEQEND
  5
B1AB1
  8
0
  0
POLYLINE
  5
B09A1
  8
0
 66
     1
 10
0.0
 20
0.0
 30
0.0
 70
     1
  0
VERTEX
  5
B184A
  8
0
 10
10390.30801134699
 20
17330.57838644666
 30
0.0
  0
VERTEX
  5
B184B
  8
0
 10
11090.30801134699
 20
17330.57838644666
 30
0.0
  0
VERTEX
  5
B184C
  8
0
 10
11090.30801134699
 20
14350.57838644662
 30
0.0
  0
VERTEX
  5
B184D
  8
0
 10
10390.30801134699
 20
14350.57838644662
 30
0.0
  0
SEQEND
  5
B1AB2
  8
0
  0
POLYLINE
  5
B09A2
  8
0
 66
     1
 10
0.0
 20
0.0
 30
0.0
 70
     1
  0
VERTEX
  5
B184E
  8
0
 10
11710.3961093434
 20
17330.57838644666
 30
0.0
  0
VERTEX
  5
B184F
  8
0
 10
12510.3961093434
 20
17330.57838644666
 30
0.0
  0
VERTEX
  5
B1850
  8
0
 10
12510.3961093434
 20
14350.57838644662
 30
0.0
  0
VERTEX
  5
B1851
  8
0
 10
11710.3961093434
 20
14350.57838644662
 30
0.0
  0
SEQEND
  5
B1AB3
  8
0
  0
POLYLINE
  5
B09A3
  8
0
 66
     1
 10
0.0
 20
0.0
 30
0.0
 70
     1
  0
VERTEX
  5
B1852
  8
0
 10
13030.48420733982
 20
17330.57838644666
 30
0.0
  0
VERTEX
  5
B1853
  8
0
 10
13930.48420733982
 20
17330.57838644666
 30
0.0
  0
VERTEX
  5
B1854
  8
0
 10
13930.48420733982
 20
14350.57838644662
 30
0.0
  0
VERTEX
  5
B1855
  8
0
 10
13030.48420733982
 20
14350.57838644662
 30
0.0
  0
SEQEND
  5
B1AB4
  8
0
  0
POLYLINE
  5
B09A4
  8
0
 66
     1
 10
0.0
 20
0.0
 30
0.0
 70
     1
  0
VERTEX
  5
B1856
  8
0
 10
14350.57230533624
 20
17330.57838644666
 30
0.0
  0
VERTEX
  5
B1857
  8
0
 10
15350.57230533624
 20
17330.57838644666
 30
0.0
  0
VERTEX
  5
B1858
  8
0
 10
15350.57230533624
 20
14350.57838644662
 30
0.0
  0
VERTEX
  5
B1859
  8
0
 10
14350.57230533624
 20
14350.57838644662
 30
0.0
  0
SEQEND
  5
B1AB5
  8
0
  0
CIRCLE
  5
B1267
  8
0
 10
24769.33284264724
 20
3144.881466525149
 30
0.0
 40
23.0
  0
ARC
  5
B1268
  8
0
 10
24638.8441910266
 20
3048.036426392835
 30
0.0
 40
175.0000000000008
 50
43.14508956891537
 51
30.01846016495949
  0
CIRCLE
  5
B1269
  8
0
 10
23776.06467896829
 20
3144.881466525149
 30
0.0
 40
23.0
  0
ARC
  5
B126A
  8
0
 10
23645.57602734765
 20
3048.036426392835
 30
0.0
 40
175.0000000000008
 50
43.14508956891537
 51
30.01846016495949
  0
CIRCLE
  5
B126B
  8
0
 10
24769.33284264724
 20
7189.016956538595
 30
0.0
 40
23.0
  0
ARC
  5
B126C
  8
0
 10
24638.8441910266
 20
7092.171916406281
 30
0.0
 40
175.0000000000008
 50
43.14508956891537
 51
30.01846016495949
  0
CIRCLE
  5
B126D
  8
0
 10
23776.06467896829
 20
7189.016956538595
 30
0.0
 40
23.0
  0
ARC
  5
B126E
  8
0
 10
23645.57602734765
 20
7092.171916406281
 30
0.0
 40
175.0000000000008
 50
43.14508956891537
 51
30.01846016495949
  0
CIRCLE
  5
B126F
  8
0
 10
24769.33284264724
 20
11233.15244655205
 30
0.0
 40
23.0
  0
ARC
  5
B1270
  8
0
 10
24638.8441910266
 20
11136.30740641973
 30
0.0
 40
175.0000000000008
 50
43.14508956891537
 51
30.01846016495949
  0
CIRCLE
  5
B1271
  8
0
 10
23776.06467896829
 20
11233.15244655205
 30
0.0
 40
23.0
  0
ARC
  5
B1272
  8
0
 10
23645.57602734765
 20
11136.30740641973
 30
0.0
 40
175.0000000000008
 50
43.14508956891537
 51
30.01846016495949
  0
CIRCLE
  5
B1273
  8
0
 10
24769.33284264724
 20
15277.42342657893
 30
0.0
 40
23.0
  0
ARC
  5
B1274
  8
0
 10
24638.8441910266
 20
15180.57838644662
 30
0.0
 40
175.0000000000008
 50
43.14508956891537
 51
30.01846016495949
  0
CIRCLE
  5
B1275
  8
0
 10
23776.06467896829
 20
15277.42342657893
 30
0.0
 40
23.0
  0
ARC
  5
B1276
  8
0
 10
23645.57602734765
 20
15180.57838644662
 30
0.0
 40
175.0000000000008
 50
43.14508956891537
 51
30.01846016495949
  0
CIRCLE
  5
B1277
  8
0
 10
27912.37277626811
 20
3144.881466525149
 30
0.0
 40
23.0
  0
ARC
  5
B1278
  8
0
 10
27781.88412464747
 20
3048.036426392835
 30
0.0
 40
175.0000000000008
 50
43.14508956891537
 51
30.01846016495949
  0
CIRCLE
  5
B1279
  8
0
 10
29312.37277626812
 20
3144.881466525149
 30
0.0
 40
23.0
  0
ARC
  5
B127A
  8
0
 10
29181.88412464748
 20
3048.036426392835
 30
0.0
 40
175.0000000000008
 50
43.14508956891537
 51
30.01846016495949
  0
CIRCLE
  5
B127B
  8
0
 10
29912.37277626811
 20
3144.881466525149
 30
0.0
 40
23.0
  0
ARC
  5
B127C
  8
0
 10
29781.88412464747
 20
3048.036426392835
 30
0.0
 40
175.0000000000008
 50
43.14508956891537
 51
30.01846016495949
  0
CIRCLE
  5
B127D
  8
0
 10
30512.37277626811
 20
3144.881466525149
 30
0.0
 40
23.0
  0
ARC
  5
B127E
  8
0
 10
30381.88412464747
 20
3048.036426392835
 30
0.0
 40
175.0000000000008
 50
43.14508956891537
 51
30.01846016495949
  0
CIRCLE
  5
B127F
  8
0
 10
27912.162340699
 20
7189.016956538597
 30
0.0
 40
23.0
  0
ARC
  5
B1280
  8
0
 10
27781.67368907836
 20
7092.171916406282
 30
0.0
 40
175.0000000000008
 50
43.14508956891537
 51
30.01846016495949
  0
CIRCLE
  5
B1281
  8
0
 10
29312.37277626812
 20
7189.016956538597
 30
0.0
 40
23.0
  0
ARC
  5
B1282
  8
0
 10
29181.88412464748
 20
7092.171916406282
 30
0.0
 40
175.0000000000008
 50
43.14508956891537
 51
30.01846016495949
  0
CIRCLE
  5
B1283
  8
0
 10
29912.37277626812
 20
7189.016956538597
 30
0.0
 40
23.0
  0
ARC
  5
B1284
  8
0
 10
29781.88412464748
 20
7092.171916406282
 30
0.0
 40
175.0000000000008
 50
43.14508956891537
 51
30.01846016495949
  0
CIRCLE
  5
B1285
  8
0
 10
30512.37277626812
 20
7189.016956538597
 30
0.0
 40
23.0
  0
ARC
  5
B1286
  8
0
 10
30381.88412464748
 20
7092.171916406282
 30
0.0
 40
175.0000000000008
 50
43.14508956891537
 51
30.01846016495949
  0
CIRCLE
  5
B1287
  8
0
 10
31112.37277626812
 20
7189.016956538597
 30
0.0
 40
23.0
  0
ARC
  5
B1288
  8
0
 10
30981.88412464748
 20
7092.171916406282
 30
0.0
 40
175.0000000000008
 50
43.14508956891537
 51
30.01846016495949
  0
CIRCLE
  5
B1289
  8
0
 10
31712.37277626812
 20
7189.016956538597
 30
0.0
 40
23.0
  0
ARC
  5
B128A
  8
0
 10
31581.88412464748
 20
7092.171916406282
 30
0.0
 40
175.0000000000008
 50
43.14508956891537
 51
30.01846016495949
  0
CIRCLE
  5
B128B
  8
0
 10
32312.37277626812
 20
7189.016956538597
 30
0.0
 40
23.0
  0
ARC
  5
B128C
  8
0
 10
32181.88412464748
 20
7092.171916406282
 30
0.0
 40
175.0000000000008
 50
43.14508956891537
 51
30.01846016495949
  0
CIRCLE
  5
B1290
  8
0
 10
14981.06095695688
 20
3144.88146652515
 30
0.0
 40
23.0
  0
ARC
  5
B1291
  8
0
 10
14850.57230533624
 20
3048.036426392835
 30
0.0
 40
175.0000000000008
 50
43.14508956891537
 51
30.01846016495949
  0
CIRCLE
  5
B1292
  8
0
 10
13610.97285896046
 20
3144.881466525149
 30
0.0
 40
23.0
  0
ARC
  5
B1293
  8
0
 10
13480.48420733982
 20
3048.036426392835
 30
0.0
 40
175.0000000000008
 50
43.14508956891537
 51
30.01846016495949
  0
CIRCLE
  5
B1294
  8
0
 10
12240.88476096404
 20
3144.881466525149
 30
0.0
 40
23.0
  0
ARC
  5
B1295
  8
0
 10
12110.3961093434
 20
3048.036426392835
 30
0.0
 40
175.0000000000008
 50
43.14508956891537
 51
30.01846016495949
  0
CIRCLE
  5
B1296
  8
0
 10
10870.79666296763
 20
3144.881466525149
 30
0.0
 40
23.0
  0
ARC
  5
B1297
  8
0
 10
10740.30801134699
 20
3048.036426392835
 30
0.0
 40
175.0000000000008
 50
43.14508956891537
 51
30.01846016495949
  0
CIRCLE
  5
B1298
  8
0
 10
9500.70856497122
 20
3144.881466525149
 30
0.0
 40
23.0
  0
ARC
  5
B1299
  8
0
 10
9370.219913350578
 20
3048.036426392835
 30
0.0
 40
175.0000000000008
 50
43.14508956891537
 51
30.01846016495949
  0
CIRCLE
  5
B129A
  8
0
 10
14981.06095695688
 20
5878.016956538595
 30
0.0
 40
23.0
  0
ARC
  5
B129B
  8
0
 10
14850.57230533624
 20
5781.171916406282
 30
0.0
 40
175.0000000000008
 50
43.14508956891537
 51
30.01846016495949
  0
CIRCLE
  5
B129C
  8
0
 10
13610.97285896046
 20
5878.016956538595
 30
0.0
 40
23.0
  0
ARC
  5
B129D
  8
0
 10
13480.48420733982
 20
5781.171916406281
 30
0.0
 40
175.0000000000008
 50
43.14508956891537
 51
30.01846016495949
  0
CIRCLE
  5
B129E
  8
0
 10
12240.88476096404
 20
5878.016956538595
 30
0.0
 40
23.0
  0
ARC
  5
B129F
  8
0
 10
12110.3961093434
 20
5781.171916406281
 30
0.0
 40
175.0000000000008
 50
43.14508956891537
 51
30.01846016495949
  0
CIRCLE
  5
B12A0
  8
0
 10
10870.79666296763
 20
5878.016956538595
 30
0.0
 40
23.0
  0
ARC
  5
B12A1
  8
0
 10
10740.30801134699
 20
5781.171916406281
 30
0.0
 40
175.0000000000008
 50
43.14508956891537
 51
30.01846016495949
  0
CIRCLE
  5
B12A2
  8
0
 10
9500.70856497122
 20
5878.016956538595
 30
0.0
 40
23.0
  0
ARC
  5
B12A3
  8
0
 10
9370.219913350578
 20
5781.171916406281
 30
0.0
 40
175.0000000000008
 50
43.14508956891537
 51
30.01846016495949
  0
CIRCLE
  5
B12A4
  8
0
 10
14981.06095695688
 20
8711.152446552043
 30
0.0
 40
23.0
  0
ARC
  5
B12A5
  8
0
 10
14850.57230533624
 20
8614.307406419728
 30
0.0
 40
175.0000000000008
 50
43.14508956891537
 51
30.01846016495949
  0
CIRCLE
  5
B12A6
  8
0
 10
13610.97285896046
 20
8711.152446552042
 30
0.0
 40
23.0
  0
ARC
  5
B12A7
  8
0
 10
13480.48420733982
 20
8614.307406419728
 30
0.0
 40
175.0000000000008
 50
43.14508956891537
 51
30.01846016495949
  0
CIRCLE
  5
B12A8
  8
0
 10
12240.88476096404
 20
8711.152446552042
 30
0.0
 40
23.0
  0
ARC
  5
B12A9
  8
0
 10
12110.3961093434
 20
8614.307406419728
 30
0.0
 40
175.0000000000008
 50
43.14508956891537
 51
30.01846016495949
  0
CIRCLE
  5
B12AA
  8
0
 10
10870.79666296763
 20
8711.152446552042
 30
0.0
 40
23.0
  0
ARC
  5
B12AB
  8
0
 10
10740.30801134699
 20
8614.307406419728
 30
0.0
 40
175.0000000000008
 50
43.14508956891537
 51
30.01846016495949
  0
CIRCLE
  5
B12AC
  8
0
 10
9500.70856497122
 20
8711.152446552042
 30
0.0
 40
23.0
  0
ARC
  5
B12AD
  8
0
 10
9370.219913350578
 20
8614.307406419728
 30
0.0
 40
175.0000000000008
 50
43.14508956891537
 51
30.01846016495949
  0
CIRCLE
  5
B12AE
  8
0
 10
14981.06095695688
 20
11844.28793656548
 30
0.0
 40
23.0
  0
ARC
  5
B12AF
  8
0
 10
14850.57230533624
 20
11747.44289643316
 30
0.0
 40
175.0000000000008
 50
43.14508956891537
 51
30.01846016495949
  0
CIRCLE
  5
B12B0
  8
0
 10
13610.97285896046
 20
11844.28793656547
 30
0.0
 40
23.0
  0
ARC
  5
B12B1
  8
0
 10
13480.48420733982
 20
11747.44289643316
 30
0.0
 40
175.0000000000008
 50
43.14508956891537
 51
30.01846016495949
  0
CIRCLE
  5
B12B2
  8
0
 10
12240.88476096404
 20
11844.28793656547
 30
0.0
 40
23.0
  0
ARC
  5
B12B3
  8
0
 10
12110.3961093434
 20
11747.44289643316
 30
0.0
 40
175.0000000000008
 50
43.14508956891537
 51
30.01846016495949
  0
CIRCLE
  5
B12B4
  8
0
 10
10870.79666296763
 20
11844.28793656547
 30
0.0
 40
23.0
  0
ARC
  5
B12B5
  8
0
 10
10740.30801134699
 20
11747.44289643316
 30
0.0
 40
175.0000000000008
 50
43.14508956891537
 51
30.01846016495949
  0
CIRCLE
  5
B12B6
  8
0
 10
9500.70856497122
 20
11844.28793656547
 30
0.0
 40
23.0
  0
ARC
  5
B12B7
  8
0
 10
9370.219913350578
 20
11747.44289643316
 30
0.0
 40
175.0000000000008
 50
43.14508956891537
 51
30.01846016495949
  0
CIRCLE
  5
B12B8
  8
0
 10
14981.06095695688
 20
15277.42342657893
 30
0.0
 40
23.0
  0
ARC
  5
B12B9
  8
0
 10
14850.57230533624
 20
15180.57838644662
 30
0.0
 40
175.0000000000008
 50
43.14508956891537
 51
30.01846016495949
  0
CIRCLE
  5
B12BA
  8
0
 10
13610.97285896046
 20
15277.42342657893
 30
0.0
 40
23.0
  0
ARC
  5
B12BB
  8
0
 10
13480.48420733982
 20
15180.57838644662
 30
0.0
 40
175.0000000000008
 50
43.14508956891537
 51
30.01846016495949
  0
CIRCLE
  5
B12BC
  8
0
 10
12240.88476096404
 20
15277.42342657893
 30
0.0
 40
23.0
  0
ARC
  5
B12BD
  8
0
 10
12110.3961093434
 20
15180.57838644662
 30
0.0
 40
175.0000000000008
 50
43.14508956891537
 51
30.01846016495949
  0
CIRCLE
  5
B12BE
  8
0
 10
10870.79666296763
 20
15277.42342657893
 30
0.0
 40
23.0
  0
ARC
  5
B12BF
  8
0
 10
10740.30801134699
 20
15180.57838644662
 30
0.0
 40
175.0000000000008
 50
43.14508956891537
 51
30.01846016495949
  0
CIRCLE
  5
B12C0
  8
0
 10
9500.70856497122
 20
15277.42342657893
 30
0.0
 40
23.0
  0
ARC
  5
B12C1
  8
0
 10
9370.219913350578
 20
15180.57838644662
 30
0.0
 40
175.0000000000008
 50
43.14508956891537
 51
30.01846016495949
  0
VIEWPORT
  5
4E
 67
     1
  8
0
 10
0.0
 20
0.0
 30
0.0
 40
851.2853464419466
 41
428.7008504942788
 68
     1
 69
     1
1001
ACAD
1000
MVIEW
1002
{
1070
    16
1010
0.0
1020
0.0
1030
0.0
1010
0.0
1020
0.0
1030
1.0
1040
0.0
1040
428.7008504942788
1040
5438.728388405139
1040
103.0511397757678
1040
50.0
1040
0.0
1040
0.0
1070
    16
1070
   100
1070
     1
1070
     1
1070
     0
1070
     0
1070
     0
1070
     0
1040
0.0
1040
0.0
1040
0.0
1040
1.0
1040
1.0
1040
0.0
1040
0.0
1070
     0
1002
{
1002
}
1002
}
  0
TEXT
  5
6A0D
 67
     1
  8
CLOTHES_RAIL
 10
1166.029996061232
 20
36.51875448083099
 30
0.0
 40
1.6
  1

  7
STILE1
 72
     1
 11
1166.029996061232
 21
36.51875448083099
 31
0.0
  0
TEXT
  5
220D4
 67
     1
  8
CLOTHES_RAIL
 10
1075.854083628048
 20
54.2187253812249
 30
0.0
 40
1.504
  1

  7
STILE4
  0
TEXT
  5
220D5
 67
     1
  8
0
 10
1099.486943584454
 20
54.27519572975143
 30
0.0
 40
1.296
  1

  7
STILE1
 72
     1
 11
1099.486943584454
 21
54.27519572975143
 31
0.0
  0
TEXT
  5
220D7
 67
     1
  8
0
 10
1163.382376406764
 20
54.27519572975143
 30
0.0
 40
1.296
  1

  7
STILE1
 72
     1
 11
1163.382376406764
 21
54.27519572975143
 31
0.0
  0
VIEWPORT
  5
7996C
 67
     1
  8
RETE
 10
5724.75813952323
 20
94.80832444904343
 30
0.0
 40
191.5
 41
236.132465228796
 68
     2
 69
     2
1001
ACAD
1000
MVIEW
1002
{
1070
    16
1010
167108.1207671265
1020
-11328.71929700901
1030
0.0
1010
0.0
1020
0.0
1030
1.0
1040
0.0
1040
5903.311630719954
1040
215823.6079317253
1040
34568.76605440148
1040
50.0
1040
0.0
1040
0.0
1070
    16
1070
   100
1070
     1
1070
     1
1070
     0
1070
     0
1070
     0
1070
     0
1040
0.0
1040
0.0
1040
0.0
1040
1.0
1040
1.0
1040
0.0
1040
0.0
1070
     0
1002
{
1002
}
1002
}
  0
LINE
  5
97E00
 67
     1
  8
RIPIANI
 10
5820.50813952323
 20
24.42642567457204
 30
0.0
 11
5820.50813952323
 21
-45.57357432542768
 31
0.0
  0
LINE
  5
97E05
 67
     1
  8
0
 10
5650.50813952323
 20
-38.07357432542761
 30
0.0
 11
5673.88152325309
 21
-38.07357432542762
 31
0.0
  0
LINE
  5
97E06
 67
     1
  8
RIPIANI
 10
5650.50813952323
 20
-45.57357432542761
 30
0.0
 11
5820.50813952323
 21
-45.57357432542768
 31
0.0
  0
TEXT
  5
97E0E
 67
     1
  8
0
 10
5660.24129088937
 20
-44.53779677976007
 30
0.0
 40
1.689599999999999
  1
.DWG
  7
STILE4
  0
LINE
  5
97E3C
 67
     1
  8
RIPIANI
 10
5628.50813952323
 20
-41.82357432542767
 30
0.0
 11
5673.88152325309
 21
-41.82357432542771
 31
0.0
  0
TEXT
  5
97E47
 67
     1
  8
CLOTHES_RAIL
 10
5702.521198378377
 20
-33.21312498230677
 30
0.0
 40
2.5
  1
MOBILE SHELVING SYSTEM MODEL "VELA/BINARIA"
  7
STILE1
 72
     1
 11
5750.257433497425
 21
-33.21312498230677
 31
0.0
  0
TEXT
  5
97E48
 67
     1
  8
CLOTHES_RAIL
 10
5723.58890671171
 20
-40.71312498230677
 30
0.0
 40
2.5
  1
WARDROBE CONFIGURATIONS
  7
STILE1
 72
     1
 11
5750.257433497425
 21
-40.71312498230677
 31
0.0
  0
TEXT
  5
97E56
 67
     1
  8
0
 10
5635.619679721409
 20
-44.53779677976007
 30
0.0
 40
1.689599999999999
  1
BINARIA-VELA-WR
  7
STILE4
  0
POLYLINE
  5
97E5B
 67
     1
  8
CLOTHES_RAIL
  6
CONTINUOUS
 66
     1
 10
0.0
 20
0.0
 30
0.0
 70
   128
  0
VERTEX
  5
B185A
 67
     1
  8
CLOTHES_RAIL
  6
CONTINUOUS
 10
5664.319098491812
 20
-36.22039648048771
 30
0.0
  0
VERTEX
  5
B185B
 67
     1
  8
CLOTHES_RAIL
  6
CONTINUOUS
 10
5664.319098491812
 20
-28.46717463803993
 30
0.0
  0
VERTEX
  5
B185C
 67
     1
  8
CLOTHES_RAIL
  6
CONTINUOUS
 10
5666.346089322976
 20
-28.46717463803993
 30
0.0
 42
-0.316444976687396
  0
VERTEX
  5
B185D
 67
     1
  8
CLOTHES_RAIL
  6
CONTINUOUS
 10
5667.365045214904
 20
-29.03206694489745
 30
0.0
  0
VERTEX
  5
B185E
 67
     1
  8
CLOTHES_RAIL
  6
CONTINUOUS
 10
5669.380908387647
 20
-32.43244509159917
 30
0.0
  0
VERTEX
  5
B185F
 67
     1
  8
CLOTHES_RAIL
  6
CONTINUOUS
 10
5669.436271072108
 20
-32.43244509159917
 30
0.0
  0
VERTEX
  5
B1860
 67
     1
  8
CLOTHES_RAIL
  6
CONTINUOUS
 10
5669.436271072108
 20
-28.46717463803993
 30
0.0
  0
VERTEX
  5
B1861
 67
     1
  8
CLOTHES_RAIL
  6
CONTINUOUS
 10
5671.684747092073
 20
-28.46717463803993
 30
0.0
  0
VERTEX
  5
B1862
 67
     1
  8
CLOTHES_RAIL
  6
CONTINUOUS
 10
5671.684747092073
 20
-36.22039648048771
 30
0.0
  0
VERTEX
  5
B1863
 67
     1
  8
CLOTHES_RAIL
  6
CONTINUOUS
 10
5670.034305197542
 20
-36.22039648048771
 30
0.0
 42
-0.312959769389874
  0
VERTEX
  5
B1864
 67
     1
  8
CLOTHES_RAIL
  6
CONTINUOUS
 10
5669.015349305614
 20
-35.65553862458513
 30
0.0
  0
VERTEX
  5
B1865
 67
     1
  8
CLOTHES_RAIL
  6
CONTINUOUS
 10
5666.62293719624
 20
-31.7900036853489
 30
0.0
  0
VERTEX
  5
B1866
 67
     1
  8
CLOTHES_RAIL
  6
CONTINUOUS
 10
5666.567643413688
 20
-31.7900036853489
 30
0.0
  0
VERTEX
  5
B1867
 67
     1
  8
CLOTHES_RAIL
  6
CONTINUOUS
 10
5666.567643413688
 20
-36.22039648048771
 30
0.0
  0
VERTEX
  5
B1868
 67
     1
  8
CLOTHES_RAIL
  6
CONTINUOUS
 10
5664.319098491812
 20
-36.22039648048771
 30
0.0
  0
SEQEND
  5
B1AB6
 67
     1
  8
CLOTHES_RAIL
  6
CONTINUOUS
  0
POLYLINE
  5
97E5C
 67
     1
  8
CLOTHES_RAIL
  6
CONTINUOUS
 66
     1
 10
0.0
 20
0.0
 30
0.0
 70
   128
  0
VERTEX
  5
B1869
 67
     1
  8
CLOTHES_RAIL
  6
CONTINUOUS
 10
5644.791849414121
 20
-36.22039648048771
 30
0.0
  0
VERTEX
  5
B186A
 67
     1
  8
CLOTHES_RAIL
  6
CONTINUOUS
 10
5644.791849414121
 20
-28.46717463803993
 30
0.0
  0
VERTEX
  5
B186B
 67
     1
  8
CLOTHES_RAIL
  6
CONTINUOUS
 10
5646.818840245284
 20
-28.46717463803993
 30
0.0
 42
-0.316444976687396
  0
VERTEX
  5
B186C
 67
     1
  8
CLOTHES_RAIL
  6
CONTINUOUS
 10
5647.837796137212
 20
-29.03206694489745
 30
0.0
  0
VERTEX
  5
B186D
 67
     1
  8
CLOTHES_RAIL
  6
CONTINUOUS
 10
5649.853659309954
 20
-32.43244509159917
 30
0.0
  0
VERTEX
  5
B186E
 67
     1
  8
CLOTHES_RAIL
  6
CONTINUOUS
 10
5649.909021994417
 20
-32.43244509159917
 30
0.0
  0
VERTEX
  5
B186F
 67
     1
  8
CLOTHES_RAIL
  6
CONTINUOUS
 10
5649.909021994417
 20
-28.46717463803993
 30
0.0
  0
VERTEX
  5
B1870
 67
     1
  8
CLOTHES_RAIL
  6
CONTINUOUS
 10
5652.157498014382
 20
-28.46717463803993
 30
0.0
  0
VERTEX
  5
B1871
 67
     1
  8
CLOTHES_RAIL
  6
CONTINUOUS
 10
5652.157498014382
 20
-36.22039648048771
 30
0.0
  0
VERTEX
  5
B1872
 67
     1
  8
CLOTHES_RAIL
  6
CONTINUOUS
 10
5650.50705611985
 20
-36.22039648048771
 30
0.0
 42
-0.312959769389874
  0
VERTEX
  5
B1873
 67
     1
  8
CLOTHES_RAIL
  6
CONTINUOUS
 10
5649.488100227923
 20
-35.65553862458513
 30
0.0
  0
VERTEX
  5
B1874
 67
     1
  8
CLOTHES_RAIL
  6
CONTINUOUS
 10
5647.095688118549
 20
-31.7900036853489
 30
0.0
  0
VERTEX
  5
B1875
 67
     1
  8
CLOTHES_RAIL
  6
CONTINUOUS
 10
5647.040394335996
 20
-31.7900036853489
 30
0.0
  0
VERTEX
  5
B1876
 67
     1
  8
CLOTHES_RAIL
  6
CONTINUOUS
 10
5647.040394335996
 20
-36.22039648048771
 30
0.0
  0
VERTEX
  5
B1877
 67
     1
  8
CLOTHES_RAIL
  6
CONTINUOUS
 10
5644.791849414121
 20
-36.22039648048771
 30
0.0
  0
SEQEND
  5
B1AB7
 67
     1
  8
CLOTHES_RAIL
  6
CONTINUOUS
  0
POLYLINE
  5
97E5D
 67
     1
  8
CLOTHES_RAIL
  6
CONTINUOUS
 66
     1
 10
0.0
 20
0.0
 30
0.0
 70
   128
  0
VERTEX
  5
B1878
 67
     1
  8
CLOTHES_RAIL
  6
CONTINUOUS
 10
5659.844332866811
 20
-28.46720908899488
 30
0.0
  0
VERTEX
  5
B1879
 67
     1
  8
CLOTHES_RAIL
  6
CONTINUOUS
 10
5659.844332866811
 20
-30.28367013500196
 30
0.0
  0
VERTEX
  5
B187A
 67
     1
  8
CLOTHES_RAIL
  6
CONTINUOUS
 10
5657.518411100318
 20
-30.28367013500196
 30
0.0
  0
VERTEX
  5
B187B
 67
     1
  8
CLOTHES_RAIL
  6
CONTINUOUS
 10
5657.518411100318
 20
-36.22039648048771
 30
0.0
  0
VERTEX
  5
B187C
 67
     1
  8
CLOTHES_RAIL
  6
CONTINUOUS
 10
5655.1370232965
 20
-36.22039648048771
 30
0.0
  0
VERTEX
  5
B187D
 67
     1
  8
CLOTHES_RAIL
  6
CONTINUOUS
 10
5655.1370232965
 20
-30.28367013500196
 30
0.0
  0
VERTEX
  5
B187E
 67
     1
  8
CLOTHES_RAIL
  6
CONTINUOUS
 10
5652.866360861604
 20
-30.28367013500196
 30
0.0
  0
VERTEX
  5
B187F
 67
     1
  8
CLOTHES_RAIL
  6
CONTINUOUS
 10
5652.866360861604
 20
-28.46720908899488
 30
0.0
  0
VERTEX
  5
B1880
 67
     1
  8
CLOTHES_RAIL
  6
CONTINUOUS
 10
5659.844332866811
 20
-28.46720908899488
 30
0.0
  0
SEQEND
  5
B1AB8
 67
     1
  8
CLOTHES_RAIL
  6
CONTINUOUS
  0
POLYLINE
  5
97E5E
 67
     1
  8
CLOTHES_RAIL
  6
CONTINUOUS
 66
     1
 10
0.0
 20
0.0
 30
0.0
 70
     1
  0
VERTEX
  5
B1881
 67
     1
  8
CLOTHES_RAIL
  6
CONTINUOUS
 10
5660.586406434521
 20
-28.46720908899488
 30
0.0
  0
VERTEX
  5
B1882
 67
     1
  8
CLOTHES_RAIL
  6
CONTINUOUS
 10
5662.967794238341
 20
-28.46720908899488
 30
0.0
  0
VERTEX
  5
B1883
 67
     1
  8
CLOTHES_RAIL
  6
CONTINUOUS
 10
5662.967794238341
 20
-36.22039648048771
 30
0.0
  0
VERTEX
  5
B1884
 67
     1
  8
CLOTHES_RAIL
  6
CONTINUOUS
 10
5660.586406434521
 20
-36.22039648048771
 30
0.0
  0
SEQEND
  5
B1AB9
 67
     1
  8
CLOTHES_RAIL
  6
CONTINUOUS
  0
POLYLINE
  5
97E5F
 67
     1
  8
CLOTHES_RAIL
  6
CONTINUOUS
 66
     1
 10
0.0
 20
0.0
 30
0.0
 70
   128
  0
VERTEX
  5
B1885
 67
     1
  8
CLOTHES_RAIL
  6
CONTINUOUS
 10
5636.28518518886
 20
-28.46724353994973
 30
0.0
  0
VERTEX
  5
B1886
 67
     1
  8
CLOTHES_RAIL
  6
CONTINUOUS
 10
5636.28518518886
 20
-30.25045941451572
 30
0.0
  0
VERTEX
  5
B1887
 67
     1
  8
CLOTHES_RAIL
  6
CONTINUOUS
 10
5632.563655240943
 20
-30.25045941451572
 30
0.0
  0
VERTEX
  5
B1888
 67
     1
  8
CLOTHES_RAIL
  6
CONTINUOUS
 10
5632.563655240943
 20
-31.78996923439411
 30
0.0
  0
VERTEX
  5
B1889
 67
     1
  8
CLOTHES_RAIL
  6
CONTINUOUS
 10
5635.166528233565
 20
-31.78996923439411
 30
0.0
  0
VERTEX
  5
B188A
 67
     1
  8
CLOTHES_RAIL
  6
CONTINUOUS
 10
5635.166528233565
 20
-33.45143543448086
 30
0.0
  0
VERTEX
  5
B188B
 67
     1
  8
CLOTHES_RAIL
  6
CONTINUOUS
 10
5632.563655240943
 20
-33.45143543448086
 30
0.0
  0
VERTEX
  5
B188C
 67
     1
  8
CLOTHES_RAIL
  6
CONTINUOUS
 10
5632.563655240943
 20
-36.22039648048771
 30
0.0
  0
VERTEX
  5
B188D
 67
     1
  8
CLOTHES_RAIL
  6
CONTINUOUS
 10
5630.182267437125
 20
-36.22039648048771
 30
0.0
  0
VERTEX
  5
B188E
 67
     1
  8
CLOTHES_RAIL
  6
CONTINUOUS
 10
5630.182267437125
 20
-28.46724353994973
 30
0.0
  0
VERTEX
  5
B188F
 67
     1
  8
CLOTHES_RAIL
  6
CONTINUOUS
 10
5636.28518518886
 20
-28.46724353994973
 30
0.0
  0
SEQEND
  5
B1ABA
 67
     1
  8
CLOTHES_RAIL
  6
CONTINUOUS
  0
POLYLINE
  5
97E60
 67
     1
  8
CLOTHES_RAIL
  6
CONTINUOUS
 66
     1
 10
0.0
 20
0.0
 30
0.0
 70
   128
  0
VERTEX
  5
B1890
 67
     1
  8
CLOTHES_RAIL
  6
CONTINUOUS
 10
5640.006887391551
 20
-30.60482193621716
 30
0.0
  0
VERTEX
  5
B1891
 67
     1
  8
CLOTHES_RAIL
  6
CONTINUOUS
 10
5640.671446310823
 20
-32.88657757857812
 30
0.0
  0
VERTEX
  5
B1892
 67
     1
  8
CLOTHES_RAIL
  6
CONTINUOUS
 10
5639.220475444938
 20
-32.88657757857812
 30
0.0
  0
VERTEX
  5
B1893
 67
     1
  8
CLOTHES_RAIL
  6
CONTINUOUS
 10
5639.885034364208
 20
-30.60482193621716
 30
0.0
  0
VERTEX
  5
B1894
 67
     1
  8
CLOTHES_RAIL
  6
CONTINUOUS
 10
5640.006887391551
 20
-30.60482193621716
 30
0.0
  0
SEQEND
  5
B1ABB
 67
     1
  8
CLOTHES_RAIL
  6
CONTINUOUS
  0
POLYLINE
  5
97E61
 67
     1
  8
CLOTHES_RAIL
  6
CONTINUOUS
 66
     1
 10
0.0
 20
0.0
 30
0.0
 70
   129
  0
VERTEX
  5
B1895
 67
     1
  8
CLOTHES_RAIL
  6
CONTINUOUS
 10
5641.136720660441
 20
-34.54794042580057
 30
0.0
  0
VERTEX
  5
B1896
 67
     1
  8
CLOTHES_RAIL
  6
CONTINUOUS
 10
5641.136720660441
 20
-34.54794042580057
 30
0.0
  0
VERTEX
  5
B1897
 67
     1
  8
CLOTHES_RAIL
  6
CONTINUOUS
 10
5641.623946310821
 20
-36.22039648048771
 30
0.0
  0
VERTEX
  5
B1898
 67
     1
  8
CLOTHES_RAIL
  6
CONTINUOUS
 10
5644.13828034945
 20
-36.22039648048771
 30
0.0
  0
VERTEX
  5
B1899
 67
     1
  8
CLOTHES_RAIL
  6
CONTINUOUS
 10
5641.790103266118
 20
-29.16490982684213
 30
0.0
 42
0.1089385125692126
  0
VERTEX
  5
B189A
 67
     1
  8
CLOTHES_RAIL
  6
CONTINUOUS
 10
5641.535266069767
 20
-28.61148707243616
 30
0.0
 42
0.1589313772246072
  0
VERTEX
  5
B189B
 67
     1
  8
CLOTHES_RAIL
  6
CONTINUOUS
 10
5641.295349565985
 20
-28.46578963330632
 30
0.0
 42
0.058673645385263
  0
VERTEX
  5
B189C
 67
     1
  8
CLOTHES_RAIL
  6
CONTINUOUS
 10
5640.970446148061
 20
-28.43396391755392
 30
0.0
  0
VERTEX
  5
B189D
 67
     1
  8
CLOTHES_RAIL
  6
CONTINUOUS
 10
5640.970446148061
 20
-28.43396391755392
 30
0.0
  0
VERTEX
  5
B189E
 67
     1
  8
CLOTHES_RAIL
  6
CONTINUOUS
 10
5639.065480599017
 20
-28.43396391755392
 30
0.0
 42
0.058673645385263
  0
VERTEX
  5
B189F
 67
     1
  8
CLOTHES_RAIL
  6
CONTINUOUS
 10
5638.740577181096
 20
-28.46578963330632
 30
0.0
 42
0.1589313772246072
  0
VERTEX
  5
B18A0
 67
     1
  8
CLOTHES_RAIL
  6
CONTINUOUS
 10
5638.500660677312
 20
-28.61148707243616
 30
0.0
 42
0.1089385125692126
  0
VERTEX
  5
B18A1
 67
     1
  8
CLOTHES_RAIL
  6
CONTINUOUS
 10
5638.245823480962
 20
-29.16490982684213
 30
0.0
  0
VERTEX
  5
B18A2
 67
     1
  8
CLOTHES_RAIL
  6
CONTINUOUS
 10
5635.89764639763
 20
-36.22039648048771
 30
0.0
  0
VERTEX
  5
B18A3
 67
     1
  8
CLOTHES_RAIL
  6
CONTINUOUS
 10
5638.278965299539
 20
-36.22039648048771
 30
0.0
  0
VERTEX
  5
B18A4
 67
     1
  8
CLOTHES_RAIL
  6
CONTINUOUS
 10
5638.755215299539
 20
-34.54794042580057
 30
0.0
  0
SEQEND
  5
B1ABC
 67
     1
  8
CLOTHES_RAIL
  6
CONTINUOUS
  0
POLYLINE
  5
9F317
 67
     1
  8
RIPIANI
 66
     1
 10
0.0
 20
0.0
 30
0.0
 70
     1
  0
VERTEX
  5
B18A5
 67
     1
  8
RIPIANI
 10
5628.50813952323
 20
-45.57357432542768
 30
0.0
  0
VERTEX
  5
B18A6
 67
     1
  8
RIPIANI
 10
5628.50813952323
 20
216.4264256745723
 30
0.0
  0
VERTEX
  5
B18A7
 67
     1
  8
RIPIANI
 10
5820.50813952323
 20
216.4264256745723
 30
0.0
  0
VERTEX
  5
B18A8
 67
     1
  8
RIPIANI
 10
5820.50813952323
 20
-45.57357432542768
 30
0.0
  0
SEQEND
  5
B1ABD
 67
     1
  8
RIPIANI
  0
LINE
  5
9F31B
 67
     1
  8
0
 10
5628.50813952323
 20
-38.07357432542767
 30
0.0
 11
5670.588191806098
 21
-38.07357432542771
 31
0.0
  0
TEXT
  5
9F31D
 67
     1
  8
0
 10
5643.254368161313
 20
-40.82492040620856
 30
0.0
 40
2.0
  1
02.03.2015
  7
STILE4
  0
LINE
  5
9F31E
 67
     1
  8
0
 10
5628.50813952323
 20
-26.25196840229718
 30
0.0
 11
5670.588191806098
 21
-26.25196840229721
 31
0.0
  0
POLYLINE
  5
9F320
 67
     1
  8
RIPIANI
 66
     1
 10
0.0
 20
0.0
 30
0.0
 70
     1
  0
VERTEX
  5
B18A9
 67
     1
  8
RIPIANI
 10
5628.50813952323
 20
-26.25196840229718
 30
0.0
  0
VERTEX
  5
B18AA
 67
     1
  8
RIPIANI
 10
5628.50813952323
 20
-38.07357432542761
 30
0.0
  0
VERTEX
  5
B18AB
 67
     1
  8
RIPIANI
 10
5673.88152325309
 20
-38.07357432542761
 30
0.0
  0
VERTEX
  5
B18AC
 67
     1
  8
RIPIANI
 10
5673.88152325309
 20
-26.25196840229718
 30
0.0
  0
SEQEND
  5
B1ABE
 67
     1
  8
RIPIANI
  0
POLYLINE
  5
9F321
 67
     1
  8
RIPIANI
 66
     1
 10
0.0
 20
0.0
 30
0.0
 70
     1
  0
VERTEX
  5
B18AD
 67
     1
  8
RIPIANI
 10
5628.50813952323
 20
-38.07357432542761
 30
0.0
  0
VERTEX
  5
B18AE
 67
     1
  8
RIPIANI
 10
5628.50813952323
 20
-45.57357432542768
 30
0.0
  0
VERTEX
  5
B18AF
 67
     1
  8
RIPIANI
 10
5673.88152325309
 20
-45.57357432542768
 30
0.0
  0
VERTEX
  5
B18B0
 67
     1
  8
RIPIANI
 10
5673.88152325309
 20
-38.07357432542761
 30
0.0
  0
SEQEND
  5
B1ABF
 67
     1
  8
RIPIANI
  0
LINE
  5
9F322
 67
     1
  8
RIPIANI
 10
5673.88152325309
 20
-26.25196840229718
 30
0.0
 11
5820.50813952323
 21
-26.25196840229718
 31
0.0
  0
VIEWPORT
  5
A0224
 67
     1
  8
RETE
 10
5526.66357023484
 20
94.80832444904343
 30
0.0
 40
191.5
 41
236.132465228796
 68
     3
 69
     3
1001
ACAD
1000
MVIEW
1002
{
1070
    16
1010
176664.735461242
1020
-9778.968366194693
1030
0.0
1010
0.0
1020
0.0
1030
1.0
1040
0.0
1040
5274.119454668937
1040
215823.6079317253
1040
34568.76605440148
1040
50.0
1040
0.0
1040
0.0
1070
    16
1070
   100
1070
     1
1070
     1
1070
     0
1070
     0
1070
     0
1070
     0
1040
0.0
1040
0.0
1040
0.0
1040
1.0
1040
1.0
1040
0.0
1040
0.0
1070
     0
1002
{
1002
}
1002
}
  0
LINE
  5
A0226
 67
     1
  8
RIPIANI
 10
5622.41357023484
 20
24.42642567457204
 30
0.0
 11
5622.41357023484
 21
-45.57357432542768
 31
0.0
  0
POLYLINE
  5
A0235
 67
     1
  8
RIPIANI
 66
     1
 10
0.0
 20
0.0
 30
0.0
 70
     1
  0
VERTEX
  5
B18B1
 67
     1
  8
RIPIANI
 10
5430.41357023484
 20
-45.57357432542768
 30
0.0
  0
VERTEX
  5
B18B2
 67
     1
  8
RIPIANI
 10
5430.41357023484
 20
216.4264256745723
 30
0.0
  0
VERTEX
  5
B18B3
 67
     1
  8
RIPIANI
 10
5622.41357023484
 20
216.4264256745723
 30
0.0
  0
VERTEX
  5
B18B4
 67
     1
  8
RIPIANI
 10
5622.41357023484
 20
-45.57357432542768
 30
0.0
  0
SEQEND
  5
B1AC0
 67
     1
  8
RIPIANI
  0
LINE
  5
A0552
 67
     1
  8
0
 10
5452.41357023484
 20
-38.07357432542761
 30
0.0
 11
5475.786953964698
 21
-38.07357432542762
 31
0.0
  0
LINE
  5
A0553
 67
     1
  8
RIPIANI
 10
5452.41357023484
 20
-45.57357432542761
 30
0.0
 11
5622.41357023484
 21
-45.57357432542768
 31
0.0
  0
TEXT
  5
A0554
 67
     1
  8
0
 10
5462.14672160098
 20
-44.53779677976007
 30
0.0
 40
1.689599999999999
  1
.DWG
  7
STILE4
  0
LINE
  5
A0555
 67
     1
  8
RIPIANI
 10
5430.41357023484
 20
-41.82357432542767
 30
0.0
 11
5475.786953964698
 21
-41.82357432542771
 31
0.0
  0
TEXT
  5
A0556
 67
     1
  8
CLOTHES_RAIL
 10
5504.426629089988
 20
-33.21312498230677
 30
0.0
 40
2.5
  1
MOBILE SHELVING SYSTEM MODEL "VELA/BINARIA"
  7
STILE1
 72
     1
 11
5552.162864209035
 21
-33.21312498230677
 31
0.0
  0
TEXT
  5
A0557
 67
     1
  8
CLOTHES_RAIL
 10
5525.494337423321
 20
-40.71312498230677
 30
0.0
 40
2.5
  1
WARDROBE CONFIGURATIONS
  7
STILE1
 72
     1
 11
5552.162864209035
 21
-40.71312498230677
 31
0.0
  0
TEXT
  5
A0558
 67
     1
  8
0
 10
5437.525110433019
 20
-44.53779677976007
 30
0.0
 40
1.689599999999999
  1
BINARIA-VELA-WR
  7
STILE4
  0
POLYLINE
  5
A0559
 67
     1
  8
CLOTHES_RAIL
  6
CONTINUOUS
 66
     1
 10
0.0
 20
0.0
 30
0.0
 70
   128
  0
VERTEX
  5
B18B5
 67
     1
  8
CLOTHES_RAIL
  6
CONTINUOUS
 10
5466.224529203422
 20
-36.22039648048771
 30
0.0
  0
VERTEX
  5
B18B6
 67
     1
  8
CLOTHES_RAIL
  6
CONTINUOUS
 10
5466.224529203422
 20
-28.46717463803993
 30
0.0
  0
VERTEX
  5
B18B7
 67
     1
  8
CLOTHES_RAIL
  6
CONTINUOUS
 10
5468.251520034586
 20
-28.46717463803993
 30
0.0
 42
-0.316444976687396
  0
VERTEX
  5
B18B8
 67
     1
  8
CLOTHES_RAIL
  6
CONTINUOUS
 10
5469.270475926514
 20
-29.03206694489745
 30
0.0
  0
VERTEX
  5
B18B9
 67
     1
  8
CLOTHES_RAIL
  6
CONTINUOUS
 10
5471.286339099256
 20
-32.43244509159917
 30
0.0
  0
VERTEX
  5
B18BA
 67
     1
  8
CLOTHES_RAIL
  6
CONTINUOUS
 10
5471.341701783718
 20
-32.43244509159917
 30
0.0
  0
VERTEX
  5
B18BB
 67
     1
  8
CLOTHES_RAIL
  6
CONTINUOUS
 10
5471.341701783718
 20
-28.46717463803993
 30
0.0
  0
VERTEX
  5
B18BC
 67
     1
  8
CLOTHES_RAIL
  6
CONTINUOUS
 10
5473.590177803683
 20
-28.46717463803993
 30
0.0
  0
VERTEX
  5
B18BD
 67
     1
  8
CLOTHES_RAIL
  6
CONTINUOUS
 10
5473.590177803683
 20
-36.22039648048771
 30
0.0
  0
VERTEX
  5
B18BE
 67
     1
  8
CLOTHES_RAIL
  6
CONTINUOUS
 10
5471.939735909153
 20
-36.22039648048771
 30
0.0
 42
-0.312959769389874
  0
VERTEX
  5
B18BF
 67
     1
  8
CLOTHES_RAIL
  6
CONTINUOUS
 10
5470.920780017224
 20
-35.65553862458513
 30
0.0
  0
VERTEX
  5
B18C0
 67
     1
  8
CLOTHES_RAIL
  6
CONTINUOUS
 10
5468.52836790785
 20
-31.7900036853489
 30
0.0
  0
VERTEX
  5
B18C1
 67
     1
  8
CLOTHES_RAIL
  6
CONTINUOUS
 10
5468.473074125298
 20
-31.7900036853489
 30
0.0
  0
VERTEX
  5
B18C2
 67
     1
  8
CLOTHES_RAIL
  6
CONTINUOUS
 10
5468.473074125298
 20
-36.22039648048771
 30
0.0
  0
VERTEX
  5
B18C3
 67
     1
  8
CLOTHES_RAIL
  6
CONTINUOUS
 10
5466.224529203422
 20
-36.22039648048771
 30
0.0
  0
SEQEND
  5
B1AC1
 67
     1
  8
CLOTHES_RAIL
  6
CONTINUOUS
  0
POLYLINE
  5
A055A
 67
     1
  8
CLOTHES_RAIL
  6
CONTINUOUS
 66
     1
 10
0.0
 20
0.0
 30
0.0
 70
   128
  0
VERTEX
  5
B18C4
 67
     1
  8
CLOTHES_RAIL
  6
CONTINUOUS
 10
5446.697280125732
 20
-36.22039648048771
 30
0.0
  0
VERTEX
  5
B18C5
 67
     1
  8
CLOTHES_RAIL
  6
CONTINUOUS
 10
5446.697280125732
 20
-28.46717463803993
 30
0.0
  0
VERTEX
  5
B18C6
 67
     1
  8
CLOTHES_RAIL
  6
CONTINUOUS
 10
5448.724270956895
 20
-28.46717463803993
 30
0.0
 42
-0.316444976687396
  0
VERTEX
  5
B18C7
 67
     1
  8
CLOTHES_RAIL
  6
CONTINUOUS
 10
5449.743226848822
 20
-29.03206694489745
 30
0.0
  0
VERTEX
  5
B18C8
 67
     1
  8
CLOTHES_RAIL
  6
CONTINUOUS
 10
5451.759090021564
 20
-32.43244509159917
 30
0.0
  0
VERTEX
  5
B18C9
 67
     1
  8
CLOTHES_RAIL
  6
CONTINUOUS
 10
5451.814452706026
 20
-32.43244509159917
 30
0.0
  0
VERTEX
  5
B18CA
 67
     1
  8
CLOTHES_RAIL
  6
CONTINUOUS
 10
5451.814452706026
 20
-28.46717463803993
 30
0.0
  0
VERTEX
  5
B18CB
 67
     1
  8
CLOTHES_RAIL
  6
CONTINUOUS
 10
5454.062928725992
 20
-28.46717463803993
 30
0.0
  0
VERTEX
  5
B18CC
 67
     1
  8
CLOTHES_RAIL
  6
CONTINUOUS
 10
5454.062928725992
 20
-36.22039648048771
 30
0.0
  0
VERTEX
  5
B18CD
 67
     1
  8
CLOTHES_RAIL
  6
CONTINUOUS
 10
5452.412486831462
 20
-36.22039648048771
 30
0.0
 42
-0.312959769389874
  0
VERTEX
  5
B18CE
 67
     1
  8
CLOTHES_RAIL
  6
CONTINUOUS
 10
5451.393530939535
 20
-35.65553862458513
 30
0.0
  0
VERTEX
  5
B18CF
 67
     1
  8
CLOTHES_RAIL
  6
CONTINUOUS
 10
5449.001118830159
 20
-31.7900036853489
 30
0.0
  0
VERTEX
  5
B18D0
 67
     1
  8
CLOTHES_RAIL
  6
CONTINUOUS
 10
5448.945825047606
 20
-31.7900036853489
 30
0.0
  0
VERTEX
  5
B18D1
 67
     1
  8
CLOTHES_RAIL
  6
CONTINUOUS
 10
5448.945825047606
 20
-36.22039648048771
 30
0.0
  0
VERTEX
  5
B18D2
 67
     1
  8
CLOTHES_RAIL
  6
CONTINUOUS
 10
5446.697280125732
 20
-36.22039648048771
 30
0.0
  0
SEQEND
  5
B1AC2
 67
     1
  8
CLOTHES_RAIL
  6
CONTINUOUS
  0
POLYLINE
  5
A055B
 67
     1
  8
CLOTHES_RAIL
  6
CONTINUOUS
 66
     1
 10
0.0
 20
0.0
 30
0.0
 70
   128
  0
VERTEX
  5
B18D3
 67
     1
  8
CLOTHES_RAIL
  6
CONTINUOUS
 10
5461.749763578423
 20
-28.46720908899488
 30
0.0
  0
VERTEX
  5
B18D4
 67
     1
  8
CLOTHES_RAIL
  6
CONTINUOUS
 10
5461.749763578423
 20
-30.28367013500196
 30
0.0
  0
VERTEX
  5
B18D5
 67
     1
  8
CLOTHES_RAIL
  6
CONTINUOUS
 10
5459.42384181193
 20
-30.28367013500196
 30
0.0
  0
VERTEX
  5
B18D6
 67
     1
  8
CLOTHES_RAIL
  6
CONTINUOUS
 10
5459.42384181193
 20
-36.22039648048771
 30
0.0
  0
VERTEX
  5
B18D7
 67
     1
  8
CLOTHES_RAIL
  6
CONTINUOUS
 10
5457.042454008109
 20
-36.22039648048771
 30
0.0
  0
VERTEX
  5
B18D8
 67
     1
  8
CLOTHES_RAIL
  6
CONTINUOUS
 10
5457.042454008109
 20
-30.28367013500196
 30
0.0
  0
VERTEX
  5
B18D9
 67
     1
  8
CLOTHES_RAIL
  6
CONTINUOUS
 10
5454.771791573215
 20
-30.28367013500196
 30
0.0
  0
VERTEX
  5
B18DA
 67
     1
  8
CLOTHES_RAIL
  6
CONTINUOUS
 10
5454.771791573215
 20
-28.46720908899488
 30
0.0
  0
VERTEX
  5
B18DB
 67
     1
  8
CLOTHES_RAIL
  6
CONTINUOUS
 10
5461.749763578423
 20
-28.46720908899488
 30
0.0
  0
SEQEND
  5
B1AC3
 67
     1
  8
CLOTHES_RAIL
  6
CONTINUOUS
  0
POLYLINE
  5
A055C
 67
     1
  8
CLOTHES_RAIL
  6
CONTINUOUS
 66
     1
 10
0.0
 20
0.0
 30
0.0
 70
     1
  0
VERTEX
  5
B18DC
 67
     1
  8
CLOTHES_RAIL
  6
CONTINUOUS
 10
5462.49183714613
 20
-28.46720908899488
 30
0.0
  0
VERTEX
  5
B18DD
 67
     1
  8
CLOTHES_RAIL
  6
CONTINUOUS
 10
5464.87322494995
 20
-28.46720908899488
 30
0.0
  0
VERTEX
  5
B18DE
 67
     1
  8
CLOTHES_RAIL
  6
CONTINUOUS
 10
5464.87322494995
 20
-36.22039648048771
 30
0.0
  0
VERTEX
  5
B18DF
 67
     1
  8
CLOTHES_RAIL
  6
CONTINUOUS
 10
5462.49183714613
 20
-36.22039648048771
 30
0.0
  0
SEQEND
  5
B1AC4
 67
     1
  8
CLOTHES_RAIL
  6
CONTINUOUS
  0
POLYLINE
  5
A055D
 67
     1
  8
CLOTHES_RAIL
  6
CONTINUOUS
 66
     1
 10
0.0
 20
0.0
 30
0.0
 70
   128
  0
VERTEX
  5
B18E0
 67
     1
  8
CLOTHES_RAIL
  6
CONTINUOUS
 10
5438.190615900471
 20
-28.46724353994973
 30
0.0
  0
VERTEX
  5
B18E1
 67
     1
  8
CLOTHES_RAIL
  6
CONTINUOUS
 10
5438.190615900471
 20
-30.25045941451572
 30
0.0
  0
VERTEX
  5
B18E2
 67
     1
  8
CLOTHES_RAIL
  6
CONTINUOUS
 10
5434.469085952553
 20
-30.25045941451572
 30
0.0
  0
VERTEX
  5
B18E3
 67
     1
  8
CLOTHES_RAIL
  6
CONTINUOUS
 10
5434.469085952553
 20
-31.78996923439411
 30
0.0
  0
VERTEX
  5
B18E4
 67
     1
  8
CLOTHES_RAIL
  6
CONTINUOUS
 10
5437.071958945176
 20
-31.78996923439411
 30
0.0
  0
VERTEX
  5
B18E5
 67
     1
  8
CLOTHES_RAIL
  6
CONTINUOUS
 10
5437.071958945176
 20
-33.45143543448086
 30
0.0
  0
VERTEX
  5
B18E6
 67
     1
  8
CLOTHES_RAIL
  6
CONTINUOUS
 10
5434.469085952553
 20
-33.45143543448086
 30
0.0
  0
VERTEX
  5
B18E7
 67
     1
  8
CLOTHES_RAIL
  6
CONTINUOUS
 10
5434.469085952553
 20
-36.22039648048771
 30
0.0
  0
VERTEX
  5
B18E8
 67
     1
  8
CLOTHES_RAIL
  6
CONTINUOUS
 10
5432.087698148734
 20
-36.22039648048771
 30
0.0
  0
VERTEX
  5
B18E9
 67
     1
  8
CLOTHES_RAIL
  6
CONTINUOUS
 10
5432.087698148734
 20
-28.46724353994973
 30
0.0
  0
VERTEX
  5
B18EA
 67
     1
  8
CLOTHES_RAIL
  6
CONTINUOUS
 10
5438.190615900471
 20
-28.46724353994973
 30
0.0
  0
SEQEND
  5
B1AC5
 67
     1
  8
CLOTHES_RAIL
  6
CONTINUOUS
  0
POLYLINE
  5
A055E
 67
     1
  8
CLOTHES_RAIL
  6
CONTINUOUS
 66
     1
 10
0.0
 20
0.0
 30
0.0
 70
   128
  0
VERTEX
  5
B18EB
 67
     1
  8
CLOTHES_RAIL
  6
CONTINUOUS
 10
5441.912318103162
 20
-30.60482193621716
 30
0.0
  0
VERTEX
  5
B18EC
 67
     1
  8
CLOTHES_RAIL
  6
CONTINUOUS
 10
5442.576877022433
 20
-32.88657757857812
 30
0.0
  0
VERTEX
  5
B18ED
 67
     1
  8
CLOTHES_RAIL
  6
CONTINUOUS
 10
5441.125906156548
 20
-32.88657757857812
 30
0.0
  0
VERTEX
  5
B18EE
 67
     1
  8
CLOTHES_RAIL
  6
CONTINUOUS
 10
5441.790465075818
 20
-30.60482193621716
 30
0.0
  0
VERTEX
  5
B18EF
 67
     1
  8
CLOTHES_RAIL
  6
CONTINUOUS
 10
5441.912318103162
 20
-30.60482193621716
 30
0.0
  0
SEQEND
  5
B1AC6
 67
     1
  8
CLOTHES_RAIL
  6
CONTINUOUS
  0
POLYLINE
  5
A055F
 67
     1
  8
CLOTHES_RAIL
  6
CONTINUOUS
 66
     1
 10
0.0
 20
0.0
 30
0.0
 70
   129
  0
VERTEX
  5
B18F0
 67
     1
  8
CLOTHES_RAIL
  6
CONTINUOUS
 10
5443.042151372053
 20
-34.54794042580057
 30
0.0
  0
VERTEX
  5
B18F1
 67
     1
  8
CLOTHES_RAIL
  6
CONTINUOUS
 10
5443.042151372053
 20
-34.54794042580057
 30
0.0
  0
VERTEX
  5
B18F2
 67
     1
  8
CLOTHES_RAIL
  6
CONTINUOUS
 10
5443.529377022432
 20
-36.22039648048771
 30
0.0
  0
VERTEX
  5
B18F3
 67
     1
  8
CLOTHES_RAIL
  6
CONTINUOUS
 10
5446.043711061061
 20
-36.22039648048771
 30
0.0
  0
VERTEX
  5
B18F4
 67
     1
  8
CLOTHES_RAIL
  6
CONTINUOUS
 10
5443.695533977728
 20
-29.16490982684213
 30
0.0
 42
0.1089385125692126
  0
VERTEX
  5
B18F5
 67
     1
  8
CLOTHES_RAIL
  6
CONTINUOUS
 10
5443.440696781376
 20
-28.61148707243616
 30
0.0
 42
0.1589313772246072
  0
VERTEX
  5
B18F6
 67
     1
  8
CLOTHES_RAIL
  6
CONTINUOUS
 10
5443.200780277596
 20
-28.46578963330632
 30
0.0
 42
0.058673645385263
  0
VERTEX
  5
B18F7
 67
     1
  8
CLOTHES_RAIL
  6
CONTINUOUS
 10
5442.875876859673
 20
-28.43396391755392
 30
0.0
  0
VERTEX
  5
B18F8
 67
     1
  8
CLOTHES_RAIL
  6
CONTINUOUS
 10
5442.875876859673
 20
-28.43396391755392
 30
0.0
  0
VERTEX
  5
B18F9
 67
     1
  8
CLOTHES_RAIL
  6
CONTINUOUS
 10
5440.970911310627
 20
-28.43396391755392
 30
0.0
 42
0.058673645385263
  0
VERTEX
  5
B18FA
 67
     1
  8
CLOTHES_RAIL
  6
CONTINUOUS
 10
5440.646007892707
 20
-28.46578963330632
 30
0.0
 42
0.1589313772246072
  0
VERTEX
  5
B18FB
 67
     1
  8
CLOTHES_RAIL
  6
CONTINUOUS
 10
5440.406091388922
 20
-28.61148707243616
 30
0.0
 42
0.1089385125692126
  0
VERTEX
  5
B18FC
 67
     1
  8
CLOTHES_RAIL
  6
CONTINUOUS
 10
5440.151254192572
 20
-29.16490982684213
 30
0.0
  0
VERTEX
  5
B18FD
 67
     1
  8
CLOTHES_RAIL
  6
CONTINUOUS
 10
5437.803077109239
 20
-36.22039648048771
 30
0.0
  0
VERTEX
  5
B18FE
 67
     1
  8
CLOTHES_RAIL
  6
CONTINUOUS
 10
5440.184396011148
 20
-36.22039648048771
 30
0.0
  0
VERTEX
  5
B18FF
 67
     1
  8
CLOTHES_RAIL
  6
CONTINUOUS
 10
5440.660646011148
 20
-34.54794042580057
 30
0.0
  0
SEQEND
  5
B1AC7
 67
     1
  8
CLOTHES_RAIL
  6
CONTINUOUS
  0
LINE
  5
A0560
 67
     1
  8
0
 10
5430.41357023484
 20
-38.07357432542767
 30
0.0
 11
5472.493622517709
 21
-38.07357432542771
 31
0.0
  0
TEXT
  5
A0561
 67
     1
  8
0
 10
5445.159798872925
 20
-40.82492040620856
 30
0.0
 40
2.0
  1
02.03.2015
  7
STILE4
  0
LINE
  5
A0562
 67
     1
  8
0
 10
5430.41357023484
 20
-26.25196840229718
 30
0.0
 11
5472.493622517709
 21
-26.25196840229721
 31
0.0
  0
POLYLINE
  5
A0563
 67
     1
  8
RIPIANI
 66
     1
 10
0.0
 20
0.0
 30
0.0
 70
     1
  0
VERTEX
  5
B1900
 67
     1
  8
RIPIANI
 10
5430.41357023484
 20
-26.25196840229718
 30
0.0
  0
VERTEX
  5
B1901
 67
     1
  8
RIPIANI
 10
5430.41357023484
 20
-38.07357432542761
 30
0.0
  0
VERTEX
  5
B1902
 67
     1
  8
RIPIANI
 10
5475.786953964698
 20
-38.07357432542761
 30
0.0
  0
VERTEX
  5
B1903
 67
     1
  8
RIPIANI
 10
5475.786953964698
 20
-26.25196840229718
 30
0.0
  0
SEQEND
  5
B1AC8
 67
     1
  8
RIPIANI
  0
POLYLINE
  5
A0564
 67
     1
  8
RIPIANI
 66
     1
 10
0.0
 20
0.0
 30
0.0
 70
     1
  0
VERTEX
  5
B1904
 67
     1
  8
RIPIANI
 10
5430.41357023484
 20
-38.07357432542761
 30
0.0
  0
VERTEX
  5
B1905
 67
     1
  8
RIPIANI
 10
5430.41357023484
 20
-45.57357432542768
 30
0.0
  0
VERTEX
  5
B1906
 67
     1
  8
RIPIANI
 10
5475.786953964698
 20
-45.57357432542768
 30
0.0
  0
VERTEX
  5
B1907
 67
     1
  8
RIPIANI
 10
5475.786953964698
 20
-38.07357432542761
 30
0.0
  0
SEQEND
  5
B1AC9
 67
     1
  8
RIPIANI
  0
LINE
  5
A0565
 67
     1
  8
RIPIANI
 10
5475.786953964698
 20
-26.25196840229718
 30
0.0
 11
5622.41357023484
 21
-26.25196840229718
 31
0.0
  0
LINE
  5
A05D1
 67
     1
  8
RIPIANI
 10
5403.971933088409
 20
23.52456288579168
 30
0.0
 11
5403.971933088409
 21
-46.47543711420802
 31
0.0
  0
POLYLINE
  5
A05D2
 67
     1
  8
RIPIANI
 66
     1
 10
0.0
 20
0.0
 30
0.0
 70
     1
  0
VERTEX
  5
B1908
 67
     1
  8
RIPIANI
 10
5211.97193308841
 20
-46.47543711420802
 30
0.0
  0
VERTEX
  5
B1909
 67
     1
  8
RIPIANI
 10
5211.97193308841
 20
215.524562885792
 30
0.0
  0
VERTEX
  5
B190A
 67
     1
  8
RIPIANI
 10
5403.971933088409
 20
215.524562885792
 30
0.0
  0
VERTEX
  5
B190B
 67
     1
  8
RIPIANI
 10
5403.971933088409
 20
-46.47543711420802
 30
0.0
  0
SEQEND
  5
B1ACA
 67
     1
  8
RIPIANI
  0
LINE
  5
A05D3
 67
     1
  8
0
 10
5233.971933088409
 20
-38.97543711420798
 30
0.0
 11
5257.345316818266
 21
-38.97543711420798
 31
0.0
  0
LINE
  5
A05D4
 67
     1
  8
RIPIANI
 10
5233.971933088409
 20
-46.47543711420797
 30
0.0
 11
5403.971933088409
 21
-46.47543711420802
 31
0.0
  0
TEXT
  5
A05D5
 67
     1
  8
0
 10
5243.70508445455
 20
-45.43965956854042
 30
0.0
 40
1.689599999999999
  1
.DWG
  7
STILE4
  0
LINE
  5
A05D6
 67
     1
  8
RIPIANI
 10
5211.97193308841
 20
-42.72543711420802
 30
0.0
 11
5257.345316818266
 21
-42.72543711420806
 31
0.0
  0
TEXT
  5
A05D7
 67
     1
  8
CLOTHES_RAIL
 10
5285.984991943557
 20
-34.11498777108713
 30
0.0
 40
2.5
  1
MOBILE SHELVING SYSTEM MODEL "VELA/BINARIA"
  7
STILE1
 72
     1
 11
5333.721227062605
 21
-34.11498777108713
 31
0.0
  0
TEXT
  5
A05D8
 67
     1
  8
CLOTHES_RAIL
 10
5307.05270027689
 20
-41.61498777108713
 30
0.0
 40
2.5
  1
WARDROBE CONFIGURATIONS
  7
STILE1
 72
     1
 11
5333.721227062605
 21
-41.61498777108713
 31
0.0
  0
TEXT
  5
A05D9
 67
     1
  8
0
 10
5219.083473286588
 20
-45.43965956854042
 30
0.0
 40
1.689599999999999
  1
BINARIA-VELA-WR
  7
STILE4
  0
POLYLINE
  5
A05DA
 67
     1
  8
CLOTHES_RAIL
  6
CONTINUOUS
 66
     1
 10
0.0
 20
0.0
 30
0.0
 70
   128
  0
VERTEX
  5
B190C
 67
     1
  8
CLOTHES_RAIL
  6
CONTINUOUS
 10
5247.782892056991
 20
-37.12225926926806
 30
0.0
  0
VERTEX
  5
B190D
 67
     1
  8
CLOTHES_RAIL
  6
CONTINUOUS
 10
5247.782892056991
 20
-29.36903742682029
 30
0.0
  0
VERTEX
  5
B190E
 67
     1
  8
CLOTHES_RAIL
  6
CONTINUOUS
 10
5249.809882888154
 20
-29.36903742682029
 30
0.0
 42
-0.316444976687396
  0
VERTEX
  5
B190F
 67
     1
  8
CLOTHES_RAIL
  6
CONTINUOUS
 10
5250.828838780082
 20
-29.93392973367783
 30
0.0
  0
VERTEX
  5
B1910
 67
     1
  8
CLOTHES_RAIL
  6
CONTINUOUS
 10
5252.844701952825
 20
-33.33430788037953
 30
0.0
  0
VERTEX
  5
B1911
 67
     1
  8
CLOTHES_RAIL
  6
CONTINUOUS
 10
5252.900064637286
 20
-33.33430788037953
 30
0.0
  0
VERTEX
  5
B1912
 67
     1
  8
CLOTHES_RAIL
  6
CONTINUOUS
 10
5252.900064637286
 20
-29.36903742682029
 30
0.0
  0
VERTEX
  5
B1913
 67
     1
  8
CLOTHES_RAIL
  6
CONTINUOUS
 10
5255.148540657252
 20
-29.36903742682029
 30
0.0
  0
VERTEX
  5
B1914
 67
     1
  8
CLOTHES_RAIL
  6
CONTINUOUS
 10
5255.148540657252
 20
-37.12225926926806
 30
0.0
  0
VERTEX
  5
B1915
 67
     1
  8
CLOTHES_RAIL
  6
CONTINUOUS
 10
5253.498098762722
 20
-37.12225926926806
 30
0.0
 42
-0.312959769389874
  0
VERTEX
  5
B1916
 67
     1
  8
CLOTHES_RAIL
  6
CONTINUOUS
 10
5252.479142870793
 20
-36.55740141336549
 30
0.0
  0
VERTEX
  5
B1917
 67
     1
  8
CLOTHES_RAIL
  6
CONTINUOUS
 10
5250.086730761418
 20
-32.69186647412927
 30
0.0
  0
VERTEX
  5
B1918
 67
     1
  8
CLOTHES_RAIL
  6
CONTINUOUS
 10
5250.031436978869
 20
-32.69186647412927
 30
0.0
  0
VERTEX
  5
B1919
 67
     1
  8
CLOTHES_RAIL
  6
CONTINUOUS
 10
5250.031436978869
 20
-37.12225926926806
 30
0.0
  0
VERTEX
  5
B191A
 67
     1
  8
CLOTHES_RAIL
  6
CONTINUOUS
 10
5247.782892056991
 20
-37.12225926926806
 30
0.0
  0
SEQEND
  5
B1ACB
 67
     1
  8
CLOTHES_RAIL
  6
CONTINUOUS
  0
POLYLINE
  5
A05DB
 67
     1
  8
CLOTHES_RAIL
  6
CONTINUOUS
 66
     1
 10
0.0
 20
0.0
 30
0.0
 70
   128
  0
VERTEX
  5
B191B
 67
     1
  8
CLOTHES_RAIL
  6
CONTINUOUS
 10
5228.2556429793
 20
-37.12225926926806
 30
0.0
  0
VERTEX
  5
B191C
 67
     1
  8
CLOTHES_RAIL
  6
CONTINUOUS
 10
5228.2556429793
 20
-29.36903742682029
 30
0.0
  0
VERTEX
  5
B191D
 67
     1
  8
CLOTHES_RAIL
  6
CONTINUOUS
 10
5230.282633810464
 20
-29.36903742682029
 30
0.0
 42
-0.316444976687396
  0
VERTEX
  5
B191E
 67
     1
  8
CLOTHES_RAIL
  6
CONTINUOUS
 10
5231.301589702391
 20
-29.93392973367783
 30
0.0
  0
VERTEX
  5
B191F
 67
     1
  8
CLOTHES_RAIL
  6
CONTINUOUS
 10
5233.317452875134
 20
-33.33430788037953
 30
0.0
  0
VERTEX
  5
B1920
 67
     1
  8
CLOTHES_RAIL
  6
CONTINUOUS
 10
5233.372815559595
 20
-33.33430788037953
 30
0.0
  0
VERTEX
  5
B1921
 67
     1
  8
CLOTHES_RAIL
  6
CONTINUOUS
 10
5233.372815559595
 20
-29.36903742682029
 30
0.0
  0
VERTEX
  5
B1922
 67
     1
  8
CLOTHES_RAIL
  6
CONTINUOUS
 10
5235.621291579558
 20
-29.36903742682029
 30
0.0
  0
VERTEX
  5
B1923
 67
     1
  8
CLOTHES_RAIL
  6
CONTINUOUS
 10
5235.621291579558
 20
-37.12225926926806
 30
0.0
  0
VERTEX
  5
B1924
 67
     1
  8
CLOTHES_RAIL
  6
CONTINUOUS
 10
5233.97084968503
 20
-37.12225926926806
 30
0.0
 42
-0.312959769389874
  0
VERTEX
  5
B1925
 67
     1
  8
CLOTHES_RAIL
  6
CONTINUOUS
 10
5232.951893793102
 20
-36.55740141336549
 30
0.0
  0
VERTEX
  5
B1926
 67
     1
  8
CLOTHES_RAIL
  6
CONTINUOUS
 10
5230.559481683728
 20
-32.69186647412927
 30
0.0
  0
VERTEX
  5
B1927
 67
     1
  8
CLOTHES_RAIL
  6
CONTINUOUS
 10
5230.504187901175
 20
-32.69186647412927
 30
0.0
  0
VERTEX
  5
B1928
 67
     1
  8
CLOTHES_RAIL
  6
CONTINUOUS
 10
5230.504187901175
 20
-37.12225926926806
 30
0.0
  0
VERTEX
  5
B1929
 67
     1
  8
CLOTHES_RAIL
  6
CONTINUOUS
 10
5228.2556429793
 20
-37.12225926926806
 30
0.0
  0
SEQEND
  5
B1ACC
 67
     1
  8
CLOTHES_RAIL
  6
CONTINUOUS
  0
POLYLINE
  5
A05DC
 67
     1
  8
CLOTHES_RAIL
  6
CONTINUOUS
 66
     1
 10
0.0
 20
0.0
 30
0.0
 70
   128
  0
VERTEX
  5
B192A
 67
     1
  8
CLOTHES_RAIL
  6
CONTINUOUS
 10
5243.308126431992
 20
-29.36907187777525
 30
0.0
  0
VERTEX
  5
B192B
 67
     1
  8
CLOTHES_RAIL
  6
CONTINUOUS
 10
5243.308126431992
 20
-31.18553292378233
 30
0.0
  0
VERTEX
  5
B192C
 67
     1
  8
CLOTHES_RAIL
  6
CONTINUOUS
 10
5240.982204665498
 20
-31.18553292378233
 30
0.0
  0
VERTEX
  5
B192D
 67
     1
  8
CLOTHES_RAIL
  6
CONTINUOUS
 10
5240.982204665498
 20
-37.12225926926806
 30
0.0
  0
VERTEX
  5
B192E
 67
     1
  8
CLOTHES_RAIL
  6
CONTINUOUS
 10
5238.600816861679
 20
-37.12225926926806
 30
0.0
  0
VERTEX
  5
B192F
 67
     1
  8
CLOTHES_RAIL
  6
CONTINUOUS
 10
5238.600816861679
 20
-31.18553292378233
 30
0.0
  0
VERTEX
  5
B1930
 67
     1
  8
CLOTHES_RAIL
  6
CONTINUOUS
 10
5236.330154426783
 20
-31.18553292378233
 30
0.0
  0
VERTEX
  5
B1931
 67
     1
  8
CLOTHES_RAIL
  6
CONTINUOUS
 10
5236.330154426783
 20
-29.36907187777525
 30
0.0
  0
VERTEX
  5
B1932
 67
     1
  8
CLOTHES_RAIL
  6
CONTINUOUS
 10
5243.308126431992
 20
-29.36907187777525
 30
0.0
  0
SEQEND
  5
B1ACD
 67
     1
  8
CLOTHES_RAIL
  6
CONTINUOUS
  0
POLYLINE
  5
A05DD
 67
     1
  8
CLOTHES_RAIL
  6
CONTINUOUS
 66
     1
 10
0.0
 20
0.0
 30
0.0
 70
     1
  0
VERTEX
  5
B1933
 67
     1
  8
CLOTHES_RAIL
  6
CONTINUOUS
 10
5244.050199999701
 20
-29.36907187777525
 30
0.0
  0
VERTEX
  5
B1934
 67
     1
  8
CLOTHES_RAIL
  6
CONTINUOUS
 10
5246.431587803519
 20
-29.36907187777525
 30
0.0
  0
VERTEX
  5
B1935
 67
     1
  8
CLOTHES_RAIL
  6
CONTINUOUS
 10
5246.431587803519
 20
-37.12225926926806
 30
0.0
  0
VERTEX
  5
B1936
 67
     1
  8
CLOTHES_RAIL
  6
CONTINUOUS
 10
5244.050199999701
 20
-37.12225926926806
 30
0.0
  0
SEQEND
  5
B1ACE
 67
     1
  8
CLOTHES_RAIL
  6
CONTINUOUS
  0
POLYLINE
  5
A05DE
 67
     1
  8
CLOTHES_RAIL
  6
CONTINUOUS
 66
     1
 10
0.0
 20
0.0
 30
0.0
 70
   128
  0
VERTEX
  5
B1937
 67
     1
  8
CLOTHES_RAIL
  6
CONTINUOUS
 10
5219.74897875404
 20
-29.36910632873009
 30
0.0
  0
VERTEX
  5
B1938
 67
     1
  8
CLOTHES_RAIL
  6
CONTINUOUS
 10
5219.74897875404
 20
-31.15232220329609
 30
0.0
  0
VERTEX
  5
B1939
 67
     1
  8
CLOTHES_RAIL
  6
CONTINUOUS
 10
5216.027448806123
 20
-31.15232220329609
 30
0.0
  0
VERTEX
  5
B193A
 67
     1
  8
CLOTHES_RAIL
  6
CONTINUOUS
 10
5216.027448806123
 20
-32.69183202317448
 30
0.0
  0
VERTEX
  5
B193B
 67
     1
  8
CLOTHES_RAIL
  6
CONTINUOUS
 10
5218.630321798745
 20
-32.69183202317448
 30
0.0
  0
VERTEX
  5
B193C
 67
     1
  8
CLOTHES_RAIL
  6
CONTINUOUS
 10
5218.630321798745
 20
-34.35329822326123
 30
0.0
  0
VERTEX
  5
B193D
 67
     1
  8
CLOTHES_RAIL
  6
CONTINUOUS
 10
5216.027448806123
 20
-34.35329822326123
 30
0.0
  0
VERTEX
  5
B193E
 67
     1
  8
CLOTHES_RAIL
  6
CONTINUOUS
 10
5216.027448806123
 20
-37.12225926926806
 30
0.0
  0
VERTEX
  5
B193F
 67
     1
  8
CLOTHES_RAIL
  6
CONTINUOUS
 10
5213.646061002304
 20
-37.12225926926806
 30
0.0
  0
VERTEX
  5
B1940
 67
     1
  8
CLOTHES_RAIL
  6
CONTINUOUS
 10
5213.646061002304
 20
-29.36910632873009
 30
0.0
  0
VERTEX
  5
B1941
 67
     1
  8
CLOTHES_RAIL
  6
CONTINUOUS
 10
5219.74897875404
 20
-29.36910632873009
 30
0.0
  0
SEQEND
  5
B1ACF
 67
     1
  8
CLOTHES_RAIL
  6
CONTINUOUS
  0
POLYLINE
  5
A05DF
 67
     1
  8
CLOTHES_RAIL
  6
CONTINUOUS
 66
     1
 10
0.0
 20
0.0
 30
0.0
 70
   128
  0
VERTEX
  5
B1942
 67
     1
  8
CLOTHES_RAIL
  6
CONTINUOUS
 10
5223.470680956729
 20
-31.50668472499752
 30
0.0
  0
VERTEX
  5
B1943
 67
     1
  8
CLOTHES_RAIL
  6
CONTINUOUS
 10
5224.135239876002
 20
-33.78844036735848
 30
0.0
  0
VERTEX
  5
B1944
 67
     1
  8
CLOTHES_RAIL
  6
CONTINUOUS
 10
5222.684269010118
 20
-33.78844036735848
 30
0.0
  0
VERTEX
  5
B1945
 67
     1
  8
CLOTHES_RAIL
  6
CONTINUOUS
 10
5223.348827929387
 20
-31.50668472499752
 30
0.0
  0
VERTEX
  5
B1946
 67
     1
  8
CLOTHES_RAIL
  6
CONTINUOUS
 10
5223.470680956729
 20
-31.50668472499752
 30
0.0
  0
SEQEND
  5
B1AD0
 67
     1
  8
CLOTHES_RAIL
  6
CONTINUOUS
  0
POLYLINE
  5
A05E0
 67
     1
  8
CLOTHES_RAIL
  6
CONTINUOUS
 66
     1
 10
0.0
 20
0.0
 30
0.0
 70
   129
  0
VERTEX
  5
B1947
 67
     1
  8
CLOTHES_RAIL
  6
CONTINUOUS
 10
5224.60051422562
 20
-35.44980321458093
 30
0.0
  0
VERTEX
  5
B1948
 67
     1
  8
CLOTHES_RAIL
  6
CONTINUOUS
 10
5224.60051422562
 20
-35.44980321458093
 30
0.0
  0
VERTEX
  5
B1949
 67
     1
  8
CLOTHES_RAIL
  6
CONTINUOUS
 10
5225.087739876001
 20
-37.12225926926806
 30
0.0
  0
VERTEX
  5
B194A
 67
     1
  8
CLOTHES_RAIL
  6
CONTINUOUS
 10
5227.60207391463
 20
-37.12225926926806
 30
0.0
  0
VERTEX
  5
B194B
 67
     1
  8
CLOTHES_RAIL
  6
CONTINUOUS
 10
5225.253896831298
 20
-30.06677261562249
 30
0.0
 42
0.1089385125692126
  0
VERTEX
  5
B194C
 67
     1
  8
CLOTHES_RAIL
  6
CONTINUOUS
 10
5224.999059634946
 20
-29.51334986121652
 30
0.0
 42
0.1589313772246072
  0
VERTEX
  5
B194D
 67
     1
  8
CLOTHES_RAIL
  6
CONTINUOUS
 10
5224.759143131164
 20
-29.36765242208669
 30
0.0
 42
0.058673645385263
  0
VERTEX
  5
B194E
 67
     1
  8
CLOTHES_RAIL
  6
CONTINUOUS
 10
5224.434239713242
 20
-29.33582670633428
 30
0.0
  0
VERTEX
  5
B194F
 67
     1
  8
CLOTHES_RAIL
  6
CONTINUOUS
 10
5224.434239713242
 20
-29.33582670633428
 30
0.0
  0
VERTEX
  5
B1950
 67
     1
  8
CLOTHES_RAIL
  6
CONTINUOUS
 10
5222.529274164196
 20
-29.33582670633428
 30
0.0
 42
0.058673645385263
  0
VERTEX
  5
B1951
 67
     1
  8
CLOTHES_RAIL
  6
CONTINUOUS
 10
5222.204370746274
 20
-29.36765242208669
 30
0.0
 42
0.1589313772246072
  0
VERTEX
  5
B1952
 67
     1
  8
CLOTHES_RAIL
  6
CONTINUOUS
 10
5221.964454242492
 20
-29.51334986121652
 30
0.0
 42
0.1089385125692126
  0
VERTEX
  5
B1953
 67
     1
  8
CLOTHES_RAIL
  6
CONTINUOUS
 10
5221.709617046141
 20
-30.06677261562249
 30
0.0
  0
VERTEX
  5
B1954
 67
     1
  8
CLOTHES_RAIL
  6
CONTINUOUS
 10
5219.361439962809
 20
-37.12225926926806
 30
0.0
  0
VERTEX
  5
B1955
 67
     1
  8
CLOTHES_RAIL
  6
CONTINUOUS
 10
5221.742758864717
 20
-37.12225926926806
 30
0.0
  0
VERTEX
  5
B1956
 67
     1
  8
CLOTHES_RAIL
  6
CONTINUOUS
 10
5222.219008864716
 20
-35.44980321458093
 30
0.0
  0
SEQEND
  5
B1AD1
 67
     1
  8
CLOTHES_RAIL
  6
CONTINUOUS
  0
LINE
  5
A05E1
 67
     1
  8
0
 10
5211.97193308841
 20
-38.97543711420802
 30
0.0
 11
5254.051985371278
 21
-38.97543711420806
 31
0.0
  0
TEXT
  5
A05E2
 67
     1
  8
0
 10
5226.718161726491
 20
-41.72678319498892
 30
0.0
 40
2.0
  1
02.03.2015
  7
STILE4
  0
LINE
  5
A05E3
 67
     1
  8
0
 10
5211.97193308841
 20
-27.15383119107754
 30
0.0
 11
5254.051985371278
 21
-27.15383119107757
 31
0.0
  0
POLYLINE
  5
A05E4
 67
     1
  8
RIPIANI
 66
     1
 10
0.0
 20
0.0
 30
0.0
 70
     1
  0
VERTEX
  5
B1957
 67
     1
  8
RIPIANI
 10
5211.97193308841
 20
-27.15383119107754
 30
0.0
  0
VERTEX
  5
B1958
 67
     1
  8
RIPIANI
 10
5211.97193308841
 20
-38.97543711420798
 30
0.0
  0
VERTEX
  5
B1959
 67
     1
  8
RIPIANI
 10
5257.345316818266
 20
-38.97543711420798
 30
0.0
  0
VERTEX
  5
B195A
 67
     1
  8
RIPIANI
 10
5257.345316818266
 20
-27.15383119107754
 30
0.0
  0
SEQEND
  5
B1AD2
 67
     1
  8
RIPIANI
  0
POLYLINE
  5
A05E5
 67
     1
  8
RIPIANI
 66
     1
 10
0.0
 20
0.0
 30
0.0
 70
     1
  0
VERTEX
  5
B195B
 67
     1
  8
RIPIANI
 10
5211.97193308841
 20
-38.97543711420798
 30
0.0
  0
VERTEX
  5
B195C
 67
     1
  8
RIPIANI
 10
5211.97193308841
 20
-46.47543711420804
 30
0.0
  0
VERTEX
  5
B195D
 67
     1
  8
RIPIANI
 10
5257.345316818266
 20
-46.47543711420804
 30
0.0
  0
VERTEX
  5
B195E
 67
     1
  8
RIPIANI
 10
5257.345316818266
 20
-38.97543711420798
 30
0.0
  0
SEQEND
  5
B1AD3
 67
     1
  8
RIPIANI
  0
LINE
  5
A05E6
 67
     1
  8
RIPIANI
 10
5257.345316818266
 20
-27.15383119107754
 30
0.0
 11
5403.971933088409
 21
-27.15383119107754
 31
0.0
  0
VIEWPORT
  5
A05EA
 67
     1
  8
RETE
 10
5308.221933088409
 20
93.90646166026305
 30
0.0
 40
191.5
 41
236.132465228796
 68
     4
 69
     4
1001
ACAD
1000
MVIEW
1002
{
1070
    16
1010
183262.9885359334
1020
-9667.563718929574
1030
0.0
1010
0.0
1020
0.0
1030
1.0
1040
0.0
1040
5700.595139329438
1040
215823.6079317253
1040
34568.76605440148
1040
50.0
1040
0.0
1040
0.0
1070
    16
1070
   100
1070
     1
1070
     1
1070
     0
1070
     0
1070
     0
1070
     0
1040
0.0
1040
0.0
1040
0.0
1040
1.0
1040
1.0
1040
0.0
1040
0.0
1070
     0
1002
{
1002
}
1002
}
  0
ENDSEC
  0
EOF
