  0
SECTION
  2
HEADER
  9
$ACADVER
  1
AC1032
  9
$ACADMAINTVER
 90
       55
  9
$DWGCODEPAGE
  3
ANSI_1252
  9
$LASTSAVEDBY
  1
ucom07
  9
$REQUIREDVERSIONS
160
                 0
  9
$INSBASE
 10
0.0
 20
0.0
 30
0.0
  9
$EXTMIN
 10
-4012.685974119229
 20
-987.6576470269351
 30
0.0
  9
$EXTMAX
 10
35100.47464008942
 20
22679.99999999791
 30
0.0
  9
$LIMMIN
 10
0.0
 20
0.0
  9
$LIMMAX
 10
12.0
 20
9.0
  9
$ORTHOMODE
 70
     1
  9
$REGENMODE
 70
     1
  9
$FILLMODE
 70
     1
  9
$QTEXTMODE
 70
     0
  9
$MIRRTEXT
 70
     0
  9
$LTSCALE
 40
5.0
  9
$ATTMODE
 70
     1
  9
$TEXTSIZE
 40
19.0
  9
$TRACEWID
 40
0.05
  9
$TEXTSTYLE
  7
STILE1
  9
$CLAYER
  8
0
  9
$CELTYPE
  6
ByLayer
  9
$CECOLOR
 62
   256
  9
$CELTSCALE
 40
1.0
  9
$DISPSILH
 70
     0
  9
$DIMSCALE
 40
50.0
  9
$DIMASZ
 40
2.5
  9
$DIMEXO
 40
1.0
  9
$DIMDLI
 40
0.0
  9
$DIMRND
 40
0.0
  9
$DIMDLE
 40
0.0
  9
$DIMEXE
 40
1.0
  9
$DIMTP
 40
0.0
  9
$DIMTM
 40
0.0
  9
$DIMTXT
 40
2.5
  9
$DIMCEN
 40
1.0
  9
$DIMTSZ
 40
0.0
  9
$DIMTOL
 70
     0
  9
$DIMLIM
 70
     0
  9
$DIMTIH
 70
     0
  9
$DIMTOH
 70
     0
  9
$DIMSE1
 70
     0
  9
$DIMSE2
 70
     0
  9
$DIMTAD
 70
     1
  9
$DIMZIN
 70
     8
  9
$DIMBLK
  1

  9
$DIMASO
 70
     1
  9
$DIMSHO
 70
     0
  9
$DIMPOST
  1

  9
$DIMAPOST
  1

  9
$DIMALT
 70
     0
  9
$DIMALTD
 70
     2
  9
$DIMALTF
 40
25.4
  9
$DIMLFAC
 40
1.0
  9
$DIMTOFL
 70
     1
  9
$DIMTVP
 40
0.0
  9
$DIMTIX
 70
     1
  9
$DIMSOXD
 70
     0
  9
$DIMSAH
 70
     0
  9
$DIMBLK1
  1

  9
$DIMBLK2
  1

  9
$DIMSTYLE
  2
STANDARD
  9
$DIMCLRD
 70
     0
  9
$DIMCLRE
 70
     0
  9
$DIMCLRT
 70
     0
  9
$DIMTFAC
 40
1.0
  9
$DIMGAP
 40
1.5
  9
$DIMJUST
 70
     0
  9
$DIMSD1
 70
     0
  9
$DIMSD2
 70
     0
  9
$DIMTOLJ
 70
     1
  9
$DIMTZIN
 70
     0
  9
$DIMALTZ
 70
     0
  9
$DIMALTTZ
 70
     0
  9
$DIMUPT
 70
     0
  9
$DIMDEC
 70
     4
  9
$DIMTDEC
 70
     4
  9
$DIMALTU
 70
     2
  9
$DIMALTTD
 70
     2
  9
$DIMTXSTY
  7
STANDARD
  9
$DIMAUNIT
 70
     0
  9
$DIMADEC
 70
     0
  9
$DIMALTRND
 40
0.0
  9
$DIMAZIN
 70
     0
  9
$DIMDSEP
 70
    46
  9
$DIMATFIT
 70
     3
  9
$DIMFRAC
 70
     0
  9
$DIMLDRBLK
  1

  9
$DIMLUNIT
 70
     2
  9
$DIMLWD
 70
    -2
  9
$DIMLWE
 70
    -2
  9
$DIMTMOVE
 70
     2
  9
$DIMFXL
 40
1.0
  9
$DIMFXLON
 70
     0
  9
$DIMJOGANG
 40
0.7853981633974483
  9
$DIMTFILL
 70
     0
  9
$DIMTFILLCLR
 70
     0
  9
$DIMARCSYM
 70
     0
  9
$DIMLTYPE
  6

  9
$DIMLTEX1
  6

  9
$DIMLTEX2
  6

  9
$DIMTXTDIRECTION
 70
     0
  9
$LUNITS
 70
     2
  9
$LUPREC
 70
     4
  9
$SKETCHINC
 40
0.1
  9
$FILLETRAD
 40
20.0
  9
$AUNITS
 70
     0
  9
$AUPREC
 70
     0
  9
$MENU
  1
acad
  9
$ELEVATION
 40
0.0
  9
$PELEVATION
 40
0.0
  9
$THICKNESS
 40
0.0
  9
$LIMCHECK
 70
     0
  9
$CHAMFERA
 40
1200.0
  9
$CHAMFERB
 40
1200.0
  9
$CHAMFERC
 40
0.0
  9
$CHAMFERD
 40
0.0
  9
$SKPOLY
 70
     0
  9
$TDCREATE
 40
2450277.504307755
  9
$TDUCREATE
 40
2450277.420974421
  9
$TDUPDATE
 40
2460453.408541539
  9
$TDUUPDATE
 40
2460453.325208206
  9
$TDINDWG
 40
26.3071364005
  9
$TDUSRTIMER
 40
0.0028876273
  9
$USRTIMER
 70
     1
  9
$ANGBASE
 50
0.0
  9
$ANGDIR
 70
     0
  9
$PDMODE
 70
     0
  9
$PDSIZE
 40
0.0
  9
$PLINEWID
 40
0.0
  9
$SPLFRAME
 70
     0
  9
$SPLINETYPE
 70
     6
  9
$SPLINESEGS
 70
     8
  9
$HANDSEED
  5
F597D
  9
$SURFTAB1
 70
     6
  9
$SURFTAB2
 70
     6
  9
$SURFTYPE
 70
     6
  9
$SURFU
 70
     6
  9
$SURFV
 70
     6
  9
$UCSBASE
  2

  9
$UCSNAME
  2

  9
$UCSORG
 10
0.0
 20
0.0
 30
0.0
  9
$UCSXDIR
 10
1.0
 20
0.0
 30
0.0
  9
$UCSYDIR
 10
0.0
 20
1.0
 30
0.0
  9
$UCSORTHOREF
  2

  9
$UCSORTHOVIEW
 70
     0
  9
$UCSORGTOP
 10
0.0
 20
0.0
 30
0.0
  9
$UCSORGBOTTOM
 10
0.0
 20
0.0
 30
0.0
  9
$UCSORGLEFT
 10
0.0
 20
0.0
 30
0.0
  9
$UCSORGRIGHT
 10
0.0
 20
0.0
 30
0.0
  9
$UCSORGFRONT
 10
0.0
 20
0.0
 30
0.0
  9
$UCSORGBACK
 10
0.0
 20
0.0
 30
0.0
  9
$PUCSBASE
  2

  9
$PUCSNAME
  2

  9
$PUCSORG
 10
0.0
 20
0.0
 30
0.0
  9
$PUCSXDIR
 10
1.0
 20
0.0
 30
0.0
  9
$PUCSYDIR
 10
0.0
 20
1.0
 30
0.0
  9
$PUCSORTHOREF
  2

  9
$PUCSORTHOVIEW
 70
     0
  9
$PUCSORGTOP
 10
0.0
 20
0.0
 30
0.0
  9
$PUCSORGBOTTOM
 10
0.0
 20
0.0
 30
0.0
  9
$PUCSORGLEFT
 10
0.0
 20
0.0
 30
0.0
  9
$PUCSORGRIGHT
 10
0.0
 20
0.0
 30
0.0
  9
$PUCSORGFRONT
 10
0.0
 20
0.0
 30
0.0
  9
$PUCSORGBACK
 10
0.0
 20
0.0
 30
0.0
  9
$USERI1
 70
     0
  9
$USERI2
 70
     0
  9
$USERI3
 70
     0
  9
$USERI4
 70
     0
  9
$USERI5
 70
     0
  9
$USERR1
 40
0.0
  9
$USERR2
 40
0.0
  9
$USERR3
 40
0.0
  9
$USERR4
 40
0.0
  9
$USERR5
 40
0.0
  9
$WORLDVIEW
 70
     0
  9
$SHADEDGE
 70
     3
  9
$SHADEDIF
 70
    70
  9
$TILEMODE
 70
     1
  9
$MAXACTVP
 70
    16
  9
$PINSBASE
 10
0.0
 20
0.0
 30
0.0
  9
$PLIMCHECK
 70
     0
  9
$PEXTMIN
 10
0.0
 20
0.0
 30
0.0
  9
$PEXTMAX
 10
0.0
 20
0.0
 30
0.0
  9
$PLIMMIN
 10
0.0
 20
0.0
  9
$PLIMMAX
 10
0.0
 20
0.0
  9
$UNITMODE
 70
     0
  9
$VISRETAIN
 70
     0
  9
$PLINEGEN
 70
     0
  9
$PSLTSCALE
 70
     1
  9
$TREEDEPTH
 70
  3020
  9
$CMLSTYLE
  2
Standard
  9
$CMLJUST
 70
     0
  9
$CMLSCALE
 40
1.0
  9
$PROXYGRAPHICS
 70
     1
  9
$MEASUREMENT
 70
     0
  9
$CELWEIGHT
370
    -1
  9
$ENDCAPS
280
     0
  9
$JOINSTYLE
280
     0
  9
$LWDISPLAY
290
     0
  9
$INSUNITS
 70
     0
  9
$HYPERLINKBASE
  1

  9
$STYLESHEET
  1

  9
$XEDIT
290
     1
  9
$CEPSNTYPE
380
     0
  9
$PSTYLEMODE
290
     1
  9
$FINGERPRINTGUID
  2
{b43c834b-d56f-41c1-87c8-b016224440ea}
  9
$VERSIONGUID
  2
{FAEB1C32-E019-11D5-929B-00C0DF256EC4}
  9
$EXTNAMES
290
     1
  9
$PSVPSCALE
 40
0.0
  9
$OLESTARTUP
290
     0
  9
$SORTENTS
280
   127
  9
$INDEXCTL
280
     0
  9
$HIDETEXT
280
     1
  9
$XCLIPFRAME
280
     2
  9
$HALOGAP
280
     0
  9
$OBSCOLOR
 70
   257
  9
$OBSLTYPE
280
     0
  9
$INTERSECTIONDISPLAY
280
     0
  9
$INTERSECTIONCOLOR
 70
   257
  9
$DIMASSOC
280
     2
  9
$PROJECTNAME
  1

  9
$CAMERADISPLAY
290
     0
  9
$LENSLENGTH
 40
50.0
  9
$CAMERAHEIGHT
 40
0.0
  9
$STEPSPERSEC
 40
2.0
  9
$STEPSIZE
 40
6.0
  9
$3DDWFPREC
 40
2.0
  9
$PSOLWIDTH
 40
0.25
  9
$PSOLHEIGHT
 40
4.0
  9
$LOFTANG1
 40
1.570796326794897
  9
$LOFTANG2
 40
1.570796326794897
  9
$LOFTMAG1
 40
0.0
  9
$LOFTMAG2
 40
0.0
  9
$LOFTPARAM
 70
     7
  9
$LOFTNORMALS
280
     1
  9
$LATITUDE
 40
37.795
  9
$LONGITUDE
 40
-122.394
  9
$NORTHDIRECTION
 40
0.0
  9
$TIMEZONE
 70
 -8000
  9
$LIGHTGLYPHDISPLAY
280
     1
  9
$TILEMODELIGHTSYNCH
280
     1
  9
$SOLIDHIST
280
     0
  9
$SHOWHIST
280
     1
  9
$DWFFRAME
280
     2
  9
$DGNFRAME
280
     2
  9
$REALWORLDSCALE
290
     1
  9
$INTERFERECOLOR
 62
   256
  9
$CSHADOW
280
     0
  9
$SHADOWPLANELOCATION
 40
0.0
  0
ENDSEC
  0
SECTION
  2
CLASSES
  0
CLASS
  1
ACDBDICTIONARYWDFLT
  2
AcDbDictionaryWithDefault
  3
ObjectDBX Classes
 90
        0
 91
        3
280
     0
281
     0
  0
CLASS
  1
MATERIAL
  2
AcDbMaterial
  3
ObjectDBX Classes
 90
     1153
 91
        3
280
     0
281
     0
  0
CLASS
  1
SCALE
  2
AcDbScale
  3
ObjectDBX Classes
 90
     1153
 91
        3
280
     0
281
     0
  0
CLASS
  1
VISUALSTYLE
  2
AcDbVisualStyle
  3
ObjectDBX Classes
 90
     4095
 91
        3
280
     0
281
     0
  0
CLASS
  1
TABLESTYLE
  2
AcDbTableStyle
  3
ObjectDBX Classes
 90
     4095
 91
        3
280
     0
281
     0
  0
CLASS
  1
MLEADERSTYLE
  2
AcDbMLeaderStyle
  3
ACDB_MLEADERSTYLE_CLASS
 90
     4095
 91
        3
280
     0
281
     0
  0
CLASS
  1
DICTIONARYVAR
  2
AcDbDictionaryVar
  3
ObjectDBX Classes
 90
        0
 91
        3
280
     0
281
     0
  0
CLASS
  1
SORTENTSTABLE
  2
AcDbSortentsTable
  3
ObjectDBX Classes
 90
        0
 91
        3
280
     0
281
     0
  0
CLASS
  1
DIMASSOC
  2
AcDbDimAssoc
  3
"AcDbDimAssoc|Product Desc:     AcDim ARX App For Dimension|Company:          Autodesk, Inc.|WEB Address:      www.autodesk.com"
 90
        0
 91
        3
280
     0
281
     0
  0
CLASS
  1
SUN
  2
AcDbSun
  3
SCENEOE
 90
     1153
 91
        3
280
     0
281
     0
  0
CLASS
  1
CELLSTYLEMAP
  2
AcDbCellStyleMap
  3
ObjectDBX Classes
 90
     1152
 91
        3
280
     0
281
     0
  0
ENDSEC
  0
SECTION
  2
TABLES
  0
TABLE
  2
VPORT
  5
F55FF
330
0
100
AcDbSymbolTable
 70
     1
  0
VPORT
  5
F5616
330
F55FF
100
AcDbSymbolTableRecord
100
AcDbViewportTableRecord
  2
*ACTIVE
 70
     0
 10
0.0
 20
0.0
 11
1.0
 21
1.0
 12
15543.8943329851
 22
10846.17117648549
 13
0.0
 23
0.0
 14
1.0
 24
1.0
 15
0.0
 25
0.0
 16
0.0
 26
0.0
 36
1.0
 17
0.0
 27
0.0
 37
0.0
 40
24141.01079996534
 41
1.944065484311051
 42
50.0
 43
0.0
 44
0.0
 50
0.0
 51
0.0
 71
    16
 72
   100
 73
     1
 74
     1
 75
     0
 76
     1
 77
     0
 78
     0
281
     0
 65
     0
110
0.0
120
0.0
130
0.0
111
1.0
121
0.0
131
0.0
112
0.0
122
1.0
132
0.0
 79
     0
146
0.0
348
F5672
 60
     3
 61
     5
292
     1
282
     1
141
0.0
142
0.0
 63
   256
361
F5919
  0
ENDTAB
  0
TABLE
  2
LTYPE
  5
F55FC
330
0
100
AcDbSymbolTable
 70
     1
  0
LTYPE
  5
F560A
330
F55FC
100
AcDbSymbolTableRecord
100
AcDbLinetypeTableRecord
  2
ByBlock
 70
     0
  3

 72
    65
 73
     0
 40
0.0
  0
LTYPE
  5
F560B
330
F55FC
100
AcDbSymbolTableRecord
100
AcDbLinetypeTableRecord
  2
ByLayer
 70
     0
  3

 72
    65
 73
     0
 40
0.0
  0
LTYPE
  5
F560C
330
F55FC
100
AcDbSymbolTableRecord
100
AcDbLinetypeTableRecord
  2
CONTINUOUS
 70
     0
  3
Solid line
 72
    65
 73
     0
 40
0.0
  0
ENDTAB
  0
TABLE
  2
LAYER
  5
F55FA
102
{ACAD_XDICTIONARY
360
F577E
102
}
330
0
100
AcDbSymbolTable
 70
     1
  0
LAYER
  5
F5607
330
F55FA
100
AcDbSymbolTableRecord
100
AcDbLayerTableRecord
  2
0
 70
     0
 62
     7
  6
CONTINUOUS
370
    -3
390
F5606
347
F561C
348
0
  0
ENDTAB
  0
TABLE
  2
STYLE
  5
F55FB
330
0
100
AcDbSymbolTable
 70
     2
  0
STYLE
  5
F5608
330
F55FB
100
AcDbSymbolTableRecord
100
AcDbTextStyleTableRecord
  2
STANDARD
 70
     0
 40
0.0
 41
1.0
 50
0.0
 71
     0
 42
2.5
  3
txt
  4

  0
STYLE
  5
F561E
330
F55FB
100
AcDbSymbolTableRecord
100
AcDbTextStyleTableRecord
  2
STILE1
 70
     0
 40
0.0
 41
1.0
 50
0.0
 71
     0
 42
19.0
  3
ROMANS.SHX
  4

  0
ENDTAB
  0
TABLE
  2
VIEW
  5
F55FD
330
0
100
AcDbSymbolTable
 70
     0
  0
ENDTAB
  0
TABLE
  2
UCS
  5
F55FE
330
0
100
AcDbSymbolTable
 70
     0
  0
ENDTAB
  0
TABLE
  2
APPID
  5
F5600
330
0
100
AcDbSymbolTable
 70
    42
  0
APPID
  5
F5609
330
F5600
100
AcDbSymbolTableRecord
100
AcDbRegAppTableRecord
  2
ACAD
 70
     0
  0
APPID
  5
F5620
330
F5600
100
AcDbSymbolTableRecord
100
AcDbRegAppTableRecord
  2
DCO15
 70
     0
  0
APPID
  5
F5621
330
F5600
100
AcDbSymbolTableRecord
100
AcDbRegAppTableRecord
  2
ACAECLAYERSTANDARD
 70
     0
  0
APPID
  5
F5622
330
F5600
100
AcDbSymbolTableRecord
100
AcDbRegAppTableRecord
  2
ACDBDYNAMICBLOCKGUID
 70
     0
  0
APPID
  5
F5623
330
F5600
100
AcDbSymbolTableRecord
100
AcDbRegAppTableRecord
  2
ACDBBLOCKREPETAG
 70
     0
  0
APPID
  5
F5624
330
F5600
100
AcDbSymbolTableRecord
100
AcDbRegAppTableRecord
  2
ACAD_PSEXT
 70
     0
  0
APPID
  5
F5625
330
F5600
100
AcDbSymbolTableRecord
100
AcDbRegAppTableRecord
  2
ACAD_DSTYLE_DIMJAG
 70
     0
  0
APPID
  5
F5626
330
F5600
100
AcDbSymbolTableRecord
100
AcDbRegAppTableRecord
  2
ACAD_DSTYLE_DIMTALN
 70
     0
  0
APPID
  5
F5627
330
F5600
100
AcDbSymbolTableRecord
100
AcDbRegAppTableRecord
  2
ACAD_DSTYLE_DIMRADIAL_EXTE
 70
     0
  0
APPID
  5
F5628
330
F5600
100
AcDbSymbolTableRecord
100
AcDbRegAppTableRecord
  2
RAK
 70
     0
  0
APPID
  5
F5629
330
F5600
100
AcDbSymbolTableRecord
100
AcDbRegAppTableRecord
  2
ACLAYERTOOLS
 70
     0
  0
APPID
  5
F562A
330
F5600
100
AcDbSymbolTableRecord
100
AcDbRegAppTableRecord
  2
REVIT
 70
     0
  0
APPID
  5
F562B
330
F5600
100
AcDbSymbolTableRecord
100
AcDbRegAppTableRecord
  2
ACAD_MLEADERVER
 70
     0
  0
APPID
  5
F562C
330
F5600
100
AcDbSymbolTableRecord
100
AcDbRegAppTableRecord
  2
ACAD_DSTYLE_DIMBREAK
 70
     0
  0
APPID
  5
F562D
330
F5600
100
AcDbSymbolTableRecord
100
AcDbRegAppTableRecord
  2
ACCMTRANSPARENCY
 70
     0
  0
APPID
  5
F562E
330
F5600
100
AcDbSymbolTableRecord
100
AcDbRegAppTableRecord
  2
ACAD_NAV_VCDISPLAY
 70
     0
  0
APPID
  5
F562F
330
F5600
100
AcDbSymbolTableRecord
100
AcDbRegAppTableRecord
  2
GRADIENTCOLOR1ACI
 70
     0
  0
APPID
  5
F5630
330
F5600
100
AcDbSymbolTableRecord
100
AcDbRegAppTableRecord
  2
GRADIENTCOLOR2ACI
 70
     0
  0
APPID
  5
F5631
330
F5600
100
AcDbSymbolTableRecord
100
AcDbRegAppTableRecord
  2
PROGE_PRINT_SETTINGS
 70
     0
  0
APPID
  5
F5632
330
F5600
100
AcDbSymbolTableRecord
100
AcDbRegAppTableRecord
  2
AA_WLPR
 70
     0
  0
APPID
  5
F5633
330
F5600
100
AcDbSymbolTableRecord
100
AcDbRegAppTableRecord
  2
AA_WLENT
 70
     0
  0
APPID
  5
F5634
330
F5600
100
AcDbSymbolTableRecord
100
AcDbRegAppTableRecord
  2
AA_WLTP
 70
     0
  0
APPID
  5
F5635
330
F5600
100
AcDbSymbolTableRecord
100
AcDbRegAppTableRecord
  2
AA_WLBK
 70
     0
  0
APPID
  5
F5636
330
F5600
100
AcDbSymbolTableRecord
100
AcDbRegAppTableRecord
  2
ACAD_DSTYLE_DIMJOGGED_JOGA
 70
     0
  0
APPID
  5
F5637
330
F5600
100
AcDbSymbolTableRecord
100
AcDbRegAppTableRecord
  2
$DDT_AUDIT_GENERATED__2CAF
 70
     0
  0
APPID
  5
F5638
330
F5600
100
AcDbSymbolTableRecord
100
AcDbRegAppTableRecord
  2
ACAD_DSTYLE_DIMEXT_LENGTH
 70
     0
  0
APPID
  5
F5639
330
F5600
100
AcDbSymbolTableRecord
100
AcDbRegAppTableRecord
  2
ACAD_DSTYLE_DIMEXT_ENABLED
 70
     0
  0
APPID
  5
F563A
330
F5600
100
AcDbSymbolTableRecord
100
AcDbRegAppTableRecord
  2
ACAD_DSTYLE_DIMJOGGED_JOG0
 70
     0
  0
APPID
  5
F563B
330
F5600
100
AcDbSymbolTableRecord
100
AcDbRegAppTableRecord
  2
ACAD_DSTYLE_DIMARC_LENGTH_
 70
     0
  0
APPID
  5
F563C
330
F5600
100
AcDbSymbolTableRecord
100
AcDbRegAppTableRecord
  2
C_AND_O
 70
     0
  0
APPID
  5
F563D
330
F5600
100
AcDbSymbolTableRecord
100
AcDbRegAppTableRecord
  2
AVE_FINISH
 70
     0
  0
APPID
  5
F563E
330
F5600
100
AcDbSymbolTableRecord
100
AcDbRegAppTableRecord
  2
AVE_RENDER
 70
     0
  0
APPID
  5
F563F
330
F5600
100
AcDbSymbolTableRecord
100
AcDbRegAppTableRecord
  2
AVE_ENTITY_MATERIAL
 70
     0
  0
APPID
  5
F5640
330
F5600
100
AcDbSymbolTableRecord
100
AcDbRegAppTableRecord
  2
AVE_MATERIAL
 70
     0
  0
APPID
  5
F5641
330
F5600
100
AcDbSymbolTableRecord
100
AcDbRegAppTableRecord
  2
ADDC5$_$SETUP-
 70
     0
  0
APPID
  5
F5642
330
F5600
100
AcDbSymbolTableRecord
100
AcDbRegAppTableRecord
  2
ADDC4$_$SETUP-
 70
     0
  0
APPID
  5
F5643
330
F5600
100
AcDbSymbolTableRecord
100
AcDbRegAppTableRecord
  2
ADDC4$_$ARTSETUP-
 70
     0
  0
APPID
  5
F5644
330
F5600
100
AcDbSymbolTableRecord
100
AcDbRegAppTableRecord
  2
GENIUS_GENODEF_13
 70
     0
  0
APPID
  5
F5645
330
F5600
100
AcDbSymbolTableRecord
100
AcDbRegAppTableRecord
  2
GENIUS_GENOBJ-N-REC_13
 70
     0
  0
APPID
  5
F5646
330
F5600
100
AcDbSymbolTableRecord
100
AcDbRegAppTableRecord
  2
GENIUS_GENREC_14
 70
     0
  0
APPID
  5
F5647
330
F5600
100
AcDbSymbolTableRecord
100
AcDbRegAppTableRecord
  2
ACAD_DSTYLE_DIMRADIAL_EXT0
 70
     0
  0
APPID
  5
F56A3
330
F5600
100
AcDbSymbolTableRecord
100
AcDbRegAppTableRecord
  2
PE_URL
 70
     0
  0
ENDTAB
  0
TABLE
  2
DIMSTYLE
  5
F5601
330
0
100
AcDbSymbolTable
 70
     1
100
AcDbDimStyleTable
  0
DIMSTYLE
105
F5648
330
F5601
100
AcDbSymbolTableRecord
100
AcDbDimStyleTableRecord
  2
STANDARD
 70
     0
178
     0
340
F561E
  0
ENDTAB
  0
TABLE
  2
BLOCK_RECORD
  5
F55F9
330
0
100
AcDbSymbolTable
 70
     0
  0
BLOCK_RECORD
  5
F5613
102
{ACAD_XDICTIONARY
360
F5917
102
}
330
F55F9
100
AcDbSymbolTableRecord
100
AcDbBlockTableRecord
  2
*Model_Space
340
F5614
 70
     0
280
     1
281
     0
  0
BLOCK_RECORD
  5
F5611
330
F55F9
100
AcDbSymbolTableRecord
100
AcDbBlockTableRecord
  2
*Paper_Space
340
F5612
 70
     0
280
     1
281
     0
  0
ENDTAB
  0
ENDSEC
  0
SECTION
  2
BLOCKS
  0
BLOCK
  5
F5649
330
F5613
100
AcDbEntity
  8
0
100
AcDbBlockBegin
  2
*Model_Space
 70
     0
 10
0.0
 20
0.0
 30
0.0
  3
*Model_Space
  1

  0
ENDBLK
  5
EC7D5
330
F5613
100
AcDbEntity
  8
0
100
AcDbBlockEnd
  0
BLOCK
  5
F564A
330
F5611
100
AcDbEntity
 67
     1
  8
0
100
AcDbBlockBegin
  2
*Paper_Space
 70
     0
 10
0.0
 20
0.0
 30
0.0
  3
*Paper_Space
  1

  0
ENDBLK
  5
EC7D1
330
F5611
100
AcDbEntity
 67
     1
  8
0
100
AcDbBlockEnd
  0
ENDSEC
  0
SECTION
  2
ENTITIES
  0
LWPOLYLINE
  5
DBC9E
330
F5613
100
AcDbEntity
  8
0
100
AcDbPolyline
 90
        4
 70
     1
 43
0.0
 10
26096.40714871861
 20
8739.999999998712
 10
26096.40714871861
 20
8752.999999998712
 10
27096.40714871861
 20
8752.999999998712
 10
27096.40714871861
 20
8739.999999998712
  0
LWPOLYLINE
  5
DBC9F
330
F5613
100
AcDbEntity
  8
0
100
AcDbPolyline
 90
        4
 70
     1
 43
0.0
 10
26096.40714871861
 20
10726.99999999871
 10
26096.40714871861
 20
10739.99999999871
 10
27096.40714871861
 20
10739.99999999871
 10
27096.40714871861
 20
10726.99999999871
  0
LWPOLYLINE
  5
DBCA0
330
F5613
100
AcDbEntity
  8
0
100
AcDbPolyline
 90
        4
 70
     1
 43
0.0
 10
26096.40714871861
 20
10726.99999999871
 10
26096.40714871861
 20
8752.999999998712
 10
26109.40714871861
 20
8752.999999998712
 10
26109.40714871861
 20
10726.99999999871
  0
LWPOLYLINE
  5
DBCA1
330
F5613
100
AcDbEntity
  8
0
100
AcDbPolyline
 90
        4
 70
     1
 43
0.0
 10
27096.40714871861
 20
10726.99999999871
 10
27096.40714871861
 20
8752.999999998712
 10
27083.40714871861
 20
8752.999999998712
 10
27083.40714871861
 20
10726.99999999871
  0
LWPOLYLINE
  5
DBCA2
330
F5613
100
AcDbEntity
  8
0
100
AcDbPolyline
 90
        4
 70
     1
 43
0.0
 10
26111.40714871862
 20
8713.999999998712
 10
26111.40714871862
 20
8739.999999998712
 10
26161.40714871861
 20
8739.999999998712
 10
26161.40714871861
 20
8713.999999998712
  0
LWPOLYLINE
  5
DBCA3
330
F5613
100
AcDbEntity
  8
0
100
AcDbPolyline
 90
        4
 70
     1
 43
0.0
 10
27081.40714871861
 20
8713.999999998798
 10
27081.40714871861
 20
8739.9999999988
 10
27031.40714871861
 20
8739.9999999988
 10
27031.40714871861
 20
8713.999999998798
  0
LWPOLYLINE
  5
DBCA4
330
F5613
100
AcDbEntity
  8
0
100
AcDbPolyline
 90
        4
 70
     1
 43
0.0
 10
26120.40714871861
 20
10716.99999999871
 10
26120.40714871861
 20
10503.99999999875
 10
27072.4071487186
 20
10503.99999999875
 10
27072.4071487186
 20
10716.99999999871
  0
LWPOLYLINE
  5
DBCA5
330
F5613
100
AcDbEntity
  8
0
100
AcDbPolyline
 90
        4
 70
     1
 43
0.0
 10
26120.40714871861
 20
10503.99999999875
 10
26120.40714871861
 20
10473.99999999875
 10
27072.4071487186
 20
10473.99999999875
 10
27072.4071487186
 20
10503.99999999875
  0
LWPOLYLINE
  5
DBCA6
330
F5613
100
AcDbEntity
  8
0
100
AcDbPolyline
 90
        4
 70
     1
 43
0.0
 10
26109.40714871861
 20
8752.999999998712
 10
26109.40714871861
 20
10726.99999999871
 10
26120.40714871861
 20
10726.99999999871
 10
26120.40714871861
 20
8752.999999998712
  0
LWPOLYLINE
  5
DBCA7
330
F5613
100
AcDbEntity
  8
0
100
AcDbPolyline
 90
        4
 70
     1
 43
0.0
 10
27072.4071487186
 20
8752.999999998712
 10
27072.4071487186
 20
10726.99999999871
 10
27083.40714871861
 20
10726.99999999871
 10
27083.40714871861
 20
8752.999999998712
  0
LWPOLYLINE
  5
DBCA8
330
F5613
100
AcDbEntity
  8
0
100
AcDbPolyline
 90
        4
 70
     1
 43
0.0
 10
27072.4071487186
 20
8752.999999998712
 10
27072.4071487186
 20
8762.999999998712
 10
26120.40714871861
 20
8762.999999998712
 10
26120.40714871861
 20
8752.999999998712
  0
LWPOLYLINE
  5
DBCA9
330
F5613
100
AcDbEntity
  8
0
100
AcDbPolyline
 90
        4
 70
     1
 43
0.0
 10
27072.4071487186
 20
10716.99999999871
 10
27072.4071487186
 20
10726.99999999871
 10
26120.40714871861
 20
10726.99999999871
 10
26120.40714871861
 20
10716.99999999871
  0
LWPOLYLINE
  5
DBCAB
330
F5613
100
AcDbEntity
  8
0
100
AcDbPolyline
 90
        4
 70
     1
 43
0.0
 10
26720.40714871861
 20
10473.99999999875
 10
26700.40714871861
 20
10473.99999999875
 10
26700.40714871861
 20
8762.999999998712
 10
26720.40714871861
 20
8762.999999998712
  0
LINE
  5
DBCAC
330
F5613
100
AcDbEntity
  8
0
100
AcDbLine
 10
26720.40714871861
 20
10503.99999999875
 30
0.0
 11
26120.40714871861
 21
10503.99999999875
 31
0.0
  0
LWPOLYLINE
  5
DBCAD
330
F5613
100
AcDbEntity
  8
0
100
AcDbPolyline
 90
        4
 70
     1
 43
0.0
 10
26120.40714871861
 20
10473.99999999875
 10
26120.40714871861
 20
8762.999999998712
 10
26700.40714871861
 20
8762.999999998712
 10
26700.40714871861
 20
10473.99999999875
  0
LWPOLYLINE
  5
DBCAE
330
F5613
100
AcDbEntity
  8
0
100
AcDbPolyline
 90
        4
 70
     1
 43
0.0
 10
27072.4071487186
 20
9244.799999998715
 10
26720.40714871861
 20
9244.799999998715
 10
26720.40714871861
 20
9224.799999998715
 10
27072.4071487186
 20
9224.799999998715
  0
LWPOLYLINE
  5
DBCAF
330
F5613
100
AcDbEntity
  8
0
100
AcDbPolyline
 90
        4
 70
     1
 43
0.0
 10
27072.4071487186
 20
9619.799999998715
 10
26720.40714871861
 20
9619.799999998715
 10
26720.40714871861
 20
9599.799999998715
 10
27072.4071487186
 20
9599.799999998715
  0
LWPOLYLINE
  5
DBCB0
330
F5613
100
AcDbEntity
  8
0
100
AcDbPolyline
 90
        4
 70
     1
 43
0.0
 10
27072.4071487186
 20
10119.79999999871
 10
26720.40714871861
 20
10119.79999999871
 10
26720.40714871861
 20
10099.79999999871
 10
27072.4071487186
 20
10099.79999999871
  0
LWPOLYLINE
  5
DBCB1
330
F5613
100
AcDbEntity
  8
0
100
AcDbPolyline
 90
        4
 70
     1
 43
0.0
 10
28296.40714871861
 20
8739.999999998712
 10
28296.40714871861
 20
8752.999999998712
 10
29296.4071487186
 20
8752.999999998712
 10
29296.4071487186
 20
8739.999999998712
  0
LWPOLYLINE
  5
DBCB2
330
F5613
100
AcDbEntity
  8
0
100
AcDbPolyline
 90
        4
 70
     1
 43
0.0
 10
28296.40714871861
 20
10726.99999999871
 10
28296.40714871861
 20
10739.99999999871
 10
29296.4071487186
 20
10739.99999999871
 10
29296.4071487186
 20
10726.99999999871
  0
LWPOLYLINE
  5
DBCB3
330
F5613
100
AcDbEntity
  8
0
100
AcDbPolyline
 90
        4
 70
     1
 43
0.0
 10
28296.40714871861
 20
10726.99999999871
 10
28296.40714871861
 20
8752.999999998712
 10
28309.40714871861
 20
8752.999999998712
 10
28309.40714871861
 20
10726.99999999871
  0
LWPOLYLINE
  5
DBCB4
330
F5613
100
AcDbEntity
  8
0
100
AcDbPolyline
 90
        4
 70
     1
 43
0.0
 10
29296.4071487186
 20
10726.99999999871
 10
29296.4071487186
 20
8752.999999998712
 10
29283.40714871861
 20
8752.999999998712
 10
29283.40714871861
 20
10726.99999999871
  0
LWPOLYLINE
  5
DBCB5
330
F5613
100
AcDbEntity
  8
0
100
AcDbPolyline
 90
        4
 70
     1
 43
0.0
 10
28311.40714871861
 20
8713.999999998712
 10
28311.40714871861
 20
8739.999999998712
 10
28361.40714871861
 20
8739.999999998712
 10
28361.40714871861
 20
8713.999999998712
  0
LWPOLYLINE
  5
DBCB6
330
F5613
100
AcDbEntity
  8
0
100
AcDbPolyline
 90
        4
 70
     1
 43
0.0
 10
29281.40714871861
 20
8713.999999998798
 10
29281.40714871861
 20
8739.9999999988
 10
29231.4071487186
 20
8739.9999999988
 10
29231.4071487186
 20
8713.999999998798
  0
LWPOLYLINE
  5
DBCB7
330
F5613
100
AcDbEntity
  8
0
100
AcDbPolyline
 90
        4
 70
     1
 43
0.0
 10
28320.4071487186
 20
10716.99999999871
 10
28320.4071487186
 20
10503.99999999875
 10
29272.40714871861
 20
10503.99999999875
 10
29272.40714871861
 20
10716.99999999871
  0
LWPOLYLINE
  5
DBCB8
330
F5613
100
AcDbEntity
  8
0
100
AcDbPolyline
 90
        4
 70
     1
 43
0.0
 10
28320.4071487186
 20
10503.99999999875
 10
28320.4071487186
 20
10473.99999999875
 10
29272.40714871861
 20
10473.99999999875
 10
29272.40714871861
 20
10503.99999999875
  0
LWPOLYLINE
  5
DBCB9
330
F5613
100
AcDbEntity
  8
0
100
AcDbPolyline
 90
        4
 70
     1
 43
0.0
 10
28309.40714871861
 20
8752.999999998712
 10
28309.40714871861
 20
10726.99999999871
 10
28320.4071487186
 20
10726.99999999871
 10
28320.4071487186
 20
8752.999999998712
  0
LWPOLYLINE
  5
DBCBA
330
F5613
100
AcDbEntity
  8
0
100
AcDbPolyline
 90
        4
 70
     1
 43
0.0
 10
29272.40714871861
 20
8752.999999998712
 10
29272.40714871861
 20
10726.99999999871
 10
29283.40714871861
 20
10726.99999999871
 10
29283.40714871861
 20
8752.999999998712
  0
LWPOLYLINE
  5
DBCBB
330
F5613
100
AcDbEntity
  8
0
100
AcDbPolyline
 90
        4
 70
     1
 43
0.0
 10
29272.40714871861
 20
8752.999999998712
 10
29272.40714871861
 20
8762.999999998712
 10
28320.4071487186
 20
8762.999999998712
 10
28320.4071487186
 20
8752.999999998712
  0
LWPOLYLINE
  5
DBCBC
330
F5613
100
AcDbEntity
  8
0
100
AcDbPolyline
 90
        4
 70
     1
 43
0.0
 10
29272.40714871861
 20
10716.99999999871
 10
29272.40714871861
 20
10726.99999999871
 10
28320.4071487186
 20
10726.99999999871
 10
28320.4071487186
 20
10716.99999999871
  0
LWPOLYLINE
  5
DBCBD
330
F5613
100
AcDbEntity
  8
0
100
AcDbPolyline
 90
        4
 70
     1
 43
0.0
 10
29272.40714871861
 20
9244.799999998715
 10
28565.40714871861
 20
9244.799999998715
 10
28565.40714871861
 20
9224.799999998715
 10
29272.40714871861
 20
9224.799999998715
  0
LWPOLYLINE
  5
DBCBE
330
F5613
100
AcDbEntity
  8
0
100
AcDbPolyline
 90
        4
 70
     1
 43
0.0
 10
28565.40714871861
 20
10473.99999999875
 10
28545.4071487186
 20
10473.99999999875
 10
28545.4071487186
 20
8762.999999998712
 10
28565.40714871861
 20
8762.999999998712
  0
LWPOLYLINE
  5
DBCBF
330
F5613
100
AcDbEntity
  8
0
100
AcDbPolyline
 90
        4
 70
     1
 43
0.0
 10
28320.4071487186
 20
10473.99999999875
 10
28320.4071487186
 20
8762.999999998712
 10
28545.4071487186
 20
8762.999999998712
 10
28545.4071487186
 20
10473.99999999875
  0
LWPOLYLINE
  5
DBCC0
330
F5613
100
AcDbEntity
  8
0
100
AcDbPolyline
 90
        4
 70
     1
 43
0.0
 10
29272.40714871861
 20
9599.799999998715
 10
28565.40714871861
 20
9599.799999998715
 10
28565.40714871861
 20
9599.799999998715
 10
29272.40714871861
 20
9599.799999998715
  0
LINE
  5
DBCC2
330
F5613
100
AcDbEntity
  8
0
100
AcDbLine
 10
28320.4071487186
 20
8762.999999998712
 30
0.0
 11
28545.4071487186
 21
8762.999999998712
 31
0.0
  0
LWPOLYLINE
  5
DBCC3
330
F5613
100
AcDbEntity
  8
0
100
AcDbPolyline
 90
        4
 70
     1
 43
0.0
 10
26720.40714871861
 20
10473.99999999875
 10
26720.40714871861
 20
10119.79999999871
 10
27072.4071487186
 20
10119.79999999871
 10
27072.4071487186
 20
10473.99999999875
  0
LWPOLYLINE
  5
DBCC4
330
F5613
100
AcDbEntity
  8
0
100
AcDbPolyline
 90
        4
 70
     1
 43
0.0
 10
26720.40714871861
 20
10099.79999999871
 10
26720.40714871861
 20
9619.799999998715
 10
27072.4071487186
 20
9619.799999998715
 10
27072.4071487186
 20
10099.79999999871
  0
LWPOLYLINE
  5
DBCC5
330
F5613
100
AcDbEntity
  8
0
100
AcDbPolyline
 90
        4
 70
     1
 43
0.0
 10
26720.40714871861
 20
9599.799999998715
 10
26720.40714871861
 20
9244.799999998715
 10
27072.4071487186
 20
9244.799999998715
 10
27072.4071487186
 20
9599.799999998715
  0
LWPOLYLINE
  5
DBCC8
330
F5613
100
AcDbEntity
  8
0
100
AcDbPolyline
 90
        4
 70
     1
 43
0.0
 10
29272.40714871861
 20
10119.79999999871
 10
28565.40714871861
 20
10119.79999999871
 10
28565.40714871861
 20
10099.79999999871
 10
29272.40714871861
 20
10099.79999999871
  0
LWPOLYLINE
  5
DBCC9
330
F5613
100
AcDbEntity
  8
0
100
AcDbPolyline
 90
        4
 70
     1
 43
0.0
 10
28565.40714871861
 20
10473.99999999875
 10
28565.40714871861
 20
10119.79999999871
 10
29272.40714871861
 20
10119.79999999871
 10
29272.40714871861
 20
10473.99999999875
  0
LWPOLYLINE
  5
DBCCB
330
F5613
100
AcDbEntity
  8
0
100
AcDbPolyline
 90
        4
 70
     1
 43
0.0
 10
28565.40714871861
 20
9619.799999998715
 10
28565.40714871861
 20
9619.799999998715
 10
29272.40714871861
 20
9619.799999998715
 10
29272.40714871861
 20
9619.799999998715
  0
LWPOLYLINE
  5
DBCCC
330
F5613
100
AcDbEntity
  8
0
100
AcDbPolyline
 90
        4
 70
     1
 43
0.0
 10
28565.40714871861
 20
9599.799999998715
 10
28565.40714871861
 20
9244.799999998715
 10
29272.40714871861
 20
9244.799999998715
 10
29272.40714871861
 20
9599.799999998715
  0
LWPOLYLINE
  5
DBCCD
330
F5613
100
AcDbEntity
  8
0
100
AcDbPolyline
 90
        4
 70
     1
 43
0.0
 10
28565.40714871861
 20
9224.799999998715
 10
28565.40714871861
 20
8762.999999998712
 10
29272.40714871861
 20
8762.999999998712
 10
29272.40714871861
 20
9224.799999998715
  0
LWPOLYLINE
  5
DBD02
330
F5613
100
AcDbEntity
  8
0
100
AcDbPolyline
 90
        4
 70
     1
 43
0.0
 10
22496.40714871861
 20
16273.99999999802
 10
22466.40714871861
 20
16273.99999999802
 10
22466.40714871861
 20
16279.99999999802
 10
22496.40714871861
 20
16279.99999999802
  0
LWPOLYLINE
  5
DBD03
330
F5613
100
AcDbEntity
  8
0
100
AcDbPolyline
 90
        4
 70
     1
 43
0.0
 10
21726.40714871861
 20
16273.99999999802
 10
21696.40714871861
 20
16273.99999999802
 10
21696.40714871861
 20
16279.99999999802
 10
21726.40714871861
 20
16279.99999999802
  0
LWPOLYLINE
  5
DBD04
330
F5613
100
AcDbEntity
  8
0
100
AcDbPolyline
 90
        9
 70
     0
 43
0.0
 10
21726.40714871861
 20
16279.99999999802
 10
21696.40714871861
 20
16279.99999999802
 10
21696.40714871861
 20
16473.99999999802
 10
22496.40714871861
 20
16473.99999999802
 10
22496.40714871861
 20
16279.99999999802
 10
22466.40714871861
 20
16279.99999999802
 10
22466.40714871861
 20
16443.99999999802
 10
21726.40714871861
 20
16443.99999999802
 10
21726.40714871861
 20
16279.99999999802
  0
LWPOLYLINE
  5
DBD05
330
F5613
100
AcDbEntity
  8
0
100
AcDbPolyline
 90
        4
 70
     1
 43
0.0
 10
26096.40714871861
 20
16375.9999999981
 10
26096.40714871861
 20
16405.9999999981
 10
27096.40714871861
 20
16405.9999999981
 10
27096.40714871861
 20
16375.9999999981
  0
CIRCLE
  5
DBD06
330
F5613
100
AcDbEntity
  8
0
100
AcDbCircle
 10
26141.40714871861
 20
16313.9999999981
 30
0.0
 40
7.0
  0
LWPOLYLINE
  5
DBD07
330
F5613
100
AcDbEntity
  8
0
100
AcDbPolyline
 90
        4
 70
     1
 43
0.0
 10
26096.40714871861
 20
16365.9999999981
 10
26096.40714871861
 20
16375.9999999981
 10
26186.4071487186
 20
16375.9999999981
 10
26186.4071487186
 20
16365.9999999981
  0
LWPOLYLINE
  5
DBD08
330
F5613
100
AcDbEntity
  8
0
100
AcDbPolyline
 90
        5
 70
     0
 43
0.0
 10
26155.37579041429
 20
16308.53400976955
 42
-0.6825294813324769
 10
26127.43850702304
 20
16308.53400976939
 10
26096.40714871861
 20
16365.9999999981
 10
26186.4071487186
 20
16365.9999999981
 10
26155.37579041418
 20
16308.53400976939
  0
LWPOLYLINE
  5
DBD09
330
F5613
100
AcDbEntity
  8
0
100
AcDbPolyline
 90
        4
 70
     1
 43
0.0
 10
26164.46668750979
 20
16325.3691543526
 10
26155.37579041429
 20
16308.53400976957
 42
-0.6825294813324769
 10
26127.43850702304
 20
16308.53400976941
 10
26118.34760992743
 20
16325.3691543526
 42
1.607971215497602
  0
LWPOLYLINE
  5
DBD0A
330
F5613
100
AcDbEntity
  8
0
100
AcDbPolyline
 90
        4
 70
     1
 43
0.0
 10
26118.34760992743
 20
16325.36915435259
 10
26110.66661346052
 20
16339.59334858805
 42
2.13377379538943
 10
26172.1476839767
 20
16339.59334858805
 10
26164.46668750979
 20
16325.36915435263
 42
-1.607971215497602
  0
CIRCLE
  5
DBD0B
330
F5613
100
AcDbEntity
  8
0
100
AcDbCircle
 10
27051.4071487186
 20
16313.9999999981
 30
0.0
 40
7.0
  0
LWPOLYLINE
  5
DBD0C
330
F5613
100
AcDbEntity
  8
0
100
AcDbPolyline
 90
        5
 70
     0
 43
0.0
 10
27065.37579041429
 20
16308.53400976955
 42
-0.6825294813324769
 10
27037.43850702304
 20
16308.53400976939
 10
27006.40714871861
 20
16365.9999999981
 10
27096.40714871861
 20
16365.9999999981
 10
27065.37579041417
 20
16308.53400976939
  0
LWPOLYLINE
  5
DBD0D
330
F5613
100
AcDbEntity
  8
0
100
AcDbPolyline
 90
        4
 70
     1
 43
0.0
 10
27074.46668750979
 20
16325.3691543526
 10
27065.37579041429
 20
16308.53400976957
 42
-0.6825294813324769
 10
27037.43850702304
 20
16308.53400976941
 10
27028.34760992742
 20
16325.3691543526
 42
1.607971215497602
  0
LWPOLYLINE
  5
DBD0E
330
F5613
100
AcDbEntity
  8
0
100
AcDbPolyline
 90
        4
 70
     1
 43
0.0
 10
27028.34760992742
 20
16325.36915435259
 10
27020.66661346052
 20
16339.59334858805
 42
2.13377379538943
 10
27082.14768397669
 20
16339.59334858805
 10
27074.46668750979
 20
16325.36915435263
 42
-1.607971215497602
  0
LWPOLYLINE
  5
DBD0F
330
F5613
100
AcDbEntity
  8
0
100
AcDbPolyline
 90
        4
 70
     1
 43
0.0
 10
27006.40714871861
 20
16365.9999999981
 10
27006.40714871861
 20
16375.9999999981
 10
27096.40714871861
 20
16375.9999999981
 10
27096.40714871861
 20
16365.9999999981
  0
LWPOLYLINE
  5
DBD10
330
F5613
100
AcDbEntity
  8
0
100
AcDbPolyline
 90
        4
 70
     1
 43
0.0
 10
22483.40714871861
 20
18460.99999999801
 10
22483.40714871861
 20
16486.99999999801
 10
22096.40714871861
 20
16486.99999999801
 10
22096.40714871861
 20
18460.99999999801
  0
LWPOLYLINE
  5
DBD11
330
F5613
100
AcDbEntity
  8
0
100
AcDbPolyline
 90
        4
 70
     1
 43
0.0
 10
22096.40714871861
 20
18460.99999999801
 10
22096.40714871861
 20
16486.99999999801
 10
21709.40714871861
 20
16486.99999999801
 10
21709.40714871861
 20
18460.99999999801
  0
LWPOLYLINE
  5
DBD12
330
F5613
100
AcDbEntity
  8
0
100
AcDbPolyline
 90
        4
 70
     1
 43
0.0
 10
22496.40714871861
 20
18460.99999999801
 10
22496.40714871861
 20
16486.99999999801
 10
22483.40714871861
 20
16486.99999999801
 10
22483.40714871861
 20
18460.99999999801
  0
LWPOLYLINE
  5
DBD13
330
F5613
100
AcDbEntity
  8
0
100
AcDbPolyline
 90
        4
 70
     1
 43
0.0
 10
21696.40714871861
 20
18460.99999999801
 10
21696.40714871861
 20
16486.99999999801
 10
21709.40714871861
 20
16486.99999999801
 10
21709.40714871861
 20
18460.99999999801
  0
LWPOLYLINE
  5
DBD14
330
F5613
100
AcDbEntity
  8
0
100
AcDbPolyline
 90
        4
 70
     1
 43
0.0
 10
21696.40714871861
 20
18460.99999999801
 10
21696.40714871861
 20
18473.99999999802
 10
22496.40714871861
 20
18473.99999999802
 10
22496.40714871861
 20
18460.99999999801
  0
LWPOLYLINE
  5
DBD15
330
F5613
100
AcDbEntity
  8
0
100
AcDbPolyline
 90
        4
 70
     1
 43
0.0
 10
21696.40714871861
 20
16473.99999999802
 10
21696.40714871861
 20
16486.99999999801
 10
22496.40714871861
 20
16486.99999999801
 10
22496.40714871861
 20
16473.99999999802
  0
LWPOLYLINE
  5
DBD16
330
F5613
100
AcDbEntity
  8
0
100
AcDbPolyline
 90
        4
 70
     1
 43
0.0
 10
22148.48335285823
 20
17467.96995664959
 10
22148.48335285823
 20
17479.96995664959
 10
22149.98335285823
 20
17479.96995664959
 10
22149.98335285823
 20
17467.96995664959
  0
CIRCLE
  5
DBD17
330
F5613
100
AcDbEntity
  8
0
100
AcDbCircle
 10
22149.23335285823
 20
17473.96995664959
 30
0.0
 40
12.0
  0
LWPOLYLINE
  5
DBD23
330
F5613
100
AcDbEntity
  8
0
100
AcDbPolyline
 90
        4
 70
     1
 43
0.0
 10
31272.40714871862
 20
9916.99999999871
 10
31272.40714871862
 20
9926.99999999871
 10
30320.40714871862
 20
9926.99999999871
 10
30320.40714871862
 20
9916.99999999871
  0
LWPOLYLINE
  5
DBD24
330
F5613
100
AcDbEntity
  8
0
100
AcDbPolyline
 90
        4
 70
     1
 43
0.0
 10
31272.40714871862
 20
8752.999999998712
 10
31272.40714871862
 20
8762.999999998712
 10
30320.40714871862
 20
8762.999999998712
 10
30320.40714871862
 20
8752.999999998712
  0
LWPOLYLINE
  5
DBD25
330
F5613
100
AcDbEntity
  8
0
100
AcDbPolyline
 90
        4
 70
     1
 43
0.0
 10
31272.40714871862
 20
8752.999999998712
 10
31272.40714871862
 20
9926.99999999871
 10
31283.40714871862
 20
9926.99999999871
 10
31283.40714871862
 20
8752.999999998712
  0
LWPOLYLINE
  5
DBD26
330
F5613
100
AcDbEntity
  8
0
100
AcDbPolyline
 90
        4
 70
     1
 43
0.0
 10
30309.40714871862
 20
8752.999999998712
 10
30309.40714871862
 20
9926.99999999871
 10
30320.40714871862
 20
9926.99999999871
 10
30320.40714871862
 20
8752.999999998712
  0
LWPOLYLINE
  5
DBD27
330
F5613
100
AcDbEntity
  8
0
100
AcDbPolyline
 90
        4
 70
     1
 43
0.0
 10
31281.40714871862
 20
8713.999999998798
 10
31281.40714871862
 20
8739.9999999988
 10
31231.40714871861
 20
8739.9999999988
 10
31231.40714871861
 20
8713.999999998798
  0
LWPOLYLINE
  5
DBD28
330
F5613
100
AcDbEntity
  8
0
100
AcDbPolyline
 90
        4
 70
     1
 43
0.0
 10
30311.40714871862
 20
8713.999999998712
 10
30311.40714871862
 20
8739.999999998712
 10
30361.40714871862
 20
8739.999999998712
 10
30361.40714871862
 20
8713.999999998712
  0
LWPOLYLINE
  5
DBD29
330
F5613
100
AcDbEntity
  8
0
100
AcDbPolyline
 90
        4
 70
     1
 43
0.0
 10
31296.40714871862
 20
9926.99999999871
 10
31296.40714871862
 20
8752.999999998712
 10
31283.40714871862
 20
8752.999999998712
 10
31283.40714871862
 20
9926.99999999871
  0
LWPOLYLINE
  5
DBD2A
330
F5613
100
AcDbEntity
  8
0
100
AcDbPolyline
 90
        4
 70
     1
 43
0.0
 10
30296.40714871862
 20
9926.99999999871
 10
30296.40714871862
 20
8752.999999998712
 10
30309.40714871862
 20
8752.999999998712
 10
30309.40714871862
 20
9926.99999999871
  0
LWPOLYLINE
  5
DBD2B
330
F5613
100
AcDbEntity
  8
0
100
AcDbPolyline
 90
        4
 70
     1
 43
0.0
 10
30296.40714871862
 20
9926.99999999871
 10
30296.40714871862
 20
9939.99999999871
 10
31296.40714871862
 20
9939.99999999871
 10
31296.40714871862
 20
9926.99999999871
  0
LWPOLYLINE
  5
DBD2C
330
F5613
100
AcDbEntity
  8
0
100
AcDbPolyline
 90
        4
 70
     1
 43
0.0
 10
30296.40714871862
 20
8739.999999998712
 10
30296.40714871862
 20
8752.999999998712
 10
31296.40714871862
 20
8752.999999998712
 10
31296.40714871862
 20
8739.999999998712
  0
LWPOLYLINE
  5
DBD2D
330
F5613
100
AcDbEntity
  8
0
100
AcDbPolyline
 90
       13
 70
     0
 43
0.0
 10
30320.40714871862
 20
9015.999999998989
 10
30321.40714871862
 20
9015.999999998989
 10
30321.40714871862
 20
9000.999999998989
 10
30339.40714871862
 20
9000.999999998989
 10
30339.40714871862
 20
8940.999999998989
 10
30321.40714871862
 20
8940.999999998989
 10
30321.40714871862
 20
8925.999999998989
 10
30320.40714871862
 20
8925.999999998989
 10
30320.40714871862
 20
8941.999999998989
 10
30338.40714871862
 20
8941.999999998989
 10
30338.40714871862
 20
8999.999999998989
 10
30320.40714871862
 20
8999.999999998989
 10
30320.40714871862
 20
9015.999999998989
  0
LWPOLYLINE
  5
DBD2E
330
F5613
100
AcDbEntity
  8
0
100
AcDbPolyline
 90
        9
 70
     0
 43
0.0
 10
30341.40714871861
 20
8998.999999998989
 10
30347.40714871862
 20
8998.999999998989
 10
30347.40714871862
 20
9000.999999998989
 10
30339.40714871862
 20
9000.999999998989
 10
30339.40714871862
 20
8940.999999998989
 10
30347.40714871862
 20
8940.999999998989
 10
30347.40714871862
 20
8942.999999998989
 10
30341.40714871861
 20
8942.999999998989
 10
30341.40714871861
 20
8998.999999998989
  0
LWPOLYLINE
  5
DBD2F
330
F5613
100
AcDbEntity
  8
0
100
AcDbPolyline
 90
        4
 70
     1
 43
0.0
 10
30347.40714871862
 20
9020.99999999899
 10
31245.40714871862
 20
9020.99999999899
 10
31245.40714871862
 20
8924.999999998989
 10
30347.40714871862
 20
8924.999999998989
  0
LWPOLYLINE
  5
DBD30
330
F5613
100
AcDbEntity
  8
0
100
AcDbPolyline
 90
        4
 70
     1
 43
0.0
 10
30482.65714871862
 20
9040.999999998989
 10
30573.90714871861
 20
9040.999999998989
 10
30573.90714871861
 20
9020.99999999899
 10
30482.65714871862
 20
9020.99999999899
  0
LWPOLYLINE
  5
DBD31
330
F5613
100
AcDbEntity
  8
0
100
AcDbPolyline
 90
        4
 70
     1
 43
0.0
 10
30392.40714871862
 20
8924.999999998989
 10
30756.40714871862
 20
8924.999999998989
 10
30756.40714871862
 20
8775.999999998989
 10
30392.40714871862
 20
8775.999999998989
  0
LWPOLYLINE
  5
DBD32
330
F5613
100
AcDbEntity
  8
0
100
AcDbPolyline
 90
        4
 70
     1
 43
0.0
 10
30926.65714871862
 20
9040.999999998989
 10
31017.90714871861
 20
9040.999999998989
 10
31017.90714871861
 20
9020.99999999899
 10
30926.65714871862
 20
9020.99999999899
  0
LWPOLYLINE
  5
DBD33
330
F5613
100
AcDbEntity
  8
0
100
AcDbPolyline
 90
        4
 70
     1
 43
0.0
 10
31200.40714871862
 20
8924.999999998989
 10
30836.40714871862
 20
8924.999999998989
 10
30836.40714871862
 20
8775.999999998989
 10
31200.40714871862
 20
8775.999999998989
  0
LWPOLYLINE
  5
DBD34
330
F5613
100
AcDbEntity
  8
0
100
AcDbPolyline
 90
        9
 70
     0
 43
0.0
 10
31251.40714871862
 20
8998.999999998885
 10
31245.40714871862
 20
8998.999999998885
 10
31245.40714871862
 20
9000.999999998885
 10
31253.40714871862
 20
9000.999999998885
 10
31253.40714871862
 20
8940.999999998885
 10
31245.40714871862
 20
8940.999999998885
 10
31245.40714871862
 20
8942.999999998885
 10
31251.40714871862
 20
8942.999999998885
 10
31251.40714871862
 20
8998.999999998885
  0
LWPOLYLINE
  5
DBD35
330
F5613
100
AcDbEntity
  8
0
100
AcDbPolyline
 90
       13
 70
     0
 43
0.0
 10
31272.40714871862
 20
9015.999999998889
 10
31271.40714871861
 20
9015.999999998889
 10
31271.40714871861
 20
9000.999999998885
 10
31253.40714871862
 20
9000.999999998885
 10
31253.40714871862
 20
8940.999999998885
 10
31271.40714871861
 20
8940.999999998885
 10
31271.40714871861
 20
8925.999999998883
 10
31272.40714871862
 20
8925.999999998883
 10
31272.40714871862
 20
8941.999999998889
 10
31254.40714871862
 20
8941.999999998889
 10
31254.40714871862
 20
8999.999999998889
 10
31272.40714871862
 20
8999.999999998889
 10
31272.40714871862
 20
9015.999999998889
  0
LWPOLYLINE
  5
DBD36
330
F5613
100
AcDbEntity
  8
0
100
AcDbPolyline
 90
       13
 70
     0
 43
0.0
 10
30320.40714871862
 20
9315.999999998712
 10
30321.40714871862
 20
9315.999999998712
 10
30321.40714871862
 20
9300.999999998714
 10
30339.40714871862
 20
9300.999999998714
 10
30339.40714871862
 20
9240.99999999871
 10
30321.40714871862
 20
9240.99999999871
 10
30321.40714871862
 20
9225.999999998712
 10
30320.40714871862
 20
9225.999999998712
 10
30320.40714871862
 20
9241.999999998712
 10
30338.40714871862
 20
9241.999999998712
 10
30338.40714871862
 20
9299.999999998712
 10
30320.40714871862
 20
9299.999999998712
 10
30320.40714871862
 20
9315.999999998712
  0
LWPOLYLINE
  5
DBD37
330
F5613
100
AcDbEntity
  8
0
100
AcDbPolyline
 90
        9
 70
     0
 43
0.0
 10
30341.40714871861
 20
9298.99999999871
 10
30347.40714871862
 20
9298.99999999871
 10
30347.40714871862
 20
9300.999999998714
 10
30339.40714871862
 20
9300.999999998714
 10
30339.40714871862
 20
9240.99999999871
 10
30347.40714871862
 20
9240.99999999871
 10
30347.40714871862
 20
9242.999999998712
 10
30341.40714871861
 20
9242.999999998712
 10
30341.40714871861
 20
9298.99999999871
  0
LWPOLYLINE
  5
DBD38
330
F5613
100
AcDbEntity
  8
0
100
AcDbPolyline
 90
        4
 70
     1
 43
0.0
 10
30347.40714871862
 20
9320.99999999871
 10
31245.40714871862
 20
9320.99999999871
 10
31245.40714871862
 20
9224.999999998712
 10
30347.40714871862
 20
9224.999999998712
  0
LWPOLYLINE
  5
DBD39
330
F5613
100
AcDbEntity
  8
0
100
AcDbPolyline
 90
        4
 70
     1
 43
0.0
 10
30482.65714871862
 20
9340.999999998712
 10
30573.90714871861
 20
9340.999999998712
 10
30573.90714871861
 20
9320.99999999871
 10
30482.65714871862
 20
9320.99999999871
  0
LWPOLYLINE
  5
DBD3A
330
F5613
100
AcDbEntity
  8
0
100
AcDbPolyline
 90
        4
 70
     1
 43
0.0
 10
30392.40714871862
 20
9224.999999998712
 10
30756.40714871862
 20
9224.999999998712
 10
30756.40714871862
 20
9075.999999998712
 10
30392.40714871862
 20
9075.999999998712
  0
LWPOLYLINE
  5
DBD3B
330
F5613
100
AcDbEntity
  8
0
100
AcDbPolyline
 90
        4
 70
     1
 43
0.0
 10
30926.65714871862
 20
9340.999999998712
 10
31017.90714871861
 20
9340.999999998712
 10
31017.90714871861
 20
9320.99999999871
 10
30926.65714871862
 20
9320.99999999871
  0
LWPOLYLINE
  5
DBD3C
330
F5613
100
AcDbEntity
  8
0
100
AcDbPolyline
 90
        4
 70
     1
 43
0.0
 10
31200.40714871862
 20
9224.999999998712
 10
30836.40714871862
 20
9224.999999998712
 10
30836.40714871862
 20
9075.999999998712
 10
31200.40714871862
 20
9075.999999998712
  0
LWPOLYLINE
  5
DBD3D
330
F5613
100
AcDbEntity
  8
0
100
AcDbPolyline
 90
        9
 70
     0
 43
0.0
 10
31251.40714871862
 20
9298.999999998612
 10
31245.40714871862
 20
9298.999999998612
 10
31245.40714871862
 20
9300.99999999861
 10
31253.40714871862
 20
9300.99999999861
 10
31253.40714871862
 20
9240.99999999861
 10
31245.40714871862
 20
9240.99999999861
 10
31245.40714871862
 20
9242.99999999861
 10
31251.40714871862
 20
9242.99999999861
 10
31251.40714871862
 20
9298.999999998612
  0
LWPOLYLINE
  5
DBD3E
330
F5613
100
AcDbEntity
  8
0
100
AcDbPolyline
 90
       13
 70
     0
 43
0.0
 10
31272.40714871862
 20
9315.999999998608
 10
31271.40714871861
 20
9315.999999998608
 10
31271.40714871861
 20
9300.99999999861
 10
31253.40714871862
 20
9300.99999999861
 10
31253.40714871862
 20
9240.99999999861
 10
31271.40714871861
 20
9240.99999999861
 10
31271.40714871861
 20
9225.99999999861
 10
31272.40714871862
 20
9225.99999999861
 10
31272.40714871862
 20
9241.999999998608
 10
31254.40714871862
 20
9241.999999998608
 10
31254.40714871862
 20
9299.999999998608
 10
31272.40714871862
 20
9299.999999998608
 10
31272.40714871862
 20
9315.999999998608
  0
LWPOLYLINE
  5
DBD3F
330
F5613
100
AcDbEntity
  8
0
100
AcDbPolyline
 90
       13
 70
     0
 43
0.0
 10
30320.40714871862
 20
9615.999999998712
 10
30321.40714871862
 20
9615.999999998712
 10
30321.40714871862
 20
9600.999999998712
 10
30339.40714871862
 20
9600.999999998712
 10
30339.40714871862
 20
9540.999999998712
 10
30321.40714871862
 20
9540.999999998712
 10
30321.40714871862
 20
9525.999999998712
 10
30320.40714871862
 20
9525.999999998712
 10
30320.40714871862
 20
9541.999999998712
 10
30338.40714871862
 20
9541.999999998712
 10
30338.40714871862
 20
9599.999999998712
 10
30320.40714871862
 20
9599.999999998712
 10
30320.40714871862
 20
9615.999999998712
  0
LWPOLYLINE
  5
DBD40
330
F5613
100
AcDbEntity
  8
0
100
AcDbPolyline
 90
        9
 70
     0
 43
0.0
 10
30341.40714871861
 20
9598.999999998712
 10
30347.40714871862
 20
9598.999999998712
 10
30347.40714871862
 20
9600.999999998712
 10
30339.40714871862
 20
9600.999999998712
 10
30339.40714871862
 20
9540.999999998712
 10
30347.40714871862
 20
9540.999999998712
 10
30347.40714871862
 20
9542.99999999871
 10
30341.40714871861
 20
9542.99999999871
 10
30341.40714871861
 20
9598.999999998712
  0
LWPOLYLINE
  5
DBD41
330
F5613
100
AcDbEntity
  8
0
100
AcDbPolyline
 90
        4
 70
     1
 43
0.0
 10
30347.40714871862
 20
9620.999999998712
 10
31245.40714871862
 20
9620.999999998712
 10
31245.40714871862
 20
9524.999999998712
 10
30347.40714871862
 20
9524.999999998712
  0
LWPOLYLINE
  5
DBD42
330
F5613
100
AcDbEntity
  8
0
100
AcDbPolyline
 90
        4
 70
     1
 43
0.0
 10
30482.65714871862
 20
9640.999999998712
 10
30573.90714871861
 20
9640.999999998712
 10
30573.90714871861
 20
9620.999999998712
 10
30482.65714871862
 20
9620.999999998712
  0
LWPOLYLINE
  5
DBD43
330
F5613
100
AcDbEntity
  8
0
100
AcDbPolyline
 90
        4
 70
     1
 43
0.0
 10
30392.40714871862
 20
9524.999999998712
 10
30756.40714871862
 20
9524.999999998712
 10
30756.40714871862
 20
9375.999999998712
 10
30392.40714871862
 20
9375.999999998712
  0
LWPOLYLINE
  5
DBD44
330
F5613
100
AcDbEntity
  8
0
100
AcDbPolyline
 90
        4
 70
     1
 43
0.0
 10
30926.65714871862
 20
9640.999999998712
 10
31017.90714871861
 20
9640.999999998712
 10
31017.90714871861
 20
9620.999999998712
 10
30926.65714871862
 20
9620.999999998712
  0
LWPOLYLINE
  5
DBD45
330
F5613
100
AcDbEntity
  8
0
100
AcDbPolyline
 90
        4
 70
     1
 43
0.0
 10
31200.40714871862
 20
9524.999999998712
 10
30836.40714871862
 20
9524.999999998712
 10
30836.40714871862
 20
9375.999999998712
 10
31200.40714871862
 20
9375.999999998712
  0
LWPOLYLINE
  5
DBD46
330
F5613
100
AcDbEntity
  8
0
100
AcDbPolyline
 90
        9
 70
     0
 43
0.0
 10
31251.40714871862
 20
9598.99999999861
 10
31245.40714871862
 20
9598.99999999861
 10
31245.40714871862
 20
9600.99999999861
 10
31253.40714871862
 20
9600.99999999861
 10
31253.40714871862
 20
9540.999999998608
 10
31245.40714871862
 20
9540.999999998608
 10
31245.40714871862
 20
9542.99999999861
 10
31251.40714871862
 20
9542.99999999861
 10
31251.40714871862
 20
9598.99999999861
  0
LWPOLYLINE
  5
DBD47
330
F5613
100
AcDbEntity
  8
0
100
AcDbPolyline
 90
       13
 70
     0
 43
0.0
 10
31272.40714871862
 20
9615.99999999861
 10
31271.40714871861
 20
9615.99999999861
 10
31271.40714871861
 20
9600.99999999861
 10
31253.40714871862
 20
9600.99999999861
 10
31253.40714871862
 20
9540.999999998608
 10
31271.40714871861
 20
9540.999999998608
 10
31271.40714871861
 20
9525.99999999861
 10
31272.40714871862
 20
9525.99999999861
 10
31272.40714871862
 20
9541.99999999861
 10
31254.40714871862
 20
9541.99999999861
 10
31254.40714871862
 20
9599.99999999861
 10
31272.40714871862
 20
9599.99999999861
 10
31272.40714871862
 20
9615.99999999861
  0
LWPOLYLINE
  5
DBD5A
330
F5613
100
AcDbEntity
  8
0
100
AcDbPolyline
 90
        4
 70
     1
 43
0.0
 10
20481.4071487186
 20
8713.999999999302
 10
20481.4071487186
 20
8739.999999999303
 10
20431.40714871861
 20
8739.999999999303
 10
20431.40714871861
 20
8713.999999999302
  0
LWPOLYLINE
  5
DBD5B
330
F5613
100
AcDbEntity
  8
0
100
AcDbPolyline
 90
        4
 70
     1
 43
0.0
 10
19711.4071487186
 20
8713.999999999218
 10
19711.4071487186
 20
8739.99999999922
 10
19761.4071487186
 20
8739.99999999922
 10
19761.4071487186
 20
8713.999999999218
  0
LWPOLYLINE
  5
DBD5C
330
F5613
100
AcDbEntity
  8
0
100
AcDbPolyline
 90
        4
 70
     1
 43
0.0
 10
20496.4071487186
 20
10726.99999999921
 10
20496.4071487186
 20
8752.999999999218
 10
20483.4071487186
 20
8752.999999999218
 10
20483.4071487186
 20
10726.99999999921
  0
LWPOLYLINE
  5
DBD5D
330
F5613
100
AcDbEntity
  8
0
100
AcDbPolyline
 90
        4
 70
     1
 43
0.0
 10
19696.4071487186
 20
10726.99999999921
 10
19696.4071487186
 20
8752.999999999218
 10
19709.4071487186
 20
8752.999999999218
 10
19709.4071487186
 20
10726.99999999921
  0
LWPOLYLINE
  5
DBD5E
330
F5613
100
AcDbEntity
  8
0
100
AcDbPolyline
 90
        4
 70
     1
 43
0.0
 10
19696.4071487186
 20
10726.99999999921
 10
19696.4071487186
 20
10739.99999999921
 10
20496.4071487186
 20
10739.99999999921
 10
20496.4071487186
 20
10726.99999999921
  0
LWPOLYLINE
  5
DBD5F
330
F5613
100
AcDbEntity
  8
0
100
AcDbPolyline
 90
        4
 70
     1
 43
0.0
 10
19696.4071487186
 20
8739.99999999922
 10
19696.4071487186
 20
8752.999999999218
 10
20496.4071487186
 20
8752.999999999218
 10
20496.4071487186
 20
8739.99999999922
  0
LWPOLYLINE
  5
DBD60
330
F5613
100
AcDbEntity
  8
0
100
AcDbPolyline
 90
        4
 70
     1
 43
0.0
 10
20472.40714871861
 20
10716.99999999921
 10
20472.40714871861
 20
10726.99999999921
 10
19720.40714871861
 20
10726.99999999921
 10
19720.40714871861
 20
10716.99999999921
  0
LWPOLYLINE
  5
DBD61
330
F5613
100
AcDbEntity
  8
0
100
AcDbPolyline
 90
        4
 70
     1
 43
0.0
 10
20472.40714871861
 20
8752.999999999218
 10
20472.40714871861
 20
8762.999999999218
 10
19720.40714871861
 20
8762.999999999218
 10
19720.40714871861
 20
8752.999999999218
  0
LWPOLYLINE
  5
DBD62
330
F5613
100
AcDbEntity
  8
0
100
AcDbPolyline
 90
        4
 70
     1
 43
0.0
 10
20472.40714871861
 20
8752.999999999218
 10
20472.40714871861
 20
10726.99999999921
 10
20483.4071487186
 20
10726.99999999921
 10
20483.4071487186
 20
8752.999999999218
  0
LWPOLYLINE
  5
DBD63
330
F5613
100
AcDbEntity
  8
0
100
AcDbPolyline
 90
        4
 70
     1
 43
0.0
 10
19709.4071487186
 20
8752.999999999218
 10
19709.4071487186
 20
10726.99999999921
 10
19720.40714871861
 20
10726.99999999921
 10
19720.40714871861
 20
8752.999999999218
  0
LWPOLYLINE
  5
DBD64
330
F5613
100
AcDbEntity
  8
0
100
AcDbPolyline
 90
        4
 70
     1
 43
0.0
 10
19720.40714871861
 20
9154.999999999216
 10
19720.40714871861
 20
9124.999999999218
 10
20472.40714871861
 20
9124.999999999218
 10
20472.40714871861
 20
9154.999999999216
  0
LWPOLYLINE
  5
DBD65
330
F5613
100
AcDbEntity
  8
0
100
AcDbPolyline
 90
        4
 70
     1
 43
0.0
 10
19720.40714871861
 20
9554.999999999216
 10
19720.40714871861
 20
9524.999999999216
 10
20472.40714871861
 20
9524.999999999216
 10
20472.40714871861
 20
9554.999999999216
  0
LWPOLYLINE
  5
DBD66
330
F5613
100
AcDbEntity
  8
0
100
AcDbPolyline
 90
        4
 70
     1
 43
0.0
 10
19720.40714871861
 20
9524.999999999216
 10
19720.40714871861
 20
9154.999999999216
 10
20472.40714871861
 20
9154.999999999216
 10
20472.40714871861
 20
9524.999999999216
  0
LWPOLYLINE
  5
DBD67
330
F5613
100
AcDbEntity
  8
0
100
AcDbPolyline
 90
        4
 70
     1
 43
0.0
 10
19720.40714871861
 20
9124.999999999218
 10
19720.40714871861
 20
8762.999999999218
 10
20472.40714871861
 20
8762.999999999218
 10
20472.40714871861
 20
9124.999999999218
  0
LWPOLYLINE
  5
DBD68
330
F5613
100
AcDbEntity
  8
0
100
AcDbPolyline
 90
        4
 70
     1
 43
0.0
 10
20302.40714871862
 20
9504.999999999216
 10
20387.40714871862
 20
9504.999999999216
 10
20387.40714871862
 20
9154.999999999216
 10
20302.40714871862
 20
9154.999999999216
  0
LWPOLYLINE
  5
DBD69
330
F5613
100
AcDbEntity
  8
0
100
AcDbPolyline
 90
        4
 70
     1
 43
0.0
 10
20314.40714871861
 20
9484.999999999216
 10
20375.40714871861
 20
9484.999999999216
 10
20375.40714871861
 20
9254.999999999216
 10
20314.40714871861
 20
9254.999999999216
  0
CIRCLE
  5
DBD6A
330
F5613
100
AcDbEntity
  8
0
100
AcDbCircle
 10
20344.90714871861
 20
9204.999999999216
 30
0.0
 40
15.0
  0
CIRCLE
  5
DBD6B
330
F5613
100
AcDbEntity
  8
0
100
AcDbCircle
 10
20344.90714871861
 20
9204.999999999216
 30
0.0
 40
17.0
  0
LWPOLYLINE
  5
DBD6C
330
F5613
100
AcDbEntity
  8
0
100
AcDbPolyline
 90
        4
 70
     1
 43
0.0
 10
20132.40714871861
 20
9112.999999999216
 10
20217.40714871861
 20
9112.999999999216
 10
20217.40714871861
 20
8762.999999999218
 10
20132.40714871861
 20
8762.999999999218
  0
LWPOLYLINE
  5
DBD6D
330
F5613
100
AcDbEntity
  8
0
100
AcDbPolyline
 90
        4
 70
     1
 43
0.0
 10
20144.4071487186
 20
9092.999999999216
 10
20205.4071487186
 20
9092.999999999216
 10
20205.4071487186
 20
8862.999999999218
 10
20144.4071487186
 20
8862.999999999218
  0
CIRCLE
  5
DBD6E
330
F5613
100
AcDbEntity
  8
0
100
AcDbCircle
 10
20174.9071487186
 20
8812.99999999922
 30
0.0
 40
15.0
  0
CIRCLE
  5
DBD6F
330
F5613
100
AcDbEntity
  8
0
100
AcDbCircle
 10
20174.9071487186
 20
8812.99999999922
 30
0.0
 40
17.0
  0
LWPOLYLINE
  5
DBD70
330
F5613
100
AcDbEntity
  8
0
100
AcDbPolyline
 90
        4
 70
     1
 43
0.0
 10
19720.40714871861
 20
9854.999999999216
 10
19720.40714871861
 20
9884.99763032764
 10
20472.40714871861
 20
9884.99763032764
 10
20472.40714871861
 20
9854.999999999216
  0
LWPOLYLINE
  5
DBD71
330
F5613
100
AcDbEntity
  8
0
100
AcDbPolyline
 90
        4
 70
     1
 43
0.0
 10
19720.40714871861
 20
9854.999999999216
 10
19720.40714871861
 20
9554.999999999216
 10
20472.40714871861
 20
9554.999999999216
 10
20472.40714871861
 20
9854.999999999216
  0
LWPOLYLINE
  5
DBD72
330
F5613
100
AcDbEntity
  8
0
100
AcDbPolyline
 90
        7
 70
     0
 43
0.0
 10
20051.55731299808
 20
9854.951742431353
 10
20050.55784483752
 20
9854.973544795648
 10
20045.0305857757
 20
9601.551505195035
 10
20006.61246844925
 20
9854.948250759102
 10
20005.60051118918
 20
9854.951742431353
 10
20045.77782707717
 20
9589.951742431353
 10
20051.55760707353
 20
9854.951739490602
  0
LWPOLYLINE
  5
DBD73
330
F5613
100
AcDbEntity
  8
0
100
AcDbPolyline
 90
        5
 70
     0
 43
0.0
 10
20051.55731299808
 20
9854.951742431353
 10
20061.55799379653
 20
9854.851735623379
 10
20060.55904386086
 20
9754.956742056384
 10
20049.67478378988
 20
9755.162105453943
 10
20051.55760707353
 20
9854.951739490602
  0
LWPOLYLINE
  5
DBD74
330
F5613
100
AcDbEntity
  8
0
100
AcDbPolyline
 90
        5
 70
     0
 43
0.0
 10
20125.55731299808
 20
9854.951742431353
 10
20135.55799379652
 20
9854.851735623379
 10
20134.55904386086
 20
9754.956742056384
 10
20123.67478378988
 20
9755.162105453943
 10
20125.55760707354
 20
9854.951739490602
  0
LWPOLYLINE
  5
DBD75
330
F5613
100
AcDbEntity
  8
0
100
AcDbPolyline
 90
        7
 70
     0
 43
0.0
 10
20125.55731299808
 20
9854.951742431353
 10
20124.55784483752
 20
9854.973544795648
 10
20119.0305857757
 20
9601.551505195035
 10
20080.61246844925
 20
9854.948250759102
 10
20079.60051118918
 20
9854.951742431353
 10
20119.77782707717
 20
9589.951742431353
 10
20125.55760707354
 20
9854.951739490602
  0
LWPOLYLINE
  5
DBD76
330
F5613
100
AcDbEntity
  8
0
100
AcDbPolyline
 90
        5
 70
     0
 43
0.0
 10
20197.05773694869
 20
9854.90348486349
 10
20207.05841774712
 20
9854.803478055519
 10
20206.05946781148
 20
9754.90848448852
 10
20195.17520774049
 20
9755.113847886081
 10
20197.05803102416
 20
9854.90348192274
  0
LWPOLYLINE
  5
DBD77
330
F5613
100
AcDbEntity
  8
0
100
AcDbPolyline
 90
        7
 70
     0
 43
0.0
 10
20197.05773694869
 20
9854.90348486349
 10
20196.05826878814
 20
9854.925287227787
 10
20190.53100972631
 20
9601.503247627174
 10
20152.11289239988
 20
9854.89999319124
 10
20151.10093513978
 20
9854.90348486349
 10
20191.27825102778
 20
9589.90348486349
 10
20197.05803102416
 20
9854.90348192274
  0
LWPOLYLINE
  5
DBD78
330
F5613
100
AcDbEntity
  8
0
100
AcDbPolyline
 90
        5
 70
     0
 43
0.0
 10
20271.02255207043
 20
9854.901739027368
 10
20281.02323286884
 20
9854.801732219392
 10
20280.02428293318
 20
9754.906738652397
 10
20269.14002286222
 20
9755.112102049956
 10
20271.02284614588
 20
9854.901736086613
  0
LWPOLYLINE
  5
DBD79
330
F5613
100
AcDbEntity
  8
0
100
AcDbPolyline
 90
        7
 70
     0
 43
0.0
 10
20271.02255207043
 20
9854.901739027368
 10
20270.02308390985
 20
9854.923541391663
 10
20264.49582484804
 20
9601.501501791048
 10
20226.0777075216
 20
9854.898247355117
 10
20225.06575026151
 20
9854.901739027368
 10
20265.24306614952
 20
9589.901739027364
 10
20271.02284614588
 20
9854.901736086613
  0
LWPOLYLINE
  5
DBD7A
330
F5613
100
AcDbEntity
  8
0
100
AcDbPolyline
 90
        5
 70
     0
 43
0.0
 10
20342.55816089929
 20
9854.901739027368
 10
20352.55884169773
 20
9854.801732219392
 10
20351.55989176207
 20
9754.906738652397
 10
20340.67563169109
 20
9755.112102049956
 10
20342.55845497478
 20
9854.901736086613
  0
LWPOLYLINE
  5
DBD7B
330
F5613
100
AcDbEntity
  8
0
100
AcDbPolyline
 90
        7
 70
     0
 43
0.0
 10
20342.55816089929
 20
9854.901739027368
 10
20341.55869273873
 20
9854.923541391663
 10
20336.03143367693
 20
9601.501501791048
 10
20297.61331635047
 20
9854.898247355117
 10
20296.6013590904
 20
9854.901739027368
 10
20336.7786749784
 20
9589.901739027364
 10
20342.55845497478
 20
9854.901736086613
  0
LWPOLYLINE
  5
DBD7C
330
F5613
100
AcDbEntity
  8
0
100
AcDbPolyline
 90
        7
 70
     0
 43
0.0
 10
19980.05688904749
 20
9854.999999999216
 10
19979.0574208869
 20
9855.02180236351
 10
19973.53016182511
 20
9601.599762762897
 10
19935.11204449866
 20
9854.996508326964
 10
19934.10008723857
 20
9854.999999999216
 10
19974.27740312657
 20
9589.999999999214
 10
19980.05718312294
 20
9854.999997058461
  0
LWPOLYLINE
  5
DBD7D
330
F5613
100
AcDbEntity
  8
0
100
AcDbPolyline
 90
        5
 70
     0
 43
0.0
 10
19980.05688904749
 20
9854.999999999216
 10
19990.05756984593
 20
9854.89999319124
 10
19989.05861991025
 20
9755.004999624245
 10
19978.17435983926
 20
9755.210363021806
 10
19980.05718312294
 20
9854.999997058461
  0
LWPOLYLINE
  5
DBD7E
330
F5613
100
AcDbEntity
  8
0
100
AcDbPolyline
 90
        5
 70
     0
 43
0.0
 10
19906.05688904749
 20
9854.999999999216
 10
19916.0575698459
 20
9854.89999319124
 10
19915.05861991024
 20
9755.004999624245
 10
19904.17435983926
 20
9755.210363021806
 10
19906.05718312294
 20
9854.999997058461
  0
LWPOLYLINE
  5
DBD7F
330
F5613
100
AcDbEntity
  8
0
100
AcDbPolyline
 90
        7
 70
     0
 43
0.0
 10
19906.05688904749
 20
9854.999999999216
 10
19905.05742088691
 20
9855.02180236351
 10
19899.5301618251
 20
9601.599762762897
 10
19861.11204449864
 20
9854.996508326964
 10
19860.10008723857
 20
9854.999999999216
 10
19900.27740312657
 20
9589.999999999214
 10
19906.05718312294
 20
9854.999997058461
  0
LWPOLYLINE
  5
DBD80
330
F5613
100
AcDbEntity
  8
0
100
AcDbPolyline
 90
        7
 70
     0
 43
0.0
 10
19917.0891556047
 20
10254.99763032764
 10
19916.08968744415
 20
10255.01943269193
 10
19910.56242838233
 20
10001.59739309132
 10
19872.14431105587
 20
10254.99413865539
 10
19871.13235379582
 20
10254.99763032764
 10
19911.30966968378
 20
9989.997630327649
 10
19917.08944968017
 20
10254.99762738688
  0
LWPOLYLINE
  5
DBD81
330
F5613
100
AcDbEntity
  8
0
100
AcDbPolyline
 90
        5
 70
     0
 43
0.0
 10
19917.0891556047
 20
10254.99763032764
 10
19927.08983640314
 20
10254.89762351966
 10
19926.09088646749
 20
10155.00262995267
 10
19915.20662639651
 20
10155.20799335023
 10
19917.08944968017
 20
10254.99762738688
  0
LWPOLYLINE
  5
DBD82
330
F5613
100
AcDbEntity
  8
0
100
AcDbPolyline
 90
        5
 70
     0
 43
0.0
 10
19991.0891556047
 20
10254.99763032764
 10
20001.08983640314
 20
10254.89762351966
 10
20000.09088646749
 20
10155.00262995267
 10
19989.20662639651
 20
10155.20799335023
 10
19991.08944968018
 20
10254.99762738688
  0
LWPOLYLINE
  5
DBD83
330
F5613
100
AcDbEntity
  8
0
100
AcDbPolyline
 90
        7
 70
     0
 43
0.0
 10
19991.0891556047
 20
10254.99763032764
 10
19990.08968744415
 20
10255.01943269193
 10
19984.56242838233
 20
10001.59739309132
 10
19946.14431105587
 20
10254.99413865539
 10
19945.13235379582
 20
10254.99763032764
 10
19985.3096696838
 20
9989.997630327649
 10
19991.08944968018
 20
10254.99762738688
  0
LWPOLYLINE
  5
DBD8A
330
F5613
100
AcDbEntity
  8
0
100
AcDbPolyline
 90
        7
 70
     0
 43
0.0
 10
20136.58957955533
 20
10254.94937275978
 10
20135.59011139475
 20
10254.97117512407
 10
20130.06285233294
 20
10001.54913552346
 10
20091.64473500649
 20
10254.94588108753
 10
20090.63277774641
 20
10254.94937275978
 10
20130.81009363442
 20
9989.94937275978
 10
20136.58987363078
 20
10254.94936981902
  0
LWPOLYLINE
  5
DBD8B
330
F5613
100
AcDbEntity
  8
0
100
AcDbPolyline
 90
        5
 70
     0
 43
0.0
 10
20136.58957955533
 20
10254.94937275978
 10
20146.59026035375
 20
10254.8493659518
 10
20145.59131041809
 20
10154.95437238481
 10
20134.70705034711
 20
10155.15973578237
 10
20136.58987363078
 20
10254.94936981902
  0
LWPOLYLINE
  5
DBD8C
330
F5613
100
AcDbEntity
  8
0
100
AcDbPolyline
 90
        5
 70
     0
 43
0.0
 10
20062.58957955531
 20
10254.94937275978
 10
20072.59026035374
 20
10254.8493659518
 10
20071.59131041808
 20
10154.95437238481
 10
20060.70705034711
 20
10155.15973578237
 10
20062.58987363078
 20
10254.94936981902
  0
LWPOLYLINE
  5
DBD8D
330
F5613
100
AcDbEntity
  8
0
100
AcDbPolyline
 90
        7
 70
     0
 43
0.0
 10
20062.58957955531
 20
10254.94937275978
 10
20061.59011139477
 20
10254.97117512407
 10
20056.06285233294
 20
10001.54913552346
 10
20017.6447350065
 20
10254.94588108753
 10
20016.63277774642
 20
10254.94937275978
 10
20056.81009363441
 20
9989.94937275978
 10
20062.58987363078
 20
10254.94936981902
  0
LWPOLYLINE
  5
DBD8E
330
F5613
100
AcDbEntity
  8
0
100
AcDbPolyline
 90
        4
 70
     1
 43
0.0
 10
19720.40714871861
 20
10254.99763032764
 10
19720.40714871861
 20
9884.99763032764
 10
20472.40714871861
 20
9884.99763032764
 10
20472.40714871861
 20
10254.99763032764
  0
LWPOLYLINE
  5
DBD8F
330
F5613
100
AcDbEntity
  8
0
100
AcDbPolyline
 90
        4
 70
     1
 43
0.0
 10
19720.40714871861
 20
10254.99763032764
 10
19720.40714871861
 20
10284.99526065606
 10
20472.40714871861
 20
10284.99526065606
 10
20472.40714871861
 20
10254.99763032764
  0
CIRCLE
  5
DBD90
330
F5613
100
AcDbEntity
  8
0
100
AcDbCircle
 10
20344.90714871862
 20
9934.99763032764
 30
0.0
 40
17.0
  0
CIRCLE
  5
DBD91
330
F5613
100
AcDbEntity
  8
0
100
AcDbCircle
 10
20344.90714871862
 20
9934.99763032764
 30
0.0
 40
15.0
  0
LWPOLYLINE
  5
DBD92
330
F5613
100
AcDbEntity
  8
0
100
AcDbPolyline
 90
        4
 70
     1
 43
0.0
 10
20314.40714871862
 20
10214.99763032764
 10
20375.40714871862
 20
10214.99763032764
 10
20375.40714871862
 20
9984.99763032764
 10
20314.40714871862
 20
9984.99763032764
  0
LWPOLYLINE
  5
DBD93
330
F5613
100
AcDbEntity
  8
0
100
AcDbPolyline
 90
        4
 70
     1
 43
0.0
 10
20302.40714871861
 20
10234.99763032764
 10
20387.40714871861
 20
10234.99763032764
 10
20387.40714871861
 20
9884.99763032764
 10
20302.40714871861
 20
9884.99763032764
  0
LWPOLYLINE
  5
DBD94
330
F5613
100
AcDbEntity
  8
0
100
AcDbPolyline
 90
        4
 70
     1
 43
0.0
 10
24881.4071487186
 20
8713.999999998798
 10
24881.4071487186
 20
8739.9999999988
 10
24831.4071487186
 20
8739.9999999988
 10
24831.4071487186
 20
8713.999999998798
  0
LWPOLYLINE
  5
DBD95
330
F5613
100
AcDbEntity
  8
0
100
AcDbPolyline
 90
        4
 70
     1
 43
0.0
 10
23911.4071487186
 20
8713.999999998712
 10
23911.4071487186
 20
8739.999999998712
 10
23961.40714871861
 20
8739.999999998712
 10
23961.40714871861
 20
8713.999999998712
  0
LWPOLYLINE
  5
DBD96
330
F5613
100
AcDbEntity
  8
0
100
AcDbPolyline
 90
        4
 70
     1
 43
0.0
 10
24896.4071487186
 20
10726.99999999871
 10
24896.4071487186
 20
8752.999999998712
 10
24883.4071487186
 20
8752.999999998712
 10
24883.4071487186
 20
10726.99999999871
  0
LWPOLYLINE
  5
DBD97
330
F5613
100
AcDbEntity
  8
0
100
AcDbPolyline
 90
        4
 70
     1
 43
0.0
 10
23896.40714871861
 20
10726.99999999871
 10
23896.40714871861
 20
8752.999999998712
 10
23909.4071487186
 20
8752.999999998712
 10
23909.4071487186
 20
10726.99999999871
  0
LWPOLYLINE
  5
DBD98
330
F5613
100
AcDbEntity
  8
0
100
AcDbPolyline
 90
        4
 70
     1
 43
0.0
 10
23896.40714871861
 20
10726.99999999871
 10
23896.40714871861
 20
10739.99999999871
 10
24896.4071487186
 20
10739.99999999871
 10
24896.4071487186
 20
10726.99999999871
  0
LWPOLYLINE
  5
DBD99
330
F5613
100
AcDbEntity
  8
0
100
AcDbPolyline
 90
        4
 70
     1
 43
0.0
 10
23896.40714871861
 20
8739.999999998712
 10
23896.40714871861
 20
8752.999999998712
 10
24896.4071487186
 20
8752.999999998712
 10
24896.4071487186
 20
8739.999999998712
  0
LWPOLYLINE
  5
DBD9A
330
F5613
100
AcDbEntity
  8
0
100
AcDbPolyline
 90
        4
 70
     1
 43
0.0
 10
24872.40714871861
 20
10716.99999999871
 10
24872.40714871861
 20
10726.99999999871
 10
23920.4071487186
 20
10726.99999999871
 10
23920.4071487186
 20
10716.99999999871
  0
LWPOLYLINE
  5
DBD9B
330
F5613
100
AcDbEntity
  8
0
100
AcDbPolyline
 90
        4
 70
     1
 43
0.0
 10
24872.40714871861
 20
8752.999999998712
 10
24872.40714871861
 20
8762.999999998712
 10
23920.4071487186
 20
8762.999999998712
 10
23920.4071487186
 20
8752.999999998712
  0
LWPOLYLINE
  5
DBD9C
330
F5613
100
AcDbEntity
  8
0
100
AcDbPolyline
 90
        4
 70
     1
 43
0.0
 10
24872.40714871861
 20
8752.999999998712
 10
24872.40714871861
 20
10726.99999999871
 10
24883.4071487186
 20
10726.99999999871
 10
24883.4071487186
 20
8752.999999998712
  0
LWPOLYLINE
  5
DBD9D
330
F5613
100
AcDbEntity
  8
0
100
AcDbPolyline
 90
        4
 70
     1
 43
0.0
 10
23909.4071487186
 20
8752.999999998712
 10
23909.4071487186
 20
10726.99999999871
 10
23920.4071487186
 20
10726.99999999871
 10
23920.4071487186
 20
8752.999999998712
  0
LINE
  5
DBD9E
330
F5613
100
AcDbEntity
  8
0
100
AcDbLine
 10
23896.40714871861
 20
8741.999999998712
 30
0.0
 11
23896.40714871861
 21
10739.99999999871
 31
0.0
  0
LWPOLYLINE
  5
DBD9F
330
F5613
100
AcDbEntity
  8
0
100
AcDbPolyline
 90
        4
 70
     1
 43
0.0
 10
23920.4071487186
 20
10716.99999999871
 10
23920.4071487186
 20
10503.99999999875
 10
24872.40714871861
 20
10503.99999999875
 10
24872.40714871861
 20
10716.99999999871
  0
LWPOLYLINE
  5
DBDA0
330
F5613
100
AcDbEntity
  8
0
100
AcDbPolyline
 90
        4
 70
     1
 43
0.0
 10
23920.4071487186
 20
10503.99999999875
 10
23920.4071487186
 20
10473.99999999875
 10
24872.40714871861
 20
10473.99999999875
 10
24872.40714871861
 20
10503.99999999875
  0
LWPOLYLINE
  5
DBDA2
330
F5613
100
AcDbEntity
  8
0
100
AcDbPolyline
 90
       12
 70
     1
 43
0.0
 10
24863.40714871861
 20
10325.99999999875
 10
23929.40714871861
 20
10325.99999999875
 10
23929.40714871861
 20
10344.99999999875
 10
23927.40714871861
 20
10344.99999999875
 10
23927.40714871861
 20
10325.99999999875
 10
23922.4071487186
 20
10325.99999999875
 10
23922.4071487186
 20
10351.99999999875
 10
24870.40714871861
 20
10351.99999999865
 10
24870.40714871861
 20
10325.99999999875
 10
24865.40714871861
 20
10325.99999999875
 10
24865.40714871861
 20
10344.99999999865
 10
24863.40714871861
 20
10344.99999999865
  0
LWPOLYLINE
  5
DBDA3
330
F5613
100
AcDbEntity
  8
0
100
AcDbPolyline
 90
        4
 70
     1
 43
0.0
 10
23922.4071487186
 20
10473.99999999875
 10
23922.4071487186
 20
10323.99999999875
 10
23920.4071487186
 20
10323.99999999875
 10
23920.4071487186
 20
10473.99999999875
  0
LWPOLYLINE
  5
DBDA4
330
F5613
100
AcDbEntity
  8
0
100
AcDbPolyline
 90
        6
 70
     1
 43
0.0
 10
23922.4071487186
 20
10323.99999999875
 10
23929.40714871861
 20
10323.99999999875
 10
23929.40714871861
 20
10344.99999999875
 10
23927.40714871861
 20
10344.99999999875
 10
23927.40714871861
 20
10325.99999999875
 10
23922.4071487186
 20
10325.99999999875
  0
LWPOLYLINE
  5
DBDA5
330
F5613
100
AcDbEntity
  8
0
100
AcDbPolyline
 90
       12
 70
     1
 43
0.0
 10
23929.40714871861
 20
10325.99999999875
 10
24863.40714871861
 20
10325.99999999865
 10
24863.40714871861
 20
10344.99999999865
 10
24865.40714871861
 20
10344.99999999865
 10
24865.40714871861
 20
10325.99999999865
 10
24870.40714871861
 20
10325.99999999865
 10
24870.40714871861
 20
10351.99999999865
 10
23922.4071487186
 20
10351.99999999865
 10
23922.4071487186
 20
10325.99999999875
 10
23927.40714871861
 20
10325.99999999875
 10
23927.40714871861
 20
10344.99999999865
 10
23929.40714871861
 20
10344.99999999865
  0
LWPOLYLINE
  5
DBDA6
330
F5613
100
AcDbEntity
  8
0
100
AcDbPolyline
 90
        4
 70
     1
 43
0.0
 10
24870.40714871861
 20
10473.99999999865
 10
24870.40714871861
 20
10323.99999999865
 10
24872.40714871861
 20
10323.99999999865
 10
24872.40714871861
 20
10473.99999999865
  0
LWPOLYLINE
  5
DBDA7
330
F5613
100
AcDbEntity
  8
0
100
AcDbPolyline
 90
        6
 70
     1
 43
0.0
 10
24870.40714871861
 20
10323.99999999865
 10
24863.40714871861
 20
10323.99999999865
 10
24863.40714871861
 20
10344.99999999865
 10
24865.40714871861
 20
10344.99999999865
 10
24865.40714871861
 20
10325.99999999865
 10
24870.40714871861
 20
10325.99999999865
  0
CIRCLE
  5
DBDAE
330
F5613
100
AcDbEntity
  8
0
100
AcDbCircle
 10
20259.90714871862
 20
9204.999999999216
 30
0.0
 40
17.0
  0
CIRCLE
  5
DBDAF
330
F5613
100
AcDbEntity
  8
0
100
AcDbCircle
 10
20259.90714871862
 20
9204.999999999216
 30
0.0
 40
15.0
  0
LWPOLYLINE
  5
DBDB0
330
F5613
100
AcDbEntity
  8
0
100
AcDbPolyline
 90
        4
 70
     1
 43
0.0
 10
20229.40714871862
 20
9484.999999999216
 10
20290.40714871862
 20
9484.999999999216
 10
20290.40714871862
 20
9254.999999999216
 10
20229.40714871862
 20
9254.999999999216
  0
LWPOLYLINE
  5
DBDB1
330
F5613
100
AcDbEntity
  8
0
100
AcDbPolyline
 90
        4
 70
     1
 43
0.0
 10
20217.40714871861
 20
9504.999999999216
 10
20302.40714871862
 20
9504.999999999216
 10
20302.40714871862
 20
9154.999999999216
 10
20217.40714871861
 20
9154.999999999216
  0
CIRCLE
  5
DBDB2
330
F5613
100
AcDbEntity
  8
0
100
AcDbCircle
 10
20429.90714871862
 20
9204.999999999216
 30
0.0
 40
17.0
  0
CIRCLE
  5
DBDB3
330
F5613
100
AcDbEntity
  8
0
100
AcDbCircle
 10
20429.90714871862
 20
9204.999999999216
 30
0.0
 40
15.0
  0
LWPOLYLINE
  5
DBDB4
330
F5613
100
AcDbEntity
  8
0
100
AcDbPolyline
 90
        4
 70
     1
 43
0.0
 10
20399.40714871862
 20
9484.999999999216
 10
20460.40714871862
 20
9484.999999999216
 10
20460.40714871862
 20
9254.999999999216
 10
20399.40714871862
 20
9254.999999999216
  0
LWPOLYLINE
  5
DBDB5
330
F5613
100
AcDbEntity
  8
0
100
AcDbPolyline
 90
        4
 70
     1
 43
0.0
 10
20387.40714871862
 20
9504.999999999216
 10
20472.40714871861
 20
9504.999999999216
 10
20472.40714871861
 20
9154.999999999216
 10
20387.40714871862
 20
9154.999999999216
  0
CIRCLE
  5
DBDB6
330
F5613
100
AcDbEntity
  8
0
100
AcDbCircle
 10
20429.90714871861
 20
9934.99763032764
 30
0.0
 40
17.0
  0
CIRCLE
  5
DBDB7
330
F5613
100
AcDbEntity
  8
0
100
AcDbCircle
 10
20429.90714871861
 20
9934.99763032764
 30
0.0
 40
15.0
  0
LWPOLYLINE
  5
DBDB8
330
F5613
100
AcDbEntity
  8
0
100
AcDbPolyline
 90
        4
 70
     1
 43
0.0
 10
20399.40714871861
 20
10214.99763032764
 10
20460.40714871861
 20
10214.99763032764
 10
20460.40714871861
 20
9984.99763032764
 10
20399.40714871861
 20
9984.99763032764
  0
LWPOLYLINE
  5
DBDB9
330
F5613
100
AcDbEntity
  8
0
100
AcDbPolyline
 90
        4
 70
     1
 43
0.0
 10
20387.40714871861
 20
10234.99763032764
 10
20472.40714871861
 20
10234.99763032764
 10
20472.40714871861
 20
9884.99763032764
 10
20387.40714871861
 20
9884.99763032764
  0
LWPOLYLINE
  5
DBDBA
330
F5613
100
AcDbEntity
  8
0
100
AcDbPolyline
 90
        4
 70
     1
 43
0.0
 10
20387.40714871861
 20
10634.99526065606
 10
20472.40714871861
 20
10634.99526065606
 10
20472.40714871861
 20
10284.99526065606
 10
20387.40714871861
 20
10284.99526065606
  0
LWPOLYLINE
  5
DBDBB
330
F5613
100
AcDbEntity
  8
0
100
AcDbPolyline
 90
        4
 70
     1
 43
0.0
 10
20399.40714871861
 20
10614.99526065606
 10
20460.40714871861
 20
10614.99526065606
 10
20460.40714871861
 20
10384.99526065606
 10
20399.40714871861
 20
10384.99526065606
  0
CIRCLE
  5
DBDBC
330
F5613
100
AcDbEntity
  8
0
100
AcDbCircle
 10
20429.90714871861
 20
10334.99526065606
 30
0.0
 40
15.0
  0
CIRCLE
  5
DBDBD
330
F5613
100
AcDbEntity
  8
0
100
AcDbCircle
 10
20429.90714871861
 20
10334.99526065606
 30
0.0
 40
17.0
  0
LWPOLYLINE
  5
DBDBE
330
F5613
100
AcDbEntity
  8
0
100
AcDbPolyline
 90
        4
 70
     1
 43
0.0
 10
19720.40714871861
 20
10716.99999999921
 10
19720.40714871861
 20
10284.99526065606
 10
20472.40714871861
 20
10284.99526065606
 10
20472.40714871861
 20
10716.99999999921
  0
LWPOLYLINE
  5
DBDE0
330
F5613
100
AcDbEntity
  8
0
100
AcDbPolyline
 90
        9
 70
     0
 43
0.0
 10
19681.4071487186
 20
16294.99999999802
 10
19651.40714871861
 20
16294.99999999802
 10
19651.40714871861
 20
16488.99999999802
 10
20651.4071487186
 20
16488.99999999802
 10
20651.4071487186
 20
16294.99999999802
 10
20621.40714871861
 20
16294.99999999802
 10
20621.40714871861
 20
16458.99999999802
 10
19681.4071487186
 20
16458.99999999802
 10
19681.4071487186
 20
16294.99999999802
  0
LWPOLYLINE
  5
DBDE1
330
F5613
100
AcDbEntity
  8
0
100
AcDbPolyline
 90
        4
 70
     1
 43
0.0
 10
20638.40714871861
 20
17275.99999999801
 10
20638.40714871861
 20
16501.99999999802
 10
20151.4071487186
 20
16501.99999999802
 10
20151.4071487186
 20
17275.99999999801
  0
LWPOLYLINE
  5
DBDE2
330
F5613
100
AcDbEntity
  8
0
100
AcDbPolyline
 90
        4
 70
     1
 43
0.0
 10
20151.4071487186
 20
17275.99999999801
 10
20151.4071487186
 20
16501.99999999802
 10
19664.40714871861
 20
16501.99999999802
 10
19664.40714871861
 20
17275.99999999801
  0
LWPOLYLINE
  5
DBDE3
330
F5613
100
AcDbEntity
  8
0
100
AcDbPolyline
 90
        4
 70
     1
 43
0.0
 10
20651.4071487186
 20
17275.99999999801
 10
20651.4071487186
 20
16501.99999999802
 10
20638.40714871861
 20
16501.99999999802
 10
20638.40714871861
 20
17275.99999999801
  0
LWPOLYLINE
  5
DBDE4
330
F5613
100
AcDbEntity
  8
0
100
AcDbPolyline
 90
        4
 70
     1
 43
0.0
 10
19651.40714871861
 20
17275.99999999801
 10
19651.40714871861
 20
16501.99999999802
 10
19664.40714871861
 20
16501.99999999802
 10
19664.40714871861
 20
17275.99999999801
  0
LWPOLYLINE
  5
DBDE5
330
F5613
100
AcDbEntity
  8
0
100
AcDbPolyline
 90
        4
 70
     1
 43
0.0
 10
19651.40714871861
 20
17275.99999999801
 10
19651.40714871861
 20
17288.99999999802
 10
20651.4071487186
 20
17288.99999999802
 10
20651.4071487186
 20
17275.99999999801
  0
LWPOLYLINE
  5
DBDE6
330
F5613
100
AcDbEntity
  8
0
100
AcDbPolyline
 90
        4
 70
     1
 43
0.0
 10
19651.40714871861
 20
16488.99999999802
 10
19651.40714871861
 20
16501.99999999802
 10
20651.4071487186
 20
16501.99999999802
 10
20651.4071487186
 20
16488.99999999802
  0
LWPOLYLINE
  5
DBDE7
330
F5613
100
AcDbEntity
  8
0
100
AcDbPolyline
 90
        4
 70
     1
 43
0.0
 10
20203.48335285823
 20
17236.97395664959
 10
20203.48335285823
 20
17248.97395664959
 10
20204.98335285823
 20
17248.97395664959
 10
20204.98335285823
 20
17236.97395664959
  0
CIRCLE
  5
DBDE8
330
F5613
100
AcDbEntity
  8
0
100
AcDbCircle
 10
20204.23335285823
 20
17242.97395664959
 30
0.0
 40
12.0
  0
LWPOLYLINE
  5
DBDEF
330
F5613
100
AcDbEntity
  8
0
100
AcDbPolyline
 90
        4
 70
     1
 43
0.0
 10
23930.1821487186
 20
16369.10802096436
 10
23930.1821487186
 20
16399.10802096436
 10
24930.1821487186
 20
16399.10802096436
 10
24930.1821487186
 20
16369.10802096436
  0
CIRCLE
  5
DBDF0
330
F5613
100
AcDbEntity
  8
0
100
AcDbCircle
 10
23975.18214871861
 20
16307.10802096436
 30
0.0
 40
7.0
  0
LWPOLYLINE
  5
DBDF1
330
F5613
100
AcDbEntity
  8
0
100
AcDbPolyline
 90
        4
 70
     1
 43
0.0
 10
23930.1821487186
 20
16359.10802096436
 10
23930.1821487186
 20
16369.10802096436
 10
24020.1821487186
 20
16369.10802096436
 10
24020.1821487186
 20
16359.10802096436
  0
LWPOLYLINE
  5
DBDF2
330
F5613
100
AcDbEntity
  8
0
100
AcDbPolyline
 90
        5
 70
     0
 43
0.0
 10
23989.15079041428
 20
16301.6420307358
 42
-0.6825294813324769
 10
23961.21350702303
 20
16301.64203073564
 10
23930.1821487186
 20
16359.10802096436
 10
24020.1821487186
 20
16359.10802096436
 10
23989.15079041417
 20
16301.64203073564
  0
LWPOLYLINE
  5
DBDF3
330
F5613
100
AcDbEntity
  8
0
100
AcDbPolyline
 90
        4
 70
     1
 43
0.0
 10
23998.2416875098
 20
16318.47717531886
 10
23989.15079041428
 20
16301.64203073582
 42
-0.6825294813324769
 10
23961.21350702303
 20
16301.64203073566
 10
23952.12260992741
 20
16318.47717531886
 42
1.607971215497602
  0
LWPOLYLINE
  5
DBDF4
330
F5613
100
AcDbEntity
  8
0
100
AcDbPolyline
 90
        4
 70
     1
 43
0.0
 10
23952.12260992741
 20
16318.47717531884
 10
23944.44161346053
 20
16332.7013695543
 42
2.13377379538943
 10
24005.92268397669
 20
16332.7013695543
 10
23998.2416875098
 20
16318.47717531889
 42
-1.607971215497602
  0
CIRCLE
  5
DBDF5
330
F5613
100
AcDbEntity
  8
0
100
AcDbCircle
 10
24885.1821487186
 20
16307.10802096436
 30
0.0
 40
7.0
  0
LWPOLYLINE
  5
DBDF6
330
F5613
100
AcDbEntity
  8
0
100
AcDbPolyline
 90
        5
 70
     0
 43
0.0
 10
24899.15079041428
 20
16301.6420307358
 42
-0.6825294813324769
 10
24871.21350702303
 20
16301.64203073564
 10
24840.18214871861
 20
16359.10802096436
 10
24930.1821487186
 20
16359.10802096436
 10
24899.15079041417
 20
16301.64203073564
  0
LWPOLYLINE
  5
DBDF7
330
F5613
100
AcDbEntity
  8
0
100
AcDbPolyline
 90
        4
 70
     1
 43
0.0
 10
24908.2416875098
 20
16318.47717531886
 10
24899.15079041428
 20
16301.64203073582
 42
-0.6825294813324769
 10
24871.21350702303
 20
16301.64203073566
 10
24862.12260992741
 20
16318.47717531886
 42
1.607971215497602
  0
LWPOLYLINE
  5
DBDF8
330
F5613
100
AcDbEntity
  8
0
100
AcDbPolyline
 90
        4
 70
     1
 43
0.0
 10
24862.12260992741
 20
16318.47717531884
 10
24854.44161346053
 20
16332.7013695543
 42
2.13377379538943
 10
24915.92268397669
 20
16332.7013695543
 10
24908.2416875098
 20
16318.47717531889
 42
-1.607971215497602
  0
LWPOLYLINE
  5
DBDF9
330
F5613
100
AcDbEntity
  8
0
100
AcDbPolyline
 90
        4
 70
     1
 43
0.0
 10
24840.18214871861
 20
16359.10802096436
 10
24840.18214871861
 20
16369.10802096436
 10
24930.1821487186
 20
16369.10802096436
 10
24930.1821487186
 20
16359.10802096436
  0
LWPOLYLINE
  5
DBDFC
330
F5613
100
AcDbEntity
  8
0
100
AcDbPolyline
 90
        4
 70
     1
 43
0.0
 10
22481.40714871861
 20
8713.999999999302
 10
22481.40714871861
 20
8739.999999999303
 10
22431.40714871861
 20
8739.999999999303
 10
22431.40714871861
 20
8713.999999999302
  0
LWPOLYLINE
  5
DBDFD
330
F5613
100
AcDbEntity
  8
0
100
AcDbPolyline
 90
        4
 70
     1
 43
0.0
 10
21711.40714871861
 20
8713.999999999218
 10
21711.40714871861
 20
8739.99999999922
 10
21761.40714871861
 20
8739.99999999922
 10
21761.40714871861
 20
8713.999999999218
  0
LWPOLYLINE
  5
DBDFE
330
F5613
100
AcDbEntity
  8
0
100
AcDbPolyline
 90
        4
 70
     1
 43
0.0
 10
22496.40714871861
 20
10726.99999999921
 10
22496.40714871861
 20
8752.999999999218
 10
22483.40714871861
 20
8752.999999999218
 10
22483.40714871861
 20
10726.99999999921
  0
LWPOLYLINE
  5
DBDFF
330
F5613
100
AcDbEntity
  8
0
100
AcDbPolyline
 90
        4
 70
     1
 43
0.0
 10
21696.40714871861
 20
10726.99999999921
 10
21696.40714871861
 20
8752.999999999218
 10
21709.40714871861
 20
8752.999999999218
 10
21709.40714871861
 20
10726.99999999921
  0
LWPOLYLINE
  5
DBE00
330
F5613
100
AcDbEntity
  8
0
100
AcDbPolyline
 90
        4
 70
     1
 43
0.0
 10
21696.40714871861
 20
10726.99999999921
 10
21696.40714871861
 20
10739.99999999921
 10
22496.40714871861
 20
10739.99999999921
 10
22496.40714871861
 20
10726.99999999921
  0
LWPOLYLINE
  5
DBE01
330
F5613
100
AcDbEntity
  8
0
100
AcDbPolyline
 90
        4
 70
     1
 43
0.0
 10
21696.40714871861
 20
8739.99999999922
 10
21696.40714871861
 20
8752.999999999218
 10
22496.40714871861
 20
8752.999999999218
 10
22496.40714871861
 20
8739.99999999922
  0
LWPOLYLINE
  5
DBE02
330
F5613
100
AcDbEntity
  8
0
100
AcDbPolyline
 90
        4
 70
     1
 43
0.0
 10
22472.4071487186
 20
10716.99999999921
 10
22472.4071487186
 20
10726.99999999921
 10
21720.40714871861
 20
10726.99999999921
 10
21720.40714871861
 20
10716.99999999921
  0
LWPOLYLINE
  5
DBE03
330
F5613
100
AcDbEntity
  8
0
100
AcDbPolyline
 90
        4
 70
     1
 43
0.0
 10
22472.4071487186
 20
8752.999999999218
 10
22472.4071487186
 20
8762.999999999218
 10
21720.40714871861
 20
8762.999999999218
 10
21720.40714871861
 20
8752.999999999218
  0
LWPOLYLINE
  5
DBE04
330
F5613
100
AcDbEntity
  8
0
100
AcDbPolyline
 90
        4
 70
     1
 43
0.0
 10
22472.4071487186
 20
8752.999999999218
 10
22472.4071487186
 20
10726.99999999921
 10
22483.40714871861
 20
10726.99999999921
 10
22483.40714871861
 20
8752.999999999218
  0
LWPOLYLINE
  5
DBE05
330
F5613
100
AcDbEntity
  8
0
100
AcDbPolyline
 90
        4
 70
     1
 43
0.0
 10
21709.40714871861
 20
8752.999999999218
 10
21709.40714871861
 20
10726.99999999921
 10
21720.40714871861
 20
10726.99999999921
 10
21720.40714871861
 20
8752.999999999218
  0
LWPOLYLINE
  5
DBE15
330
F5613
100
AcDbEntity
  8
0
100
AcDbPolyline
 90
        4
 70
     1
 43
0.0
 10
21720.40714871861
 20
10716.99999999921
 10
21720.40714871861
 20
10503.99999999925
 10
22472.4071487186
 20
10503.99999999925
 10
22472.4071487186
 20
10716.99999999921
  0
LWPOLYLINE
  5
DBE16
330
F5613
100
AcDbEntity
  8
0
100
AcDbPolyline
 90
        4
 70
     1
 43
0.0
 10
21720.40714871861
 20
10503.99999999925
 10
21720.40714871861
 20
10473.99999999926
 10
22472.4071487186
 20
10473.99999999926
 10
22472.4071487186
 20
10503.99999999925
  0
LWPOLYLINE
  5
DBE17
330
F5613
100
AcDbEntity
  8
0
100
AcDbPolyline
 90
        4
 70
     1
 43
0.0
 10
21720.40714871861
 20
9434.999999999216
 10
21720.40714871861
 20
9404.999999999216
 10
22472.4071487186
 20
9404.999999999216
 10
22472.4071487186
 20
9434.999999999216
  0
LWPOLYLINE
  5
DBE18
330
F5613
100
AcDbEntity
  8
0
100
AcDbPolyline
 90
       12
 70
     1
 43
0.0
 10
22463.4071487186
 20
10325.99999999925
 10
21729.4071487186
 20
10325.99999999925
 10
21729.4071487186
 20
10344.99999999925
 10
21727.4071487186
 20
10344.99999999925
 10
21727.4071487186
 20
10325.99999999925
 10
21722.40714871861
 20
10325.99999999925
 10
21722.40714871861
 20
10351.99999999926
 10
22470.4071487186
 20
10351.99999999915
 10
22470.4071487186
 20
10325.99999999925
 10
22465.40714871861
 20
10325.99999999925
 10
22465.40714871861
 20
10344.99999999915
 10
22463.4071487186
 20
10344.99999999915
  0
LWPOLYLINE
  5
DBE19
330
F5613
100
AcDbEntity
  8
0
100
AcDbPolyline
 90
        4
 70
     1
 43
0.0
 10
21722.40714871861
 20
10473.99999999926
 10
21722.40714871861
 20
10323.99999999925
 10
21720.40714871861
 20
10323.99999999925
 10
21720.40714871861
 20
10473.99999999926
  0
LWPOLYLINE
  5
DBE1A
330
F5613
100
AcDbEntity
  8
0
100
AcDbPolyline
 90
        6
 70
     1
 43
0.0
 10
21722.40714871861
 20
10323.99999999925
 10
21729.4071487186
 20
10323.99999999925
 10
21729.4071487186
 20
10344.99999999925
 10
21727.4071487186
 20
10344.99999999925
 10
21727.4071487186
 20
10325.99999999925
 10
21722.40714871861
 20
10325.99999999925
  0
LWPOLYLINE
  5
DBE1B
330
F5613
100
AcDbEntity
  8
0
100
AcDbPolyline
 90
       12
 70
     1
 43
0.0
 10
21729.4071487186
 20
10325.99999999925
 10
22463.4071487186
 20
10325.99999999915
 10
22463.4071487186
 20
10344.99999999915
 10
22465.40714871861
 20
10344.99999999915
 10
22465.40714871861
 20
10325.99999999915
 10
22470.4071487186
 20
10325.99999999915
 10
22470.4071487186
 20
10351.99999999915
 10
21722.40714871861
 20
10351.99999999915
 10
21722.40714871861
 20
10325.99999999925
 10
21727.4071487186
 20
10325.99999999925
 10
21727.4071487186
 20
10344.99999999915
 10
21729.4071487186
 20
10344.99999999915
  0
LWPOLYLINE
  5
DBE1C
330
F5613
100
AcDbEntity
  8
0
100
AcDbPolyline
 90
        4
 70
     1
 43
0.0
 10
22470.4071487186
 20
10473.99999999915
 10
22470.4071487186
 20
10323.99999999915
 10
22472.4071487186
 20
10323.99999999915
 10
22472.4071487186
 20
10473.99999999915
  0
LWPOLYLINE
  5
DBE1D
330
F5613
100
AcDbEntity
  8
0
100
AcDbPolyline
 90
        6
 70
     1
 43
0.0
 10
22470.4071487186
 20
10323.99999999915
 10
22463.4071487186
 20
10323.99999999915
 10
22463.4071487186
 20
10344.99999999915
 10
22465.40714871861
 20
10344.99999999915
 10
22465.40714871861
 20
10325.99999999915
 10
22470.4071487186
 20
10325.99999999915
  0
LWPOLYLINE
  5
DBED0
330
F5613
100
AcDbEntity
  8
0
100
AcDbPolyline
 90
        4
 70
     1
 43
0.0
 10
26096.40714871861
 20
16405.9999999981
 10
26096.40714871861
 20
16418.9999999981
 10
27096.40714871861
 20
16418.9999999981
 10
27096.40714871861
 20
16405.9999999981
  0
LWPOLYLINE
  5
DBED1
330
F5613
100
AcDbEntity
  8
0
100
AcDbPolyline
 90
        4
 70
     1
 43
0.0
 10
26096.40714871861
 20
17592.9999999981
 10
26096.40714871861
 20
17605.9999999981
 10
27096.40714871861
 20
17605.9999999981
 10
27096.40714871861
 20
17592.9999999981
  0
LWPOLYLINE
  5
DBED2
330
F5613
100
AcDbEntity
  8
0
100
AcDbPolyline
 90
        4
 70
     1
 43
0.0
 10
26096.40714871861
 20
17592.9999999981
 10
26096.40714871861
 20
16418.9999999981
 10
26109.40714871861
 20
16418.9999999981
 10
26109.40714871861
 20
17592.9999999981
  0
LWPOLYLINE
  5
DBED3
330
F5613
100
AcDbEntity
  8
0
100
AcDbPolyline
 90
        4
 70
     1
 43
0.0
 10
27096.40714871861
 20
17592.9999999981
 10
27096.40714871861
 20
16418.9999999981
 10
27083.40714871861
 20
16418.9999999981
 10
27083.40714871861
 20
17592.9999999981
  0
LWPOLYLINE
  5
DBED4
330
F5613
100
AcDbEntity
  8
0
100
AcDbPolyline
 90
        4
 70
     1
 43
0.0
 10
26596.4071487186
 20
17592.9999999981
 10
26596.4071487186
 20
16418.9999999981
 10
26109.40714871861
 20
16418.9999999981
 10
26109.40714871861
 20
17592.9999999981
  0
LWPOLYLINE
  5
DBED5
330
F5613
100
AcDbEntity
  8
0
100
AcDbPolyline
 90
        4
 70
     1
 43
0.0
 10
27083.40714871861
 20
17592.9999999981
 10
27083.40714871861
 20
16418.9999999981
 10
26596.4071487186
 20
16418.9999999981
 10
26596.4071487186
 20
17592.9999999981
  0
LWPOLYLINE
  5
DBEE0
330
F5613
100
AcDbEntity
  8
0
100
AcDbPolyline
 90
        4
 70
     1
 43
0.0
 10
23930.1821487186
 20
16399.10802096436
 10
23930.1821487186
 20
16412.10802096436
 10
24930.1821487186
 20
16412.10802096436
 10
24930.1821487186
 20
16399.10802096436
  0
LWPOLYLINE
  5
DBEE1
330
F5613
100
AcDbEntity
  8
0
100
AcDbPolyline
 90
        4
 70
     1
 43
0.0
 10
23930.1821487186
 20
17186.10802096436
 10
23930.1821487186
 20
17199.10802096436
 10
24930.1821487186
 20
17199.10802096436
 10
24930.1821487186
 20
17186.10802096436
  0
LWPOLYLINE
  5
DBEE2
330
F5613
100
AcDbEntity
  8
0
100
AcDbPolyline
 90
        4
 70
     1
 43
0.0
 10
23930.1821487186
 20
17186.10802096436
 10
23930.1821487186
 20
16412.10802096436
 10
23943.1821487186
 20
16412.10802096436
 10
23943.1821487186
 20
17186.10802096436
  0
LWPOLYLINE
  5
DBEE3
330
F5613
100
AcDbEntity
  8
0
100
AcDbPolyline
 90
        4
 70
     1
 43
0.0
 10
24930.1821487186
 20
17186.10802096436
 10
24930.1821487186
 20
16412.10802096436
 10
24917.1821487186
 20
16412.10802096436
 10
24917.1821487186
 20
17186.10802096436
  0
LWPOLYLINE
  5
DBEE4
330
F5613
100
AcDbEntity
  8
0
100
AcDbPolyline
 90
        4
 70
     1
 43
0.0
 10
24430.1821487186
 20
17186.10802096436
 10
24430.1821487186
 20
16412.10802096436
 10
23943.1821487186
 20
16412.10802096436
 10
23943.1821487186
 20
17186.10802096436
  0
LWPOLYLINE
  5
DBEE5
330
F5613
100
AcDbEntity
  8
0
100
AcDbPolyline
 90
        4
 70
     1
 43
0.0
 10
24917.1821487186
 20
17186.10802096436
 10
24917.1821487186
 20
16412.10802096436
 10
24430.1821487186
 20
16412.10802096436
 10
24430.1821487186
 20
17186.10802096436
  0
LWPOLYLINE
  5
DBEE8
330
F5613
100
AcDbEntity
  8
0
100
AcDbPolyline
 90
        4
 70
     1
 43
0.0
 10
24482.25835285823
 20
17147.07710188796
 10
24482.25835285823
 20
17159.07710188796
 10
24483.75835285823
 20
17159.07710188796
 10
24483.75835285823
 20
17147.07710188796
  0
CIRCLE
  5
DBEE9
330
F5613
100
AcDbEntity
  8
0
100
AcDbCircle
 10
24483.00835285823
 20
17153.07710188796
 30
0.0
 40
12.0
  0
LINE
  5
DCF82
330
F5613
100
AcDbEntity
  8
0
100
AcDbLine
 10
4012.685974119231
 20
0.0000000000002274
 30
0.0
 11
4012.685974119231
 21
-987.6576470269353
 31
0.0
  0
TEXT
  5
DCF83
330
F5613
100
AcDbEntity
  8
0
100
AcDbText
 10
2240.022522568668
 20
-208.9254166234015
 30
0.0
 40
125.0
  1
2024-06
  7
STILE1
 72
     1
 11
2674.918355902001
 21
-208.9254166234015
 31
0.0
100
AcDbText
  0
LINE
  5
DCF84
330
F5613
100
AcDbEntity
  8
0
100
AcDbLine
 10
1337.561991373077
 20
-299.9965549039188
 30
0.0
 11
1337.561991373077
 21
0.0
 31
0.0
  0
LINE
  5
DCF85
330
F5613
100
AcDbEntity
  8
0
100
AcDbLine
 10
-1337.561991373077
 20
0.0
 30
0.0
 11
-1337.561991373077
 21
-987.6576470269353
 31
0.0
  0
LWPOLYLINE
  5
DCF86
330
F5613
100
AcDbEntity
  8
0
100
AcDbPolyline
 90
        4
 70
     1
 43
0.0
 10
-4012.685974119231
 20
0.0
 10
4012.685974119231
 20
0.0
 10
4012.685974119231
 20
-987.6576470269353
 10
-4012.685974119231
 20
-987.6576470269353
  0
LWPOLYLINE
  5
DCF87
330
F5613
100
AcDbEntity
  8
0
100
AcDbPolyline
 90
        2
 70
     0
 43
0.0
 10
-1337.561991373077
 20
-299.9965549039189
 10
4012.685974119231
 20
-299.9965549039186
  0
TEXT
  5
DCF88
330
F5613
100
AcDbEntity
  8
0
100
AcDbText
 10
-527.8452372835668
 20
-817.4938565844182
 30
0.0
 40
125.0
  1
This drawing is property of Fantin S.r.l. 
  7
STILE1
 72
     1
 11
1487.035715097386
 21
-817.4938565844182
 31
0.0
100
AcDbText
  0
LWPOLYLINE
  5
DCF89
330
F5613
100
AcDbEntity
  8
0
100
AcDbPolyline
 90
       16
 70
     1
 43
0.0
 10
-3164.963312949987
 20
-604.0348442923276
 10
-3164.963312949987
 20
-604.0348442923276
 10
-3140.60203043744
 20
-687.6576470269355
 10
-3014.885328505188
 20
-687.6576470269355
 10
-3132.294182670303
 20
-334.8833143443335
 42
0.1089385125692126
 10
-3145.036042486318
 20
-307.2121766244527
 42
0.1589313772246072
 10
-3157.031867676415
 20
-299.9273046676535
 42
0.058673645385263
 10
-3173.277038573287
 20
-298.3360188803636
 10
-3173.277038573287
 20
-298.3360188803636
 10
-3268.525316026062
 20
-298.3360188803636
 42
0.058673645385263
 10
-3284.770486922936
 20
-299.9273046676535
 42
0.1589313772246072
 10
-3296.766312113032
 20
-307.2121766244527
 42
0.1089385125692126
 10
-3309.508171929046
 20
-334.8833143443335
 10
-3426.917026089505
 20
-687.6576470269355
 10
-3307.851080996916
 20
-687.6576470269355
 10
-3284.038581000641
 20
-604.0348442923276
  0
LWPOLYLINE
  5
DCF8A
330
F5613
100
AcDbEntity
  8
0
100
AcDbPolyline
 90
        5
 70
     0
 43
0.0
 10
-3221.454976396636
 20
-406.8789198133162
 10
-3188.227030434647
 20
-520.96670193132
 10
-3260.775573728607
 20
-520.96670193132
 10
-3227.547627761961
 20
-406.8789198133162
 10
-3221.454976396636
 20
-406.8789198133162
  0
LWPOLYLINE
  5
DCF8B
330
F5613
100
AcDbEntity
  8
0
100
AcDbPolyline
 90
       11
 70
     0
 43
0.0
 10
-3407.540086535738
 20
-300.0
 10
-3407.540086535738
 20
-389.1607937274967
 10
-3593.616583929397
 20
-389.1607937274967
 10
-3593.616583929397
 20
-466.1362847220151
 10
-3463.47293430008
 20
-466.1362847220151
 10
-3463.47293430008
 20
-549.2095947265625
 10
-3593.616583929397
 20
-549.2095947265625
 10
-3593.616583929397
 20
-687.6576470269355
 10
-3712.685974119231
 20
-687.6576470269355
 10
-3712.685974119231
 20
-300.0
 10
-3407.540086535738
 20
-300.0
  0
LWPOLYLINE
  5
DCF8C
330
F5613
100
AcDbEntity
  8
0
100
AcDbPolyline
 90
        4
 70
     1
 43
0.0
 10
-2192.47902425006
 20
-299.9982774525415
 10
-2073.409634060226
 20
-299.9982774525415
 10
-2073.409634060226
 20
-687.6576470269355
 10
-2192.47902425006
 20
-687.6576470269355
  0
LWPOLYLINE
  5
DCF8D
330
F5613
100
AcDbEntity
  8
0
100
AcDbPolyline
 90
        9
 70
     0
 43
0.0
 10
-2229.582702633925
 20
-299.9982774525415
 10
-2229.582702633925
 20
-390.8213297522161
 10
-2345.878790956922
 20
-390.8213297522161
 10
-2345.878790956922
 20
-687.6576470269355
 10
-2464.948181146756
 20
-687.6576470269355
 10
-2464.948181146756
 20
-390.8213297522161
 10
-2578.481302894652
 20
-390.8213297522161
 10
-2578.481302894652
 20
-299.9982774525415
 10
-2229.582702633925
 20
-299.9982774525415
  0
LWPOLYLINE
  5
DCF8E
330
F5613
100
AcDbEntity
  8
0
100
AcDbPolyline
 90
       15
 70
     0
 43
0.0
 10
-2982.206875272095
 20
-687.6576470269355
 10
-2982.206875272095
 20
-299.9965549039189
 10
-2880.857333708556
 20
-299.9965549039189
 42
-0.316444976687396
 10
-2829.909539115615
 20
-328.2411702477839
 10
-2729.116380475462
 20
-498.2600775826719
 10
-2726.348246252165
 20
-498.2600775826719
 10
-2726.348246252165
 20
-299.9965549039189
 10
-2613.924445258454
 20
-299.9965549039189
 10
-2613.924445258454
 20
-687.6576470269355
 10
-2696.446539983154
 20
-687.6576470269355
 42
-0.312959769389874
 10
-2747.39433458075
 20
-659.4147542316932
 10
-2867.014940045774
 20
-466.1380072694737
 10
-2869.779629176483
 20
-466.1380072694737
 10
-2869.779629176483
 20
-687.6576470269355
 10
-2982.206875272095
 20
-687.6576470269355
  0
LWPOLYLINE
  5
DCF8F
330
F5613
100
AcDbEntity
  8
0
100
AcDbPolyline
 90
       15
 70
     0
 43
0.0
 10
-2005.844421386719
 20
-687.6576470269355
 10
-2005.844421386719
 20
-299.9965549039189
 10
-1904.494879823178
 20
-299.9965549039189
 42
-0.316444976687396
 10
-1853.547085234895
 20
-328.2411702477839
 10
-1752.753926590085
 20
-498.2600775826719
 10
-1749.985792371444
 20
-498.2600775826719
 10
-1749.985792371444
 20
-299.9965549039189
 10
-1637.561991373077
 20
-299.9965549039189
 10
-1637.561991373077
 20
-687.6576470269355
 10
-1720.084086097777
 20
-687.6576470269355
 42
-0.312959769389874
 10
-1771.031880690716
 20
-659.4147542316932
 10
-1890.652486160398
 20
-466.1380072694737
 10
-1893.417175291106
 20
-466.1380072694737
 10
-1893.417175291106
 20
-687.6576470269355
 10
-2005.844421386719
 20
-687.6576470269355
  0
TEXT
  5
DCF90
330
F5613
100
AcDbEntity
  8
0
100
AcDbText
 10
-367.3511028769727
 20
-208.9254166234014
 30
0.0
 40
125.0
  1
Essenza
  7
STILE1
 72
     1
 11
7.741903075408115
 21
-208.9254166234014
 31
0.0
100
AcDbText
  0
TEXT
  5
DCF91
330
F5613
100
AcDbEntity
  8
0
100
AcDbText
 10
-838.7791374978212
 20
-555.4096502962035
 30
0.0
 40
125.0
  1
Questo disegno è di proprietà di Fantin S.r.l.   
  7
STILE1
 72
     1
 11
1583.839910121226
 21
-555.4096502962035
 31
0.0
100
AcDbText
  0
LWPOLYLINE
  5
DCF9E
330
F5613
100
AcDbEntity
  8
0
100
AcDbPolyline
 90
        4
 70
     1
 43
0.0
 10
15266.89433298539
 20
554.0366420584437
 10
-4012.685974119231
 20
554.0366420584437
 10
-4012.685974119229
 20
7559.999999999302
 10
15266.89433298539
 20
7559.999999999302
  0
LWPOLYLINE
  5
DCF9F
330
F5613
100
AcDbEntity
  8
0
100
AcDbPolyline
 90
        4
 70
     1
 43
0.0
 10
35100.47464008942
 20
8113.999999998709
 10
15820.8943329848
 20
8113.999999998709
 10
15820.8943329848
 20
15119.96335793956
 10
35100.47464008942
 20
15119.96335793956
  0
LWPOLYLINE
  5
DCFA0
330
F5613
100
AcDbEntity
  8
0
100
AcDbPolyline
 90
        4
 70
     1
 43
0.0
 10
35100.47464008942
 20
15673.99999999801
 10
15820.8943329848
 20
15673.99999999801
 10
15820.8943329848
 20
22679.96335793887
 10
35100.47464008942
 20
22679.96335793887
  0
LWPOLYLINE
  5
E66FD
330
F5613
100
AcDbEntity
  8
0
100
AcDbPolyline
 90
        4
 70
     1
 43
0.0
 10
3882.945263041649
 20
1180.036642058692
 10
3882.945263041649
 20
1193.036642058692
 10
4882.945263041649
 20
1193.036642058692
 10
4882.945263041649
 20
1180.036642058692
  0
LWPOLYLINE
  5
E66FE
330
F5613
100
AcDbEntity
  8
0
100
AcDbPolyline
 90
        4
 70
     1
 43
0.0
 10
3882.945263041649
 20
1967.036642058692
 10
3882.945263041649
 20
1980.036642058692
 10
4882.945263041649
 20
1980.036642058692
 10
4882.945263041649
 20
1967.036642058692
  0
LWPOLYLINE
  5
E66FF
330
F5613
100
AcDbEntity
  8
0
100
AcDbPolyline
 90
        4
 70
     1
 43
0.0
 10
3882.945263041649
 20
1967.036642058692
 10
3882.945263041649
 20
1193.036642058692
 10
3895.94526304165
 20
1193.036642058692
 10
3895.94526304165
 20
1967.036642058692
  0
LWPOLYLINE
  5
E6700
330
F5613
100
AcDbEntity
  8
0
100
AcDbPolyline
 90
        4
 70
     1
 43
0.0
 10
4882.945263041649
 20
1967.036642058692
 10
4882.945263041649
 20
1193.036642058692
 10
4869.945263041649
 20
1193.036642058692
 10
4869.945263041649
 20
1967.036642058692
  0
LWPOLYLINE
  5
E6701
330
F5613
100
AcDbEntity
  8
0
100
AcDbPolyline
 90
        4
 70
     1
 43
0.0
 10
3897.945263041649
 20
1154.036642058692
 10
3897.945263041649
 20
1180.036642058692
 10
3947.945263041649
 20
1180.036642058692
 10
3947.945263041649
 20
1154.036642058692
  0
LWPOLYLINE
  5
E6702
330
F5613
100
AcDbEntity
  8
0
100
AcDbPolyline
 90
        4
 70
     1
 43
0.0
 10
4867.945263041649
 20
1154.036642058792
 10
4867.945263041649
 20
1180.036642058792
 10
4817.945263041649
 20
1180.036642058792
 10
4817.945263041649
 20
1154.036642058792
  0
LWPOLYLINE
  5
E6703
330
F5613
100
AcDbEntity
  8
0
100
AcDbPolyline
 90
        4
 70
     1
 43
0.0
 10
11576.89211878297
 20
1967.036642058343
 10
11576.89211878297
 20
1980.036642058343
 10
12176.89211878297
 20
1980.036642058343
 10
12176.89211878297
 20
1967.036642058343
  0
LWPOLYLINE
  5
E6704
330
F5613
100
AcDbEntity
  8
0
100
AcDbPolyline
 90
        4
 70
     1
 43
0.0
 10
11591.89211878297
 20
1154.036642058343
 10
11591.89211878297
 20
1180.036642058343
 10
11641.89211878297
 20
1180.036642058343
 10
11641.89211878297
 20
1154.036642058343
  0
LWPOLYLINE
  5
E6705
330
F5613
100
AcDbEntity
  8
0
100
AcDbPolyline
 90
        4
 70
     1
 43
0.0
 10
11576.89211878297
 20
1180.036642058343
 10
11576.89211878297
 20
1193.036642058343
 10
12176.89211878297
 20
1193.036642058343
 10
12176.89211878297
 20
1180.036642058343
  0
LWPOLYLINE
  5
E6706
330
F5613
100
AcDbEntity
  8
0
100
AcDbPolyline
 90
        4
 70
     1
 43
0.0
 10
11576.89211878297
 20
1967.036642058343
 10
11576.89211878297
 20
1193.036642058343
 10
12176.89211878297
 20
1193.036642058343
 10
12176.89211878297
 20
1967.036642058343
  0
LWPOLYLINE
  5
E6707
330
F5613
100
AcDbEntity
  8
0
100
AcDbPolyline
 90
        4
 70
     1
 43
0.0
 10
12161.89211878297
 20
1154.036642058443
 10
12161.89211878297
 20
1180.036642058443
 10
12111.89211878297
 20
1180.036642058443
 10
12111.89211878297
 20
1154.036642058443
  0
LWPOLYLINE
  5
E6708
330
F5613
100
AcDbEntity
  8
0
100
AcDbPolyline
 90
        4
 70
     1
 43
0.0
 10
13391.8969131688
 20
1154.036642058443
 10
13391.8969131688
 20
1180.036642058443
 10
13341.8969131688
 20
1180.036642058443
 10
13341.8969131688
 20
1154.036642058443
  0
LWPOLYLINE
  5
E6709
330
F5613
100
AcDbEntity
  8
0
100
AcDbPolyline
 90
        4
 70
     1
 43
0.0
 10
12806.8969131688
 20
2367.036642058343
 10
12806.8969131688
 20
1193.036642058343
 10
13406.8969131688
 20
1193.036642058343
 10
13406.8969131688
 20
2367.036642058343
  0
LWPOLYLINE
  5
E670A
330
F5613
100
AcDbEntity
  8
0
100
AcDbPolyline
 90
        4
 70
     1
 43
0.0
 10
12806.8969131688
 20
1180.036642058343
 10
12806.8969131688
 20
1193.036642058343
 10
13406.8969131688
 20
1193.036642058343
 10
13406.8969131688
 20
1180.036642058343
  0
LWPOLYLINE
  5
E670B
330
F5613
100
AcDbEntity
  8
0
100
AcDbPolyline
 90
        4
 70
     1
 43
0.0
 10
12821.8969131688
 20
1154.036642058343
 10
12821.8969131688
 20
1180.036642058343
 10
12871.8969131688
 20
1180.036642058343
 10
12871.8969131688
 20
1154.036642058343
  0
LWPOLYLINE
  5
E670C
330
F5613
100
AcDbEntity
  8
0
100
AcDbPolyline
 90
        4
 70
     1
 43
0.0
 10
12806.8969131688
 20
2367.036642058343
 10
12806.8969131688
 20
2380.036642058343
 10
13406.8969131688
 20
2380.036642058343
 10
13406.8969131688
 20
2367.036642058343
  0
LWPOLYLINE
  5
E6713
330
F5613
100
AcDbEntity
  8
0
100
AcDbPolyline
 90
        4
 70
     1
 43
0.0
 10
8283.576500202531
 20
1180.036642058692
 10
8283.576500202531
 20
1193.036642058692
 10
9283.576500202531
 20
1193.036642058692
 10
9283.576500202531
 20
1180.036642058692
  0
LWPOLYLINE
  5
E6714
330
F5613
100
AcDbEntity
  8
0
100
AcDbPolyline
 90
        4
 70
     1
 43
0.0
 10
8283.576500202531
 20
3167.036642058694
 10
8283.576500202531
 20
3180.036642058694
 10
9283.576500202531
 20
3180.036642058694
 10
9283.576500202531
 20
3167.036642058694
  0
LWPOLYLINE
  5
E6715
330
F5613
100
AcDbEntity
  8
0
100
AcDbPolyline
 90
        4
 70
     1
 43
0.0
 10
8283.576500202531
 20
3167.036642058694
 10
8283.576500202531
 20
1193.036642058692
 10
8296.576500202531
 20
1193.036642058692
 10
8296.576500202531
 20
3167.036642058694
  0
LWPOLYLINE
  5
E6716
330
F5613
100
AcDbEntity
  8
0
100
AcDbPolyline
 90
        4
 70
     1
 43
0.0
 10
9283.576500202531
 20
3167.036642058694
 10
9283.576500202531
 20
1193.036642058692
 10
9270.576500202531
 20
1193.036642058692
 10
9270.576500202531
 20
3167.036642058694
  0
LWPOLYLINE
  5
E6717
330
F5613
100
AcDbEntity
  8
0
100
AcDbPolyline
 90
        4
 70
     1
 43
0.0
 10
8298.576500202533
 20
1154.036642058692
 10
8298.576500202533
 20
1180.036642058692
 10
8348.576500202531
 20
1180.036642058692
 10
8348.576500202531
 20
1154.036642058692
  0
LWPOLYLINE
  5
E6718
330
F5613
100
AcDbEntity
  8
0
100
AcDbPolyline
 90
        4
 70
     1
 43
0.0
 10
9268.576500202531
 20
1154.036642058792
 10
9268.576500202531
 20
1180.036642058792
 10
9218.576500202527
 20
1180.036642058792
 10
9218.576500202527
 20
1154.036642058792
  0
LWPOLYLINE
  5
E6719
330
F5613
100
AcDbEntity
  8
0
100
AcDbPolyline
 90
        4
 70
     1
 43
0.0
 10
14036.89433298539
 20
3167.036642058344
 10
14036.89433298539
 20
3180.036642058344
 10
14636.89433298539
 20
3180.036642058344
 10
14636.89433298539
 20
3167.036642058344
  0
LWPOLYLINE
  5
E671A
330
F5613
100
AcDbEntity
  8
0
100
AcDbPolyline
 90
        4
 70
     1
 43
0.0
 10
14051.89433298539
 20
1154.036642058343
 10
14051.89433298539
 20
1180.036642058343
 10
14101.89433298539
 20
1180.036642058343
 10
14101.89433298539
 20
1154.036642058343
  0
LWPOLYLINE
  5
E671B
330
F5613
100
AcDbEntity
  8
0
100
AcDbPolyline
 90
        4
 70
     1
 43
0.0
 10
14036.89433298539
 20
1180.036642058343
 10
14036.89433298539
 20
1193.036642058343
 10
14636.89433298539
 20
1193.036642058343
 10
14636.89433298539
 20
1180.036642058343
  0
LWPOLYLINE
  5
E671C
330
F5613
100
AcDbEntity
  8
0
100
AcDbPolyline
 90
        4
 70
     1
 43
0.0
 10
14036.89433298539
 20
3167.036642058344
 10
14036.89433298539
 20
1193.036642058343
 10
14636.89433298539
 20
1193.036642058343
 10
14636.89433298539
 20
3167.036642058344
  0
LWPOLYLINE
  5
E671D
330
F5613
100
AcDbEntity
  8
0
100
AcDbPolyline
 90
        4
 70
     1
 43
0.0
 10
14621.89433298539
 20
1154.036642058443
 10
14621.89433298539
 20
1180.036642058443
 10
14571.89433298539
 20
1180.036642058443
 10
14571.89433298539
 20
1154.036642058443
  0
LWPOLYLINE
  5
E671E
330
F5613
100
AcDbEntity
  8
0
100
AcDbPolyline
 90
        4
 70
     1
 43
0.0
 10
9268.576500202531
 20
4933.999999999401
 10
9268.576500202531
 20
4959.999999999412
 10
9218.576500202527
 20
4959.999999999412
 10
9218.576500202527
 20
4933.999999999401
  0
LWPOLYLINE
  5
E671F
330
F5613
100
AcDbEntity
  8
0
100
AcDbPolyline
 90
        4
 70
     1
 43
0.0
 10
8298.576500202533
 20
4933.999999999303
 10
8298.576500202533
 20
4959.999999999303
 10
8348.576500202531
 20
4959.999999999303
 10
8348.576500202531
 20
4933.999999999303
  0
LWPOLYLINE
  5
E6720
330
F5613
100
AcDbEntity
  8
0
100
AcDbPolyline
 90
        4
 70
     1
 43
0.0
 10
9283.576500202531
 20
6946.999999999303
 10
9283.576500202531
 20
4972.999999999303
 10
9270.576500202531
 20
4972.999999999303
 10
9270.576500202531
 20
6946.999999999303
  0
LWPOLYLINE
  5
E6721
330
F5613
100
AcDbEntity
  8
0
100
AcDbPolyline
 90
        4
 70
     1
 43
0.0
 10
8283.576500202531
 20
6946.999999999303
 10
8283.576500202531
 20
4972.999999999303
 10
8296.576500202531
 20
4972.999999999303
 10
8296.576500202531
 20
6946.999999999303
  0
LWPOLYLINE
  5
E6722
330
F5613
100
AcDbEntity
  8
0
100
AcDbPolyline
 90
        4
 70
     1
 43
0.0
 10
8283.576500202531
 20
6946.999999999303
 10
8283.576500202531
 20
6959.999999999303
 10
9283.576500202531
 20
6959.999999999303
 10
9283.576500202531
 20
6946.999999999303
  0
LWPOLYLINE
  5
E6723
330
F5613
100
AcDbEntity
  8
0
100
AcDbPolyline
 90
        4
 70
     1
 43
0.0
 10
8283.576500202531
 20
4959.999999999303
 10
8283.576500202531
 20
4972.999999999303
 10
9283.576500202531
 20
4972.999999999303
 10
9283.576500202531
 20
4959.999999999303
  0
LWPOLYLINE
  5
E6724
330
F5613
100
AcDbEntity
  8
0
100
AcDbPolyline
 90
        4
 70
     1
 43
0.0
 10
6083.260881622089
 20
4959.999999999303
 10
6083.260881622089
 20
4972.999999999303
 10
7083.260881622091
 20
4972.999999999303
 10
7083.260881622091
 20
4959.999999999303
  0
LWPOLYLINE
  5
E6725
330
F5613
100
AcDbEntity
  8
0
100
AcDbPolyline
 90
        4
 70
     1
 43
0.0
 10
6083.260881622089
 20
6146.999999999305
 10
6083.260881622089
 20
6159.999999999303
 10
7083.260881622091
 20
6159.999999999303
 10
7083.260881622091
 20
6146.999999999305
  0
LWPOLYLINE
  5
E6726
330
F5613
100
AcDbEntity
  8
0
100
AcDbPolyline
 90
        4
 70
     1
 43
0.0
 10
6083.260881622089
 20
6146.999999999305
 10
6083.260881622089
 20
4972.999999999303
 10
6096.26088162209
 20
4972.999999999303
 10
6096.26088162209
 20
6146.999999999305
  0
LWPOLYLINE
  5
E6727
330
F5613
100
AcDbEntity
  8
0
100
AcDbPolyline
 90
        4
 70
     1
 43
0.0
 10
7083.260881622091
 20
6146.999999999305
 10
7083.260881622091
 20
4972.999999999303
 10
7070.260881622089
 20
4972.999999999303
 10
7070.260881622089
 20
6146.999999999305
  0
LWPOLYLINE
  5
E6728
330
F5613
100
AcDbEntity
  8
0
100
AcDbPolyline
 90
        4
 70
     1
 43
0.0
 10
6098.260881622088
 20
4933.999999999303
 10
6098.260881622088
 20
4959.999999999303
 10
6148.260881622089
 20
4959.999999999303
 10
6148.260881622089
 20
4933.999999999303
  0
LWPOLYLINE
  5
E6729
330
F5613
100
AcDbEntity
  8
0
100
AcDbPolyline
 90
        4
 70
     1
 43
0.0
 10
7068.260881622089
 20
4933.999999999401
 10
7068.260881622089
 20
4959.999999999412
 10
7018.260881622089
 20
4959.999999999412
 10
7018.260881622089
 20
4933.999999999401
  0
LWPOLYLINE
  5
E672A
330
F5613
100
AcDbEntity
  8
0
100
AcDbPolyline
 90
        4
 70
     1
 43
0.0
 10
4867.945263041649
 20
4933.999999999401
 10
4867.945263041649
 20
4959.999999999412
 10
4817.945263041649
 20
4959.999999999412
 10
4817.945263041649
 20
4933.999999999401
  0
LWPOLYLINE
  5
E672B
330
F5613
100
AcDbEntity
  8
0
100
AcDbPolyline
 90
        4
 70
     1
 43
0.0
 10
3897.945263041649
 20
4933.999999999303
 10
3897.945263041649
 20
4959.999999999303
 10
3947.945263041649
 20
4959.999999999303
 10
3947.945263041649
 20
4933.999999999303
  0
LWPOLYLINE
  5
E672C
330
F5613
100
AcDbEntity
  8
0
100
AcDbPolyline
 90
        4
 70
     1
 43
0.0
 10
4882.945263041649
 20
5746.999999999303
 10
4882.945263041649
 20
4972.999999999303
 10
4869.945263041649
 20
4972.999999999303
 10
4869.945263041649
 20
5746.999999999303
  0
LWPOLYLINE
  5
E672D
330
F5613
100
AcDbEntity
  8
0
100
AcDbPolyline
 90
        4
 70
     1
 43
0.0
 10
3882.945263041649
 20
5746.999999999303
 10
3882.945263041649
 20
4972.999999999303
 10
3895.94526304165
 20
4972.999999999303
 10
3895.94526304165
 20
5746.999999999303
  0
LWPOLYLINE
  5
E672E
330
F5613
100
AcDbEntity
  8
0
100
AcDbPolyline
 90
        4
 70
     1
 43
0.0
 10
3882.945263041649
 20
5746.999999999303
 10
3882.945263041649
 20
5759.999999999303
 10
4882.945263041649
 20
5759.999999999303
 10
4882.945263041649
 20
5746.999999999303
  0
LWPOLYLINE
  5
E672F
330
F5613
100
AcDbEntity
  8
0
100
AcDbPolyline
 90
        4
 70
     1
 43
0.0
 10
3882.945263041649
 20
4959.999999999303
 10
3882.945263041649
 20
4972.999999999303
 10
4882.945263041649
 20
4972.999999999303
 10
4882.945263041649
 20
4959.999999999303
  0
LWPOLYLINE
  5
E6730
330
F5613
100
AcDbEntity
  8
0
100
AcDbPolyline
 90
        4
 70
     1
 43
0.0
 10
602.945263041649
 20
4959.99999999939
 10
602.945263041649
 20
4972.999999999391
 10
1402.945263041653
 20
4972.999999999391
 10
1402.945263041653
 20
4959.99999999939
  0
LWPOLYLINE
  5
E6731
330
F5613
100
AcDbEntity
  8
0
100
AcDbPolyline
 90
        4
 70
     1
 43
0.0
 10
602.945263041649
 20
6946.999999999395
 10
602.945263041649
 20
6959.999999999394
 10
1402.945263041653
 20
6959.999999999394
 10
1402.945263041653
 20
6946.999999999395
  0
LWPOLYLINE
  5
E6732
330
F5613
100
AcDbEntity
  8
0
100
AcDbPolyline
 90
        4
 70
     1
 43
0.0
 10
602.945263041649
 20
6946.999999999395
 10
602.945263041649
 20
4972.999999999391
 10
615.945263041649
 20
4972.999999999391
 10
615.945263041649
 20
6946.999999999395
  0
LWPOLYLINE
  5
E6733
330
F5613
100
AcDbEntity
  8
0
100
AcDbPolyline
 90
        4
 70
     1
 43
0.0
 10
1402.945263041653
 20
6946.999999999395
 10
1402.945263041653
 20
4972.999999999391
 10
1389.945263041652
 20
4972.999999999391
 10
1389.945263041652
 20
6946.999999999395
  0
LWPOLYLINE
  5
E6734
330
F5613
100
AcDbEntity
  8
0
100
AcDbPolyline
 90
        4
 70
     1
 43
0.0
 10
617.945263041649
 20
4933.99999999939
 10
617.945263041649
 20
4959.99999999939
 10
667.945263041649
 20
4959.99999999939
 10
667.945263041649
 20
4933.99999999939
  0
LWPOLYLINE
  5
E6735
330
F5613
100
AcDbEntity
  8
0
100
AcDbPolyline
 90
        4
 70
     1
 43
0.0
 10
1387.945263041652
 20
4933.999999999493
 10
1387.945263041652
 20
4959.999999999492
 10
1337.945263041653
 20
4959.999999999492
 10
1337.945263041653
 20
4933.999999999493
  0
LWPOLYLINE
  5
E6736
330
F5613
100
AcDbEntity
  8
0
100
AcDbPolyline
 90
        4
 70
     1
 43
0.0
 10
14036.89433298539
 20
6946.999999999303
 10
14036.89433298539
 20
6959.999999999303
 10
14466.89433298539
 20
6959.999999999303
 10
14466.89433298539
 20
6946.999999999303
  0
LWPOLYLINE
  5
E6737
330
F5613
100
AcDbEntity
  8
0
100
AcDbPolyline
 90
        4
 70
     1
 43
0.0
 10
14051.89433298539
 20
4933.999999999303
 10
14051.89433298539
 20
4959.999999999303
 10
14101.89433298539
 20
4959.999999999303
 10
14101.89433298539
 20
4933.999999999303
  0
LWPOLYLINE
  5
E6738
330
F5613
100
AcDbEntity
  8
0
100
AcDbPolyline
 90
        4
 70
     1
 43
0.0
 10
14036.89433298539
 20
4959.999999999303
 10
14036.89433298539
 20
4972.999999999303
 10
14466.89433298539
 20
4972.999999999303
 10
14466.89433298539
 20
4959.999999999303
  0
LWPOLYLINE
  5
E6739
330
F5613
100
AcDbEntity
  8
0
100
AcDbPolyline
 90
        4
 70
     1
 43
0.0
 10
14036.89433298539
 20
6946.999999999303
 10
14036.89433298539
 20
4972.999999999303
 10
14466.89433298539
 20
4972.999999999303
 10
14466.89433298539
 20
6946.999999999303
  0
LWPOLYLINE
  5
E673A
330
F5613
100
AcDbEntity
  8
0
100
AcDbPolyline
 90
        4
 70
     1
 43
0.0
 10
14451.89433298539
 20
4933.999999999401
 10
14451.89433298539
 20
4959.999999999412
 10
14401.89433298539
 20
4959.999999999412
 10
14401.89433298539
 20
4933.999999999401
  0
LWPOLYLINE
  5
E673B
330
F5613
100
AcDbEntity
  8
0
100
AcDbPolyline
 90
        4
 70
     1
 43
0.0
 10
13221.8969131688
 20
4933.999999999401
 10
13221.8969131688
 20
4959.999999999412
 10
13171.8969131688
 20
4959.999999999412
 10
13171.8969131688
 20
4933.999999999401
  0
LWPOLYLINE
  5
E673C
330
F5613
100
AcDbEntity
  8
0
100
AcDbPolyline
 90
        4
 70
     1
 43
0.0
 10
12806.8969131688
 20
6146.999999999305
 10
12806.8969131688
 20
4972.999999999303
 10
13236.8969131688
 20
4972.999999999303
 10
13236.8969131688
 20
6146.999999999305
  0
LWPOLYLINE
  5
E673D
330
F5613
100
AcDbEntity
  8
0
100
AcDbPolyline
 90
        4
 70
     1
 43
0.0
 10
12806.8969131688
 20
4959.999999999303
 10
12806.8969131688
 20
4972.999999999303
 10
13236.8969131688
 20
4972.999999999303
 10
13236.8969131688
 20
4959.999999999303
  0
LWPOLYLINE
  5
E673E
330
F5613
100
AcDbEntity
  8
0
100
AcDbPolyline
 90
        4
 70
     1
 43
0.0
 10
12821.8969131688
 20
4933.999999999303
 10
12821.8969131688
 20
4959.999999999303
 10
12871.8969131688
 20
4959.999999999303
 10
12871.8969131688
 20
4933.999999999303
  0
LWPOLYLINE
  5
E673F
330
F5613
100
AcDbEntity
  8
0
100
AcDbPolyline
 90
        4
 70
     1
 43
0.0
 10
12806.8969131688
 20
6146.999999999305
 10
12806.8969131688
 20
6159.999999999303
 10
13236.8969131688
 20
6159.999999999303
 10
13236.8969131688
 20
6146.999999999305
  0
LWPOLYLINE
  5
E6746
330
F5613
100
AcDbEntity
  8
0
100
AcDbPolyline
 90
        4
 70
     1
 43
0.0
 10
11991.89211878297
 20
4933.999999999402
 10
11991.89211878297
 20
4959.999999999412
 10
11941.89211878297
 20
4959.999999999412
 10
11941.89211878297
 20
4933.999999999402
  0
LWPOLYLINE
  5
E6747
330
F5613
100
AcDbEntity
  8
0
100
AcDbPolyline
 90
        4
 70
     1
 43
0.0
 10
11576.89211878297
 20
5746.999999999304
 10
11576.89211878297
 20
4972.999999999304
 10
12006.89211878297
 20
4972.999999999304
 10
12006.89211878297
 20
5746.999999999304
  0
LWPOLYLINE
  5
E6748
330
F5613
100
AcDbEntity
  8
0
100
AcDbPolyline
 90
        4
 70
     1
 43
0.0
 10
11576.89211878297
 20
4959.999999999304
 10
11576.89211878297
 20
4972.999999999304
 10
12006.89211878297
 20
4972.999999999304
 10
12006.89211878297
 20
4959.999999999304
  0
LWPOLYLINE
  5
E6749
330
F5613
100
AcDbEntity
  8
0
100
AcDbPolyline
 90
        4
 70
     1
 43
0.0
 10
11591.89211878297
 20
4933.999999999304
 10
11591.89211878297
 20
4959.999999999304
 10
11641.89211878297
 20
4959.999999999304
 10
11641.89211878297
 20
4933.999999999304
  0
LWPOLYLINE
  5
E674A
330
F5613
100
AcDbEntity
  8
0
100
AcDbPolyline
 90
        4
 70
     1
 43
0.0
 10
11576.89211878297
 20
5746.999999999304
 10
11576.89211878297
 20
5759.999999999304
 10
12006.89211878297
 20
5759.999999999304
 10
12006.89211878297
 20
5746.999999999304
  0
LWPOLYLINE
  5
E674B
330
F5613
100
AcDbEntity
  8
0
100
AcDbPolyline
 90
        4
 70
     1
 43
0.0
 10
-2627.685974119231
 20
4933.999999999751
 10
-2627.685974119231
 20
4959.999999999751
 10
-2677.685974119231
 20
4959.999999999751
 10
-2677.685974119231
 20
4933.999999999751
  0
LWPOLYLINE
  5
E674C
330
F5613
100
AcDbEntity
  8
0
100
AcDbPolyline
 90
        4
 70
     1
 43
0.0
 10
-3397.685974119232
 20
4933.99999999965
 10
-3397.685974119232
 20
4959.999999999652
 10
-3347.685974119232
 20
4959.999999999652
 10
-3347.685974119232
 20
4933.99999999965
  0
LWPOLYLINE
  5
E674D
330
F5613
100
AcDbEntity
  8
0
100
AcDbPolyline
 90
        4
 70
     1
 43
0.0
 10
-2612.685974119231
 20
5746.99999999965
 10
-2612.685974119231
 20
4972.999999999653
 10
-2625.685974119231
 20
4972.999999999653
 10
-2625.685974119231
 20
5746.99999999965
  0
LWPOLYLINE
  5
E674E
330
F5613
100
AcDbEntity
  8
0
100
AcDbPolyline
 90
        4
 70
     1
 43
0.0
 10
-3412.685974119231
 20
5746.99999999965
 10
-3412.685974119231
 20
4972.999999999653
 10
-3399.685974119231
 20
4972.999999999653
 10
-3399.685974119231
 20
5746.99999999965
  0
LWPOLYLINE
  5
E674F
330
F5613
100
AcDbEntity
  8
0
100
AcDbPolyline
 90
        4
 70
     1
 43
0.0
 10
-3412.685974119231
 20
5746.99999999965
 10
-3412.685974119231
 20
5759.999999999653
 10
-2612.685974119231
 20
5759.999999999653
 10
-2612.685974119231
 20
5746.99999999965
  0
LWPOLYLINE
  5
E6750
330
F5613
100
AcDbEntity
  8
0
100
AcDbPolyline
 90
        4
 70
     1
 43
0.0
 10
-3412.685974119231
 20
4959.999999999652
 10
-3412.685974119231
 20
4972.999999999653
 10
-2612.685974119231
 20
4972.999999999653
 10
-2612.685974119231
 20
4959.999999999652
  0
LWPOLYLINE
  5
E6751
330
F5613
100
AcDbEntity
  8
0
100
AcDbPolyline
 90
        4
 70
     1
 43
0.0
 10
-3399.685974119231
 20
4972.999999999653
 10
-3399.685974119231
 20
5746.99999999965
 10
-3388.685974119231
 20
5746.99999999965
 10
-3388.685974119231
 20
4972.999999999653
  0
LWPOLYLINE
  5
E6752
330
F5613
100
AcDbEntity
  8
0
100
AcDbPolyline
 90
        4
 70
     1
 43
0.0
 10
-2636.685974119231
 20
4972.999999999653
 10
-2636.685974119231
 20
5746.99999999965
 10
-2625.685974119231
 20
5746.99999999965
 10
-2625.685974119231
 20
4972.999999999653
  0
LWPOLYLINE
  5
E6753
330
F5613
100
AcDbEntity
  8
0
100
AcDbPolyline
 90
        4
 70
     1
 43
0.0
 10
-2636.685974119231
 20
4972.999999999653
 10
-2636.685974119231
 20
4982.999999999652
 10
-3388.685974119231
 20
4982.999999999652
 10
-3388.685974119231
 20
4972.999999999653
  0
LWPOLYLINE
  5
E6754
330
F5613
100
AcDbEntity
  8
0
100
AcDbPolyline
 90
        4
 70
     1
 43
0.0
 10
-2636.685974119231
 20
5736.999999999653
 10
-2636.685974119231
 20
5746.99999999965
 10
-3388.685974119231
 20
5746.99999999965
 10
-3388.685974119231
 20
5736.999999999653
  0
LWPOLYLINE
  5
E6755
330
F5613
100
AcDbEntity
  8
0
100
AcDbPolyline
 90
        4
 70
     1
 43
0.0
 10
-3388.685974119231
 20
5344.999999999653
 10
-3388.685974119231
 20
5374.99999999965
 10
-2636.685974119231
 20
5374.99999999965
 10
-2636.685974119231
 20
5344.999999999653
  0
LWPOLYLINE
  5
E6756
330
F5613
100
AcDbEntity
  8
0
100
AcDbPolyline
 90
        4
 70
     1
 43
0.0
 10
-3388.685974119231
 20
5736.999999999653
 10
-3388.685974119231
 20
5374.99999999965
 10
-2636.685974119231
 20
5374.99999999965
 10
-2636.685974119231
 20
5736.999999999653
  0
LWPOLYLINE
  5
E6757
330
F5613
100
AcDbEntity
  8
0
100
AcDbPolyline
 90
        4
 70
     1
 43
0.0
 10
-3388.685974119231
 20
5344.999999999653
 10
-3388.685974119231
 20
4982.999999999652
 10
-2636.685974119231
 20
4982.999999999652
 10
-2636.685974119231
 20
5344.999999999653
  0
LWPOLYLINE
  5
E6758
330
F5613
100
AcDbEntity
  8
0
100
AcDbPolyline
 90
        4
 70
     1
 43
0.0
 10
3895.94526304165
 20
4972.999999999303
 10
3895.94526304165
 20
5746.999999999303
 10
3906.945263041649
 20
5746.999999999303
 10
3906.945263041649
 20
4972.999999999303
  0
LWPOLYLINE
  5
E6759
330
F5613
100
AcDbEntity
  8
0
100
AcDbPolyline
 90
        4
 70
     1
 43
0.0
 10
4858.945263041649
 20
5736.999999999303
 10
4858.945263041649
 20
5746.999999999303
 10
3906.945263041649
 20
5746.999999999303
 10
3906.945263041649
 20
5736.999999999303
  0
LWPOLYLINE
  5
E675A
330
F5613
100
AcDbEntity
  8
0
100
AcDbPolyline
 90
        4
 70
     1
 43
0.0
 10
3906.945263041649
 20
5344.999999999303
 10
3906.945263041649
 20
5374.999999999303
 10
4858.945263041649
 20
5374.999999999303
 10
4858.945263041649
 20
5344.999999999303
  0
LWPOLYLINE
  5
E675B
330
F5613
100
AcDbEntity
  8
0
100
AcDbPolyline
 90
        4
 70
     1
 43
0.0
 10
3906.945263041649
 20
5736.999999999303
 10
3906.945263041649
 20
5374.999999999303
 10
4858.945263041649
 20
5374.999999999303
 10
4858.945263041649
 20
5736.999999999303
  0
LWPOLYLINE
  5
E675C
330
F5613
100
AcDbEntity
  8
0
100
AcDbPolyline
 90
        4
 70
     1
 43
0.0
 10
3906.945263041649
 20
5344.999999999303
 10
3906.945263041649
 20
4982.999999999304
 10
4858.945263041649
 20
4982.999999999304
 10
4858.945263041649
 20
5344.999999999303
  0
LWPOLYLINE
  5
E675D
330
F5613
100
AcDbEntity
  8
0
100
AcDbPolyline
 90
        4
 70
     1
 43
0.0
 10
4858.945263041649
 20
4972.999999999303
 10
4858.945263041649
 20
5746.999999999303
 10
4869.945263041649
 20
5746.999999999303
 10
4869.945263041649
 20
4972.999999999303
  0
LWPOLYLINE
  5
E675E
330
F5613
100
AcDbEntity
  8
0
100
AcDbPolyline
 90
        4
 70
     1
 43
0.0
 10
4858.945263041649
 20
4972.999999999303
 10
4858.945263041649
 20
4982.999999999304
 10
3906.945263041649
 20
4982.999999999304
 10
3906.945263041649
 20
4972.999999999303
  0
LWPOLYLINE
  5
E675F
330
F5613
100
AcDbEntity
  8
0
100
AcDbPolyline
 90
        4
 70
     1
 43
0.0
 10
4858.945263041649
 20
1193.036642058692
 10
4858.945263041649
 20
1203.036642058692
 10
3906.945263041649
 20
1203.036642058692
 10
3906.945263041649
 20
1193.036642058692
  0
LWPOLYLINE
  5
E6760
330
F5613
100
AcDbEntity
  8
0
100
AcDbPolyline
 90
        4
 70
     1
 43
0.0
 10
4858.945263041649
 20
1193.036642058692
 10
4858.945263041649
 20
1967.036642058692
 10
4869.945263041649
 20
1967.036642058692
 10
4869.945263041649
 20
1193.036642058692
  0
LWPOLYLINE
  5
E6761
330
F5613
100
AcDbEntity
  8
0
100
AcDbPolyline
 90
        4
 70
     1
 43
0.0
 10
3906.945263041649
 20
1565.036642058692
 10
3906.945263041649
 20
1203.036642058692
 10
4858.945263041649
 20
1203.036642058692
 10
4858.945263041649
 20
1565.036642058692
  0
LWPOLYLINE
  5
E6762
330
F5613
100
AcDbEntity
  8
0
100
AcDbPolyline
 90
        4
 70
     1
 43
0.0
 10
3906.945263041649
 20
1957.036642058692
 10
3906.945263041649
 20
1595.036642058692
 10
4858.945263041649
 20
1595.036642058692
 10
4858.945263041649
 20
1957.036642058692
  0
LWPOLYLINE
  5
E6763
330
F5613
100
AcDbEntity
  8
0
100
AcDbPolyline
 90
        4
 70
     1
 43
0.0
 10
3906.945263041649
 20
1565.036642058692
 10
3906.945263041649
 20
1595.036642058692
 10
4858.945263041649
 20
1595.036642058692
 10
4858.945263041649
 20
1565.036642058692
  0
LWPOLYLINE
  5
E6764
330
F5613
100
AcDbEntity
  8
0
100
AcDbPolyline
 90
        4
 70
     1
 43
0.0
 10
4858.945263041649
 20
1957.036642058692
 10
4858.945263041649
 20
1967.036642058692
 10
3906.945263041649
 20
1967.036642058692
 10
3906.945263041649
 20
1957.036642058692
  0
LWPOLYLINE
  5
E6765
330
F5613
100
AcDbEntity
  8
0
100
AcDbPolyline
 90
        4
 70
     1
 43
0.0
 10
3895.94526304165
 20
1193.036642058692
 10
3895.94526304165
 20
1967.036642058692
 10
3906.945263041649
 20
1967.036642058692
 10
3906.945263041649
 20
1193.036642058692
  0
LWPOLYLINE
  5
E676D
330
F5613
100
AcDbEntity
  8
0
100
AcDbPolyline
 90
        4
 70
     1
 43
0.0
 10
6107.260881622088
 20
5374.999999999303
 10
6107.260881622088
 20
5344.999999999303
 10
7059.260881622088
 20
5344.999999999303
 10
7059.260881622088
 20
5374.999999999303
  0
LWPOLYLINE
  5
E676F
330
F5613
100
AcDbEntity
  8
0
100
AcDbPolyline
 90
        4
 70
     1
 43
0.0
 10
6107.260881622091
 20
5770.999999999303
 10
6107.260881622091
 20
5740.999999999302
 10
7059.260881622091
 20
5740.999999999302
 10
7059.260881622091
 20
5770.999999999303
  0
LWPOLYLINE
  5
E6770
330
F5613
100
AcDbEntity
  8
0
100
AcDbPolyline
 90
        4
 70
     1
 43
0.0
 10
6096.26088162209
 20
4972.999999999303
 10
6096.26088162209
 20
6146.999999999305
 10
6107.260881622089
 20
6146.999999999305
 10
6107.260881622089
 20
4972.999999999303
  0
LWPOLYLINE
  5
E6771
330
F5613
100
AcDbEntity
  8
0
100
AcDbPolyline
 90
        4
 70
     1
 43
0.0
 10
7059.260881622089
 20
4972.999999999303
 10
7059.260881622089
 20
6146.999999999305
 10
7070.260881622089
 20
6146.999999999305
 10
7070.260881622089
 20
4972.999999999303
  0
LWPOLYLINE
  5
E6772
330
F5613
100
AcDbEntity
  8
0
100
AcDbPolyline
 90
        4
 70
     1
 43
0.0
 10
7059.260881622089
 20
4972.999999999303
 10
7059.260881622089
 20
4982.999999999304
 10
6107.260881622089
 20
4982.999999999304
 10
6107.260881622089
 20
4972.999999999303
  0
LWPOLYLINE
  5
E6773
330
F5613
100
AcDbEntity
  8
0
100
AcDbPolyline
 90
        4
 70
     1
 43
0.0
 10
7059.260881622089
 20
6136.999999999304
 10
7059.260881622089
 20
6146.999999999305
 10
6107.260881622089
 20
6146.999999999305
 10
6107.260881622089
 20
6136.999999999304
  0
LWPOLYLINE
  5
E677A
330
F5613
100
AcDbEntity
  8
0
100
AcDbPolyline
 90
        4
 70
     1
 43
0.0
 10
6107.260881622091
 20
5740.999999999302
 10
6107.260881622088
 20
5374.999999999303
 10
7059.260881622088
 20
5374.999999999303
 10
7059.260881622091
 20
5740.999999999302
  0
LWPOLYLINE
  5
E677B
330
F5613
100
AcDbEntity
  8
0
100
AcDbPolyline
 90
        4
 70
     1
 43
0.0
 10
6107.260881622088
 20
5344.999999999303
 10
6107.260881622089
 20
4982.999999999304
 10
7059.260881622089
 20
4982.999999999304
 10
7059.260881622088
 20
5344.999999999303
  0
LWPOLYLINE
  5
E6787
330
F5613
100
AcDbEntity
  8
0
100
AcDbPolyline
 90
        4
 70
     1
 43
0.0
 10
615.945263041649
 20
4972.999999999391
 10
615.945263041649
 20
6946.999999999395
 10
626.9452630416489
 20
6946.999999999395
 10
626.9452630416489
 20
4972.999999999391
  0
LWPOLYLINE
  5
E6788
330
F5613
100
AcDbEntity
  8
0
100
AcDbPolyline
 90
        4
 70
     1
 43
0.0
 10
1378.945263041652
 20
4972.999999999391
 10
1378.945263041652
 20
6946.999999999395
 10
1389.945263041652
 20
6946.999999999395
 10
1389.945263041652
 20
4972.999999999391
  0
LWPOLYLINE
  5
E6789
330
F5613
100
AcDbEntity
  8
0
100
AcDbPolyline
 90
        4
 70
     1
 43
0.0
 10
1378.945263041652
 20
4972.999999999391
 10
1378.945263041652
 20
4982.999999999391
 10
626.9452630416489
 20
4982.999999999391
 10
626.9452630416489
 20
4972.999999999391
  0
LWPOLYLINE
  5
E678A
330
F5613
100
AcDbEntity
  8
0
100
AcDbPolyline
 90
        4
 70
     1
 43
0.0
 10
1378.945263041652
 20
6936.999999999395
 10
1378.945263041652
 20
6946.999999999395
 10
626.9452630416489
 20
6946.999999999395
 10
626.9452630416489
 20
6936.999999999395
  0
LWPOLYLINE
  5
E678B
330
F5613
100
AcDbEntity
  8
0
100
AcDbPolyline
 90
        4
 70
     1
 43
0.0
 10
626.9452630416489
 20
6566.99999999939
 10
626.9452630416489
 20
6536.999999999391
 10
1378.945263041652
 20
6536.999999999391
 10
1378.945263041652
 20
6566.99999999939
  0
LWPOLYLINE
  5
E678C
330
F5613
100
AcDbEntity
  8
0
100
AcDbPolyline
 90
        4
 70
     1
 43
0.0
 10
626.9452630416489
 20
6170.99999999939
 10
626.9452630416489
 20
6140.99999999939
 10
1378.945263041652
 20
6140.99999999939
 10
1378.945263041652
 20
6170.99999999939
  0
LWPOLYLINE
  5
E678D
330
F5613
100
AcDbEntity
  8
0
100
AcDbPolyline
 90
        4
 70
     1
 43
0.0
 10
626.9452630416489
 20
5770.999999999391
 10
626.9452630416489
 20
5740.999999999389
 10
1378.945263041652
 20
5740.999999999389
 10
1378.945263041652
 20
5770.999999999391
  0
LWPOLYLINE
  5
E678E
330
F5613
100
AcDbEntity
  8
0
100
AcDbPolyline
 90
        4
 70
     1
 43
0.0
 10
626.945263041649
 20
5374.999999999303
 10
626.945263041649
 20
5344.999999999302
 10
1378.945263041652
 20
5344.999999999302
 10
1378.945263041652
 20
5374.999999999303
  0
LWPOLYLINE
  5
E678F
330
F5613
100
AcDbEntity
  8
0
100
AcDbPolyline
 90
        4
 70
     1
 43
0.0
 10
626.9452630416489
 20
6936.999999999395
 10
626.9452630416489
 20
6566.99999999939
 10
1378.945263041652
 20
6566.99999999939
 10
1378.945263041652
 20
6936.999999999395
  0
LWPOLYLINE
  5
E6790
330
F5613
100
AcDbEntity
  8
0
100
AcDbPolyline
 90
        4
 70
     1
 43
0.0
 10
626.9452630416489
 20
6536.999999999391
 10
626.9452630416489
 20
6170.99999999939
 10
1378.945263041652
 20
6170.99999999939
 10
1378.945263041652
 20
6536.999999999391
  0
LWPOLYLINE
  5
E6791
330
F5613
100
AcDbEntity
  8
0
100
AcDbPolyline
 90
        4
 70
     1
 43
0.0
 10
626.9452630416489
 20
6140.99999999939
 10
626.9452630416489
 20
5770.999999999391
 10
1378.945263041652
 20
5770.999999999391
 10
1378.945263041652
 20
6140.99999999939
  0
LWPOLYLINE
  5
E6792
330
F5613
100
AcDbEntity
  8
0
100
AcDbPolyline
 90
        4
 70
     1
 43
0.0
 10
626.9452630416489
 20
5740.999999999389
 10
626.945263041649
 20
5374.999999999303
 10
1378.945263041652
 20
5374.999999999303
 10
1378.945263041652
 20
5740.999999999389
  0
LWPOLYLINE
  5
E6793
330
F5613
100
AcDbEntity
  8
0
100
AcDbPolyline
 90
        4
 70
     1
 43
0.0
 10
626.9452630416489
 20
4982.999999999391
 10
626.945263041649
 20
5344.999999999302
 10
1378.945263041652
 20
5344.999999999302
 10
1378.945263041652
 20
4982.999999999391
  0
LWPOLYLINE
  5
E6794
330
F5613
100
AcDbEntity
  8
0
100
AcDbPolyline
 90
        4
 70
     1
 43
0.0
 10
9259.576500202533
 20
6936.999999999311
 10
9259.576500202533
 20
6946.999999999303
 10
8307.576500202531
 20
6946.999999999303
 10
8307.576500202531
 20
6936.999999999311
  0
LWPOLYLINE
  5
E6795
330
F5613
100
AcDbEntity
  8
0
100
AcDbPolyline
 90
        4
 70
     1
 43
0.0
 10
9259.576500202533
 20
4972.999999999303
 10
9259.576500202533
 20
4982.999999999304
 10
8307.576500202531
 20
4982.999999999304
 10
8307.576500202531
 20
4972.999999999303
  0
LWPOLYLINE
  5
E6796
330
F5613
100
AcDbEntity
  8
0
100
AcDbPolyline
 90
        4
 70
     1
 43
0.0
 10
9259.576500202533
 20
4972.999999999303
 10
9259.576500202533
 20
6946.999999999303
 10
9270.576500202531
 20
6946.999999999303
 10
9270.576500202531
 20
4972.999999999303
  0
LWPOLYLINE
  5
E6797
330
F5613
100
AcDbEntity
  8
0
100
AcDbPolyline
 90
        4
 70
     1
 43
0.0
 10
8296.576500202531
 20
4972.999999999303
 10
8296.576500202531
 20
6946.999999999303
 10
8307.576500202531
 20
6946.999999999303
 10
8307.576500202531
 20
4972.999999999303
  0
LWPOLYLINE
  5
E6798
330
F5613
100
AcDbEntity
  8
0
100
AcDbPolyline
 90
        4
 70
     1
 43
0.0
 10
8307.576500202531
 20
6566.999999999303
 10
8307.576500202531
 20
6536.999999999304
 10
9259.576500202533
 20
6536.999999999304
 10
9259.576500202533
 20
6566.999999999303
  0
LWPOLYLINE
  5
E6799
330
F5613
100
AcDbEntity
  8
0
100
AcDbPolyline
 90
        4
 70
     1
 43
0.0
 10
8307.576500202531
 20
6170.999999999303
 10
8307.576500202531
 20
6140.999999999303
 10
9259.576500202533
 20
6140.999999999303
 10
9259.576500202533
 20
6170.999999999303
  0
LWPOLYLINE
  5
E679A
330
F5613
100
AcDbEntity
  8
0
100
AcDbPolyline
 90
        4
 70
     1
 43
0.0
 10
8307.576500202533
 20
5770.999999999303
 10
8307.576500202533
 20
5740.999999999302
 10
9259.576500202535
 20
5740.999999999302
 10
9259.576500202535
 20
5770.999999999303
  0
LWPOLYLINE
  5
E679B
330
F5613
100
AcDbEntity
  8
0
100
AcDbPolyline
 90
        4
 70
     1
 43
0.0
 10
8307.576500202533
 20
5374.999999999303
 10
8307.576500202533
 20
5344.999999999302
 10
9259.576500202535
 20
5344.999999999302
 10
9259.576500202535
 20
5374.999999999303
  0
LWPOLYLINE
  5
E679C
330
F5613
100
AcDbEntity
  8
0
100
AcDbPolyline
 90
        4
 70
     1
 43
0.0
 10
8307.576500202531
 20
6936.999999999311
 10
8307.576500202531
 20
6566.999999999303
 10
9259.576500202533
 20
6566.999999999303
 10
9259.576500202533
 20
6936.999999999311
  0
LWPOLYLINE
  5
E679D
330
F5613
100
AcDbEntity
  8
0
100
AcDbPolyline
 90
        4
 70
     1
 43
0.0
 10
8307.576500202531
 20
6536.999999999304
 10
8307.576500202531
 20
6170.999999999303
 10
9259.576500202533
 20
6170.999999999303
 10
9259.576500202533
 20
6536.999999999304
  0
LWPOLYLINE
  5
E679E
330
F5613
100
AcDbEntity
  8
0
100
AcDbPolyline
 90
        4
 70
     1
 43
0.0
 10
8307.576500202531
 20
6140.999999999303
 10
8307.576500202533
 20
5770.999999999303
 10
9259.576500202535
 20
5770.999999999303
 10
9259.576500202533
 20
6140.999999999303
  0
LWPOLYLINE
  5
E679F
330
F5613
100
AcDbEntity
  8
0
100
AcDbPolyline
 90
        4
 70
     1
 43
0.0
 10
8307.576500202533
 20
5740.999999999302
 10
8307.576500202533
 20
5374.999999999303
 10
9259.576500202535
 20
5374.999999999303
 10
9259.576500202535
 20
5740.999999999302
  0
LWPOLYLINE
  5
E67A0
330
F5613
100
AcDbEntity
  8
0
100
AcDbPolyline
 90
        4
 70
     1
 43
0.0
 10
8307.576500202531
 20
4982.999999999304
 10
8307.576500202533
 20
5344.999999999302
 10
9259.576500202535
 20
5344.999999999302
 10
9259.576500202533
 20
4982.999999999304
  0
LWPOLYLINE
  5
E67A1
330
F5613
100
AcDbEntity
  8
0
100
AcDbPolyline
 90
        4
 70
     1
 43
0.0
 10
8307.576500202531
 20
1203.036642058692
 10
8307.576500202533
 20
1565.036642058692
 10
9259.576500202535
 20
1565.036642058692
 10
9259.576500202533
 20
1203.036642058692
  0
LWPOLYLINE
  5
E67A2
330
F5613
100
AcDbEntity
  8
0
100
AcDbPolyline
 90
        4
 70
     1
 43
0.0
 10
8307.576500202531
 20
1965.036642058692
 10
8307.576500202533
 20
1595.036642058692
 10
9259.576500202535
 20
1595.036642058692
 10
9259.576500202533
 20
1965.036642058692
  0
LWPOLYLINE
  5
E67A3
330
F5613
100
AcDbEntity
  8
0
100
AcDbPolyline
 90
        4
 70
     1
 43
0.0
 10
8307.576500202531
 20
2361.036642058692
 10
8307.576500202531
 20
1995.036642058692
 10
9259.576500202533
 20
1995.036642058692
 10
9259.576500202533
 20
2361.036642058692
  0
LWPOLYLINE
  5
E67A4
330
F5613
100
AcDbEntity
  8
0
100
AcDbPolyline
 90
        4
 70
     1
 43
0.0
 10
8307.576500202531
 20
2757.036642058694
 10
8307.576500202531
 20
2391.036642058693
 10
9259.576500202533
 20
2391.036642058693
 10
9259.576500202533
 20
2757.036642058694
  0
LWPOLYLINE
  5
E67A5
330
F5613
100
AcDbEntity
  8
0
100
AcDbPolyline
 90
        4
 70
     1
 43
0.0
 10
8307.576500202531
 20
3157.036642058694
 10
8307.576500202531
 20
2787.036642058693
 10
9259.576500202533
 20
2787.036642058693
 10
9259.576500202533
 20
3157.036642058694
  0
LWPOLYLINE
  5
E67A6
330
F5613
100
AcDbEntity
  8
0
100
AcDbPolyline
 90
        4
 70
     1
 43
0.0
 10
8307.576500202533
 20
1595.036642058692
 10
8307.576500202533
 20
1565.036642058692
 10
9259.576500202535
 20
1565.036642058692
 10
9259.576500202535
 20
1595.036642058692
  0
LWPOLYLINE
  5
E67A7
330
F5613
100
AcDbEntity
  8
0
100
AcDbPolyline
 90
        4
 70
     1
 43
0.0
 10
8307.576500202531
 20
1995.036642058692
 10
8307.576500202531
 20
1965.036642058692
 10
9259.576500202533
 20
1965.036642058692
 10
9259.576500202533
 20
1995.036642058692
  0
LWPOLYLINE
  5
E67A8
330
F5613
100
AcDbEntity
  8
0
100
AcDbPolyline
 90
        4
 70
     1
 43
0.0
 10
8307.576500202531
 20
2391.036642058693
 10
8307.576500202531
 20
2361.036642058692
 10
9259.576500202533
 20
2361.036642058692
 10
9259.576500202533
 20
2391.036642058693
  0
LWPOLYLINE
  5
E67A9
330
F5613
100
AcDbEntity
  8
0
100
AcDbPolyline
 90
        4
 70
     1
 43
0.0
 10
8307.576500202531
 20
2787.036642058693
 10
8307.576500202531
 20
2757.036642058694
 10
9259.576500202533
 20
2757.036642058694
 10
9259.576500202533
 20
2787.036642058693
  0
LWPOLYLINE
  5
E67AA
330
F5613
100
AcDbEntity
  8
0
100
AcDbPolyline
 90
        4
 70
     1
 43
0.0
 10
8296.576500202531
 20
1193.036642058692
 10
8296.576500202531
 20
3167.036642058694
 10
8307.576500202531
 20
3167.036642058694
 10
8307.576500202531
 20
1193.036642058692
  0
LWPOLYLINE
  5
E67AB
330
F5613
100
AcDbEntity
  8
0
100
AcDbPolyline
 90
        4
 70
     1
 43
0.0
 10
9259.576500202533
 20
1193.036642058692
 10
9259.576500202533
 20
3167.036642058694
 10
9270.576500202531
 20
3167.036642058694
 10
9270.576500202531
 20
1193.036642058692
  0
LWPOLYLINE
  5
E67AC
330
F5613
100
AcDbEntity
  8
0
100
AcDbPolyline
 90
        4
 70
     1
 43
0.0
 10
9259.576500202533
 20
1193.036642058692
 10
9259.576500202533
 20
1203.036642058692
 10
8307.576500202531
 20
1203.036642058692
 10
8307.576500202531
 20
1193.036642058692
  0
LWPOLYLINE
  5
E67AD
330
F5613
100
AcDbEntity
  8
0
100
AcDbPolyline
 90
        4
 70
     1
 43
0.0
 10
9259.576500202533
 20
3157.036642058694
 10
9259.576500202533
 20
3167.036642058694
 10
8307.576500202531
 20
3167.036642058694
 10
8307.576500202531
 20
3157.036642058694
  0
LWPOLYLINE
  5
E67AE
330
F5613
100
AcDbEntity
  8
0
100
AcDbPolyline
 90
        4
 70
     1
 43
0.0
 10
-3397.685974119232
 20
12519.99999999861
 10
-3397.685974119232
 20
12532.9999999986
 10
-2597.685974119231
 20
12532.9999999986
 10
-2597.685974119231
 20
12519.99999999861
  0
LWPOLYLINE
  5
E67AF
330
F5613
100
AcDbEntity
  8
0
100
AcDbPolyline
 90
        4
 70
     1
 43
0.0
 10
-3397.685974119232
 20
13306.9999999986
 10
-3397.685974119232
 20
13319.9999999986
 10
-2597.685974119231
 20
13319.9999999986
 10
-2597.685974119231
 20
13306.9999999986
  0
LWPOLYLINE
  5
E67B0
330
F5613
100
AcDbEntity
  8
0
100
AcDbPolyline
 90
        4
 70
     1
 43
0.0
 10
-3397.685974119232
 20
13306.9999999986
 10
-3397.685974119232
 20
12532.9999999986
 10
-3384.685974119231
 20
12532.9999999986
 10
-3384.685974119231
 20
13306.9999999986
  0
LWPOLYLINE
  5
E67B1
330
F5613
100
AcDbEntity
  8
0
100
AcDbPolyline
 90
        4
 70
     1
 43
0.0
 10
-2597.685974119231
 20
13306.9999999986
 10
-2597.685974119231
 20
12532.9999999986
 10
-2610.685974119232
 20
12532.9999999986
 10
-2610.685974119232
 20
13306.9999999986
  0
LWPOLYLINE
  5
E67B2
330
F5613
100
AcDbEntity
  8
0
100
AcDbPolyline
 90
        4
 70
     1
 43
0.0
 10
-2997.685974119231
 20
13306.9999999986
 10
-2997.685974119231
 20
12532.9999999986
 10
-3384.685974119231
 20
12532.9999999986
 10
-3384.685974119231
 20
13306.9999999986
  0
LWPOLYLINE
  5
E67B3
330
F5613
100
AcDbEntity
  8
0
100
AcDbPolyline
 90
        4
 70
     1
 43
0.0
 10
-3382.685974119231
 20
12493.9999999986
 10
-3382.685974119231
 20
12519.99999999861
 10
-3332.685974119231
 20
12519.99999999861
 10
-3332.685974119231
 20
12493.9999999986
  0
LWPOLYLINE
  5
E67B4
330
F5613
100
AcDbEntity
  8
0
100
AcDbPolyline
 90
        4
 70
     1
 43
0.0
 10
-2612.685974119231
 20
12493.99999999871
 10
-2612.685974119231
 20
12519.99999999871
 10
-2662.685974119231
 20
12519.99999999871
 10
-2662.685974119231
 20
12493.99999999871
  0
LWPOLYLINE
  5
E67B5
330
F5613
100
AcDbEntity
  8
0
100
AcDbPolyline
 90
        4
 70
     1
 43
0.0
 10
-1397.370355538787
 20
12519.99999999861
 10
-1397.370355538787
 20
12532.9999999986
 10
-597.3703555387912
 20
12532.9999999986
 10
-597.3703555387912
 20
12519.99999999861
  0
LWPOLYLINE
  5
E67B6
330
F5613
100
AcDbEntity
  8
0
100
AcDbPolyline
 90
        4
 70
     1
 43
0.0
 10
-1397.370355538787
 20
13706.99999999861
 10
-1397.370355538787
 20
13719.9999999986
 10
-597.3703555387912
 20
13719.9999999986
 10
-597.3703555387912
 20
13706.99999999861
  0
LWPOLYLINE
  5
E67B7
330
F5613
100
AcDbEntity
  8
0
100
AcDbPolyline
 90
        4
 70
     1
 43
0.0
 10
-1397.370355538787
 20
13706.99999999861
 10
-1397.370355538787
 20
12532.9999999986
 10
-1384.370355538787
 20
12532.9999999986
 10
-1384.370355538787
 20
13706.99999999861
  0
LWPOLYLINE
  5
E67B8
330
F5613
100
AcDbEntity
  8
0
100
AcDbPolyline
 90
        4
 70
     1
 43
0.0
 10
-597.3703555387912
 20
13706.99999999861
 10
-597.3703555387912
 20
12532.9999999986
 10
-610.370355538791
 20
12532.9999999986
 10
-610.370355538791
 20
13706.99999999861
  0
LWPOLYLINE
  5
E67B9
330
F5613
100
AcDbEntity
  8
0
100
AcDbPolyline
 90
        4
 70
     1
 43
0.0
 10
-997.3703555387874
 20
13706.99999999861
 10
-997.3703555387874
 20
12532.9999999986
 10
-1384.370355538787
 20
12532.9999999986
 10
-1384.370355538787
 20
13706.99999999861
  0
LWPOLYLINE
  5
E67BA
330
F5613
100
AcDbEntity
  8
0
100
AcDbPolyline
 90
        4
 70
     1
 43
0.0
 10
-1382.370355538787
 20
12493.9999999986
 10
-1382.370355538787
 20
12519.99999999861
 10
-1332.370355538787
 20
12519.99999999861
 10
-1332.370355538787
 20
12493.9999999986
  0
LWPOLYLINE
  5
E67BB
330
F5613
100
AcDbEntity
  8
0
100
AcDbPolyline
 90
        4
 70
     1
 43
0.0
 10
-612.370355538791
 20
12493.99999999871
 10
-612.370355538791
 20
12519.99999999871
 10
-662.370355538791
 20
12519.99999999871
 10
-662.370355538791
 20
12493.99999999871
  0
LWPOLYLINE
  5
E67BC
330
F5613
100
AcDbEntity
  8
0
100
AcDbPolyline
 90
        4
 70
     1
 43
0.0
 10
1387.945263041652
 20
12493.99999999844
 10
1387.945263041652
 20
12519.99999999845
 10
1337.945263041653
 20
12519.99999999845
 10
1337.945263041653
 20
12493.99999999844
  0
LWPOLYLINE
  5
E67BD
330
F5613
100
AcDbEntity
  8
0
100
AcDbPolyline
 90
        4
 70
     1
 43
0.0
 10
617.945263041649
 20
12493.99999999834
 10
617.945263041649
 20
12519.99999999834
 10
667.945263041649
 20
12519.99999999834
 10
667.945263041649
 20
12493.99999999834
  0
LWPOLYLINE
  5
E67BE
330
F5613
100
AcDbEntity
  8
0
100
AcDbPolyline
 90
        4
 70
     1
 43
0.0
 10
1389.945263041652
 20
14506.99999999834
 10
1389.945263041652
 20
12532.99999999834
 10
1002.945263041649
 20
12532.99999999834
 10
1002.945263041649
 20
14506.99999999834
  0
LWPOLYLINE
  5
E67BF
330
F5613
100
AcDbEntity
  8
0
100
AcDbPolyline
 90
        4
 70
     1
 43
0.0
 10
1002.945263041649
 20
14506.99999999834
 10
1002.945263041649
 20
12532.99999999834
 10
615.945263041649
 20
12532.99999999834
 10
615.945263041649
 20
14506.99999999834
  0
LWPOLYLINE
  5
E67C0
330
F5613
100
AcDbEntity
  8
0
100
AcDbPolyline
 90
        4
 70
     1
 43
0.0
 10
1402.945263041653
 20
14506.99999999834
 10
1402.945263041653
 20
12532.99999999834
 10
1389.945263041652
 20
12532.99999999834
 10
1389.945263041652
 20
14506.99999999834
  0
LWPOLYLINE
  5
E67C1
330
F5613
100
AcDbEntity
  8
0
100
AcDbPolyline
 90
        4
 70
     1
 43
0.0
 10
602.945263041649
 20
14506.99999999834
 10
602.945263041649
 20
12532.99999999834
 10
615.945263041649
 20
12532.99999999834
 10
615.945263041649
 20
14506.99999999834
  0
LWPOLYLINE
  5
E67C2
330
F5613
100
AcDbEntity
  8
0
100
AcDbPolyline
 90
        4
 70
     1
 43
0.0
 10
602.945263041649
 20
14506.99999999834
 10
602.945263041649
 20
14519.99999999834
 10
1402.945263041653
 20
14519.99999999834
 10
1402.945263041653
 20
14506.99999999834
  0
LWPOLYLINE
  5
E67C3
330
F5613
100
AcDbEntity
  8
0
100
AcDbPolyline
 90
        4
 70
     1
 43
0.0
 10
602.945263041649
 20
12519.99999999834
 10
602.945263041649
 20
12532.99999999834
 10
1402.945263041653
 20
12532.99999999834
 10
1402.945263041653
 20
12519.99999999834
  0
LWPOLYLINE
  5
E67C4
330
F5613
100
AcDbEntity
  8
0
100
AcDbPolyline
 90
        4
 70
     1
 43
0.0
 10
3882.945263041649
 20
12519.99999999861
 10
3882.945263041649
 20
12532.9999999986
 10
4882.945263041649
 20
12532.9999999986
 10
4882.945263041649
 20
12519.99999999861
  0
LWPOLYLINE
  5
E67C5
330
F5613
100
AcDbEntity
  8
0
100
AcDbPolyline
 90
        4
 70
     1
 43
0.0
 10
3882.945263041649
 20
13306.9999999986
 10
3882.945263041649
 20
13319.9999999986
 10
4882.945263041649
 20
13319.9999999986
 10
4882.945263041649
 20
13306.9999999986
  0
LWPOLYLINE
  5
E67C6
330
F5613
100
AcDbEntity
  8
0
100
AcDbPolyline
 90
        4
 70
     1
 43
0.0
 10
3882.945263041649
 20
13306.9999999986
 10
3882.945263041649
 20
12532.9999999986
 10
3895.94526304165
 20
12532.9999999986
 10
3895.94526304165
 20
13306.9999999986
  0
LWPOLYLINE
  5
E67C7
330
F5613
100
AcDbEntity
  8
0
100
AcDbPolyline
 90
        4
 70
     1
 43
0.0
 10
4882.945263041649
 20
13306.9999999986
 10
4882.945263041649
 20
12532.9999999986
 10
4869.945263041649
 20
12532.9999999986
 10
4869.945263041649
 20
13306.9999999986
  0
LWPOLYLINE
  5
E67C8
330
F5613
100
AcDbEntity
  8
0
100
AcDbPolyline
 90
        4
 70
     1
 43
0.0
 10
4382.945263041649
 20
13306.9999999986
 10
4382.945263041649
 20
12532.9999999986
 10
3895.94526304165
 20
12532.9999999986
 10
3895.94526304165
 20
13306.9999999986
  0
LWPOLYLINE
  5
E67C9
330
F5613
100
AcDbEntity
  8
0
100
AcDbPolyline
 90
        4
 70
     1
 43
0.0
 10
4869.945263041649
 20
13306.9999999986
 10
4869.945263041649
 20
12532.9999999986
 10
4382.945263041649
 20
12532.9999999986
 10
4382.945263041649
 20
13306.9999999986
  0
LWPOLYLINE
  5
E67CA
330
F5613
100
AcDbEntity
  8
0
100
AcDbPolyline
 90
        4
 70
     1
 43
0.0
 10
3897.945263041649
 20
12493.9999999986
 10
3897.945263041649
 20
12519.99999999861
 10
3947.945263041649
 20
12519.99999999861
 10
3947.945263041649
 20
12493.9999999986
  0
LWPOLYLINE
  5
E67CB
330
F5613
100
AcDbEntity
  8
0
100
AcDbPolyline
 90
        4
 70
     1
 43
0.0
 10
4867.945263041649
 20
12493.99999999871
 10
4867.945263041649
 20
12519.99999999871
 10
4817.945263041649
 20
12519.99999999871
 10
4817.945263041649
 20
12493.99999999871
  0
LWPOLYLINE
  5
E67CC
330
F5613
100
AcDbEntity
  8
0
100
AcDbPolyline
 90
        4
 70
     1
 43
0.0
 10
7068.260881622089
 20
12493.99999999871
 10
7068.260881622089
 20
12519.99999999871
 10
7018.260881622089
 20
12519.99999999871
 10
7018.260881622089
 20
12493.99999999871
  0
LWPOLYLINE
  5
E67CD
330
F5613
100
AcDbEntity
  8
0
100
AcDbPolyline
 90
        4
 70
     1
 43
0.0
 10
6098.260881622088
 20
12493.9999999986
 10
6098.260881622088
 20
12519.99999999861
 10
6148.260881622089
 20
12519.99999999861
 10
6148.260881622089
 20
12493.9999999986
  0
LWPOLYLINE
  5
E67CE
330
F5613
100
AcDbEntity
  8
0
100
AcDbPolyline
 90
        4
 70
     1
 43
0.0
 10
7070.260881622089
 20
13706.99999999861
 10
7070.260881622089
 20
12532.9999999986
 10
6583.26088162209
 20
12532.9999999986
 10
6583.26088162209
 20
13706.99999999861
  0
LWPOLYLINE
  5
E67CF
330
F5613
100
AcDbEntity
  8
0
100
AcDbPolyline
 90
        4
 70
     1
 43
0.0
 10
6583.26088162209
 20
13706.99999999861
 10
6583.26088162209
 20
12532.9999999986
 10
6096.26088162209
 20
12532.9999999986
 10
6096.26088162209
 20
13706.99999999861
  0
LWPOLYLINE
  5
E67D0
330
F5613
100
AcDbEntity
  8
0
100
AcDbPolyline
 90
        4
 70
     1
 43
0.0
 10
7083.260881622091
 20
13706.99999999861
 10
7083.260881622091
 20
12532.9999999986
 10
7070.260881622089
 20
12532.9999999986
 10
7070.260881622089
 20
13706.99999999861
  0
LWPOLYLINE
  5
E67D1
330
F5613
100
AcDbEntity
  8
0
100
AcDbPolyline
 90
        4
 70
     1
 43
0.0
 10
6083.260881622089
 20
13706.99999999861
 10
6083.260881622089
 20
12532.9999999986
 10
6096.26088162209
 20
12532.9999999986
 10
6096.26088162209
 20
13706.99999999861
  0
LWPOLYLINE
  5
E67D2
330
F5613
100
AcDbEntity
  8
0
100
AcDbPolyline
 90
        4
 70
     1
 43
0.0
 10
6083.260881622089
 20
13706.99999999861
 10
6083.260881622089
 20
13719.9999999986
 10
7083.260881622091
 20
13719.9999999986
 10
7083.260881622091
 20
13706.99999999861
  0
LWPOLYLINE
  5
E67D3
330
F5613
100
AcDbEntity
  8
0
100
AcDbPolyline
 90
        4
 70
     1
 43
0.0
 10
6083.260881622089
 20
12519.99999999861
 10
6083.260881622089
 20
12532.9999999986
 10
7083.260881622091
 20
12532.9999999986
 10
7083.260881622091
 20
12519.99999999861
  0
LWPOLYLINE
  5
E67D4
330
F5613
100
AcDbEntity
  8
0
100
AcDbPolyline
 90
        4
 70
     1
 43
0.0
 10
8283.576500202531
 20
12519.99999999861
 10
8283.576500202531
 20
12532.9999999986
 10
9283.576500202531
 20
12532.9999999986
 10
9283.576500202531
 20
12519.99999999861
  0
LWPOLYLINE
  5
E67D5
330
F5613
100
AcDbEntity
  8
0
100
AcDbPolyline
 90
        4
 70
     1
 43
0.0
 10
8283.576500202531
 20
14506.9999999986
 10
8283.576500202531
 20
14519.9999999986
 10
9283.576500202531
 20
14519.9999999986
 10
9283.576500202531
 20
14506.9999999986
  0
LWPOLYLINE
  5
E67D6
330
F5613
100
AcDbEntity
  8
0
100
AcDbPolyline
 90
        4
 70
     1
 43
0.0
 10
8283.576500202531
 20
14506.9999999986
 10
8283.576500202531
 20
12532.9999999986
 10
8296.576500202531
 20
12532.9999999986
 10
8296.576500202531
 20
14506.9999999986
  0
LWPOLYLINE
  5
E67D7
330
F5613
100
AcDbEntity
  8
0
100
AcDbPolyline
 90
        4
 70
     1
 43
0.0
 10
9283.576500202531
 20
14506.9999999986
 10
9283.576500202531
 20
12532.9999999986
 10
9270.576500202531
 20
12532.9999999986
 10
9270.576500202531
 20
14506.9999999986
  0
LWPOLYLINE
  5
E67D8
330
F5613
100
AcDbEntity
  8
0
100
AcDbPolyline
 90
        4
 70
     1
 43
0.0
 10
8783.576500202531
 20
14506.9999999986
 10
8783.576500202531
 20
12532.9999999986
 10
8296.576500202531
 20
12532.9999999986
 10
8296.576500202531
 20
14506.9999999986
  0
LWPOLYLINE
  5
E67D9
330
F5613
100
AcDbEntity
  8
0
100
AcDbPolyline
 90
        4
 70
     1
 43
0.0
 10
9270.576500202531
 20
14506.9999999986
 10
9270.576500202531
 20
12532.9999999986
 10
8783.576500202531
 20
12532.9999999986
 10
8783.576500202531
 20
14506.9999999986
  0
LWPOLYLINE
  5
E67DA
330
F5613
100
AcDbEntity
  8
0
100
AcDbPolyline
 90
        4
 70
     1
 43
0.0
 10
8298.576500202533
 20
12493.9999999986
 10
8298.576500202533
 20
12519.99999999861
 10
8348.576500202531
 20
12519.99999999861
 10
8348.576500202531
 20
12493.9999999986
  0
LWPOLYLINE
  5
E67DB
330
F5613
100
AcDbEntity
  8
0
100
AcDbPolyline
 90
        4
 70
     1
 43
0.0
 10
9268.576500202531
 20
12493.99999999871
 10
9268.576500202531
 20
12519.99999999871
 10
9218.576500202527
 20
12519.99999999871
 10
9218.576500202527
 20
12493.99999999871
  0
CIRCLE
  5
E67DD
330
F5613
100
AcDbEntity
  8
0
100
AcDbCircle
 10
1055.771467181275
 20
13519.96995664995
 30
0.0
 40
12.0
  0
CIRCLE
  5
E67DE
330
F5613
100
AcDbEntity
  8
0
100
AcDbCircle
 10
4435.771467181272
 20
13273.96908092221
 30
0.0
 40
12.0
  0
CIRCLE
  5
E67E1
330
F5613
100
AcDbEntity
  8
0
100
AcDbCircle
 10
-2944.859918197148
 20
13274.0039999986
 30
0.0
 40
12.0
  0
LWPOLYLINE
  5
E67E2
330
F5613
100
AcDbEntity
  8
0
100
AcDbPolyline
 90
        4
 70
     1
 43
0.0
 10
-2610.685974119232
 20
13306.9999999986
 10
-2610.685974119232
 20
12532.9999999986
 10
-2997.685974119231
 20
12532.9999999986
 10
-2997.685974119231
 20
13306.9999999986
  0
LWPOLYLINE
  5
E67E3
330
F5613
100
AcDbEntity
  8
0
100
AcDbPolyline
 90
        4
 70
     1
 43
0.0
 10
-610.370355538791
 20
13706.99999999861
 10
-610.370355538791
 20
12532.9999999986
 10
-997.3703555387874
 20
12532.9999999986
 10
-997.3703555387874
 20
13706.99999999861
  0
LWPOLYLINE
  5
E67E4
330
F5613
100
AcDbEntity
  8
0
100
AcDbPolyline
 90
        4
 70
     1
 43
0.0
 10
11576.89211878297
 20
13306.9999999986
 10
11576.89211878297
 20
13319.9999999986
 10
12006.89211878297
 20
13319.9999999986
 10
12006.89211878297
 20
13306.9999999986
  0
LWPOLYLINE
  5
E67E5
330
F5613
100
AcDbEntity
  8
0
100
AcDbPolyline
 90
        4
 70
     1
 43
0.0
 10
11591.89211878297
 20
12493.9999999986
 10
11591.89211878297
 20
12519.99999999861
 10
11641.89211878297
 20
12519.99999999861
 10
11641.89211878297
 20
12493.9999999986
  0
LWPOLYLINE
  5
E67E6
330
F5613
100
AcDbEntity
  8
0
100
AcDbPolyline
 90
        4
 70
     1
 43
0.0
 10
11576.89211878297
 20
12519.99999999861
 10
11576.89211878297
 20
12532.9999999986
 10
12006.89211878297
 20
12532.9999999986
 10
12006.89211878297
 20
12519.99999999861
  0
LWPOLYLINE
  5
E67E7
330
F5613
100
AcDbEntity
  8
0
100
AcDbPolyline
 90
        4
 70
     1
 43
0.0
 10
11576.89211878297
 20
13306.9999999986
 10
11576.89211878297
 20
12532.9999999986
 10
12006.89211878297
 20
12532.9999999986
 10
12006.89211878297
 20
13306.9999999986
  0
LWPOLYLINE
  5
E67E8
330
F5613
100
AcDbEntity
  8
0
100
AcDbPolyline
 90
        4
 70
     1
 43
0.0
 10
11991.89211878297
 20
12493.99999999871
 10
11991.89211878297
 20
12519.99999999871
 10
11941.89211878297
 20
12519.99999999871
 10
11941.89211878297
 20
12493.99999999871
  0
LWPOLYLINE
  5
E67E9
330
F5613
100
AcDbEntity
  8
0
100
AcDbPolyline
 90
        4
 70
     1
 43
0.0
 10
12806.8969131688
 20
13706.99999999861
 10
12806.8969131688
 20
13719.9999999986
 10
13236.8969131688
 20
13719.9999999986
 10
13236.8969131688
 20
13706.99999999861
  0
LWPOLYLINE
  5
E67EA
330
F5613
100
AcDbEntity
  8
0
100
AcDbPolyline
 90
        4
 70
     1
 43
0.0
 10
12821.8969131688
 20
12493.9999999986
 10
12821.8969131688
 20
12519.99999999861
 10
12871.8969131688
 20
12519.99999999861
 10
12871.8969131688
 20
12493.9999999986
  0
LWPOLYLINE
  5
E67EB
330
F5613
100
AcDbEntity
  8
0
100
AcDbPolyline
 90
        4
 70
     1
 43
0.0
 10
12806.8969131688
 20
12519.99999999861
 10
12806.8969131688
 20
12532.9999999986
 10
13236.8969131688
 20
12532.9999999986
 10
13236.8969131688
 20
12519.99999999861
  0
LWPOLYLINE
  5
E67EC
330
F5613
100
AcDbEntity
  8
0
100
AcDbPolyline
 90
        4
 70
     1
 43
0.0
 10
12806.8969131688
 20
13706.99999999861
 10
12806.8969131688
 20
12532.9999999986
 10
13236.8969131688
 20
12532.9999999986
 10
13236.8969131688
 20
13706.99999999861
  0
LWPOLYLINE
  5
E67ED
330
F5613
100
AcDbEntity
  8
0
100
AcDbPolyline
 90
        4
 70
     1
 43
0.0
 10
13221.8969131688
 20
12493.99999999871
 10
13221.8969131688
 20
12519.99999999871
 10
13171.8969131688
 20
12519.99999999871
 10
13171.8969131688
 20
12493.99999999871
  0
LWPOLYLINE
  5
E67EE
330
F5613
100
AcDbEntity
  8
0
100
AcDbPolyline
 90
        4
 70
     1
 43
0.0
 10
14451.89433298539
 20
12493.99999999871
 10
14451.89433298539
 20
12519.99999999871
 10
14401.89433298539
 20
12519.99999999871
 10
14401.89433298539
 20
12493.99999999871
  0
LWPOLYLINE
  5
E67EF
330
F5613
100
AcDbEntity
  8
0
100
AcDbPolyline
 90
        4
 70
     1
 43
0.0
 10
14036.89433298539
 20
14506.9999999986
 10
14036.89433298539
 20
12532.9999999986
 10
14466.89433298539
 20
12532.9999999986
 10
14466.89433298539
 20
14506.9999999986
  0
LWPOLYLINE
  5
E67F0
330
F5613
100
AcDbEntity
  8
0
100
AcDbPolyline
 90
        4
 70
     1
 43
0.0
 10
14036.89433298539
 20
12519.99999999861
 10
14036.89433298539
 20
12532.9999999986
 10
14466.89433298539
 20
12532.9999999986
 10
14466.89433298539
 20
12519.99999999861
  0
LWPOLYLINE
  5
E67F1
330
F5613
100
AcDbEntity
  8
0
100
AcDbPolyline
 90
        4
 70
     1
 43
0.0
 10
14051.89433298539
 20
12493.9999999986
 10
14051.89433298539
 20
12519.99999999861
 10
14101.89433298539
 20
12519.99999999861
 10
14101.89433298539
 20
12493.9999999986
  0
LWPOLYLINE
  5
E67F2
330
F5613
100
AcDbEntity
  8
0
100
AcDbPolyline
 90
        4
 70
     1
 43
0.0
 10
14036.89433298539
 20
14506.9999999986
 10
14036.89433298539
 20
14519.9999999986
 10
14466.89433298539
 20
14519.9999999986
 10
14466.89433298539
 20
14506.9999999986
  0
LWPOLYLINE
  5
E67F3
330
F5613
100
AcDbEntity
  8
0
100
AcDbPolyline
 90
        4
 70
     1
 43
0.0
 10
14621.89433298539
 20
8714.03664205775
 10
14621.89433298539
 20
8740.03664205775
 10
14571.89433298539
 20
8740.03664205775
 10
14571.89433298539
 20
8714.03664205775
  0
LWPOLYLINE
  5
E67F4
330
F5613
100
AcDbEntity
  8
0
100
AcDbPolyline
 90
        4
 70
     1
 43
0.0
 10
14036.89433298539
 20
10727.03664205765
 10
14036.89433298539
 20
8753.036642057648
 10
14636.89433298539
 20
8753.036642057648
 10
14636.89433298539
 20
10727.03664205765
  0
LWPOLYLINE
  5
E67F5
330
F5613
100
AcDbEntity
  8
0
100
AcDbPolyline
 90
        4
 70
     1
 43
0.0
 10
14036.89433298539
 20
8740.036642057648
 10
14036.89433298539
 20
8753.036642057648
 10
14636.89433298539
 20
8753.036642057648
 10
14636.89433298539
 20
8740.036642057648
  0
LWPOLYLINE
  5
E67F6
330
F5613
100
AcDbEntity
  8
0
100
AcDbPolyline
 90
        4
 70
     1
 43
0.0
 10
14051.89433298539
 20
8714.036642057648
 10
14051.89433298539
 20
8740.036642057648
 10
14101.89433298539
 20
8740.036642057648
 10
14101.89433298539
 20
8714.036642057648
  0
LWPOLYLINE
  5
E67F7
330
F5613
100
AcDbEntity
  8
0
100
AcDbPolyline
 90
        4
 70
     1
 43
0.0
 10
14036.89433298539
 20
10727.03664205765
 10
14036.89433298539
 20
10740.03664205764
 10
14636.89433298539
 20
10740.03664205764
 10
14636.89433298539
 20
10727.03664205765
  0
LWPOLYLINE
  5
E67F8
330
F5613
100
AcDbEntity
  8
0
100
AcDbPolyline
 90
        4
 70
     1
 43
0.0
 10
12806.8969131688
 20
9927.03664205764
 10
12806.8969131688
 20
9940.03664205764
 10
13406.8969131688
 20
9940.03664205764
 10
13406.8969131688
 20
9927.03664205764
  0
LWPOLYLINE
  5
E67F9
330
F5613
100
AcDbEntity
  8
0
100
AcDbPolyline
 90
        4
 70
     1
 43
0.0
 10
12821.8969131688
 20
8714.036642057648
 10
12821.8969131688
 20
8740.036642057648
 10
12871.8969131688
 20
8740.036642057648
 10
12871.8969131688
 20
8714.036642057648
  0
LWPOLYLINE
  5
E67FA
330
F5613
100
AcDbEntity
  8
0
100
AcDbPolyline
 90
        4
 70
     1
 43
0.0
 10
12806.8969131688
 20
8740.036642057648
 10
12806.8969131688
 20
8753.036642057648
 10
13406.8969131688
 20
8753.036642057648
 10
13406.8969131688
 20
8740.036642057648
  0
LWPOLYLINE
  5
E67FB
330
F5613
100
AcDbEntity
  8
0
100
AcDbPolyline
 90
        4
 70
     1
 43
0.0
 10
12806.8969131688
 20
9927.03664205764
 10
12806.8969131688
 20
8753.036642057648
 10
13406.8969131688
 20
8753.036642057648
 10
13406.8969131688
 20
9927.03664205764
  0
LWPOLYLINE
  5
E67FC
330
F5613
100
AcDbEntity
  8
0
100
AcDbPolyline
 90
        4
 70
     1
 43
0.0
 10
13391.8969131688
 20
8714.03664205775
 10
13391.8969131688
 20
8740.03664205775
 10
13341.8969131688
 20
8740.03664205775
 10
13341.8969131688
 20
8714.03664205775
  0
LWPOLYLINE
  5
E67FD
330
F5613
100
AcDbEntity
  8
0
100
AcDbPolyline
 90
        4
 70
     1
 43
0.0
 10
12161.89211878297
 20
8714.03664205775
 10
12161.89211878297
 20
8740.03664205775
 10
12111.89211878297
 20
8740.03664205775
 10
12111.89211878297
 20
8714.03664205775
  0
LWPOLYLINE
  5
E67FE
330
F5613
100
AcDbEntity
  8
0
100
AcDbPolyline
 90
        4
 70
     1
 43
0.0
 10
11576.89211878297
 20
9527.03664205765
 10
11576.89211878297
 20
8753.036642057648
 10
12176.89211878297
 20
8753.036642057648
 10
12176.89211878297
 20
9527.03664205765
  0
LWPOLYLINE
  5
E67FF
330
F5613
100
AcDbEntity
  8
0
100
AcDbPolyline
 90
        4
 70
     1
 43
0.0
 10
11576.89211878297
 20
8740.036642057648
 10
11576.89211878297
 20
8753.036642057648
 10
12176.89211878297
 20
8753.036642057648
 10
12176.89211878297
 20
8740.036642057648
  0
LWPOLYLINE
  5
E6800
330
F5613
100
AcDbEntity
  8
0
100
AcDbPolyline
 90
        4
 70
     1
 43
0.0
 10
11591.89211878297
 20
8714.036642057648
 10
11591.89211878297
 20
8740.036642057648
 10
11641.89211878297
 20
8740.036642057648
 10
11641.89211878297
 20
8714.036642057648
  0
LWPOLYLINE
  5
E6801
330
F5613
100
AcDbEntity
  8
0
100
AcDbPolyline
 90
        4
 70
     1
 43
0.0
 10
11576.89211878297
 20
9527.03664205765
 10
11576.89211878297
 20
9540.03664205765
 10
12176.89211878297
 20
9540.03664205765
 10
12176.89211878297
 20
9527.03664205765
  0
LWPOLYLINE
  5
E6802
330
F5613
100
AcDbEntity
  8
0
100
AcDbPolyline
 90
        4
 70
     1
 43
0.0
 10
3882.945263041649
 20
8739.999999998958
 10
3882.945263041649
 20
8752.999999998952
 10
4882.945263041649
 20
8752.999999998952
 10
4882.945263041649
 20
8739.999999998958
  0
LWPOLYLINE
  5
E6803
330
F5613
100
AcDbEntity
  8
0
100
AcDbPolyline
 90
        4
 70
     1
 43
0.0
 10
3882.945263041649
 20
9526.999999998958
 10
3882.945263041649
 20
9539.999999998958
 10
4882.945263041649
 20
9539.999999998958
 10
4882.945263041649
 20
9526.999999998958
  0
LWPOLYLINE
  5
E6804
330
F5613
100
AcDbEntity
  8
0
100
AcDbPolyline
 90
        4
 70
     1
 43
0.0
 10
3882.945263041649
 20
9526.999999998958
 10
3882.945263041649
 20
8752.999999998952
 10
3895.94526304165
 20
8752.999999998952
 10
3895.94526304165
 20
9526.999999998958
  0
LWPOLYLINE
  5
E6805
330
F5613
100
AcDbEntity
  8
0
100
AcDbPolyline
 90
        4
 70
     1
 43
0.0
 10
4882.945263041649
 20
9526.999999998958
 10
4882.945263041649
 20
8752.999999998952
 10
4869.945263041649
 20
8752.999999998952
 10
4869.945263041649
 20
9526.999999998958
  0
LWPOLYLINE
  5
E6806
330
F5613
100
AcDbEntity
  8
0
100
AcDbPolyline
 90
        4
 70
     1
 43
0.0
 10
4382.945263041649
 20
9526.999999998958
 10
4382.945263041649
 20
8752.999999998952
 10
3895.94526304165
 20
8752.999999998952
 10
3895.94526304165
 20
9526.999999998958
  0
LWPOLYLINE
  5
E6807
330
F5613
100
AcDbEntity
  8
0
100
AcDbPolyline
 90
        4
 70
     1
 43
0.0
 10
4869.945263041649
 20
9526.999999998958
 10
4869.945263041649
 20
8752.999999998952
 10
4382.945263041649
 20
8752.999999998952
 10
4382.945263041649
 20
9526.999999998958
  0
LWPOLYLINE
  5
E6808
330
F5613
100
AcDbEntity
  8
0
100
AcDbPolyline
 90
        4
 70
     1
 43
0.0
 10
3897.945263041649
 20
8713.999999998954
 10
3897.945263041649
 20
8739.999999998958
 10
3947.945263041649
 20
8739.999999998958
 10
3947.945263041649
 20
8713.999999998954
  0
LWPOLYLINE
  5
E6809
330
F5613
100
AcDbEntity
  8
0
100
AcDbPolyline
 90
        4
 70
     1
 43
0.0
 10
4867.945263041649
 20
8713.999999999058
 10
4867.945263041649
 20
8739.999999999054
 10
4817.945263041649
 20
8739.999999999054
 10
4817.945263041649
 20
8713.999999999058
  0
LWPOLYLINE
  5
E680A
330
F5613
100
AcDbEntity
  8
0
100
AcDbPolyline
 90
        4
 70
     1
 43
0.0
 10
7068.260881622089
 20
8713.999999999058
 10
7068.260881622089
 20
8739.999999999054
 10
7018.260881622089
 20
8739.999999999054
 10
7018.260881622089
 20
8713.999999999058
  0
LWPOLYLINE
  5
E680B
330
F5613
100
AcDbEntity
  8
0
100
AcDbPolyline
 90
        4
 70
     1
 43
0.0
 10
6098.260881622088
 20
8713.999999998954
 10
6098.260881622088
 20
8739.999999998958
 10
6148.260881622089
 20
8739.999999998958
 10
6148.260881622089
 20
8713.999999998954
  0
LWPOLYLINE
  5
E680C
330
F5613
100
AcDbEntity
  8
0
100
AcDbPolyline
 90
        4
 70
     1
 43
0.0
 10
7070.260881622089
 20
9926.99999999895
 10
7070.260881622089
 20
8752.999999998952
 10
6583.26088162209
 20
8752.999999998952
 10
6583.26088162209
 20
9926.99999999895
  0
LWPOLYLINE
  5
E680D
330
F5613
100
AcDbEntity
  8
0
100
AcDbPolyline
 90
        4
 70
     1
 43
0.0
 10
6583.26088162209
 20
9926.99999999895
 10
6583.26088162209
 20
8752.999999998952
 10
6096.26088162209
 20
8752.999999998952
 10
6096.26088162209
 20
9926.99999999895
  0
LWPOLYLINE
  5
E680E
330
F5613
100
AcDbEntity
  8
0
100
AcDbPolyline
 90
        4
 70
     1
 43
0.0
 10
7083.260881622091
 20
9926.99999999895
 10
7083.260881622091
 20
8752.999999998952
 10
7070.260881622089
 20
8752.999999998952
 10
7070.260881622089
 20
9926.99999999895
  0
LWPOLYLINE
  5
E680F
330
F5613
100
AcDbEntity
  8
0
100
AcDbPolyline
 90
        4
 70
     1
 43
0.0
 10
6083.260881622089
 20
9926.99999999895
 10
6083.260881622089
 20
8752.999999998952
 10
6096.26088162209
 20
8752.999999998952
 10
6096.26088162209
 20
9926.99999999895
  0
LWPOLYLINE
  5
E6810
330
F5613
100
AcDbEntity
  8
0
100
AcDbPolyline
 90
        4
 70
     1
 43
0.0
 10
6083.260881622089
 20
9926.99999999895
 10
6083.260881622089
 20
9939.99999999895
 10
7083.260881622091
 20
9939.99999999895
 10
7083.260881622091
 20
9926.99999999895
  0
LWPOLYLINE
  5
E6811
330
F5613
100
AcDbEntity
  8
0
100
AcDbPolyline
 90
        4
 70
     1
 43
0.0
 10
6083.260881622089
 20
8739.999999998958
 10
6083.260881622089
 20
8752.999999998952
 10
7083.260881622091
 20
8752.999999998952
 10
7083.260881622091
 20
8739.999999998958
  0
LWPOLYLINE
  5
E6812
330
F5613
100
AcDbEntity
  8
0
100
AcDbPolyline
 90
        4
 70
     1
 43
0.0
 10
8283.576500202531
 20
8739.999999998958
 10
8283.576500202531
 20
8752.999999998952
 10
9283.576500202531
 20
8752.999999998952
 10
9283.576500202531
 20
8739.999999998958
  0
LWPOLYLINE
  5
E6813
330
F5613
100
AcDbEntity
  8
0
100
AcDbPolyline
 90
        4
 70
     1
 43
0.0
 10
8283.576500202531
 20
10726.99999999895
 10
8283.576500202531
 20
10739.99999999895
 10
9283.576500202531
 20
10739.99999999895
 10
9283.576500202531
 20
10726.99999999895
  0
LWPOLYLINE
  5
E6814
330
F5613
100
AcDbEntity
  8
0
100
AcDbPolyline
 90
        4
 70
     1
 43
0.0
 10
8283.576500202531
 20
10726.99999999895
 10
8283.576500202531
 20
8752.999999998952
 10
8296.576500202531
 20
8752.999999998952
 10
8296.576500202531
 20
10726.99999999895
  0
LWPOLYLINE
  5
E6815
330
F5613
100
AcDbEntity
  8
0
100
AcDbPolyline
 90
        4
 70
     1
 43
0.0
 10
9283.576500202531
 20
10726.99999999895
 10
9283.576500202531
 20
8752.999999998952
 10
9270.576500202531
 20
8752.999999998952
 10
9270.576500202531
 20
10726.99999999895
  0
LWPOLYLINE
  5
E6816
330
F5613
100
AcDbEntity
  8
0
100
AcDbPolyline
 90
        4
 70
     1
 43
0.0
 10
8783.576500202531
 20
10726.99999999895
 10
8783.576500202531
 20
8752.999999998952
 10
8296.576500202531
 20
8752.999999998952
 10
8296.576500202531
 20
10726.99999999895
  0
LWPOLYLINE
  5
E6817
330
F5613
100
AcDbEntity
  8
0
100
AcDbPolyline
 90
        4
 70
     1
 43
0.0
 10
9270.576500202531
 20
10726.99999999895
 10
9270.576500202531
 20
8752.999999998952
 10
8783.576500202531
 20
8752.999999998952
 10
8783.576500202531
 20
10726.99999999895
  0
LWPOLYLINE
  5
E6818
330
F5613
100
AcDbEntity
  8
0
100
AcDbPolyline
 90
        4
 70
     1
 43
0.0
 10
8298.576500202533
 20
8713.999999998954
 10
8298.576500202533
 20
8739.999999998958
 10
8348.576500202531
 20
8739.999999998958
 10
8348.576500202531
 20
8713.999999998954
  0
LWPOLYLINE
  5
E6819
330
F5613
100
AcDbEntity
  8
0
100
AcDbPolyline
 90
        4
 70
     1
 43
0.0
 10
9268.576500202531
 20
8713.999999999058
 10
9268.576500202531
 20
8739.999999999054
 10
9218.576500202527
 20
8739.999999999054
 10
9218.576500202527
 20
8713.999999999058
  0
CIRCLE
  5
E681A
330
F5613
100
AcDbEntity
  8
0
100
AcDbCircle
 10
4435.771467181272
 20
9493.96908092256
 30
0.0
 40
12.0
  0
LWPOLYLINE
  5
E681D
330
F5613
100
AcDbEntity
  8
0
100
AcDbPolyline
 90
        4
 70
     1
 43
0.0
 10
15266.89433298539
 20
8114.036642057746
 10
-4012.685974119231
 20
8114.036642057746
 10
-4012.685974119231
 20
15119.99999999861
 10
15266.89433298539
 20
15119.99999999861
  0
LWPOLYLINE
  5
E681E
330
F5613
100
AcDbEntity
  8
0
100
AcDbPolyline
 90
        4
 70
     1
 43
0.0
 10
14636.89433298539
 20
9735.996849605954
 10
14658.76419985573
 20
9735.996849605954
 42
0.7834636620498802
 10
14658.76419985573
 20
9743.996849605954
 10
14636.89433298539
 20
9743.996849605954
  0
LWPOLYLINE
  5
E681F
330
F5613
100
AcDbEntity
  8
0
100
AcDbPolyline
 90
        4
 70
     1
 43
0.0
 10
12176.89211878297
 20
9489.99597387795
 10
12198.7619856533
 20
9489.99597387795
 42
0.7834636620498802
 10
12198.7619856533
 20
9497.995973877953
 10
12176.89211878297
 20
9497.995973877953
  0
LWPOLYLINE
  5
E6821
330
F5613
100
AcDbEntity
  8
0
100
AcDbPolyline
 90
        4
 70
     1
 43
0.0
 10
12006.89211878297
 20
13269.95933181891
 10
12028.7619856533
 20
13269.95933181891
 42
0.7834636620498802
 10
12028.7619856533
 20
13277.9593318189
 10
12006.89211878297
 20
13277.9593318189
  0
LWPOLYLINE
  5
E6823
330
F5613
100
AcDbEntity
  8
0
100
AcDbPolyline
 90
        4
 70
     1
 43
0.0
 10
14466.89433298539
 20
13515.96020754691
 10
14488.76419985573
 20
13515.96020754691
 42
0.7834636620498802
 10
14488.76419985573
 20
13523.96020754691
 10
14466.89433298539
 20
13523.96020754691
  0
CIRCLE
  5
E689F
330
F5613
100
AcDbEntity
  8
0
100
AcDbCircle
 10
8836.076500202522
 20
17299.99999999825
 30
0.0
 40
12.0
  0
LWPOLYLINE
  5
E68A0
330
F5613
100
AcDbEntity
  8
0
100
AcDbPolyline
 90
        4
 70
     1
 43
0.0
 10
8835.326500202531
 20
17293.99999999825
 10
8835.326500202531
 20
17305.99999999825
 10
8836.826500202531
 20
17305.99999999825
 10
8836.826500202531
 20
17293.99999999825
  0
CIRCLE
  5
E68A3
330
F5613
100
AcDbEntity
  8
0
100
AcDbCircle
 10
4435.771467181271
 20
17053.96908092186
 30
0.0
 40
12.0
  0
LWPOLYLINE
  5
E68A4
330
F5613
100
AcDbEntity
  8
0
100
AcDbPolyline
 90
        4
 70
     1
 43
0.0
 10
4435.021467181271
 20
17047.96908092185
 10
4435.021467181271
 20
17059.96908092186
 10
4436.521467181271
 20
17059.96908092186
 10
4436.521467181271
 20
17047.96908092185
  0
LWPOLYLINE
  5
E68A5
330
F5613
100
AcDbEntity
  8
0
100
AcDbPolyline
 90
        4
 70
     1
 43
0.0
 10
9268.576500202527
 20
16273.99999999835
 10
9268.576500202527
 20
16299.99999999835
 10
9218.576500202527
 20
16299.99999999835
 10
9218.576500202527
 20
16273.99999999835
  0
LWPOLYLINE
  5
E68A6
330
F5613
100
AcDbEntity
  8
0
100
AcDbPolyline
 90
        4
 70
     1
 43
0.0
 10
8298.576500202527
 20
16273.99999999825
 10
8298.576500202527
 20
16299.99999999825
 10
8348.576500202531
 20
16299.99999999825
 10
8348.576500202531
 20
16273.99999999825
  0
LWPOLYLINE
  5
E68A7
330
F5613
100
AcDbEntity
  8
0
100
AcDbPolyline
 90
        4
 70
     1
 43
0.0
 10
9270.576500202527
 20
18286.99999999825
 10
9270.576500202527
 20
16312.99999999825
 10
8783.576500202531
 20
16312.99999999825
 10
8783.576500202531
 20
18286.99999999825
  0
LWPOLYLINE
  5
E68A8
330
F5613
100
AcDbEntity
  8
0
100
AcDbPolyline
 90
        4
 70
     1
 43
0.0
 10
8783.576500202531
 20
18286.99999999825
 10
8783.576500202531
 20
16312.99999999825
 10
8296.576500202531
 20
16312.99999999825
 10
8296.576500202531
 20
18286.99999999825
  0
LWPOLYLINE
  5
E68A9
330
F5613
100
AcDbEntity
  8
0
100
AcDbPolyline
 90
        4
 70
     1
 43
0.0
 10
9283.576500202524
 20
18286.99999999825
 10
9283.576500202524
 20
16312.99999999825
 10
9270.576500202527
 20
16312.99999999825
 10
9270.576500202527
 20
18286.99999999825
  0
LWPOLYLINE
  5
E68AA
330
F5613
100
AcDbEntity
  8
0
100
AcDbPolyline
 90
        4
 70
     1
 43
0.0
 10
8283.576500202531
 20
18286.99999999825
 10
8283.576500202531
 20
16312.99999999825
 10
8296.576500202531
 20
16312.99999999825
 10
8296.576500202531
 20
18286.99999999825
  0
LWPOLYLINE
  5
E68AB
330
F5613
100
AcDbEntity
  8
0
100
AcDbPolyline
 90
        4
 70
     1
 43
0.0
 10
8283.576500202531
 20
18286.99999999825
 10
8283.576500202531
 20
18299.99999999825
 10
9283.576500202524
 20
18299.99999999825
 10
9283.576500202524
 20
18286.99999999825
  0
LWPOLYLINE
  5
E68AC
330
F5613
100
AcDbEntity
  8
0
100
AcDbPolyline
 90
        4
 70
     1
 43
0.0
 10
8283.576500202531
 20
16299.99999999825
 10
8283.576500202531
 20
16312.99999999825
 10
9283.576500202524
 20
16312.99999999825
 10
9283.576500202524
 20
16299.99999999825
  0
LWPOLYLINE
  5
E68AD
330
F5613
100
AcDbEntity
  8
0
100
AcDbPolyline
 90
        4
 70
     1
 43
0.0
 10
6083.260881622088
 20
16299.99999999825
 10
6083.260881622088
 20
16312.99999999825
 10
7083.260881622087
 20
16312.99999999825
 10
7083.260881622087
 20
16299.99999999825
  0
LWPOLYLINE
  5
E68AE
330
F5613
100
AcDbEntity
  8
0
100
AcDbPolyline
 90
        4
 70
     1
 43
0.0
 10
6083.260881622088
 20
17486.99999999825
 10
6083.260881622088
 20
17499.99999999825
 10
7083.260881622087
 20
17499.99999999825
 10
7083.260881622087
 20
17486.99999999825
  0
LWPOLYLINE
  5
E68AF
330
F5613
100
AcDbEntity
  8
0
100
AcDbPolyline
 90
        4
 70
     1
 43
0.0
 10
6083.260881622088
 20
17486.99999999825
 10
6083.260881622088
 20
16312.99999999825
 10
6096.260881622087
 20
16312.99999999825
 10
6096.260881622087
 20
17486.99999999825
  0
LWPOLYLINE
  5
E68B0
330
F5613
100
AcDbEntity
  8
0
100
AcDbPolyline
 90
        4
 70
     1
 43
0.0
 10
7083.260881622087
 20
17486.99999999825
 10
7083.260881622087
 20
16312.99999999825
 10
7070.260881622087
 20
16312.99999999825
 10
7070.260881622087
 20
17486.99999999825
  0
LWPOLYLINE
  5
E68B1
330
F5613
100
AcDbEntity
  8
0
100
AcDbPolyline
 90
        4
 70
     1
 43
0.0
 10
6583.260881622087
 20
17486.99999999825
 10
6583.260881622087
 20
16312.99999999825
 10
6096.260881622087
 20
16312.99999999825
 10
6096.260881622087
 20
17486.99999999825
  0
LWPOLYLINE
  5
E68B2
330
F5613
100
AcDbEntity
  8
0
100
AcDbPolyline
 90
        4
 70
     1
 43
0.0
 10
7070.260881622087
 20
17486.99999999825
 10
7070.260881622087
 20
16312.99999999825
 10
6583.260881622087
 20
16312.99999999825
 10
6583.260881622087
 20
17486.99999999825
  0
LWPOLYLINE
  5
E68B3
330
F5613
100
AcDbEntity
  8
0
100
AcDbPolyline
 90
        4
 70
     1
 43
0.0
 10
6098.260881622088
 20
16273.99999999825
 10
6098.260881622088
 20
16299.99999999825
 10
6148.260881622087
 20
16299.99999999825
 10
6148.260881622087
 20
16273.99999999825
  0
LWPOLYLINE
  5
E68B4
330
F5613
100
AcDbEntity
  8
0
100
AcDbPolyline
 90
        4
 70
     1
 43
0.0
 10
7068.260881622087
 20
16273.99999999835
 10
7068.260881622087
 20
16299.99999999835
 10
7018.260881622087
 20
16299.99999999835
 10
7018.260881622087
 20
16273.99999999835
  0
LWPOLYLINE
  5
E68B5
330
F5613
100
AcDbEntity
  8
0
100
AcDbPolyline
 90
        4
 70
     1
 43
0.0
 10
4867.945263041646
 20
16273.99999999835
 10
4867.945263041646
 20
16299.99999999835
 10
4817.945263041647
 20
16299.99999999835
 10
4817.945263041647
 20
16273.99999999835
  0
LWPOLYLINE
  5
E68B6
330
F5613
100
AcDbEntity
  8
0
100
AcDbPolyline
 90
        4
 70
     1
 43
0.0
 10
3897.945263041648
 20
16273.99999999825
 10
3897.945263041648
 20
16299.99999999825
 10
3947.945263041648
 20
16299.99999999825
 10
3947.945263041648
 20
16273.99999999825
  0
LWPOLYLINE
  5
E68B7
330
F5613
100
AcDbEntity
  8
0
100
AcDbPolyline
 90
        4
 70
     1
 43
0.0
 10
4869.945263041646
 20
17086.99999999825
 10
4869.945263041646
 20
16312.99999999825
 10
4382.945263041646
 20
16312.99999999825
 10
4382.945263041646
 20
17086.99999999825
  0
LWPOLYLINE
  5
E68B8
330
F5613
100
AcDbEntity
  8
0
100
AcDbPolyline
 90
        4
 70
     1
 43
0.0
 10
4382.945263041646
 20
17086.99999999825
 10
4382.945263041646
 20
16312.99999999825
 10
3895.945263041647
 20
16312.99999999825
 10
3895.945263041647
 20
17086.99999999825
  0
LWPOLYLINE
  5
E68B9
330
F5613
100
AcDbEntity
  8
0
100
AcDbPolyline
 90
        4
 70
     1
 43
0.0
 10
4882.945263041648
 20
17086.99999999825
 10
4882.945263041648
 20
16312.99999999825
 10
4869.945263041646
 20
16312.99999999825
 10
4869.945263041646
 20
17086.99999999825
  0
LWPOLYLINE
  5
E68BA
330
F5613
100
AcDbEntity
  8
0
100
AcDbPolyline
 90
        4
 70
     1
 43
0.0
 10
3882.945263041648
 20
17086.99999999825
 10
3882.945263041648
 20
16312.99999999825
 10
3895.945263041647
 20
16312.99999999825
 10
3895.945263041647
 20
17086.99999999825
  0
LWPOLYLINE
  5
E68BB
330
F5613
100
AcDbEntity
  8
0
100
AcDbPolyline
 90
        4
 70
     1
 43
0.0
 10
3882.945263041648
 20
17086.99999999825
 10
3882.945263041648
 20
17099.99999999825
 10
4882.945263041648
 20
17099.99999999825
 10
4882.945263041648
 20
17086.99999999825
  0
LWPOLYLINE
  5
E68BC
330
F5613
100
AcDbEntity
  8
0
100
AcDbPolyline
 90
        4
 70
     1
 43
0.0
 10
3882.945263041648
 20
16299.99999999825
 10
3882.945263041648
 20
16312.99999999825
 10
4882.945263041648
 20
16312.99999999825
 10
4882.945263041648
 20
16299.99999999825
  0
LWPOLYLINE
  5
E68BD
330
F5613
100
AcDbEntity
  8
0
100
AcDbPolyline
 90
        4
 70
     1
 43
0.0
 10
11576.89211878297
 20
20866.9999999979
 10
11576.89211878297
 20
20879.9999999979
 10
12006.89211878297
 20
20879.9999999979
 10
12006.89211878297
 20
20866.9999999979
  0
LWPOLYLINE
  5
E68BE
330
F5613
100
AcDbEntity
  8
0
100
AcDbPolyline
 90
        4
 70
     1
 43
0.0
 10
11591.89211878296
 20
20053.9999999979
 10
11591.89211878296
 20
20079.9999999979
 10
11641.89211878297
 20
20079.9999999979
 10
11641.89211878297
 20
20053.9999999979
  0
LWPOLYLINE
  5
E68BF
330
F5613
100
AcDbEntity
  8
0
100
AcDbPolyline
 90
        4
 70
     1
 43
0.0
 10
11576.89211878297
 20
20079.9999999979
 10
11576.89211878297
 20
20092.9999999979
 10
12006.89211878297
 20
20092.9999999979
 10
12006.89211878297
 20
20079.9999999979
  0
LWPOLYLINE
  5
E68C0
330
F5613
100
AcDbEntity
  8
0
100
AcDbPolyline
 90
        4
 70
     1
 43
0.0
 10
11576.89211878297
 20
20866.9999999979
 10
11576.89211878297
 20
20092.9999999979
 10
12006.89211878297
 20
20092.9999999979
 10
12006.89211878297
 20
20866.9999999979
  0
LWPOLYLINE
  5
E68C1
330
F5613
100
AcDbEntity
  8
0
100
AcDbPolyline
 90
        4
 70
     1
 43
0.0
 10
11991.89211878296
 20
20053.999999998
 10
11991.89211878296
 20
20079.999999998
 10
11941.89211878297
 20
20079.999999998
 10
11941.89211878297
 20
20053.999999998
  0
LWPOLYLINE
  5
E68C2
330
F5613
100
AcDbEntity
  8
0
100
AcDbPolyline
 90
        4
 70
     1
 43
0.0
 10
12806.89691316879
 20
21266.9999999979
 10
12806.89691316879
 20
21279.9999999979
 10
13236.8969131688
 20
21279.9999999979
 10
13236.8969131688
 20
21266.9999999979
  0
LWPOLYLINE
  5
E68C3
330
F5613
100
AcDbEntity
  8
0
100
AcDbPolyline
 90
        4
 70
     1
 43
0.0
 10
12821.8969131688
 20
20053.9999999979
 10
12821.8969131688
 20
20079.9999999979
 10
12871.8969131688
 20
20079.9999999979
 10
12871.8969131688
 20
20053.9999999979
  0
LWPOLYLINE
  5
E68C4
330
F5613
100
AcDbEntity
  8
0
100
AcDbPolyline
 90
        4
 70
     1
 43
0.0
 10
12806.89691316879
 20
20079.9999999979
 10
12806.89691316879
 20
20092.9999999979
 10
13236.8969131688
 20
20092.9999999979
 10
13236.8969131688
 20
20079.9999999979
  0
LWPOLYLINE
  5
E68C5
330
F5613
100
AcDbEntity
  8
0
100
AcDbPolyline
 90
        4
 70
     1
 43
0.0
 10
12806.89691316879
 20
21266.9999999979
 10
12806.89691316879
 20
20092.9999999979
 10
13236.8969131688
 20
20092.9999999979
 10
13236.8969131688
 20
21266.9999999979
  0
LWPOLYLINE
  5
E68C6
330
F5613
100
AcDbEntity
  8
0
100
AcDbPolyline
 90
        4
 70
     1
 43
0.0
 10
13221.8969131688
 20
20053.999999998
 10
13221.8969131688
 20
20079.999999998
 10
13171.89691316879
 20
20079.999999998
 10
13171.89691316879
 20
20053.999999998
  0
LWPOLYLINE
  5
E68C7
330
F5613
100
AcDbEntity
  8
0
100
AcDbPolyline
 90
        4
 70
     1
 43
0.0
 10
14451.89433298539
 20
20053.999999998
 10
14451.89433298539
 20
20079.999999998
 10
14401.89433298539
 20
20079.999999998
 10
14401.89433298539
 20
20053.999999998
  0
LWPOLYLINE
  5
E68C8
330
F5613
100
AcDbEntity
  8
0
100
AcDbPolyline
 90
        4
 70
     1
 43
0.0
 10
14036.89433298538
 20
22066.9999999979
 10
14036.89433298538
 20
20092.9999999979
 10
14466.89433298539
 20
20092.9999999979
 10
14466.89433298539
 20
22066.9999999979
  0
LWPOLYLINE
  5
E68C9
330
F5613
100
AcDbEntity
  8
0
100
AcDbPolyline
 90
        4
 70
     1
 43
0.0
 10
14036.89433298538
 20
20079.9999999979
 10
14036.89433298538
 20
20092.9999999979
 10
14466.89433298539
 20
20092.9999999979
 10
14466.89433298539
 20
20079.9999999979
  0
LWPOLYLINE
  5
E68CA
330
F5613
100
AcDbEntity
  8
0
100
AcDbPolyline
 90
        4
 70
     1
 43
0.0
 10
14051.89433298539
 20
20053.9999999979
 10
14051.89433298539
 20
20079.9999999979
 10
14101.89433298539
 20
20079.9999999979
 10
14101.89433298539
 20
20053.9999999979
  0
LWPOLYLINE
  5
E68CB
330
F5613
100
AcDbEntity
  8
0
100
AcDbPolyline
 90
        4
 70
     1
 43
0.0
 10
14036.89433298538
 20
22066.9999999979
 10
14036.89433298538
 20
22079.9999999979
 10
14466.89433298539
 20
22079.9999999979
 10
14466.89433298539
 20
22066.9999999979
  0
LWPOLYLINE
  5
E68CC
330
F5613
100
AcDbEntity
  8
0
100
AcDbPolyline
 90
        4
 70
     1
 43
0.0
 10
14621.8943329854
 20
16274.03664205704
 10
14621.8943329854
 20
16300.03664205704
 10
14571.8943329854
 20
16300.03664205704
 10
14571.8943329854
 20
16274.03664205704
  0
LWPOLYLINE
  5
E68CD
330
F5613
100
AcDbEntity
  8
0
100
AcDbPolyline
 90
        4
 70
     1
 43
0.0
 10
14036.8943329854
 20
18287.03664205695
 10
14036.8943329854
 20
16313.03664205694
 10
14636.8943329854
 20
16313.03664205694
 10
14636.8943329854
 20
18287.03664205695
  0
LWPOLYLINE
  5
E68CE
330
F5613
100
AcDbEntity
  8
0
100
AcDbPolyline
 90
        4
 70
     1
 43
0.0
 10
14036.8943329854
 20
16300.03664205694
 10
14036.8943329854
 20
16313.03664205694
 10
14636.8943329854
 20
16313.03664205694
 10
14636.8943329854
 20
16300.03664205694
  0
LWPOLYLINE
  5
E68CF
330
F5613
100
AcDbEntity
  8
0
100
AcDbPolyline
 90
        4
 70
     1
 43
0.0
 10
14051.8943329854
 20
16274.03664205695
 10
14051.8943329854
 20
16300.03664205694
 10
14101.8943329854
 20
16300.03664205694
 10
14101.8943329854
 20
16274.03664205695
  0
LWPOLYLINE
  5
E68D0
330
F5613
100
AcDbEntity
  8
0
100
AcDbPolyline
 90
        4
 70
     1
 43
0.0
 10
14036.8943329854
 20
18287.03664205695
 10
14036.8943329854
 20
18300.03664205694
 10
14636.8943329854
 20
18300.03664205694
 10
14636.8943329854
 20
18287.03664205695
  0
LWPOLYLINE
  5
E68D1
330
F5613
100
AcDbEntity
  8
0
100
AcDbPolyline
 90
        4
 70
     1
 43
0.0
 10
12806.89691316881
 20
17487.03664205694
 10
12806.89691316881
 20
17500.03664205694
 10
13406.89691316881
 20
17500.03664205694
 10
13406.89691316881
 20
17487.03664205694
  0
LWPOLYLINE
  5
E68D2
330
F5613
100
AcDbEntity
  8
0
100
AcDbPolyline
 90
        4
 70
     1
 43
0.0
 10
12821.89691316881
 20
16274.03664205695
 10
12821.89691316881
 20
16300.03664205694
 10
12871.8969131688
 20
16300.03664205694
 10
12871.8969131688
 20
16274.03664205695
  0
LWPOLYLINE
  5
E68D3
330
F5613
100
AcDbEntity
  8
0
100
AcDbPolyline
 90
        4
 70
     1
 43
0.0
 10
12806.89691316881
 20
16300.03664205694
 10
12806.89691316881
 20
16313.03664205694
 10
13406.89691316881
 20
16313.03664205694
 10
13406.89691316881
 20
16300.03664205694
  0
LWPOLYLINE
  5
E68D4
330
F5613
100
AcDbEntity
  8
0
100
AcDbPolyline
 90
        4
 70
     1
 43
0.0
 10
12806.89691316881
 20
17487.03664205694
 10
12806.89691316881
 20
16313.03664205694
 10
13406.89691316881
 20
16313.03664205694
 10
13406.89691316881
 20
17487.03664205694
  0
LWPOLYLINE
  5
E68D5
330
F5613
100
AcDbEntity
  8
0
100
AcDbPolyline
 90
        4
 70
     1
 43
0.0
 10
13391.89691316881
 20
16274.03664205704
 10
13391.89691316881
 20
16300.03664205704
 10
13341.8969131688
 20
16300.03664205704
 10
13341.8969131688
 20
16274.03664205704
  0
LWPOLYLINE
  5
E68D6
330
F5613
100
AcDbEntity
  8
0
100
AcDbPolyline
 90
        4
 70
     1
 43
0.0
 10
12161.89211878297
 20
16274.03664205704
 10
12161.89211878297
 20
16300.03664205704
 10
12111.89211878298
 20
16300.03664205704
 10
12111.89211878298
 20
16274.03664205704
  0
LWPOLYLINE
  5
E68D7
330
F5613
100
AcDbEntity
  8
0
100
AcDbPolyline
 90
        4
 70
     1
 43
0.0
 10
11576.89211878297
 20
17087.03664205694
 10
11576.89211878297
 20
16313.03664205694
 10
12176.89211878298
 20
16313.03664205694
 10
12176.89211878298
 20
17087.03664205694
  0
LWPOLYLINE
  5
E68D8
330
F5613
100
AcDbEntity
  8
0
100
AcDbPolyline
 90
        4
 70
     1
 43
0.0
 10
11576.89211878297
 20
16300.03664205694
 10
11576.89211878297
 20
16313.03664205694
 10
12176.89211878298
 20
16313.03664205694
 10
12176.89211878298
 20
16300.03664205694
  0
LWPOLYLINE
  5
E68D9
330
F5613
100
AcDbEntity
  8
0
100
AcDbPolyline
 90
        4
 70
     1
 43
0.0
 10
11591.89211878298
 20
16274.03664205695
 10
11591.89211878298
 20
16300.03664205694
 10
11641.89211878297
 20
16300.03664205694
 10
11641.89211878297
 20
16274.03664205695
  0
LWPOLYLINE
  5
E68DA
330
F5613
100
AcDbEntity
  8
0
100
AcDbPolyline
 90
        4
 70
     1
 43
0.0
 10
11576.89211878297
 20
17087.03664205694
 10
11576.89211878297
 20
17100.03664205694
 10
12176.89211878298
 20
17100.03664205694
 10
12176.89211878298
 20
17087.03664205694
  0
LWPOLYLINE
  5
E68DB
330
F5613
100
AcDbEntity
  8
0
100
AcDbPolyline
 90
        4
 70
     1
 43
0.0
 10
-610.3703555387928
 20
21266.9999999979
 10
-610.3703555387928
 20
20092.9999999979
 10
-997.370355538789
 20
20092.9999999979
 10
-997.370355538789
 20
21266.9999999979
  0
LWPOLYLINE
  5
E68DC
330
F5613
100
AcDbEntity
  8
0
100
AcDbPolyline
 90
        4
 70
     1
 43
0.0
 10
-2610.685974119233
 20
20866.9999999979
 10
-2610.685974119233
 20
20092.9999999979
 10
-2997.685974119233
 20
20092.9999999979
 10
-2997.685974119233
 20
20866.9999999979
  0
LWPOLYLINE
  5
E68DD
330
F5613
100
AcDbEntity
  8
0
100
AcDbPolyline
 90
        4
 70
     1
 43
0.0
 10
-2945.609918197149
 20
20828.0039999979
 10
-2945.609918197149
 20
20840.0039999979
 10
-2944.109918197149
 20
20840.0039999979
 10
-2944.109918197149
 20
20828.0039999979
  0
CIRCLE
  5
E68DE
330
F5613
100
AcDbEntity
  8
0
100
AcDbCircle
 10
-2944.859918197149
 20
20834.0039999979
 30
0.0
 40
12.0
  0
CIRCLE
  5
E68DF
330
F5613
100
AcDbEntity
  8
0
100
AcDbCircle
 10
8836.076500202524
 20
21079.9999999979
 30
0.0
 40
12.0
  0
LWPOLYLINE
  5
E68E0
330
F5613
100
AcDbEntity
  8
0
100
AcDbPolyline
 90
        4
 70
     1
 43
0.0
 10
8835.326500202533
 20
21073.9999999979
 10
8835.326500202533
 20
21085.9999999979
 10
8836.826500202533
 20
21085.9999999979
 10
8836.826500202533
 20
21073.9999999979
  0
CIRCLE
  5
E68E3
330
F5613
100
AcDbEntity
  8
0
100
AcDbCircle
 10
4435.771467181271
 20
20833.96908092151
 30
0.0
 40
12.0
  0
LWPOLYLINE
  5
E68E4
330
F5613
100
AcDbEntity
  8
0
100
AcDbPolyline
 90
        4
 70
     1
 43
0.0
 10
4435.021467181271
 20
20827.9690809215
 10
4435.021467181271
 20
20839.96908092151
 10
4436.521467181271
 20
20839.96908092151
 10
4436.521467181271
 20
20827.9690809215
  0
CIRCLE
  5
E68E5
330
F5613
100
AcDbEntity
  8
0
100
AcDbCircle
 10
1055.771467181274
 20
21079.96995664925
 30
0.0
 40
12.0
  0
LWPOLYLINE
  5
E68E6
330
F5613
100
AcDbEntity
  8
0
100
AcDbPolyline
 90
        4
 70
     1
 43
0.0
 10
1055.021467181274
 20
21073.96995664924
 10
1055.021467181274
 20
21085.96995664925
 10
1056.521467181274
 20
21085.96995664925
 10
1056.521467181274
 20
21073.96995664924
  0
LWPOLYLINE
  5
E68E9
330
F5613
100
AcDbEntity
  8
0
100
AcDbPolyline
 90
        4
 70
     1
 43
0.0
 10
9268.576500202527
 20
20053.999999998
 10
9268.576500202527
 20
20079.999999998
 10
9218.576500202527
 20
20079.999999998
 10
9218.576500202527
 20
20053.999999998
  0
LWPOLYLINE
  5
E68EA
330
F5613
100
AcDbEntity
  8
0
100
AcDbPolyline
 90
        4
 70
     1
 43
0.0
 10
8298.576500202527
 20
20053.9999999979
 10
8298.576500202527
 20
20079.9999999979
 10
8348.576500202531
 20
20079.9999999979
 10
8348.576500202531
 20
20053.9999999979
  0
LWPOLYLINE
  5
E68EB
330
F5613
100
AcDbEntity
  8
0
100
AcDbPolyline
 90
        4
 70
     1
 43
0.0
 10
9270.576500202527
 20
22066.9999999979
 10
9270.576500202527
 20
20092.9999999979
 10
8783.576500202531
 20
20092.9999999979
 10
8783.576500202531
 20
22066.9999999979
  0
LWPOLYLINE
  5
E68EC
330
F5613
100
AcDbEntity
  8
0
100
AcDbPolyline
 90
        4
 70
     1
 43
0.0
 10
8783.576500202531
 20
22066.9999999979
 10
8783.576500202531
 20
20092.9999999979
 10
8296.576500202531
 20
20092.9999999979
 10
8296.576500202531
 20
22066.9999999979
  0
LWPOLYLINE
  5
E68ED
330
F5613
100
AcDbEntity
  8
0
100
AcDbPolyline
 90
        4
 70
     1
 43
0.0
 10
9283.576500202524
 20
22066.9999999979
 10
9283.576500202524
 20
20092.9999999979
 10
9270.576500202527
 20
20092.9999999979
 10
9270.576500202527
 20
22066.9999999979
  0
LWPOLYLINE
  5
E68EE
330
F5613
100
AcDbEntity
  8
0
100
AcDbPolyline
 90
        4
 70
     1
 43
0.0
 10
8283.576500202531
 20
22066.9999999979
 10
8283.576500202531
 20
20092.9999999979
 10
8296.576500202531
 20
20092.9999999979
 10
8296.576500202531
 20
22066.9999999979
  0
LWPOLYLINE
  5
E68EF
330
F5613
100
AcDbEntity
  8
0
100
AcDbPolyline
 90
        4
 70
     1
 43
0.0
 10
8283.576500202531
 20
22066.9999999979
 10
8283.576500202531
 20
22079.9999999979
 10
9283.576500202524
 20
22079.9999999979
 10
9283.576500202524
 20
22066.9999999979
  0
LWPOLYLINE
  5
E68F0
330
F5613
100
AcDbEntity
  8
0
100
AcDbPolyline
 90
        4
 70
     1
 43
0.0
 10
8283.576500202531
 20
20079.9999999979
 10
8283.576500202531
 20
20092.9999999979
 10
9283.576500202524
 20
20092.9999999979
 10
9283.576500202524
 20
20079.9999999979
  0
LWPOLYLINE
  5
E68F1
330
F5613
100
AcDbEntity
  8
0
100
AcDbPolyline
 90
        4
 70
     1
 43
0.0
 10
6083.260881622088
 20
20079.9999999979
 10
6083.260881622088
 20
20092.9999999979
 10
7083.260881622087
 20
20092.9999999979
 10
7083.260881622087
 20
20079.9999999979
  0
LWPOLYLINE
  5
E68F2
330
F5613
100
AcDbEntity
  8
0
100
AcDbPolyline
 90
        4
 70
     1
 43
0.0
 10
6083.260881622088
 20
21266.9999999979
 10
6083.260881622088
 20
21279.9999999979
 10
7083.260881622087
 20
21279.9999999979
 10
7083.260881622087
 20
21266.9999999979
  0
LWPOLYLINE
  5
E68F3
330
F5613
100
AcDbEntity
  8
0
100
AcDbPolyline
 90
        4
 70
     1
 43
0.0
 10
6083.260881622088
 20
21266.9999999979
 10
6083.260881622088
 20
20092.9999999979
 10
6096.260881622087
 20
20092.9999999979
 10
6096.260881622087
 20
21266.9999999979
  0
LWPOLYLINE
  5
E68F4
330
F5613
100
AcDbEntity
  8
0
100
AcDbPolyline
 90
        4
 70
     1
 43
0.0
 10
7083.260881622087
 20
21266.9999999979
 10
7083.260881622087
 20
20092.9999999979
 10
7070.260881622087
 20
20092.9999999979
 10
7070.260881622087
 20
21266.9999999979
  0
LWPOLYLINE
  5
E68F5
330
F5613
100
AcDbEntity
  8
0
100
AcDbPolyline
 90
        4
 70
     1
 43
0.0
 10
6583.260881622087
 20
21266.9999999979
 10
6583.260881622087
 20
20092.9999999979
 10
6096.260881622087
 20
20092.9999999979
 10
6096.260881622087
 20
21266.9999999979
  0
LWPOLYLINE
  5
E68F6
330
F5613
100
AcDbEntity
  8
0
100
AcDbPolyline
 90
        4
 70
     1
 43
0.0
 10
7070.260881622087
 20
21266.9999999979
 10
7070.260881622087
 20
20092.9999999979
 10
6583.260881622087
 20
20092.9999999979
 10
6583.260881622087
 20
21266.9999999979
  0
LWPOLYLINE
  5
E68F7
330
F5613
100
AcDbEntity
  8
0
100
AcDbPolyline
 90
        4
 70
     1
 43
0.0
 10
6098.260881622088
 20
20053.9999999979
 10
6098.260881622088
 20
20079.9999999979
 10
6148.260881622087
 20
20079.9999999979
 10
6148.260881622087
 20
20053.9999999979
  0
LWPOLYLINE
  5
E68F8
330
F5613
100
AcDbEntity
  8
0
100
AcDbPolyline
 90
        4
 70
     1
 43
0.0
 10
7068.260881622087
 20
20053.999999998
 10
7068.260881622087
 20
20079.999999998
 10
7018.260881622087
 20
20079.999999998
 10
7018.260881622087
 20
20053.999999998
  0
LWPOLYLINE
  5
E68F9
330
F5613
100
AcDbEntity
  8
0
100
AcDbPolyline
 90
        4
 70
     1
 43
0.0
 10
4867.945263041646
 20
20053.999999998
 10
4867.945263041646
 20
20079.999999998
 10
4817.945263041647
 20
20079.999999998
 10
4817.945263041647
 20
20053.999999998
  0
LWPOLYLINE
  5
E68FA
330
F5613
100
AcDbEntity
  8
0
100
AcDbPolyline
 90
        4
 70
     1
 43
0.0
 10
3897.945263041648
 20
20053.9999999979
 10
3897.945263041648
 20
20079.9999999979
 10
3947.945263041648
 20
20079.9999999979
 10
3947.945263041648
 20
20053.9999999979
  0
LWPOLYLINE
  5
E68FB
330
F5613
100
AcDbEntity
  8
0
100
AcDbPolyline
 90
        4
 70
     1
 43
0.0
 10
4869.945263041646
 20
20866.9999999979
 10
4869.945263041646
 20
20092.9999999979
 10
4382.945263041646
 20
20092.9999999979
 10
4382.945263041646
 20
20866.9999999979
  0
LWPOLYLINE
  5
E68FC
330
F5613
100
AcDbEntity
  8
0
100
AcDbPolyline
 90
        4
 70
     1
 43
0.0
 10
4382.945263041646
 20
20866.9999999979
 10
4382.945263041646
 20
20092.9999999979
 10
3895.945263041647
 20
20092.9999999979
 10
3895.945263041647
 20
20866.9999999979
  0
LWPOLYLINE
  5
E68FD
330
F5613
100
AcDbEntity
  8
0
100
AcDbPolyline
 90
        4
 70
     1
 43
0.0
 10
4882.945263041648
 20
20866.9999999979
 10
4882.945263041648
 20
20092.9999999979
 10
4869.945263041646
 20
20092.9999999979
 10
4869.945263041646
 20
20866.9999999979
  0
LWPOLYLINE
  5
E68FE
330
F5613
100
AcDbEntity
  8
0
100
AcDbPolyline
 90
        4
 70
     1
 43
0.0
 10
3882.945263041648
 20
20866.9999999979
 10
3882.945263041648
 20
20092.9999999979
 10
3895.945263041647
 20
20092.9999999979
 10
3895.945263041647
 20
20866.9999999979
  0
LWPOLYLINE
  5
E68FF
330
F5613
100
AcDbEntity
  8
0
100
AcDbPolyline
 90
        4
 70
     1
 43
0.0
 10
3882.945263041648
 20
20866.9999999979
 10
3882.945263041648
 20
20879.9999999979
 10
4882.945263041648
 20
20879.9999999979
 10
4882.945263041648
 20
20866.9999999979
  0
LWPOLYLINE
  5
E6900
330
F5613
100
AcDbEntity
  8
0
100
AcDbPolyline
 90
        4
 70
     1
 43
0.0
 10
3882.945263041648
 20
20079.9999999979
 10
3882.945263041648
 20
20092.9999999979
 10
4882.945263041648
 20
20092.9999999979
 10
4882.945263041648
 20
20079.9999999979
  0
LWPOLYLINE
  5
E6901
330
F5613
100
AcDbEntity
  8
0
100
AcDbPolyline
 90
        4
 70
     1
 43
0.0
 10
602.9452630416471
 20
20079.99999999764
 10
602.9452630416471
 20
20092.99999999764
 10
1402.945263041651
 20
20092.99999999764
 10
1402.945263041651
 20
20079.99999999764
  0
LWPOLYLINE
  5
E6902
330
F5613
100
AcDbEntity
  8
0
100
AcDbPolyline
 90
        4
 70
     1
 43
0.0
 10
602.9452630416471
 20
22066.99999999764
 10
602.9452630416471
 20
22079.99999999764
 10
1402.945263041651
 20
22079.99999999764
 10
1402.945263041651
 20
22066.99999999764
  0
LWPOLYLINE
  5
E6903
330
F5613
100
AcDbEntity
  8
0
100
AcDbPolyline
 90
        4
 70
     1
 43
0.0
 10
602.9452630416471
 20
22066.99999999764
 10
602.9452630416471
 20
20092.99999999764
 10
615.945263041647
 20
20092.99999999764
 10
615.945263041647
 20
22066.99999999764
  0
LWPOLYLINE
  5
E6904
330
F5613
100
AcDbEntity
  8
0
100
AcDbPolyline
 90
        4
 70
     1
 43
0.0
 10
1402.945263041651
 20
22066.99999999764
 10
1402.945263041651
 20
20092.99999999764
 10
1389.945263041651
 20
20092.99999999764
 10
1389.945263041651
 20
22066.99999999764
  0
LWPOLYLINE
  5
E6905
330
F5613
100
AcDbEntity
  8
0
100
AcDbPolyline
 90
        4
 70
     1
 43
0.0
 10
1002.945263041647
 20
22066.99999999764
 10
1002.945263041647
 20
20092.99999999764
 10
615.945263041647
 20
20092.99999999764
 10
615.945263041647
 20
22066.99999999764
  0
LWPOLYLINE
  5
E6906
330
F5613
100
AcDbEntity
  8
0
100
AcDbPolyline
 90
        4
 70
     1
 43
0.0
 10
1389.945263041651
 20
22066.99999999764
 10
1389.945263041651
 20
20092.99999999764
 10
1002.945263041647
 20
20092.99999999764
 10
1002.945263041647
 20
22066.99999999764
  0
LWPOLYLINE
  5
E6907
330
F5613
100
AcDbEntity
  8
0
100
AcDbPolyline
 90
        4
 70
     1
 43
0.0
 10
617.9452630416473
 20
20053.99999999764
 10
617.9452630416473
 20
20079.99999999764
 10
667.9452630416473
 20
20079.99999999764
 10
667.9452630416473
 20
20053.99999999764
  0
LWPOLYLINE
  5
E6908
330
F5613
100
AcDbEntity
  8
0
100
AcDbPolyline
 90
        4
 70
     1
 43
0.0
 10
1387.945263041651
 20
20053.99999999774
 10
1387.945263041651
 20
20079.99999999774
 10
1337.945263041651
 20
20079.99999999774
 10
1337.945263041651
 20
20053.99999999774
  0
LWPOLYLINE
  5
E6909
330
F5613
100
AcDbEntity
  8
0
100
AcDbPolyline
 90
        4
 70
     1
 43
0.0
 10
-612.3703555387928
 20
20053.999999998
 10
-612.3703555387928
 20
20079.999999998
 10
-662.3703555387928
 20
20079.999999998
 10
-662.3703555387928
 20
20053.999999998
  0
LWPOLYLINE
  5
E690A
330
F5613
100
AcDbEntity
  8
0
100
AcDbPolyline
 90
        4
 70
     1
 43
0.0
 10
-1382.370355538789
 20
20053.9999999979
 10
-1382.370355538789
 20
20079.9999999979
 10
-1332.370355538789
 20
20079.9999999979
 10
-1332.370355538789
 20
20053.9999999979
  0
LWPOLYLINE
  5
E690B
330
F5613
100
AcDbEntity
  8
0
100
AcDbPolyline
 90
        4
 70
     1
 43
0.0
 10
-997.370355538789
 20
21266.9999999979
 10
-997.370355538789
 20
20092.9999999979
 10
-1384.370355538789
 20
20092.9999999979
 10
-1384.370355538789
 20
21266.9999999979
  0
LWPOLYLINE
  5
E690C
330
F5613
100
AcDbEntity
  8
0
100
AcDbPolyline
 90
        4
 70
     1
 43
0.0
 10
-597.3703555387928
 20
21266.9999999979
 10
-597.3703555387928
 20
20092.9999999979
 10
-610.3703555387928
 20
20092.9999999979
 10
-610.3703555387928
 20
21266.9999999979
  0
LWPOLYLINE
  5
E690D
330
F5613
100
AcDbEntity
  8
0
100
AcDbPolyline
 90
        4
 70
     1
 43
0.0
 10
-1397.370355538789
 20
21266.9999999979
 10
-1397.370355538789
 20
20092.9999999979
 10
-1384.370355538789
 20
20092.9999999979
 10
-1384.370355538789
 20
21266.9999999979
  0
LWPOLYLINE
  5
E690E
330
F5613
100
AcDbEntity
  8
0
100
AcDbPolyline
 90
        4
 70
     1
 43
0.0
 10
-1397.370355538789
 20
21266.9999999979
 10
-1397.370355538789
 20
21279.9999999979
 10
-597.3703555387928
 20
21279.9999999979
 10
-597.3703555387928
 20
21266.9999999979
  0
LWPOLYLINE
  5
E690F
330
F5613
100
AcDbEntity
  8
0
100
AcDbPolyline
 90
        4
 70
     1
 43
0.0
 10
-1397.370355538789
 20
20079.9999999979
 10
-1397.370355538789
 20
20092.9999999979
 10
-597.3703555387928
 20
20092.9999999979
 10
-597.3703555387928
 20
20079.9999999979
  0
LWPOLYLINE
  5
E6910
330
F5613
100
AcDbEntity
  8
0
100
AcDbPolyline
 90
        4
 70
     1
 43
0.0
 10
-2612.685974119233
 20
20053.999999998
 10
-2612.685974119233
 20
20079.999999998
 10
-2662.685974119233
 20
20079.999999998
 10
-2662.685974119233
 20
20053.999999998
  0
LWPOLYLINE
  5
E6911
330
F5613
100
AcDbEntity
  8
0
100
AcDbPolyline
 90
        4
 70
     1
 43
0.0
 10
-3382.685974119233
 20
20053.9999999979
 10
-3382.685974119233
 20
20079.9999999979
 10
-3332.685974119233
 20
20079.9999999979
 10
-3332.685974119233
 20
20053.9999999979
  0
LWPOLYLINE
  5
E6912
330
F5613
100
AcDbEntity
  8
0
100
AcDbPolyline
 90
        4
 70
     1
 43
0.0
 10
-2997.685974119233
 20
20866.9999999979
 10
-2997.685974119233
 20
20092.9999999979
 10
-3384.685974119233
 20
20092.9999999979
 10
-3384.685974119233
 20
20866.9999999979
  0
LWPOLYLINE
  5
E6913
330
F5613
100
AcDbEntity
  8
0
100
AcDbPolyline
 90
        4
 70
     1
 43
0.0
 10
-2597.685974119233
 20
20866.9999999979
 10
-2597.685974119233
 20
20092.9999999979
 10
-2610.685974119233
 20
20092.9999999979
 10
-2610.685974119233
 20
20866.9999999979
  0
LWPOLYLINE
  5
E6914
330
F5613
100
AcDbEntity
  8
0
100
AcDbPolyline
 90
        4
 70
     1
 43
0.0
 10
-3397.685974119233
 20
20866.9999999979
 10
-3397.685974119233
 20
20092.9999999979
 10
-3384.685974119233
 20
20092.9999999979
 10
-3384.685974119233
 20
20866.9999999979
  0
LWPOLYLINE
  5
E6915
330
F5613
100
AcDbEntity
  8
0
100
AcDbPolyline
 90
        4
 70
     1
 43
0.0
 10
-3397.685974119233
 20
20866.9999999979
 10
-3397.685974119233
 20
20879.9999999979
 10
-2597.685974119233
 20
20879.9999999979
 10
-2597.685974119233
 20
20866.9999999979
  0
LWPOLYLINE
  5
E6916
330
F5613
100
AcDbEntity
  8
0
100
AcDbPolyline
 90
        4
 70
     1
 43
0.0
 10
-3397.685974119233
 20
20079.9999999979
 10
-3397.685974119233
 20
20092.9999999979
 10
-2597.685974119233
 20
20092.9999999979
 10
-2597.685974119233
 20
20079.9999999979
  0
LWPOLYLINE
  5
E6917
330
F5613
100
AcDbEntity
  8
0
100
AcDbPolyline
 90
        4
 70
     1
 43
0.0
 10
15266.89433298539
 20
15674.03664205705
 10
-4012.685974119231
 20
15674.03664205705
 10
-4012.685974119231
 20
22679.99999999791
 10
15266.89433298539
 20
22679.99999999791
  0
LWPOLYLINE
  5
EF818
330
F5613
100
AcDbEntity
  8
0
100
AcDbPolyline
 90
        4
 70
     1
 43
0.0
 10
26648.48335285823
 20
17553.9690809217
 10
26648.48335285823
 20
17565.9690809217
 10
26649.98335285823
 20
17565.9690809217
 10
26649.98335285823
 20
17553.9690809217
  0
CIRCLE
  5
EF819
330
F5613
100
AcDbEntity
  8
0
100
AcDbCircle
 10
26649.23335285823
 20
17559.9690809217
 30
0.0
 40
12.0
  0
LWPOLYLINE
  5
EF81C
330
F5613
100
AcDbEntity
  8
0
100
AcDbPolyline
 90
        4
 70
     1
 43
0.0
 10
13236.8969131688
 20
13669.95933181892
 10
13258.76678003913
 20
13669.95933181892
 42
0.7834636620498802
 10
13258.76678003913
 20
13677.95933181891
 10
13236.8969131688
 20
13677.95933181891
  0
LWPOLYLINE
  5
EF81D
330
F5613
100
AcDbEntity
  8
0
100
AcDbPolyline
 90
        4
 70
     1
 43
0.0
 10
13406.8969131688
 20
9889.99597387795
 10
13428.76678003913
 20
9889.99597387795
 42
0.7834636620498802
 10
13428.76678003913
 20
9897.99597387794
 10
13406.8969131688
 20
9897.99597387794
  0
CIRCLE
  5
EF829
330
F5613
100
AcDbEntity
  8
0
100
AcDbCircle
 10
6636.087085761713
 20
9893.969080922552
 30
0.0
 40
12.0
  0
CIRCLE
  5
EF82D
330
F5613
100
AcDbEntity
  8
0
100
AcDbCircle
 10
6636.08708576171
 20
17453.96908092185
 30
0.0
 40
12.0
  0
LWPOLYLINE
  5
EF82E
330
F5613
100
AcDbEntity
  8
0
100
AcDbPolyline
 90
        4
 70
     1
 43
0.0
 10
6635.33708576171
 20
17447.96908092185
 10
6635.33708576171
 20
17459.96908092185
 10
6636.83708576171
 20
17459.96908092185
 10
6636.83708576171
 20
17447.96908092185
  0
CIRCLE
  5
EF82F
330
F5613
100
AcDbEntity
  8
0
100
AcDbCircle
 10
6636.08708576171
 20
21233.9690809215
 30
0.0
 40
12.0
  0
LWPOLYLINE
  5
EF830
330
F5613
100
AcDbEntity
  8
0
100
AcDbPolyline
 90
        4
 70
     1
 43
0.0
 10
6635.33708576171
 20
21227.9690809215
 10
6635.33708576171
 20
21239.9690809215
 10
6636.83708576171
 20
21239.9690809215
 10
6636.83708576171
 20
21227.9690809215
  0
CIRCLE
  5
EF831
330
F5613
100
AcDbEntity
  8
0
100
AcDbCircle
 10
-944.5441513991664
 20
21233.9690809215
 30
0.0
 40
12.0
  0
LWPOLYLINE
  5
EF832
330
F5613
100
AcDbEntity
  8
0
100
AcDbPolyline
 90
        4
 70
     1
 43
0.0
 10
-945.2941513991664
 20
21227.9690809215
 10
-945.2941513991664
 20
21239.9690809215
 10
-943.7941513991664
 20
21239.9690809215
 10
-943.7941513991664
 20
21227.9690809215
  0
CIRCLE
  5
EF833
330
F5613
100
AcDbEntity
  8
0
100
AcDbCircle
 10
-944.5441513991645
 20
13673.96908092221
 30
0.0
 40
12.0
  0
LWPOLYLINE
  5
EF837
330
F5613
100
AcDbEntity
  8
0
100
AcDbPolyline
 90
        4
 70
     1
 43
0.0
 10
-1397.370355538786
 20
4959.999999999302
 10
-1397.370355538786
 20
4972.999999999302
 10
-597.3703555387838
 20
4972.999999999302
 10
-597.3703555387838
 20
4959.999999999302
  0
LWPOLYLINE
  5
EF838
330
F5613
100
AcDbEntity
  8
0
100
AcDbPolyline
 90
        4
 70
     1
 43
0.0
 10
-1397.370355538786
 20
6146.999999999304
 10
-1397.370355538786
 20
6159.999999999302
 10
-597.3703555387838
 20
6159.999999999302
 10
-597.3703555387838
 20
6146.999999999304
  0
LWPOLYLINE
  5
EF839
330
F5613
100
AcDbEntity
  8
0
100
AcDbPolyline
 90
        4
 70
     1
 43
0.0
 10
-1397.370355538786
 20
6146.999999999304
 10
-1397.370355538786
 20
4972.999999999302
 10
-1384.370355538785
 20
4972.999999999302
 10
-1384.370355538785
 20
6146.999999999304
  0
LWPOLYLINE
  5
EF83A
330
F5613
100
AcDbEntity
  8
0
100
AcDbPolyline
 90
        4
 70
     1
 43
0.0
 10
-597.3703555387838
 20
6146.999999999304
 10
-597.3703555387838
 20
4972.999999999302
 10
-610.3703555387856
 20
4972.999999999302
 10
-610.3703555387856
 20
6146.999999999304
  0
LWPOLYLINE
  5
EF83B
330
F5613
100
AcDbEntity
  8
0
100
AcDbPolyline
 90
        4
 70
     1
 43
0.0
 10
-1382.370355538786
 20
4933.999999999302
 10
-1382.370355538786
 20
4959.999999999302
 10
-1332.370355538786
 20
4959.999999999302
 10
-1332.370355538786
 20
4933.999999999302
  0
LWPOLYLINE
  5
EF83C
330
F5613
100
AcDbEntity
  8
0
100
AcDbPolyline
 90
        4
 70
     1
 43
0.0
 10
-612.3703555387856
 20
4933.9999999994
 10
-612.3703555387856
 20
4959.999999999411
 10
-662.3703555387856
 20
4959.999999999411
 10
-662.3703555387856
 20
4933.9999999994
  0
LWPOLYLINE
  5
EF83D
330
F5613
100
AcDbEntity
  8
0
100
AcDbPolyline
 90
        4
 70
     1
 43
0.0
 10
-1373.370355538786
 20
5374.999999999303
 10
-1373.370355538786
 20
5344.999999999303
 10
-621.3703555387856
 20
5344.999999999303
 10
-621.3703555387856
 20
5374.999999999303
  0
LWPOLYLINE
  5
EF83E
330
F5613
100
AcDbEntity
  8
0
100
AcDbPolyline
 90
        4
 70
     1
 43
0.0
 10
-1373.370355538786
 20
5770.999999999303
 10
-1373.370355538786
 20
5740.999999999302
 10
-621.3703555387856
 20
5740.999999999302
 10
-621.3703555387856
 20
5770.999999999303
  0
LWPOLYLINE
  5
EF83F
330
F5613
100
AcDbEntity
  8
0
100
AcDbPolyline
 90
        4
 70
     1
 43
0.0
 10
-1384.370355538785
 20
4972.999999999302
 10
-1384.370355538785
 20
6146.999999999304
 10
-1373.370355538786
 20
6146.999999999304
 10
-1373.370355538786
 20
4972.999999999302
  0
LWPOLYLINE
  5
EF840
330
F5613
100
AcDbEntity
  8
0
100
AcDbPolyline
 90
        4
 70
     1
 43
0.0
 10
-621.3703555387856
 20
4972.999999999302
 10
-621.3703555387856
 20
6146.999999999304
 10
-610.3703555387856
 20
6146.999999999304
 10
-610.3703555387856
 20
4972.999999999302
  0
LWPOLYLINE
  5
EF841
330
F5613
100
AcDbEntity
  8
0
100
AcDbPolyline
 90
        4
 70
     1
 43
0.0
 10
-621.3703555387856
 20
4972.999999999302
 10
-621.3703555387856
 20
4982.999999999303
 10
-1373.370355538786
 20
4982.999999999303
 10
-1373.370355538786
 20
4972.999999999302
  0
LWPOLYLINE
  5
EF842
330
F5613
100
AcDbEntity
  8
0
100
AcDbPolyline
 90
        4
 70
     1
 43
0.0
 10
-621.3703555387856
 20
6136.999999999303
 10
-621.3703555387856
 20
6146.999999999304
 10
-1373.370355538786
 20
6146.999999999304
 10
-1373.370355538786
 20
6136.999999999303
  0
LWPOLYLINE
  5
EF843
330
F5613
100
AcDbEntity
  8
0
100
AcDbPolyline
 90
        4
 70
     1
 43
0.0
 10
-1373.370355538786
 20
5740.999999999302
 10
-1373.370355538786
 20
5374.999999999303
 10
-621.3703555387856
 20
5374.999999999303
 10
-621.3703555387856
 20
5740.999999999302
  0
LWPOLYLINE
  5
EF844
330
F5613
100
AcDbEntity
  8
0
100
AcDbPolyline
 90
        4
 70
     1
 43
0.0
 10
-1373.370355538786
 20
5344.999999999303
 10
-1373.370355538786
 20
4982.999999999303
 10
-621.3703555387856
 20
4982.999999999303
 10
-621.3703555387856
 20
5344.999999999303
  0
LWPOLYLINE
  5
EF846
330
F5613
100
AcDbEntity
  8
0
100
AcDbPolyline
 90
        4
 70
     1
 43
0.0
 10
6083.260881622089
 20
1180.036642058692
 10
6083.260881622089
 20
1193.036642058692
 10
7083.260881622091
 20
1193.036642058692
 10
7083.260881622091
 20
1180.036642058692
  0
LWPOLYLINE
  5
EF847
330
F5613
100
AcDbEntity
  8
0
100
AcDbPolyline
 90
        4
 70
     1
 43
0.0
 10
6083.260881622089
 20
2367.036642058694
 10
6083.260881622089
 20
2380.036642058692
 10
7083.260881622091
 20
2380.036642058692
 10
7083.260881622091
 20
2367.036642058694
  0
LWPOLYLINE
  5
EF848
330
F5613
100
AcDbEntity
  8
0
100
AcDbPolyline
 90
        4
 70
     1
 43
0.0
 10
6083.260881622089
 20
2367.036642058694
 10
6083.260881622089
 20
1193.036642058692
 10
6096.26088162209
 20
1193.036642058692
 10
6096.26088162209
 20
2367.036642058694
  0
LWPOLYLINE
  5
EF849
330
F5613
100
AcDbEntity
  8
0
100
AcDbPolyline
 90
        4
 70
     1
 43
0.0
 10
7083.260881622091
 20
2367.036642058694
 10
7083.260881622091
 20
1193.036642058692
 10
7070.260881622089
 20
1193.036642058692
 10
7070.260881622089
 20
2367.036642058694
  0
LWPOLYLINE
  5
EF84A
330
F5613
100
AcDbEntity
  8
0
100
AcDbPolyline
 90
        4
 70
     1
 43
0.0
 10
6098.260881622088
 20
1154.036642058692
 10
6098.260881622088
 20
1180.036642058692
 10
6148.260881622089
 20
1180.036642058692
 10
6148.260881622089
 20
1154.036642058692
  0
LWPOLYLINE
  5
EF84B
330
F5613
100
AcDbEntity
  8
0
100
AcDbPolyline
 90
        4
 70
     1
 43
0.0
 10
7068.260881622089
 20
1154.036642058789
 10
7068.260881622089
 20
1180.0366420588
 10
7018.260881622089
 20
1180.0366420588
 10
7018.260881622089
 20
1154.036642058789
  0
LWPOLYLINE
  5
EF84C
330
F5613
100
AcDbEntity
  8
0
100
AcDbPolyline
 90
        4
 70
     1
 43
0.0
 10
6107.260881622089
 20
1595.036642058692
 10
6107.260881622089
 20
1565.036642058692
 10
7059.260881622089
 20
1565.036642058692
 10
7059.260881622089
 20
1595.036642058692
  0
LWPOLYLINE
  5
EF84D
330
F5613
100
AcDbEntity
  8
0
100
AcDbPolyline
 90
        4
 70
     1
 43
0.0
 10
6107.260881622089
 20
1995.036642058693
 10
6107.260881622089
 20
1965.036642058692
 10
7059.260881622089
 20
1965.036642058692
 10
7059.260881622089
 20
1995.036642058693
  0
LWPOLYLINE
  5
EF84E
330
F5613
100
AcDbEntity
  8
0
100
AcDbPolyline
 90
        4
 70
     1
 43
0.0
 10
6096.26088162209
 20
1193.036642058692
 10
6096.26088162209
 20
2367.036642058694
 10
6107.260881622089
 20
2367.036642058694
 10
6107.260881622089
 20
1193.036642058692
  0
LWPOLYLINE
  5
EF84F
330
F5613
100
AcDbEntity
  8
0
100
AcDbPolyline
 90
        4
 70
     1
 43
0.0
 10
7059.260881622089
 20
1193.036642058692
 10
7059.260881622089
 20
2367.036642058694
 10
7070.260881622089
 20
2367.036642058694
 10
7070.260881622089
 20
1193.036642058692
  0
LWPOLYLINE
  5
EF850
330
F5613
100
AcDbEntity
  8
0
100
AcDbPolyline
 90
        4
 70
     1
 43
0.0
 10
7059.260881622089
 20
1193.036642058692
 10
7059.260881622089
 20
1203.036642058693
 10
6107.260881622089
 20
1203.036642058693
 10
6107.260881622089
 20
1193.036642058692
  0
LWPOLYLINE
  5
EF851
330
F5613
100
AcDbEntity
  8
0
100
AcDbPolyline
 90
        4
 70
     1
 43
0.0
 10
7059.260881622089
 20
2357.036642058693
 10
7059.260881622089
 20
2367.036642058694
 10
6107.260881622089
 20
2367.036642058694
 10
6107.260881622089
 20
2357.036642058693
  0
LWPOLYLINE
  5
EF852
330
F5613
100
AcDbEntity
  8
0
100
AcDbPolyline
 90
        4
 70
     1
 43
0.0
 10
6107.260881622089
 20
1965.036642058692
 10
6107.260881622089
 20
1595.036642058692
 10
7059.260881622089
 20
1595.036642058692
 10
7059.260881622089
 20
1965.036642058692
  0
LWPOLYLINE
  5
EF853
330
F5613
100
AcDbEntity
  8
0
100
AcDbPolyline
 90
        4
 70
     1
 43
0.0
 10
6107.260881622089
 20
1565.036642058692
 10
6107.260881622089
 20
1203.036642058693
 10
7059.260881622089
 20
1203.036642058693
 10
7059.260881622089
 20
1565.036642058692
  0
LWPOLYLINE
  5
EF854
330
F5613
100
AcDbEntity
  8
0
100
AcDbPolyline
 90
        4
 70
     1
 43
0.0
 10
30320.40714871862
 20
9704.999999998709
 10
30320.40714871862
 20
9674.999999998709
 10
31272.40714871862
 20
9674.999999998709
 10
31272.40714871862
 20
9704.999999998709
  0
LINE
  5
F3797
330
F5613
100
AcDbEntity
  8
0
100
AcDbLine
 10
19681.4071487186
 20
16273.99999999802
 30
0.0
 11
19676.4071487186
 21
16283.99999999802
 31
0.0
  0
LINE
  5
F3798
330
F5613
100
AcDbEntity
  8
0
100
AcDbLine
 10
19656.4071487186
 20
16283.99999999802
 30
0.0
 11
19651.4071487186
 21
16273.99999999802
 31
0.0
  0
LINE
  5
F3799
330
F5613
100
AcDbEntity
  8
0
100
AcDbLine
 10
19651.4071487186
 20
16273.99999999802
 30
0.0
 11
19681.4071487186
 21
16273.99999999802
 31
0.0
  0
LWPOLYLINE
  5
F379A
330
F5613
100
AcDbEntity
  8
0
100
AcDbPolyline
 90
        4
 70
     1
 43
0.0
 10
19651.40714871861
 20
16294.99999999802
 10
19651.40714871861
 20
16289.99999999802
 10
19681.40714871861
 20
16289.99999999802
 10
19681.40714871861
 20
16294.99999999802
  0
LINE
  5
F379B
330
F5613
100
AcDbEntity
  8
0
100
AcDbLine
 10
19656.4071487186
 20
16283.99999999802
 30
0.0
 11
19676.4071487186
 21
16283.99999999802
 31
0.0
  0
LINE
  5
F379C
330
F5613
100
AcDbEntity
  8
0
100
AcDbLine
 10
19662.4071487186
 20
16283.99999999802
 30
0.0
 11
19662.40714871861
 21
16289.99999999802
 31
0.0
  0
LINE
  5
F379D
330
F5613
100
AcDbEntity
  8
0
100
AcDbLine
 10
19670.4071487186
 20
16283.99999999802
 30
0.0
 11
19670.40714871861
 21
16289.99999999802
 31
0.0
  0
LINE
  5
F379E
330
F5613
100
AcDbEntity
  8
0
100
AcDbLine
 10
20651.4071487186
 20
16273.99999999802
 30
0.0
 11
20646.4071487186
 21
16283.99999999802
 31
0.0
  0
LINE
  5
F379F
330
F5613
100
AcDbEntity
  8
0
100
AcDbLine
 10
20626.4071487186
 20
16283.99999999802
 30
0.0
 11
20621.4071487186
 21
16273.99999999802
 31
0.0
  0
LINE
  5
F37A0
330
F5613
100
AcDbEntity
  8
0
100
AcDbLine
 10
20621.4071487186
 20
16273.99999999802
 30
0.0
 11
20651.4071487186
 21
16273.99999999802
 31
0.0
  0
LWPOLYLINE
  5
F37A1
330
F5613
100
AcDbEntity
  8
0
100
AcDbPolyline
 90
        4
 70
     1
 43
0.0
 10
20621.40714871861
 20
16294.99999999802
 10
20621.40714871861
 20
16289.99999999802
 10
20651.40714871861
 20
16289.99999999802
 10
20651.40714871861
 20
16294.99999999802
  0
LINE
  5
F37A2
330
F5613
100
AcDbEntity
  8
0
100
AcDbLine
 10
20626.4071487186
 20
16283.99999999802
 30
0.0
 11
20646.4071487186
 21
16283.99999999802
 31
0.0
  0
LINE
  5
F37A3
330
F5613
100
AcDbEntity
  8
0
100
AcDbLine
 10
20632.4071487186
 20
16283.99999999802
 30
0.0
 11
20632.40714871861
 21
16289.99999999802
 31
0.0
  0
LINE
  5
F37A4
330
F5613
100
AcDbEntity
  8
0
100
AcDbLine
 10
20640.4071487186
 20
16283.99999999802
 30
0.0
 11
20640.40714871861
 21
16289.99999999802
 31
0.0
  0
LWPOLYLINE
  5
F5784
330
F5613
100
AcDbEntity
  8
0
100
AcDbPolyline
 90
        4
 70
     1
 43
0.0
 10
31081.4071487186
 20
16273.9999999981
 10
31081.4071487186
 20
16299.9999999981
 10
31031.4071487186
 20
16299.9999999981
 10
31031.4071487186
 20
16273.9999999981
  0
LWPOLYLINE
  5
F5785
330
F5613
100
AcDbEntity
  8
0
100
AcDbPolyline
 90
        4
 70
     1
 43
0.0
 10
30311.4071487186
 20
16273.99999999802
 10
30311.4071487186
 20
16299.99999999802
 10
30361.4071487186
 20
16299.99999999802
 10
30361.4071487186
 20
16273.99999999802
  0
LWPOLYLINE
  5
F5786
330
F5613
100
AcDbEntity
  8
0
100
AcDbPolyline
 90
        4
 70
     1
 43
0.0
 10
31083.40714871863
 20
17512.99999999802
 10
31083.40714871863
 20
18286.99999999802
 10
30696.40714871863
 20
18286.99999999802
 10
30696.40714871863
 20
17512.99999999802
  0
LWPOLYLINE
  5
F5787
330
F5613
100
AcDbEntity
  8
0
100
AcDbPolyline
 90
        4
 70
     1
 43
0.0
 10
30696.40714871863
 20
17512.99999999802
 10
30696.40714871863
 20
18286.99999999802
 10
30309.40714871863
 20
18286.99999999802
 10
30309.40714871863
 20
17512.99999999802
  0
LWPOLYLINE
  5
F5788
330
F5613
100
AcDbEntity
  8
0
100
AcDbPolyline
 90
        4
 70
     1
 43
0.0
 10
31096.40714871863
 20
18286.99999999802
 10
31096.40714871863
 20
17512.99999999802
 10
31083.40714871863
 20
17512.99999999802
 10
31083.40714871863
 20
18286.99999999802
  0
LWPOLYLINE
  5
F5789
330
F5613
100
AcDbEntity
  8
0
100
AcDbPolyline
 90
        4
 70
     1
 43
0.0
 10
30296.40714871863
 20
18286.99999999802
 10
30296.40714871863
 20
17512.99999999802
 10
30309.40714871863
 20
17512.99999999802
 10
30309.40714871863
 20
18286.99999999802
  0
LWPOLYLINE
  5
F578A
330
F5613
100
AcDbEntity
  8
0
100
AcDbPolyline
 90
        4
 70
     1
 43
0.0
 10
30296.40714871863
 20
18286.99999999802
 10
30296.40714871863
 20
18299.99999999802
 10
31096.40714871863
 20
18299.99999999802
 10
31096.40714871863
 20
18286.99999999802
  0
LWPOLYLINE
  5
F578B
330
F5613
100
AcDbEntity
  8
0
100
AcDbPolyline
 90
        4
 70
     1
 43
0.0
 10
30296.4071487186
 20
16299.99999999802
 10
30296.4071487186
 20
16312.99999999802
 10
31096.4071487186
 20
16312.99999999802
 10
31096.4071487186
 20
16299.99999999802
  0
LWPOLYLINE
  5
F578C
330
F5613
100
AcDbEntity
  8
0
100
AcDbPolyline
 90
        4
 70
     1
 43
0.0
 10
30296.4071487186
 20
17499.99999999802
 10
30296.4071487186
 20
17512.99999999801
 10
31096.4071487186
 20
17512.99999999801
 10
31096.4071487186
 20
17499.99999999802
  0
LWPOLYLINE
  5
F578D
330
F5613
100
AcDbEntity
  8
0
100
AcDbPolyline
 90
        4
 70
     1
 43
0.0
 10
30296.4071487186
 20
17486.99999999801
 10
30296.4071487186
 20
17499.99999999802
 10
31096.4071487186
 20
17499.99999999802
 10
31096.4071487186
 20
17486.99999999801
  0
LWPOLYLINE
  5
F578E
330
F5613
100
AcDbEntity
  8
0
100
AcDbPolyline
 90
        4
 70
     1
 43
0.0
 10
30296.4071487186
 20
17486.99999999801
 10
30296.4071487186
 20
16312.99999999801
 10
30309.4071487186
 20
16312.99999999801
 10
30309.4071487186
 20
17486.99999999801
  0
LWPOLYLINE
  5
F578F
330
F5613
100
AcDbEntity
  8
0
100
AcDbPolyline
 90
        4
 70
     1
 43
0.0
 10
31096.4071487186
 20
17486.99999999801
 10
31096.4071487186
 20
16312.99999999801
 10
31083.4071487186
 20
16312.99999999801
 10
31083.4071487186
 20
17486.99999999801
  0
LWPOLYLINE
  5
F5790
330
F5613
100
AcDbEntity
  8
0
100
AcDbPolyline
 90
        4
 70
     1
 43
0.0
 10
30696.4071487186
 20
17486.99999999801
 10
30696.4071487186
 20
16312.99999999801
 10
30309.4071487186
 20
16312.99999999801
 10
30309.4071487186
 20
17486.99999999801
  0
LWPOLYLINE
  5
F5791
330
F5613
100
AcDbEntity
  8
0
100
AcDbPolyline
 90
        4
 70
     1
 43
0.0
 10
31083.4071487186
 20
17486.99999999801
 10
31083.4071487186
 20
16312.99999999801
 10
30696.4071487186
 20
16312.99999999801
 10
30696.4071487186
 20
17486.99999999801
  0
LWPOLYLINE
  5
F5792
330
F5613
100
AcDbEntity
  8
0
100
AcDbPolyline
 90
        4
 70
     1
 43
0.0
 10
28296.40714871861
 20
16299.99999999802
 10
28296.40714871861
 20
16312.99999999802
 10
29296.40714871864
 20
16312.99999999802
 10
29296.40714871864
 20
16299.99999999802
  0
LWPOLYLINE
  5
F5793
330
F5613
100
AcDbEntity
  8
0
100
AcDbPolyline
 90
        4
 70
     1
 43
0.0
 10
28296.40714871861
 20
18286.99999999802
 10
28296.40714871861
 20
18299.99999999802
 10
29296.40714871864
 20
18299.99999999802
 10
29296.40714871864
 20
18286.99999999802
  0
LWPOLYLINE
  5
F5794
330
F5613
100
AcDbEntity
  8
0
100
AcDbPolyline
 90
        4
 70
     1
 43
0.0
 10
28296.40714871861
 20
18286.99999999802
 10
28296.40714871861
 20
16312.99999999802
 10
28309.40714871864
 20
16312.99999999802
 10
28309.40714871864
 20
18286.99999999802
  0
LWPOLYLINE
  5
F5795
330
F5613
100
AcDbEntity
  8
0
100
AcDbPolyline
 90
        4
 70
     1
 43
0.0
 10
29296.40714871864
 20
18286.99999999802
 10
29296.40714871864
 20
16312.99999999802
 10
29283.40714871861
 20
16312.99999999802
 10
29283.40714871861
 20
18286.99999999802
  0
LWPOLYLINE
  5
F5796
330
F5613
100
AcDbEntity
  8
0
100
AcDbPolyline
 90
        4
 70
     1
 43
0.0
 10
28796.40714871864
 20
18286.99999999802
 10
28796.40714871864
 20
16312.99999999802
 10
28309.40714871864
 20
16312.99999999802
 10
28309.40714871864
 20
18286.99999999802
1001
PE_URL
1000

  0
LWPOLYLINE
  5
F5797
330
F5613
100
AcDbEntity
  8
0
100
AcDbPolyline
 90
        4
 70
     1
 43
0.0
 10
29283.40714871861
 20
18286.99999999802
 10
29283.40714871861
 20
16312.99999999802
 10
28796.40714871864
 20
16312.99999999802
 10
28796.40714871864
 20
18286.99999999802
1001
PE_URL
1000

  0
LWPOLYLINE
  5
F5798
330
F5613
100
AcDbEntity
  8
0
100
AcDbPolyline
 90
        4
 70
     1
 43
0.0
 10
28311.40714871861
 20
16273.99999999802
 10
28311.40714871861
 20
16299.99999999802
 10
28361.40714871861
 20
16299.99999999802
 10
28361.40714871861
 20
16273.99999999802
  0
LWPOLYLINE
  5
F5799
330
F5613
100
AcDbEntity
  8
0
100
AcDbPolyline
 90
        4
 70
     1
 43
0.0
 10
29281.40714871861
 20
16273.99999999812
 10
29281.40714871861
 20
16299.99999999812
 10
29231.40714871864
 20
16299.99999999812
 10
29231.40714871864
 20
16273.99999999812
  0
LWPOLYLINE
  5
F579A
330
F5613
100
AcDbEntity
  8
0
100
AcDbPolyline
 90
        4
 70
     1
 43
0.0
 10
28296.40714871861
 20
18299.99999999802
 10
28296.40714871861
 20
18312.99999999801
 10
29296.40714871864
 20
18312.99999999801
 10
29296.40714871864
 20
18299.99999999802
  0
LWPOLYLINE
  5
F579B
330
F5613
100
AcDbEntity
  8
0
100
AcDbPolyline
 90
        4
 70
     1
 43
0.0
 10
28296.40714871861
 20
19086.99999999802
 10
28296.40714871861
 20
19099.99999999802
 10
29296.40714871864
 20
19099.99999999802
 10
29296.40714871864
 20
19086.99999999802
  0
LWPOLYLINE
  5
F579C
330
F5613
100
AcDbEntity
  8
0
100
AcDbPolyline
 90
        4
 70
     1
 43
0.0
 10
28296.40714871861
 20
19086.99999999802
 10
28296.40714871861
 20
18312.99999999801
 10
28309.40714871864
 20
18312.99999999801
 10
28309.40714871864
 20
19086.99999999802
  0
LWPOLYLINE
  5
F579D
330
F5613
100
AcDbEntity
  8
0
100
AcDbPolyline
 90
        4
 70
     1
 43
0.0
 10
29296.40714871864
 20
19086.99999999802
 10
29296.40714871864
 20
18312.99999999801
 10
29283.40714871861
 20
18312.99999999801
 10
29283.40714871861
 20
19086.99999999802
  0
LWPOLYLINE
  5
F579E
330
F5613
100
AcDbEntity
  8
0
100
AcDbPolyline
 90
        4
 70
     1
 43
0.0
 10
28796.40714871864
 20
18312.99999999801
 10
28796.40714871864
 20
19086.99999999802
 10
28309.40714871864
 20
19086.99999999802
 10
28309.40714871864
 20
18312.99999999801
  0
LWPOLYLINE
  5
F579F
330
F5613
100
AcDbEntity
  8
0
100
AcDbPolyline
 90
        4
 70
     1
 43
0.0
 10
29283.40714871861
 20
18312.99999999801
 10
29283.40714871861
 20
19086.99999999802
 10
28796.40714871864
 20
19086.99999999802
 10
28796.40714871864
 20
18312.99999999801
  0
CIRCLE
  5
F57D2
330
F5613
100
AcDbEntity
  8
0
100
AcDbCircle
 10
28848.90714871861
 20
17299.99999999802
 30
0.0
 40
12.0
1001
PE_URL
1000

  0
CIRCLE
  5
F57D3
330
F5613
100
AcDbEntity
  8
0
100
AcDbCircle
 10
28849.23335285823
 20
18346.02604334645
 30
0.0
 40
12.0
  0
CIRCLE
  5
F57D4
330
F5613
100
AcDbEntity
  8
0
100
AcDbCircle
 10
30749.23335285822
 20
17453.96908092161
 30
0.0
 40
12.0
1001
PE_URL
1000

  0
CIRCLE
  5
F57D5
330
F5613
100
AcDbEntity
  8
0
100
AcDbCircle
 10
30749.23335285822
 20
17546.02604334646
 30
0.0
 40
12.0
  0
LWPOLYLINE
  5
F57D6
330
F5613
100
AcDbEntity
  8
0
100
AcDbPolyline
 90
        4
 70
     1
 43
0.0
 10
30748.48335285825
 20
17447.96908092159
 10
30748.48335285825
 20
17459.96908092161
 10
30749.98335285825
 20
17459.96908092161
 10
30749.98335285825
 20
17447.96908092159
1001
PE_URL
1000

  0
LWPOLYLINE
  5
F57D7
330
F5613
100
AcDbEntity
  8
0
100
AcDbPolyline
 90
        4
 70
     1
 43
0.0
 10
30748.48335285825
 20
17540.02604334644
 10
30748.48335285825
 20
17552.02604334646
 10
30749.98335285825
 20
17552.02604334646
 10
30749.98335285825
 20
17540.02604334644
  0
LWPOLYLINE
  5
F57D8
330
F5613
100
AcDbEntity
  8
0
100
AcDbPolyline
 90
        4
 70
     1
 43
0.0
 10
28848.48335285826
 20
18340.02604334643
 10
28848.48335285826
 20
18352.02604334645
 10
28849.98335285826
 20
18352.02604334645
 10
28849.98335285826
 20
18340.02604334643
  0
LWPOLYLINE
  5
F57D9
330
F5613
100
AcDbEntity
  8
0
100
AcDbPolyline
 90
        4
 70
     1
 43
0.0
 10
28848.15714871864
 20
17293.999999998
 10
28848.15714871864
 20
17305.99999999802
 10
28849.65714871864
 20
17305.99999999802
 10
28849.65714871864
 20
17293.999999998
1001
PE_URL
1000

  0
CIRCLE
  5
F5873
330
F5613
100
AcDbEntity
  8
0
100
AcDbCircle
 10
-2944.859918197148
 20
13274.0039999986
 30
0.0
 40
10.0
  0
CIRCLE
  5
F5887
330
F5613
100
AcDbEntity
  8
0
100
AcDbCircle
 10
-944.5441513991643
 20
13673.96908092221
 30
0.0
 40
10.0
  0
CIRCLE
  5
F589B
330
F5613
100
AcDbEntity
  8
0
100
AcDbCircle
 10
1055.771467181276
 20
13519.96995664995
 30
0.0
 40
10.0
  0
CIRCLE
  5
F58AF
330
F5613
100
AcDbEntity
  8
0
100
AcDbCircle
 10
4435.771467181271
 20
13273.96908092221
 30
0.0
 40
10.0
  0
CIRCLE
  5
F58C5
330
F5613
100
AcDbEntity
  8
0
100
AcDbCircle
 10
6636.087085761713
 20
13673.96908092221
 30
0.0
 40
10.0
  0
CIRCLE
  5
F58C6
330
F5613
100
AcDbEntity
  8
0
100
AcDbCircle
 10
6636.087085761713
 20
13673.96908092221
 30
0.0
 40
12.0
  0
CIRCLE
  5
F58D9
330
F5613
100
AcDbEntity
  8
0
100
AcDbCircle
 10
8836.076500202531
 20
13519.9999999986
 30
0.0
 40
10.0
  0
CIRCLE
  5
F58DA
330
F5613
100
AcDbEntity
  8
0
100
AcDbCircle
 10
8836.076500202531
 20
13519.9999999986
 30
0.0
 40
12.0
  0
CIRCLE
  5
F58ED
330
F5613
100
AcDbEntity
  8
0
100
AcDbCircle
 10
4435.771467181271
 20
9493.969080922558
 30
0.0
 40
10.0
  0
CIRCLE
  5
F5901
330
F5613
100
AcDbEntity
  8
0
100
AcDbCircle
 10
6636.087085761713
 20
9893.96908092255
 30
0.0
 40
10.0
  0
CIRCLE
  5
F5915
330
F5613
100
AcDbEntity
  8
0
100
AcDbCircle
 10
8836.076500202531
 20
9739.999999998956
 30
0.0
 40
10.0
  0
CIRCLE
  5
F5916
330
F5613
100
AcDbEntity
  8
0
100
AcDbCircle
 10
8836.076500202531
 20
9739.999999998956
 30
0.0
 40
12.0
  0
LWPOLYLINE
  5
F593C
330
F5613
100
AcDbEntity
  8
0
100
AcDbPolyline
 90
        4
 70
     1
 43
0.0
 10
20302.40714871862
 20
9112.999999999218
 10
20387.40714871862
 20
9112.999999999218
 10
20387.40714871862
 20
8762.999999999218
 10
20302.40714871862
 20
8762.999999999218
  0
LWPOLYLINE
  5
F593D
330
F5613
100
AcDbEntity
  8
0
100
AcDbPolyline
 90
        4
 70
     1
 43
0.0
 10
20314.40714871861
 20
9092.999999999218
 10
20375.40714871861
 20
9092.999999999218
 10
20375.40714871861
 20
8862.999999999218
 10
20314.40714871861
 20
8862.999999999218
  0
CIRCLE
  5
F593E
330
F5613
100
AcDbEntity
  8
0
100
AcDbCircle
 10
20344.90714871861
 20
8812.999999999218
 30
0.0
 40
15.0
  0
CIRCLE
  5
F593F
330
F5613
100
AcDbEntity
  8
0
100
AcDbCircle
 10
20344.90714871861
 20
8812.999999999218
 30
0.0
 40
17.0
  0
CIRCLE
  5
F5940
330
F5613
100
AcDbEntity
  8
0
100
AcDbCircle
 10
20259.90714871862
 20
8812.999999999218
 30
0.0
 40
17.0
  0
CIRCLE
  5
F5941
330
F5613
100
AcDbEntity
  8
0
100
AcDbCircle
 10
20259.90714871862
 20
8812.999999999218
 30
0.0
 40
15.0
  0
LWPOLYLINE
  5
F5942
330
F5613
100
AcDbEntity
  8
0
100
AcDbPolyline
 90
        4
 70
     1
 43
0.0
 10
20229.40714871862
 20
9092.999999999218
 10
20290.40714871862
 20
9092.999999999218
 10
20290.40714871862
 20
8862.999999999218
 10
20229.40714871862
 20
8862.999999999218
  0
LWPOLYLINE
  5
F5943
330
F5613
100
AcDbEntity
  8
0
100
AcDbPolyline
 90
        4
 70
     1
 43
0.0
 10
20217.40714871861
 20
9112.999999999218
 10
20302.40714871862
 20
9112.999999999218
 10
20302.40714871862
 20
8762.999999999218
 10
20217.40714871861
 20
8762.999999999218
  0
CIRCLE
  5
F5944
330
F5613
100
AcDbEntity
  8
0
100
AcDbCircle
 10
20429.90714871862
 20
8812.999999999218
 30
0.0
 40
17.0
  0
CIRCLE
  5
F5945
330
F5613
100
AcDbEntity
  8
0
100
AcDbCircle
 10
20429.90714871862
 20
8812.999999999218
 30
0.0
 40
15.0
  0
LWPOLYLINE
  5
F5946
330
F5613
100
AcDbEntity
  8
0
100
AcDbPolyline
 90
        4
 70
     1
 43
0.0
 10
20399.40714871862
 20
9092.999999999218
 10
20460.40714871862
 20
9092.999999999218
 10
20460.40714871862
 20
8862.999999999218
 10
20399.40714871862
 20
8862.999999999218
  0
LWPOLYLINE
  5
F5947
330
F5613
100
AcDbEntity
  8
0
100
AcDbPolyline
 90
        4
 70
     1
 43
0.0
 10
20387.40714871862
 20
9112.999999999218
 10
20472.40714871861
 20
9112.999999999218
 10
20472.40714871861
 20
8762.999999999218
 10
20387.40714871862
 20
8762.999999999218
  0
LWPOLYLINE
  5
F595C
330
F5613
100
AcDbEntity
  8
0
100
AcDbPolyline
 90
        4
 70
     1
 43
0.0
 10
20047.40714871861
 20
9112.999999999216
 10
20132.40714871861
 20
9112.999999999216
 10
20132.40714871861
 20
8762.999999999218
 10
20047.40714871861
 20
8762.999999999218
  0
LWPOLYLINE
  5
F595D
330
F5613
100
AcDbEntity
  8
0
100
AcDbPolyline
 90
        4
 70
     1
 43
0.0
 10
20059.4071487186
 20
9092.999999999216
 10
20120.4071487186
 20
9092.999999999216
 10
20120.4071487186
 20
8862.999999999218
 10
20059.4071487186
 20
8862.999999999218
  0
CIRCLE
  5
F595E
330
F5613
100
AcDbEntity
  8
0
100
AcDbCircle
 10
20089.9071487186
 20
8812.99999999922
 30
0.0
 40
15.0
  0
CIRCLE
  5
F595F
330
F5613
100
AcDbEntity
  8
0
100
AcDbCircle
 10
20089.9071487186
 20
8812.99999999922
 30
0.0
 40
17.0
  0
CIRCLE
  5
F5974
330
F5613
100
AcDbEntity
  8
0
100
AcDbCircle
 10
20174.90714871861
 20
9204.999999999216
 30
0.0
 40
17.0
  0
CIRCLE
  5
F5975
330
F5613
100
AcDbEntity
  8
0
100
AcDbCircle
 10
20174.90714871861
 20
9204.999999999216
 30
0.0
 40
15.0
  0
LWPOLYLINE
  5
F5976
330
F5613
100
AcDbEntity
  8
0
100
AcDbPolyline
 90
        4
 70
     1
 43
0.0
 10
20144.40714871861
 20
9484.999999999216
 10
20205.40714871861
 20
9484.999999999216
 10
20205.40714871861
 20
9254.999999999216
 10
20144.40714871861
 20
9254.999999999216
  0
LWPOLYLINE
  5
F5977
330
F5613
100
AcDbEntity
  8
0
100
AcDbPolyline
 90
        4
 70
     1
 43
0.0
 10
20132.4071487186
 20
9504.999999999216
 10
20217.40714871861
 20
9504.999999999216
 10
20217.40714871861
 20
9154.999999999216
 10
20132.4071487186
 20
9154.999999999216
  0
VIEWPORT
  5
DAB74
330
F5611
100
AcDbEntity
 67
     1
  8
0
100
AcDbViewport
 10
0.0
 20
0.0
 30
0.0
 40
10.87270777479893
 41
8.16
 68
     1
 69
     1
 12
6.065999999999998
 22
3.851238605898123
 13
0.0
 23
0.0
 14
0.5
 24
0.5
 15
0.0
 25
0.0
 16
0.0
 26
0.0
 36
1.0
 17
0.0
 27
0.0
 37
0.0
 42
50.0
 43
0.0
 44
0.0
 45
8.16
 50
0.0
 51
0.0
 72
   100
 90
   557296
  1

281
     0
 71
     0
 74
     0
110
0.0
120
0.0
130
0.0
111
1.0
121
0.0
131
0.0
112
0.0
122
1.0
132
0.0
 79
     0
146
0.0
170
     0
 61
     5
348
F5672
292
     1
282
     1
141
0.0
142
0.0
 63
   256
  0
VIEWPORT
  5
DAB75
330
F5611
100
AcDbEntity
 67
     1
  8
0
100
AcDbViewport
 10
5.25
 20
4.0
 30
0.0
 40
8.4
 41
6.4
 68
     2
 69
     2
 12
-238.8342129778575
 22
5240.682605436173
 13
0.0
 23
0.0
 14
0.5
 24
0.5
 15
0.0
 25
0.0
 16
0.0
 26
0.0
 36
1.0
 17
0.0
 27
0.0
 37
0.0
 42
50.0
 43
0.0
 44
0.0
 45
12730.99251508979
 50
0.0
 51
0.0
 72
   100
 90
   557280
  1

281
     0
 71
     0
 74
     0
110
0.0
120
0.0
130
0.0
111
1.0
121
0.0
131
0.0
112
0.0
122
1.0
132
0.0
 79
     0
146
0.0
170
     0
 61
     5
348
F5672
292
     1
282
     1
141
0.0
142
0.0
 63
   256
  0
ENDSEC
  0
SECTION
  2
OBJECTS
  0
DICTIONARY
  5
F5603
330
0
100
AcDbDictionary
281
     1
  3
ACAD_COLOR
350
F56A6
  3
ACAD_DETAILVIEWSTYLE
350
F5693
  3
ACAD_GROUP
350
F5604
  3
ACAD_LAYOUT
350
F5610
  3
ACAD_MATERIAL
350
F5619
  3
ACAD_MLEADERSTYLE
350
F5688
  3
ACAD_MLINESTYLE
350
F560D
  3
ACAD_PLOTSETTINGS
350
F560F
  3
ACAD_PLOTSTYLENAME
350
F5605
  3
ACAD_SCALELIST
350
F564B
  3
ACAD_SECTIONVIEWSTYLE
350
F5694
  3
ACAD_TABLESTYLE
350
F5686
  3
ACAD_VISUALSTYLE
350
F566D
  3
ACDB_RECOMPOSE_DATA
350
F597C
  3
AcDbVariableDictionary
350
F568E
  3
APPDATA
350
F568A
  3
PRINTCONFIG
350
F591F
  0
SUN
  5
F5919
330
F5616
100
AcDbSun
 90
        1
290
     0
 63
     7
421
 16777215
 40
1.0
291
     1
 91
  2455826
 92
 54000000
292
     0
 70
     2
 71
   256
280
     1
  0
DICTIONARY
  5
F577E
330
F55FA
100
AcDbDictionary
280
     1
281
     1
  3
ACAD_LAYERSTATES
360
F577F
  0
DICTIONARY
  5
F5917
330
F5613
100
AcDbDictionary
280
     1
281
     1
  3
DIM_BOUNDING_BOXES_V1
360
F5918
  0
DICTIONARY
  5
F56A6
102
{ACAD_REACTORS
330
F5603
102
}
330
F5603
100
AcDbDictionary
281
     1
  0
DICTIONARY
  5
F5693
102
{ACAD_REACTORS
330
F5603
102
}
330
F5603
100
AcDbDictionary
281
     1
  0
DICTIONARY
  5
F5604
102
{ACAD_REACTORS
330
F5603
102
}
330
F5603
100
AcDbDictionary
281
     1
  0
DICTIONARY
  5
F5610
102
{ACAD_REACTORS
330
F5603
102
}
330
F5603
100
AcDbDictionary
281
     1
  3
Foglio1
350
F5612
  3
Model
350
F5614
  0
DICTIONARY
  5
F5619
102
{ACAD_REACTORS
330
F5603
102
}
330
F5603
100
AcDbDictionary
281
     1
  3
ByBlock
350
F561B
  3
ByLayer
350
F561A
  3
Global
350
F561C
  0
DICTIONARY
  5
F5688
102
{ACAD_REACTORS
330
F5603
102
}
330
F5603
100
AcDbDictionary
281
     1
  3
Standard
350
F5689
  0
DICTIONARY
  5
F560D
102
{ACAD_REACTORS
330
F5603
102
}
330
F5603
100
AcDbDictionary
281
     1
  3
Standard
350
F560E
  0
DICTIONARY
  5
F560F
102
{ACAD_REACTORS
330
F5603
102
}
330
F5603
100
AcDbDictionary
281
     1
  0
ACDBDICTIONARYWDFLT
  5
F5605
102
{ACAD_REACTORS
330
F5603
102
}
330
F5603
100
AcDbDictionary
281
     1
  3
Normal
350
F5606
100
AcDbDictionaryWithDefault
340
F5606
  0
DICTIONARY
  5
F564B
102
{ACAD_REACTORS
330
F5603
102
}
330
F5603
100
AcDbDictionary
281
     1
  3
A0
350
F564C
  3
A1
350
F564D
  3
A2
350
F564E
  3
A3
350
F564F
  3
A4
350
F5650
  3
A5
350
F5651
  3
A6
350
F5652
  3
A7
350
F5653
  3
A8
350
F5654
  3
A9
350
F5655
  3
B0
350
F5656
  3
B1
350
F5657
  3
B2
350
F5658
  3
B3
350
F5659
  3
B4
350
F565A
  3
B5
350
F565B
  3
B6
350
F565C
  3
B7
350
F565D
  3
B8
350
F565E
  3
B9
350
F565F
  3
C0
350
F5660
  3
C1
350
F5661
  3
C2
350
F5662
  3
C3
350
F5663
  3
C4
350
F5664
  3
C5
350
F5665
  3
C6
350
F5666
  3
C7
350
F5667
  3
C8
350
F5668
  3
C9
350
F5669
  3
D0
350
F566A
  3
D1
350
F566B
  3
D2
350
F566C
  0
DICTIONARY
  5
F5694
102
{ACAD_REACTORS
330
F5603
102
}
330
F5603
100
AcDbDictionary
281
     1
  0
DICTIONARY
  5
F5686
102
{ACAD_REACTORS
330
F5603
102
}
330
F5603
100
AcDbDictionary
281
     1
  3
Standard
350
F5687
  0
DICTIONARY
  5
F566D
102
{ACAD_REACTORS
330
F5603
102
}
330
F5603
100
AcDbDictionary
281
     1
  3
2dWireframe
350
F5672
  3
Basic
350
F5675
  3
Brighten
350
F5679
  3
ColorChange
350
F567D
  3
Conceptual
350
F5677
  3
Dim
350
F5678
  3
EdgeColorOff
350
F5680
  3
Facepattern
350
F567C
  3
Flat
350
F566E
  3
FlatWithEdges
350
F566F
  3
Gouraud
350
F5670
  3
GouraudWithEdges
350
F5671
  3
Hidden
350
F5674
  3
JitterOff
350
F567E
  3
Linepattern
350
F567B
  3
OverhangOff
350
F567F
  3
Realistic
350
F5676
  3
Shaded
350
F5685
  3
Shaded with edges
350
F5684
  3
Shades of Gray
350
F5681
  3
Sketchy
350
F5682
  3
Thicken
350
F567A
  3
Wireframe
350
F5673
  3
X-Ray
350
F5683
  0
XRECORD
  5
F597C
102
{ACAD_REACTORS
330
F5603
102
}
330
F5603
100
AcDbXrecord
280
     1
 90
        1
330
F5687
  0
DICTIONARY
  5
F568E
102
{ACAD_REACTORS
330
F5603
102
}
330
F5603
100
AcDbDictionary
281
     1
  3
CANNOSCALE
350
F568F
  3
CMLEADERSTYLE
350
F5691
  3
CTABLESTYLE
350
F5690
  3
MSLTSCALE
350
F5692
  0
DICTIONARY
  5
F568A
102
{ACAD_REACTORS
330
F5603
102
}
330
F5603
100
AcDbDictionary
281
     1
  0
DICTIONARYVAR
  5
F591F
102
{ACAD_REACTORS
330
F5603
102
}
330
F5603
100
DictionaryVariables
280
     0
  1
0
  0
DICTIONARY
  5
F577F
102
{ACAD_REACTORS
330
F577E
102
}
330
F577E
100
AcDbDictionary
281
     1
  0
DICTIONARY
  5
F5918
102
{ACAD_REACTORS
330
F5917
102
}
330
F5917
100
AcDbDictionary
281
     1
  0
LAYOUT
  5
F5612
102
{ACAD_REACTORS
330
F5610
102
}
330
F5610
100
AcDbPlotSettings
  1

  2
none_device
  4

  6

 40
0.0
 41
0.0
 42
0.0
 43
0.0
 44
0.0
 45
0.0
 46
0.0
 47
0.0
 48
0.0
 49
0.0
140
0.0
141
0.0
142
1.0
143
1.0
 70
   688
 72
     0
 73
     0
 74
     5
  7

 75
    16
 76
     0
 77
     2
 78
   300
147
1.0
148
0.0
149
0.0
100
AcDbLayout
  1
Foglio1
 70
     1
 71
     1
 10
0.0
 20
0.0
 11
0.0
 21
0.0
 12
0.0
 22
0.0
 32
0.0
 14
0.0
 24
0.0
 34
0.0
 15
0.0
 25
0.0
 35
0.0
146
0.0
 13
0.0
 23
0.0
 33
0.0
 16
1.0
 26
0.0
 36
0.0
 17
0.0
 27
1.0
 37
0.0
 76
     0
330
F5611
331
DAB74
  0
LAYOUT
  5
F5614
102
{ACAD_REACTORS
330
F5610
102
}
330
F5610
100
AcDbPlotSettings
  1

  2
none_device
  4
Letter_(8.50_x_11.00_Inches)
  6

 40
6.35
 41
6.35
 42
6.35
 43
6.35
 44
215.9
 45
279.4
 46
0.0
 47
0.0
 48
0.0
 49
0.0
140
0.0
141
0.0
142
1.0
143
1.0
 70
  1712
 72
     0
 73
     0
 74
     0
  7

 75
     0
 76
     0
 77
     2
 78
   300
147
1.0
148
0.0
149
0.0
100
AcDbLayout
  1
Model
 70
     1
 71
     0
 10
0.0
 20
0.0
 11
12.0
 21
9.0
 12
0.0
 22
0.0
 32
0.0
 14
-4012.685974119229
 24
-987.6576470269351
 34
0.0
 15
35100.47464008942
 25
22679.99999999791
 35
0.0
146
0.0
 13
0.0
 23
0.0
 33
0.0
 16
1.0
 26
0.0
 36
0.0
 17
0.0
 27
1.0
 37
0.0
 76
     0
330
F5613
331
F5616
  0
MATERIAL
  5
F561B
102
{ACAD_REACTORS
330
F5619
102
}
330
F5619
100
AcDbMaterial
  1
ByBlock
 72
     1
 94
      127
  0
MATERIAL
  5
F561A
102
{ACAD_REACTORS
330
F5619
102
}
330
F5619
100
AcDbMaterial
  1
ByLayer
 72
     1
 94
      127
  0
MATERIAL
  5
F561C
102
{ACAD_REACTORS
330
F5619
102
}
330
F5619
100
AcDbMaterial
  1
Global
 72
     1
 94
      127
  0
MLEADERSTYLE
  5
F5689
102
{ACAD_REACTORS
330
F5688
102
}
330
F5688
100
AcDbMLeaderStyle
179
     2
170
     2
171
     1
172
     0
 90
        2
 40
0.0
 41
0.0
173
     1
 91
-1056964608
340
F560A
 92
       -2
290
     1
 42
0.09
291
     1
 43
0.36
  3
Standard
341
0
 44
0.18
300

342
F5608
174
     1
178
     1
175
     1
176
     0
 93
-1056964608
 45
0.18
292
     0
297
     0
 46
0.18
343
0
 94
-1056964608
 47
1.0
 49
1.0
140
1.0
293
     1
141
0.0
294
     1
177
     0
142
1.0
295
     0
296
     0
143
0.125
271
     0
272
     9
273
     9
298
     0
  0
MLINESTYLE
  5
F560E
102
{ACAD_REACTORS
330
F560D
102
}
330
F560D
100
AcDbMlineStyle
  2
Standard
 70
     0
  3

 62
   256
 51
90.0
 52
90.0
 71
     2
 49
0.5
 62
   256
  6
BYLAYER
 49
-0.5
 62
   256
  6
BYLAYER
  0
ACDBPLACEHOLDER
  5
F5606
102
{ACAD_REACTORS
330
F5605
102
}
330
F5605
  0
SCALE
  5
F564C
102
{ACAD_REACTORS
330
F564B
102
}
330
F564B
100
AcDbScale
 70
     0
300
1:1
140
1.0
141
1.0
290
     1
  0
SCALE
  5
F564D
102
{ACAD_REACTORS
330
F564B
102
}
330
F564B
100
AcDbScale
 70
     0
300
1:2
140
1.0
141
2.0
290
     0
  0
SCALE
  5
F564E
102
{ACAD_REACTORS
330
F564B
102
}
330
F564B
100
AcDbScale
 70
     0
300
1:4
140
1.0
141
4.0
290
     0
  0
SCALE
  5
F564F
102
{ACAD_REACTORS
330
F564B
102
}
330
F564B
100
AcDbScale
 70
     0
300
1:5
140
1.0
141
5.0
290
     0
  0
SCALE
  5
F5650
102
{ACAD_REACTORS
330
F564B
102
}
330
F564B
100
AcDbScale
 70
     0
300
1:8
140
1.0
141
8.0
290
     0
  0
SCALE
  5
F5651
102
{ACAD_REACTORS
330
F564B
102
}
330
F564B
100
AcDbScale
 70
     0
300
1:10
140
1.0
141
10.0
290
     0
  0
SCALE
  5
F5652
102
{ACAD_REACTORS
330
F564B
102
}
330
F564B
100
AcDbScale
 70
     0
300
1:16
140
1.0
141
16.0
290
     0
  0
SCALE
  5
F5653
102
{ACAD_REACTORS
330
F564B
102
}
330
F564B
100
AcDbScale
 70
     0
300
1:20
140
1.0
141
20.0
290
     0
  0
SCALE
  5
F5654
102
{ACAD_REACTORS
330
F564B
102
}
330
F564B
100
AcDbScale
 70
     0
300
1:30
140
1.0
141
30.0
290
     0
  0
SCALE
  5
F5655
102
{ACAD_REACTORS
330
F564B
102
}
330
F564B
100
AcDbScale
 70
     0
300
1:40
140
1.0
141
40.0
290
     0
  0
SCALE
  5
F5656
102
{ACAD_REACTORS
330
F564B
102
}
330
F564B
100
AcDbScale
 70
     0
300
1:50
140
1.0
141
50.0
290
     0
  0
SCALE
  5
F5657
102
{ACAD_REACTORS
330
F564B
102
}
330
F564B
100
AcDbScale
 70
     0
300
1:100
140
1.0
141
100.0
290
     0
  0
SCALE
  5
F5658
102
{ACAD_REACTORS
330
F564B
102
}
330
F564B
100
AcDbScale
 70
     0
300
2:1
140
2.0
141
1.0
290
     0
  0
SCALE
  5
F5659
102
{ACAD_REACTORS
330
F564B
102
}
330
F564B
100
AcDbScale
 70
     0
300
4:1
140
4.0
141
1.0
290
     0
  0
SCALE
  5
F565A
102
{ACAD_REACTORS
330
F564B
102
}
330
F564B
100
AcDbScale
 70
     0
300
8:1
140
8.0
141
1.0
290
     0
  0
SCALE
  5
F565B
102
{ACAD_REACTORS
330
F564B
102
}
330
F564B
100
AcDbScale
 70
     0
300
10:1
140
10.0
141
1.0
290
     0
  0
SCALE
  5
F565C
102
{ACAD_REACTORS
330
F564B
102
}
330
F564B
100
AcDbScale
 70
     0
300
100:1
140
100.0
141
1.0
290
     0
  0
SCALE
  5
F565D
102
{ACAD_REACTORS
330
F564B
102
}
330
F564B
100
AcDbScale
 70
     0
300
1/128" = 1'-0"
140
0.0078125
141
12.0
290
     0
  0
SCALE
  5
F565E
102
{ACAD_REACTORS
330
F564B
102
}
330
F564B
100
AcDbScale
 70
     0
300
1/64" = 1'-0"
140
0.015625
141
12.0
290
     0
  0
SCALE
  5
F565F
102
{ACAD_REACTORS
330
F564B
102
}
330
F564B
100
AcDbScale
 70
     0
300
1/32" = 1'-0"
140
0.03125
141
12.0
290
     0
  0
SCALE
  5
F5660
102
{ACAD_REACTORS
330
F564B
102
}
330
F564B
100
AcDbScale
 70
     0
300
1/16" = 1'-0"
140
0.0625
141
12.0
290
     0
  0
SCALE
  5
F5661
102
{ACAD_REACTORS
330
F564B
102
}
330
F564B
100
AcDbScale
 70
     0
300
3/32" = 1'-0"
140
0.09375
141
12.0
290
     0
  0
SCALE
  5
F5662
102
{ACAD_REACTORS
330
F564B
102
}
330
F564B
100
AcDbScale
 70
     0
300
1/8" = 1'-0"
140
0.125
141
12.0
290
     0
  0
SCALE
  5
F5663
102
{ACAD_REACTORS
330
F564B
102
}
330
F564B
100
AcDbScale
 70
     0
300
3/16" = 1'-0"
140
0.1875
141
12.0
290
     0
  0
SCALE
  5
F5664
102
{ACAD_REACTORS
330
F564B
102
}
330
F564B
100
AcDbScale
 70
     0
300
1/4" = 1'-0"
140
0.25
141
12.0
290
     0
  0
SCALE
  5
F5665
102
{ACAD_REACTORS
330
F564B
102
}
330
F564B
100
AcDbScale
 70
     0
300
3/8" = 1'-0"
140
0.375
141
12.0
290
     0
  0
SCALE
  5
F5666
102
{ACAD_REACTORS
330
F564B
102
}
330
F564B
100
AcDbScale
 70
     0
300
1/2" = 1'-0"
140
0.5
141
12.0
290
     0
  0
SCALE
  5
F5667
102
{ACAD_REACTORS
330
F564B
102
}
330
F564B
100
AcDbScale
 70
     0
300
3/4" = 1'-0"
140
0.75
141
12.0
290
     0
  0
SCALE
  5
F5668
102
{ACAD_REACTORS
330
F564B
102
}
330
F564B
100
AcDbScale
 70
     0
300
1" = 1'-0"
140
1.0
141
12.0
290
     0
  0
SCALE
  5
F5669
102
{ACAD_REACTORS
330
F564B
102
}
330
F564B
100
AcDbScale
 70
     0
300
1-1/2" = 1'-0"
140
1.5
141
12.0
290
     0
  0
SCALE
  5
F566A
102
{ACAD_REACTORS
330
F564B
102
}
330
F564B
100
AcDbScale
 70
     0
300
3" = 1'-0"
140
3.0
141
12.0
290
     0
  0
SCALE
  5
F566B
102
{ACAD_REACTORS
330
F564B
102
}
330
F564B
100
AcDbScale
 70
     0
300
6" = 1'-0"
140
6.0
141
12.0
290
     0
  0
SCALE
  5
F566C
102
{ACAD_REACTORS
330
F564B
102
}
330
F564B
100
AcDbScale
 70
     0
300
1'-0" = 1'-0"
140
12.0
141
12.0
290
     0
  0
TABLESTYLE
  5
F5687
102
{ACAD_REACTORS
330
F5686
102
}
102
{ACAD_XDICTIONARY
360
F597A
102
}
330
F5686
100
AcDbTableStyle
  3
Standard
 70
     0
 71
     0
 40
0.06
 41
0.06
280
     0
281
     0
  7
STANDARD
140
0.18
170
     2
 62
     0
 63
   257
283
     0
 90
        4
 91
        0
  1

274
    -2
284
     1
 64
     0
275
    -2
285
     1
 65
     0
276
    -2
286
     1
 66
     0
277
    -2
287
     1
 67
     0
278
    -2
288
     1
 68
     0
279
    -2
289
     1
 69
     0
  7
STANDARD
140
0.25
170
     5
 62
     0
 63
   257
283
     0
 90
        4
 91
        0
  1

274
    -2
284
     1
 64
     0
275
    -2
285
     1
 65
     0
276
    -2
286
     1
 66
     0
277
    -2
287
     1
 67
     0
278
    -2
288
     1
 68
     0
279
    -2
289
     1
 69
     0
  7
STANDARD
140
0.18
170
     5
 62
     0
 63
   257
283
     0
 90
        4
 91
        0
  1

274
    -2
284
     1
 64
     0
275
    -2
285
     1
 65
     0
276
    -2
286
     1
 66
     0
277
    -2
287
     1
 67
     0
278
    -2
288
     1
 68
     0
279
    -2
289
     1
 69
     0
  0
VISUALSTYLE
  5
F5672
102
{ACAD_REACTORS
330
F566D
102
}
330
F566D
100
AcDbVisualStyle
  2
2dWireframe
 70
     4
177
     3
291
     0
 70
    58
 90
        0
176
     1
 90
        2
176
     1
 90
        0
176
     1
 90
        0
176
     1
 40
0.6
176
     1
 40
30.0
176
     1
 62
     7
420
 16777215
176
     1
 90
        1
176
     1
 90
        4
176
     1
 62
     7
176
     1
 62
   257
176
     1
 90
        1
176
     1
 90
        1
176
     1
 40
1.0
176
     1
 90
        0
176
     1
 62
   257
176
     1
 40
1.0
176
     1
 90
        1
176
     1
 90
        6
176
     1
 90
        2
176
     1
 62
     7
176
     1
 90
        5
176
     1
 90
        0
176
     1
 90
        0
176
     1
290
     0
176
     1
 90
        1
176
     1
 40
0.0
176
     1
 90
        0
176
     1
290
     1
176
     1
290
     1
176
     1
290
     0
176
     1
290
     0
176
     1
290
     0
176
     1
290
     0
176
     1
290
     0
176
     1
290
     0
176
     1
290
     0
176
     1
 90
       50
176
     1
 40
0.0
176
     1
 40
1.0
176
     1
 90
        0
176
     1
 62
    18
420
        0
176
     1
 90
       50
176
     1
 90
        3
176
     1
 62
     5
420
      255
176
     1
290
     0
176
     1
 90
       50
176
     1
 90
       50
176
     1
 90
       50
176
     1
290
     0
176
     1
 90
       50
176
     1
 62
   256
176
     0
 40
1.0
176
     0
 90
        2
176
     1
  1
strokes_ogs.tif
176
     1
290
     0
176
     1
 40
1.0
176
     1
 40
1.0
176
     1
  0
VISUALSTYLE
  5
F5675
102
{ACAD_REACTORS
330
F566D
102
}
330
F566D
100
AcDbVisualStyle
  2
Basic
 70
     7
177
     3
291
     1
 70
    58
 90
        1
176
     1
 90
        0
176
     1
 90
        1
176
     1
 90
        0
176
     1
 40
0.6
176
     1
 40
30.0
176
     1
 62
     7
420
 16777215
176
     1
 90
        0
176
     1
 90
        4
176
     1
 62
     7
176
     1
 62
   257
176
     1
 90
        1
176
     1
 90
        1
176
     1
 40
1.0
176
     1
 90
        8
176
     1
 62
     7
176
     1
 40
1.0
176
     1
 90
        1
176
     1
 90
        6
176
     1
 90
        2
176
     1
 62
     7
176
     1
 90
        5
176
     1
 90
        0
176
     1
 90
        0
176
     1
290
     0
176
     1
 90
        1
176
     1
 40
0.0
176
     1
 90
        0
176
     1
290
     0
176
     1
290
     1
176
     1
290
     1
176
     1
290
     0
176
     1
290
     0
176
     1
290
     0
176
     1
290
     0
176
     1
290
     0
176
     1
290
     0
176
     1
 90
       50
176
     1
 40
0.0
176
     1
 40
1.0
176
     1
 90
        0
176
     1
 62
    18
420
        0
176
     1
 90
       50
176
     1
 90
        3
176
     1
 62
     5
420
      255
176
     1
290
     0
176
     1
 90
       50
176
     1
 90
       50
176
     1
 90
       50
176
     1
290
     0
176
     1
 90
       50
176
     1
 62
   256
176
     0
 40
1.0
176
     0
 90
        2
176
     1
  1
strokes_ogs.tif
176
     1
290
     0
176
     1
 40
1.0
176
     1
 40
1.0
176
     1
  0
VISUALSTYLE
  5
F5679
102
{ACAD_REACTORS
330
F566D
102
}
330
F566D
100
AcDbVisualStyle
  2
Brighten
 70
    12
177
     3
291
     1
 70
    58
 90
        2
176
     1
 90
        2
176
     1
 90
        0
176
     1
 90
        0
176
     1
 40
0.6
176
     1
 40
30.0
176
     1
 62
     7
420
 16777215
176
     1
 90
        1
176
     1
 90
        4
176
     1
 62
     7
176
     1
 62
   257
176
     1
 90
        1
176
     1
 90
        1
176
     1
 40
1.0
176
     1
 90
        8
176
     1
 62
     7
176
     1
 40
1.0
176
     1
 90
        1
176
     1
 90
        6
176
     1
 90
        2
176
     1
 62
     7
176
     1
 90
        5
176
     1
 90
        0
176
     1
 90
        0
176
     1
290
     0
176
     1
 90
        1
176
     1
 40
50.0
176
     1
 90
        0
176
     1
290
     0
176
     1
290
     1
176
     1
290
     1
176
     1
290
     0
176
     1
290
     0
176
     1
290
     0
176
     1
290
     0
176
     1
290
     0
176
     1
290
     0
176
     1
 90
       50
176
     1
 40
0.0
176
     1
 40
1.0
176
     1
 90
        0
176
     1
 62
    18
420
        0
176
     1
 90
       50
176
     1
 90
        3
176
     1
 62
     5
420
      255
176
     1
290
     0
176
     1
 90
       50
176
     1
 90
       50
176
     1
 90
       50
176
     1
290
     0
176
     1
 90
       50
176
     1
 62
   256
176
     0
 40
1.0
176
     0
 90
        2
176
     1
  1
strokes_ogs.tif
176
     1
290
     0
176
     1
 40
1.0
176
     1
 40
1.0
176
     1
  0
VISUALSTYLE
  5
F567D
102
{ACAD_REACTORS
330
F566D
102
}
330
F566D
100
AcDbVisualStyle
  2
ColorChange
 70
    16
177
     3
291
     1
 70
    58
 90
        2
176
     1
 90
        2
176
     1
 90
        3
176
     1
 90
        0
176
     1
 40
0.6
176
     1
 40
30.0
176
     1
 62
     8
420
  8421504
176
     1
 90
        1
176
     1
 90
        4
176
     1
 62
     7
176
     1
 62
   257
176
     1
 90
        1
176
     1
 90
        1
176
     1
 40
1.0
176
     1
 90
        8
176
     1
 62
     8
420
  8421504
176
     1
 40
1.0
176
     1
 90
        1
176
     1
 90
        6
176
     1
 90
        2
176
     1
 62
     7
176
     1
 90
        5
176
     1
 90
        0
176
     1
 90
        0
176
     1
290
     0
176
     1
 90
        1
176
     1
 40
0.0
176
     1
 90
        0
176
     1
290
     0
176
     1
290
     1
176
     1
290
     1
176
     1
290
     0
176
     1
290
     0
176
     1
290
     0
176
     1
290
     0
176
     1
290
     0
176
     1
290
     0
176
     1
 90
       50
176
     1
 40
0.0
176
     1
 40
1.0
176
     1
 90
        0
176
     1
 62
    18
420
        0
176
     1
 90
       50
176
     1
 90
        3
176
     1
 62
     5
420
      255
176
     1
290
     0
176
     1
 90
       50
176
     1
 90
       50
176
     1
 90
       50
176
     1
290
     0
176
     1
 90
       50
176
     1
 62
   256
176
     0
 40
1.0
176
     0
 90
        2
176
     1
  1
strokes_ogs.tif
176
     1
290
     0
176
     1
 40
1.0
176
     1
 40
1.0
176
     1
  0
VISUALSTYLE
  5
F5677
102
{ACAD_REACTORS
330
F566D
102
}
330
F566D
100
AcDbVisualStyle
  2
Conceptual
 70
     9
177
     3
291
     0
 70
    58
 90
        3
176
     1
 90
        2
176
     1
 90
        0
176
     1
 90
        0
176
     1
 40
0.6
176
     1
 40
30.0
176
     1
 62
     7
420
 16777215
176
     1
 90
        2
176
     1
 90
        2
176
     1
 62
     7
176
     1
 62
   257
176
     1
 90
        1
176
     1
 90
        1
176
     1
 40
179.0
176
     1
 90
        8
176
     1
 62
     7
176
     1
 40
1.0
176
     1
 90
        1
176
     1
 90
        6
176
     1
 90
        2
176
     1
 62
     7
176
     1
 90
        3
176
     1
 90
        0
176
     1
 90
        0
176
     1
290
     0
176
     1
 90
        1
176
     1
 40
0.0
176
     1
 90
        0
176
     1
290
     0
176
     1
290
     1
176
     1
290
     1
176
     1
290
     0
176
     1
290
     0
176
     1
290
     0
176
     1
290
     0
176
     1
290
     0
176
     1
290
     0
176
     1
 90
       50
176
     1
 40
0.0
176
     1
 40
1.0
176
     1
 90
        0
176
     1
 62
    18
420
        0
176
     1
 90
       50
176
     1
 90
        3
176
     1
 62
     5
420
      255
176
     1
290
     0
176
     1
 90
       50
176
     1
 90
       50
176
     1
 90
       50
176
     1
290
     0
176
     1
 90
       50
176
     1
 62
   256
176
     0
 40
1.0
176
     0
 90
        2
176
     1
  1
strokes_ogs.tif
176
     1
290
     0
176
     1
 40
1.0
176
     1
 40
1.0
176
     1
  0
VISUALSTYLE
  5
F5678
102
{ACAD_REACTORS
330
F566D
102
}
330
F566D
100
AcDbVisualStyle
  2
Dim
 70
    11
177
     3
291
     1
 70
    58
 90
        2
176
     1
 90
        2
176
     1
 90
        0
176
     1
 90
        0
176
     1
 40
0.6
176
     1
 40
30.0
176
     1
 62
     7
420
 16777215
176
     1
 90
        1
176
     1
 90
        4
176
     1
 62
     7
176
     1
 62
   257
176
     1
 90
        1
176
     1
 90
        1
176
     1
 40
1.0
176
     1
 90
        8
176
     1
 62
     7
176
     1
 40
1.0
176
     1
 90
        1
176
     1
 90
        6
176
     1
 90
        2
176
     1
 62
     7
176
     1
 90
        5
176
     1
 90
        0
176
     1
 90
        0
176
     1
290
     0
176
     1
 90
        1
176
     1
 40
-50.0
176
     1
 90
        0
176
     1
290
     0
176
     1
290
     1
176
     1
290
     1
176
     1
290
     0
176
     1
290
     0
176
     1
290
     0
176
     1
290
     0
176
     1
290
     0
176
     1
290
     0
176
     1
 90
       50
176
     1
 40
0.0
176
     1
 40
1.0
176
     1
 90
        0
176
     1
 62
    18
420
        0
176
     1
 90
       50
176
     1
 90
        3
176
     1
 62
     5
420
      255
176
     1
290
     0
176
     1
 90
       50
176
     1
 90
       50
176
     1
 90
       50
176
     1
290
     0
176
     1
 90
       50
176
     1
 62
   256
176
     0
 40
1.0
176
     0
 90
        2
176
     1
  1
strokes_ogs.tif
176
     1
290
     0
176
     1
 40
1.0
176
     1
 40
1.0
176
     1
  0
VISUALSTYLE
  5
F5680
102
{ACAD_REACTORS
330
F566D
102
}
330
F566D
100
AcDbVisualStyle
  2
EdgeColorOff
 70
    22
177
     3
291
     1
 70
    58
 90
        2
176
     0
 90
        2
176
     0
 90
        0
176
     0
 90
        0
176
     0
 40
0.6
176
     0
 40
30.0
176
     0
 62
     7
420
 16777215
176
     0
 90
        1
176
     0
 90
        4
176
     0
 62
     7
176
     0
 62
   257
176
     0
 90
        1
176
     0
 90
        1
176
     0
 40
1.0
176
     0
 90
        8
176
     2
 62
     7
176
     0
 40
1.0
176
     0
 90
        1
176
     0
 90
        6
176
     0
 90
        2
176
     0
 62
     7
176
     0
 90
        5
176
     0
 90
        0
176
     0
 90
        0
176
     0
290
     0
176
     0
 90
        1
176
     0
 40
0.0
176
     0
 90
        0
176
     0
290
     0
176
     0
290
     1
176
     0
290
     1
176
     0
290
     0
176
     0
290
     0
176
     0
290
     0
176
     0
290
     0
176
     0
290
     0
176
     0
290
     0
176
     0
 90
       50
176
     0
 40
0.0
176
     0
 40
1.0
176
     0
 90
        0
176
     0
 62
    18
420
        0
176
     0
 90
       50
176
     0
 90
        3
176
     0
 62
     5
420
      255
176
     0
290
     0
176
     0
 90
       50
176
     0
 90
       50
176
     0
 90
       50
176
     0
290
     0
176
     0
 90
       50
176
     0
 62
   256
176
     0
 40
1.0
176
     0
 90
        2
176
     0
  1
strokes_ogs.tif
176
     0
290
     0
176
     0
 40
1.0
176
     0
 40
1.0
176
     0
  0
VISUALSTYLE
  5
F567C
102
{ACAD_REACTORS
330
F566D
102
}
330
F566D
100
AcDbVisualStyle
  2
Facepattern
 70
    15
177
     3
291
     1
 70
    58
 90
        2
176
     1
 90
        2
176
     1
 90
        0
176
     1
 90
        0
176
     1
 40
0.6
176
     1
 40
30.0
176
     1
 62
     7
420
 16777215
176
     1
 90
        1
176
     1
 90
        4
176
     1
 62
     7
176
     1
 62
   257
176
     1
 90
        1
176
     1
 90
        1
176
     1
 40
1.0
176
     1
 90
        8
176
     1
 62
     7
176
     1
 40
1.0
176
     1
 90
        1
176
     1
 90
        6
176
     1
 90
        2
176
     1
 62
     7
176
     1
 90
        5
176
     1
 90
        0
176
     1
 90
        0
176
     1
290
     0
176
     1
 90
        1
176
     1
 40
0.0
176
     1
 90
        0
176
     1
290
     0
176
     1
290
     1
176
     1
290
     1
176
     1
290
     0
176
     1
290
     0
176
     1
290
     0
176
     1
290
     0
176
     1
290
     0
176
     1
290
     0
176
     1
 90
       50
176
     1
 40
0.0
176
     1
 40
1.0
176
     1
 90
        0
176
     1
 62
    18
420
        0
176
     1
 90
       50
176
     1
 90
        3
176
     1
 62
     5
420
      255
176
     1
290
     0
176
     1
 90
       50
176
     1
 90
       50
176
     1
 90
       50
176
     1
290
     0
176
     1
 90
       50
176
     1
 62
   256
176
     0
 40
1.0
176
     0
 90
        2
176
     1
  1
strokes_ogs.tif
176
     1
290
     0
176
     1
 40
1.0
176
     1
 40
1.0
176
     1
  0
VISUALSTYLE
  5
F566E
102
{ACAD_REACTORS
330
F566D
102
}
330
F566D
100
AcDbVisualStyle
  2
Flat
 70
     0
177
     3
291
     1
 70
    58
 90
        2
176
     1
 90
        1
176
     1
 90
        1
176
     1
 90
        2
176
     1
 40
0.6
176
     1
 40
30.0
176
     1
 62
     7
420
 16777215
176
     1
 90
        0
176
     1
 90
        0
176
     1
 62
     7
176
     1
 62
   257
176
     1
 90
        1
176
     1
 90
        1
176
     1
 40
1.0
176
     1
 90
        8
176
     1
 62
     7
176
     1
 40
1.0
176
     1
 90
        1
176
     1
 90
        6
176
     1
 90
        2
176
     1
 62
     7
176
     1
 90
        5
176
     1
 90
        0
176
     1
 90
        0
176
     1
290
     0
176
     1
 90
       13
176
     1
 40
0.0
176
     1
 90
        0
176
     1
290
     0
176
     1
290
     1
176
     1
290
     1
176
     1
290
     0
176
     1
290
     0
176
     1
290
     0
176
     1
290
     0
176
     1
290
     0
176
     1
290
     0
176
     1
 90
       50
176
     1
 40
0.0
176
     1
 40
1.0
176
     1
 90
        0
176
     1
 62
    18
420
        0
176
     1
 90
       50
176
     1
 90
        3
176
     1
 62
     5
420
      255
176
     1
290
     0
176
     1
 90
       50
176
     1
 90
       50
176
     1
 90
       50
176
     1
290
     0
176
     1
 90
       50
176
     1
 62
   256
176
     0
 40
1.0
176
     0
 90
        2
176
     1
  1
strokes_ogs.tif
176
     1
290
     0
176
     1
 40
1.0
176
     1
 40
1.0
176
     1
  0
VISUALSTYLE
  5
F566F
102
{ACAD_REACTORS
330
F566D
102
}
330
F566D
100
AcDbVisualStyle
  2
FlatWithEdges
 70
     1
177
     3
291
     1
 70
    58
 90
        2
176
     1
 90
        1
176
     1
 90
        1
176
     1
 90
        2
176
     1
 40
0.6
176
     1
 40
30.0
176
     1
 62
     7
420
 16777215
176
     1
 90
        1
176
     1
 90
        0
176
     1
 62
     7
176
     1
 62
   257
176
     1
 90
        1
176
     1
 90
        1
176
     1
 40
1.0
176
     1
 90
        0
176
     1
 62
   257
176
     1
 40
1.0
176
     1
 90
        1
176
     1
 90
        6
176
     1
 90
        2
176
     1
 62
     7
176
     1
 90
        5
176
     1
 90
        0
176
     1
 90
        0
176
     1
290
     0
176
     1
 90
       13
176
     1
 40
0.0
176
     1
 90
        0
176
     1
290
     0
176
     1
290
     1
176
     1
290
     1
176
     1
290
     0
176
     1
290
     0
176
     1
290
     0
176
     1
290
     0
176
     1
290
     0
176
     1
290
     0
176
     1
 90
       50
176
     1
 40
0.0
176
     1
 40
1.0
176
     1
 90
        0
176
     1
 62
    18
420
        0
176
     1
 90
       50
176
     1
 90
        3
176
     1
 62
     5
420
      255
176
     1
290
     0
176
     1
 90
       50
176
     1
 90
       50
176
     1
 90
       50
176
     1
290
     0
176
     1
 90
       50
176
     1
 62
   256
176
     0
 40
1.0
176
     0
 90
        2
176
     1
  1
strokes_ogs.tif
176
     1
290
     0
176
     1
 40
1.0
176
     1
 40
1.0
176
     1
  0
VISUALSTYLE
  5
F5670
102
{ACAD_REACTORS
330
F566D
102
}
330
F566D
100
AcDbVisualStyle
  2
Gouraud
 70
     2
177
     3
291
     1
 70
    58
 90
        2
176
     1
 90
        2
176
     1
 90
        1
176
     1
 90
        2
176
     1
 40
0.6
176
     1
 40
30.0
176
     1
 62
     7
420
 16777215
176
     1
 90
        0
176
     1
 90
        0
176
     1
 62
     7
176
     1
 62
   257
176
     1
 90
        1
176
     1
 90
        1
176
     1
 40
1.0
176
     1
 90
        0
176
     1
 62
     7
176
     1
 40
1.0
176
     1
 90
        1
176
     1
 90
        6
176
     1
 90
        2
176
     1
 62
     7
176
     1
 90
        5
176
     1
 90
        0
176
     1
 90
        0
176
     1
290
     0
176
     1
 90
       13
176
     1
 40
0.0
176
     1
 90
        0
176
     1
290
     0
176
     1
290
     1
176
     1
290
     1
176
     1
290
     0
176
     1
290
     0
176
     1
290
     0
176
     1
290
     0
176
     1
290
     0
176
     1
290
     0
176
     1
 90
       50
176
     1
 40
0.0
176
     1
 40
1.0
176
     1
 90
        0
176
     1
 62
    18
420
        0
176
     1
 90
       50
176
     1
 90
        3
176
     1
 62
     5
420
      255
176
     1
290
     0
176
     1
 90
       50
176
     1
 90
       50
176
     1
 90
       50
176
     1
290
     0
176
     1
 90
       50
176
     1
 62
   256
176
     0
 40
1.0
176
     0
 90
        2
176
     1
  1
strokes_ogs.tif
176
     1
290
     0
176
     1
 40
1.0
176
     1
 40
1.0
176
     1
  0
VISUALSTYLE
  5
F5671
102
{ACAD_REACTORS
330
F566D
102
}
330
F566D
100
AcDbVisualStyle
  2
GouraudWithEdges
 70
     3
177
     3
291
     1
 70
    58
 90
        2
176
     1
 90
        2
176
     1
 90
        1
176
     1
 90
        2
176
     1
 40
0.6
176
     1
 40
30.0
176
     1
 62
     7
420
 16777215
176
     1
 90
        1
176
     1
 90
        0
176
     1
 62
     7
176
     1
 62
   257
176
     1
 90
        1
176
     1
 90
        1
176
     1
 40
1.0
176
     1
 90
        0
176
     1
 62
   257
176
     1
 40
1.0
176
     1
 90
        1
176
     1
 90
        6
176
     1
 90
        2
176
     1
 62
     7
176
     1
 90
        5
176
     1
 90
        0
176
     1
 90
        0
176
     1
290
     0
176
     1
 90
       13
176
     1
 40
0.0
176
     1
 90
        0
176
     1
290
     0
176
     1
290
     1
176
     1
290
     1
176
     1
290
     0
176
     1
290
     0
176
     1
290
     0
176
     1
290
     0
176
     1
290
     0
176
     1
290
     0
176
     1
 90
       50
176
     1
 40
0.0
176
     1
 40
1.0
176
     1
 90
        0
176
     1
 62
    18
420
        0
176
     1
 90
       50
176
     1
 90
        3
176
     1
 62
     5
420
      255
176
     1
290
     0
176
     1
 90
       50
176
     1
 90
       50
176
     1
 90
       50
176
     1
290
     0
176
     1
 90
       50
176
     1
 62
   256
176
     0
 40
1.0
176
     0
 90
        2
176
     1
  1
strokes_ogs.tif
176
     1
290
     0
176
     1
 40
1.0
176
     1
 40
1.0
176
     1
  0
VISUALSTYLE
  5
F5674
102
{ACAD_REACTORS
330
F566D
102
}
330
F566D
100
AcDbVisualStyle
  2
Hidden
 70
     6
177
     3
291
     0
 70
    58
 90
        1
176
     1
 90
        2
176
     1
 90
        2
176
     1
 90
        0
176
     1
 40
0.6
176
     1
 40
30.0
176
     1
 62
     7
420
 16777215
176
     1
 90
        2
176
     1
 90
        2
176
     1
 62
     7
176
     1
 62
   257
176
     1
 90
        2
176
     1
 90
        1
176
     1
 40
40.0
176
     1
 90
        0
176
     1
 62
   257
176
     1
 40
1.0
176
     1
 90
        1
176
     1
 90
        6
176
     1
 90
        2
176
     1
 62
     7
176
     1
 90
        3
176
     1
 90
        0
176
     1
 90
        0
176
     1
290
     0
176
     1
 90
        1
176
     1
 40
0.0
176
     1
 90
        0
176
     1
290
     0
176
     1
290
     1
176
     1
290
     1
176
     1
290
     0
176
     1
290
     0
176
     1
290
     0
176
     1
290
     0
176
     1
290
     0
176
     1
290
     0
176
     1
 90
       50
176
     1
 40
0.0
176
     1
 40
1.0
176
     1
 90
        0
176
     1
 62
    18
420
        0
176
     1
 90
       50
176
     1
 90
        3
176
     1
 62
     5
420
      255
176
     1
290
     0
176
     1
 90
       50
176
     1
 90
       50
176
     1
 90
       50
176
     1
290
     0
176
     1
 90
       50
176
     1
 62
   256
176
     0
 40
1.0
176
     0
 90
        2
176
     1
  1
strokes_ogs.tif
176
     1
290
     0
176
     1
 40
1.0
176
     1
 40
1.0
176
     1
  0
VISUALSTYLE
  5
F567E
102
{ACAD_REACTORS
330
F566D
102
}
330
F566D
100
AcDbVisualStyle
  2
JitterOff
 70
    20
177
     3
291
     1
 70
    58
 90
        2
176
     0
 90
        2
176
     0
 90
        0
176
     0
 90
        0
176
     0
 40
0.6
176
     0
 40
30.0
176
     0
 62
     7
420
 16777215
176
     0
 90
        1
176
     0
 90
        4
176
     0
 62
     7
176
     0
 62
   257
176
     0
 90
        1
176
     0
 90
        1
176
     0
 40
1.0
176
     0
 90
       10
176
     2
 62
     7
176
     0
 40
1.0
176
     0
 90
        1
176
     0
 90
        6
176
     0
 90
        2
176
     0
 62
     7
176
     0
 90
        5
176
     0
 90
        0
176
     0
 90
        0
176
     0
290
     0
176
     0
 90
        1
176
     0
 40
0.0
176
     0
 90
        0
176
     0
290
     0
176
     0
290
     1
176
     0
290
     1
176
     0
290
     0
176
     0
290
     0
176
     0
290
     0
176
     0
290
     0
176
     0
290
     0
176
     0
290
     0
176
     0
 90
       50
176
     0
 40
0.0
176
     0
 40
1.0
176
     0
 90
        0
176
     0
 62
    18
420
        0
176
     0
 90
       50
176
     0
 90
        3
176
     0
 62
     5
420
      255
176
     0
290
     0
176
     0
 90
       50
176
     0
 90
       50
176
     0
 90
       50
176
     0
290
     0
176
     0
 90
       50
176
     0
 62
   256
176
     0
 40
1.0
176
     0
 90
        2
176
     0
  1
strokes_ogs.tif
176
     0
290
     0
176
     0
 40
1.0
176
     0
 40
1.0
176
     0
  0
VISUALSTYLE
  5
F567B
102
{ACAD_REACTORS
330
F566D
102
}
330
F566D
100
AcDbVisualStyle
  2
Linepattern
 70
    14
177
     3
291
     1
 70
    58
 90
        2
176
     1
 90
        2
176
     1
 90
        0
176
     1
 90
        0
176
     1
 40
0.6
176
     1
 40
30.0
176
     1
 62
     7
420
 16777215
176
     1
 90
        1
176
     1
 90
        4
176
     1
 62
     7
176
     1
 62
   257
176
     1
 90
        7
176
     1
 90
        7
176
     1
 40
1.0
176
     1
 90
        8
176
     1
 62
     7
176
     1
 40
1.0
176
     1
 90
        1
176
     1
 90
        6
176
     1
 90
        2
176
     1
 62
     7
176
     1
 90
        5
176
     1
 90
        0
176
     1
 90
        0
176
     1
290
     0
176
     1
 90
        1
176
     1
 40
0.0
176
     1
 90
        0
176
     1
290
     0
176
     1
290
     1
176
     1
290
     1
176
     1
290
     0
176
     1
290
     0
176
     1
290
     0
176
     1
290
     0
176
     1
290
     0
176
     1
290
     0
176
     1
 90
       50
176
     1
 40
0.0
176
     1
 40
1.0
176
     1
 90
        0
176
     1
 62
    18
420
        0
176
     1
 90
       50
176
     1
 90
        3
176
     1
 62
     5
420
      255
176
     1
290
     0
176
     1
 90
       50
176
     1
 90
       50
176
     1
 90
       50
176
     1
290
     0
176
     1
 90
       50
176
     1
 62
   256
176
     0
 40
1.0
176
     0
 90
        2
176
     1
  1
strokes_ogs.tif
176
     1
290
     0
176
     1
 40
1.0
176
     1
 40
1.0
176
     1
  0
VISUALSTYLE
  5
F567F
102
{ACAD_REACTORS
330
F566D
102
}
330
F566D
100
AcDbVisualStyle
  2
OverhangOff
 70
    21
177
     3
291
     1
 70
    58
 90
        2
176
     0
 90
        2
176
     0
 90
        0
176
     0
 90
        0
176
     0
 40
0.6
176
     0
 40
30.0
176
     0
 62
     7
420
 16777215
176
     0
 90
        1
176
     0
 90
        4
176
     0
 62
     7
176
     0
 62
   257
176
     0
 90
        1
176
     0
 90
        1
176
     0
 40
1.0
176
     0
 90
        9
176
     2
 62
     7
176
     0
 40
1.0
176
     0
 90
        1
176
     0
 90
        6
176
     0
 90
        2
176
     0
 62
     7
176
     0
 90
        5
176
     0
 90
        0
176
     0
 90
        0
176
     0
290
     0
176
     0
 90
        1
176
     0
 40
0.0
176
     0
 90
        0
176
     0
290
     0
176
     0
290
     1
176
     0
290
     1
176
     0
290
     0
176
     0
290
     0
176
     0
290
     0
176
     0
290
     0
176
     0
290
     0
176
     0
290
     0
176
     0
 90
       50
176
     0
 40
0.0
176
     0
 40
1.0
176
     0
 90
        0
176
     0
 62
    18
420
        0
176
     0
 90
       50
176
     0
 90
        3
176
     0
 62
     5
420
      255
176
     0
290
     0
176
     0
 90
       50
176
     0
 90
       50
176
     0
 90
       50
176
     0
290
     0
176
     0
 90
       50
176
     0
 62
   256
176
     0
 40
1.0
176
     0
 90
        2
176
     0
  1
strokes_ogs.tif
176
     0
290
     0
176
     0
 40
1.0
176
     0
 40
1.0
176
     0
  0
VISUALSTYLE
  5
F5676
102
{ACAD_REACTORS
330
F566D
102
}
330
F566D
100
AcDbVisualStyle
  2
Realistic
 70
     8
177
     3
291
     0
 70
    58
 90
        2
176
     1
 90
        3
176
     1
 90
        0
176
     1
 90
        2
176
     1
 40
0.6
176
     1
 40
30.0
176
     1
 62
     7
420
 16777215
176
     1
 90
        0
176
     1
 90
        0
176
     1
 62
     7
176
     1
 62
   257
176
     1
 90
        1
176
     1
 90
        1
176
     1
 40
1.0
176
     1
 90
        8
176
     1
 62
   257
176
     1
 40
1.0
176
     1
 90
        1
176
     1
 90
        6
176
     1
 90
        2
176
     1
 62
     7
176
     1
 90
        3
176
     1
 90
        0
176
     1
 90
        0
176
     1
290
     0
176
     1
 90
       13
176
     1
 40
0.0
176
     1
 90
        0
176
     1
290
     0
176
     1
290
     1
176
     1
290
     1
176
     1
290
     0
176
     1
290
     0
176
     1
290
     0
176
     1
290
     0
176
     1
290
     0
176
     1
290
     0
176
     1
 90
       50
176
     1
 40
0.0
176
     1
 40
1.0
176
     1
 90
        0
176
     1
 62
    18
420
        0
176
     1
 90
       50
176
     1
 90
        3
176
     1
 62
     5
420
      255
176
     1
290
     0
176
     1
 90
       50
176
     1
 90
       50
176
     1
 90
       50
176
     1
290
     0
176
     1
 90
       50
176
     1
 62
   256
176
     0
 40
1.0
176
     0
 90
        2
176
     1
  1
strokes_ogs.tif
176
     1
290
     0
176
     1
 40
1.0
176
     1
 40
1.0
176
     1
  0
VISUALSTYLE
  5
F5685
102
{ACAD_REACTORS
330
F566D
102
}
330
F566D
100
AcDbVisualStyle
  2
Shaded
 70
    27
177
     3
291
     0
 70
    58
 90
        2
176
     1
 90
        2
176
     1
 90
        1
176
     1
 90
        2
176
     1
 40
0.6
176
     1
 40
30.0
176
     1
 62
     7
420
 16777215
176
     1
 90
        0
176
     1
 90
        4
176
     1
 62
     7
176
     1
 62
   257
176
     1
 90
        1
176
     1
 90
        1
176
     1
 40
1.0
176
     1
 90
        8
176
     1
 62
   257
176
     1
 40
1.0
176
     1
 90
        1
176
     1
 90
        6
176
     1
 90
        2
176
     1
 62
     8
420
  7895160
176
     1
 90
        3
176
     1
 90
        0
176
     1
 90
        0
176
     1
290
     0
176
     1
 90
        5
176
     1
 40
0.0
176
     1
 90
        0
176
     1
290
     0
176
     1
290
     1
176
     1
290
     1
176
     1
290
     0
176
     1
290
     0
176
     1
290
     0
176
     1
290
     0
176
     1
290
     0
176
     1
290
     0
176
     1
 90
       50
176
     1
 40
0.0
176
     1
 40
1.0
176
     1
 90
        0
176
     1
 62
    18
420
        0
176
     1
 90
       50
176
     1
 90
        3
176
     1
 62
     5
420
      255
176
     1
290
     0
176
     1
 90
       50
176
     1
 90
       50
176
     1
 90
       50
176
     1
290
     0
176
     1
 90
       50
176
     1
 62
   256
176
     0
 40
1.0
176
     0
 90
        2
176
     1
  1
strokes_ogs.tif
176
     1
290
     0
176
     1
 40
1.0
176
     1
 40
1.0
176
     1
  0
VISUALSTYLE
  5
F5684
102
{ACAD_REACTORS
330
F566D
102
}
330
F566D
100
AcDbVisualStyle
  2
Shaded with edges
 70
    26
177
     3
291
     0
 70
    58
 90
        2
176
     1
 90
        2
176
     1
 90
        1
176
     1
 90
        2
176
     1
 40
0.6
176
     1
 40
30.0
176
     1
 62
     7
420
 16777215
176
     1
 90
        1
176
     1
 90
       10
176
     1
 62
     7
176
     1
 62
   257
176
     1
 90
        2
176
     1
 90
        1
176
     1
 40
1.0
176
     1
 90
        8
176
     1
 62
   257
176
     1
 40
1.0
176
     1
 90
        1
176
     1
 90
        6
176
     1
 90
        2
176
     1
 62
     7
176
     1
 90
        3
176
     1
 90
        0
176
     1
 90
        0
176
     1
290
     0
176
     1
 90
        5
176
     1
 40
0.0
176
     1
 90
        0
176
     1
290
     0
176
     1
290
     1
176
     1
290
     1
176
     1
290
     0
176
     1
290
     0
176
     1
290
     0
176
     1
290
     0
176
     1
290
     0
176
     1
290
     0
176
     1
 90
       50
176
     1
 40
0.0
176
     1
 40
1.0
176
     1
 90
        0
176
     1
 62
    18
420
        0
176
     1
 90
       50
176
     1
 90
        3
176
     1
 62
     5
420
      255
176
     1
290
     0
176
     1
 90
       50
176
     1
 90
       50
176
     1
 90
       50
176
     1
290
     0
176
     1
 90
       50
176
     1
 62
   256
176
     0
 40
1.0
176
     0
 90
        2
176
     1
  1
strokes_ogs.tif
176
     1
290
     0
176
     1
 40
1.0
176
     1
 40
1.0
176
     1
  0
VISUALSTYLE
  5
F5681
102
{ACAD_REACTORS
330
F566D
102
}
330
F566D
100
AcDbVisualStyle
  2
Shades of Gray
 70
    23
177
     3
291
     0
 70
    58
 90
        2
176
     1
 90
        2
176
     1
 90
        3
176
     1
 90
        0
176
     1
 40
0.6
176
     1
 40
30.0
176
     1
 62
     7
420
 16777215
176
     1
 90
        2
176
     1
 90
        2
176
     1
 62
     7
176
     1
 62
     7
176
     1
 90
        1
176
     1
 90
        1
176
     1
 40
40.0
176
     1
 90
        8
176
     1
 62
     7
176
     1
 40
1.0
176
     1
 90
        1
176
     1
 90
        6
176
     1
 90
        2
176
     1
 62
     7
176
     1
 90
        3
176
     1
 90
        0
176
     1
 90
        0
176
     1
290
     0
176
     1
 90
        1
176
     1
 40
0.0
176
     1
 90
        0
176
     1
290
     0
176
     1
290
     1
176
     1
290
     1
176
     1
290
     0
176
     1
290
     0
176
     1
290
     0
176
     1
290
     0
176
     1
290
     0
176
     1
290
     0
176
     1
 90
       50
176
     1
 40
0.0
176
     1
 40
1.0
176
     1
 90
        0
176
     1
 62
    18
420
        0
176
     1
 90
       50
176
     1
 90
        3
176
     1
 62
     5
420
      255
176
     1
290
     0
176
     1
 90
       50
176
     1
 90
       50
176
     1
 90
       50
176
     1
290
     0
176
     1
 90
       50
176
     1
 62
   256
176
     0
 40
1.0
176
     0
 90
        2
176
     1
  1
strokes_ogs.tif
176
     1
290
     0
176
     1
 40
1.0
176
     1
 40
1.0
176
     1
  0
VISUALSTYLE
  5
F5682
102
{ACAD_REACTORS
330
F566D
102
}
330
F566D
100
AcDbVisualStyle
  2
Sketchy
 70
    24
177
     3
291
     0
 70
    58
 90
        1
176
     1
 90
        2
176
     1
 90
        2
176
     1
 90
        0
176
     1
 40
0.6
176
     1
 40
30.0
176
     1
 62
     7
420
 16777215
176
     1
 90
        2
176
     1
 90
        2
176
     1
 62
     7
176
     1
 62
     7
176
     1
 90
        1
176
     1
 90
        1
176
     1
 40
40.0
176
     1
 90
       11
176
     1
 62
     7
176
     1
 40
1.0
176
     1
 90
        1
176
     1
 90
        6
176
     1
 90
        2
176
     1
 62
     7
176
     1
 90
        6
176
     1
 90
        0
176
     1
 90
        0
176
     1
290
     0
176
     1
 90
        1
176
     1
 40
0.0
176
     1
 90
        0
176
     1
290
     0
176
     1
290
     1
176
     1
290
     1
176
     1
290
     0
176
     1
290
     0
176
     1
290
     0
176
     1
290
     0
176
     1
290
     0
176
     1
290
     0
176
     1
 90
       50
176
     1
 40
0.0
176
     1
 40
1.0
176
     1
 90
        0
176
     1
 62
    18
420
        0
176
     1
 90
       50
176
     1
 90
        3
176
     1
 62
     5
420
      255
176
     1
290
     0
176
     1
 90
       50
176
     1
 90
       50
176
     1
 90
       50
176
     1
290
     0
176
     1
 90
       50
176
     1
 62
   256
176
     0
 40
1.0
176
     0
 90
        2
176
     1
  1
strokes_ogs.tif
176
     1
290
     0
176
     1
 40
1.0
176
     1
 40
1.0
176
     1
  0
VISUALSTYLE
  5
F567A
102
{ACAD_REACTORS
330
F566D
102
}
330
F566D
100
AcDbVisualStyle
  2
Thicken
 70
    13
177
     3
291
     1
 70
    58
 90
        2
176
     1
 90
        2
176
     1
 90
        0
176
     1
 90
        0
176
     1
 40
0.6
176
     1
 40
30.0
176
     1
 62
     7
420
 16777215
176
     1
 90
        1
176
     1
 90
        4
176
     1
 62
     7
176
     1
 62
   257
176
     1
 90
        1
176
     1
 90
        1
176
     1
 40
1.0
176
     1
 90
       12
176
     1
 62
     7
176
     1
 40
1.0
176
     1
 90
        1
176
     1
 90
        6
176
     1
 90
        2
176
     1
 62
     7
176
     1
 90
        5
176
     1
 90
        0
176
     1
 90
        0
176
     1
290
     0
176
     1
 90
        1
176
     1
 40
0.0
176
     1
 90
        0
176
     1
290
     0
176
     1
290
     1
176
     1
290
     1
176
     1
290
     0
176
     1
290
     0
176
     1
290
     0
176
     1
290
     0
176
     1
290
     0
176
     1
290
     0
176
     1
 90
       50
176
     1
 40
0.0
176
     1
 40
1.0
176
     1
 90
        0
176
     1
 62
    18
420
        0
176
     1
 90
       50
176
     1
 90
        3
176
     1
 62
     5
420
      255
176
     1
290
     0
176
     1
 90
       50
176
     1
 90
       50
176
     1
 90
       50
176
     1
290
     0
176
     1
 90
       50
176
     1
 62
   256
176
     0
 40
1.0
176
     0
 90
        2
176
     1
  1
strokes_ogs.tif
176
     1
290
     0
176
     1
 40
1.0
176
     1
 40
1.0
176
     1
  0
VISUALSTYLE
  5
F5673
102
{ACAD_REACTORS
330
F566D
102
}
330
F566D
100
AcDbVisualStyle
  2
Wireframe
 70
     5
177
     3
291
     0
 70
    58
 90
        0
176
     1
 90
        2
176
     1
 90
        0
176
     1
 90
        0
176
     1
 40
0.6
176
     1
 40
30.0
176
     1
 62
     7
420
 16777215
176
     1
 90
        1
176
     1
 90
        4
176
     1
 62
     7
176
     1
 62
   257
176
     1
 90
        1
176
     1
 90
        1
176
     1
 40
1.0
176
     1
 90
        0
176
     1
 62
   257
176
     1
 40
1.0
176
     1
 90
        1
176
     1
 90
        6
176
     1
 90
        2
176
     1
 62
     7
176
     1
 90
        3
176
     1
 90
        0
176
     1
 90
        0
176
     1
290
     0
176
     1
 90
        1
176
     1
 40
0.0
176
     1
 90
        0
176
     1
290
     0
176
     1
290
     1
176
     1
290
     1
176
     1
290
     0
176
     1
290
     0
176
     1
290
     0
176
     1
290
     0
176
     1
290
     0
176
     1
290
     0
176
     1
 90
       50
176
     1
 40
0.0
176
     1
 40
1.0
176
     1
 90
        0
176
     1
 62
    18
420
        0
176
     1
 90
       50
176
     1
 90
        3
176
     1
 62
     5
420
      255
176
     1
290
     0
176
     1
 90
       50
176
     1
 90
       50
176
     1
 90
       50
176
     1
290
     0
176
     1
 90
       50
176
     1
 62
   256
176
     0
 40
1.0
176
     0
 90
        2
176
     1
  1
strokes_ogs.tif
176
     1
290
     0
176
     1
 40
1.0
176
     1
 40
1.0
176
     1
  0
VISUALSTYLE
  5
F5683
102
{ACAD_REACTORS
330
F566D
102
}
330
F566D
100
AcDbVisualStyle
  2
X-Ray
 70
    25
177
     3
291
     0
 70
    58
 90
        2
176
     1
 90
        2
176
     1
 90
        1
176
     1
 90
        1
176
     1
 40
0.5
176
     1
 40
30.0
176
     1
 62
     7
420
 16777215
176
     1
 90
        1
176
     1
 90
        0
176
     1
 62
     7
176
     1
 62
   257
176
     1
 90
        1
176
     1
 90
        1
176
     1
 40
1.0
176
     1
 90
        8
176
     1
 62
     7
176
     1
 40
1.0
176
     1
 90
        1
176
     1
 90
        6
176
     1
 90
        2
176
     1
 62
     7
176
     1
 90
        3
176
     1
 90
        0
176
     1
 90
        0
176
     1
290
     0
176
     1
 90
       13
176
     1
 40
0.0
176
     1
 90
        0
176
     1
290
     0
176
     1
290
     1
176
     1
290
     1
176
     1
290
     0
176
     1
290
     0
176
     1
290
     0
176
     1
290
     0
176
     1
290
     0
176
     1
290
     0
176
     1
 90
       50
176
     1
 40
0.0
176
     1
 40
1.0
176
     1
 90
        0
176
     1
 62
    18
420
        0
176
     1
 90
       50
176
     1
 90
        3
176
     1
 62
     5
420
      255
176
     1
290
     0
176
     1
 90
       50
176
     1
 90
       50
176
     1
 90
       50
176
     1
290
     0
176
     1
 90
       50
176
     1
 62
   256
176
     0
 40
1.0
176
     0
 90
        2
176
     1
  1
strokes_ogs.tif
176
     1
290
     0
176
     1
 40
1.0
176
     1
 40
1.0
176
     1
  0
DICTIONARYVAR
  5
F568F
102
{ACAD_REACTORS
330
F568E
102
}
330
F568E
100
DictionaryVariables
280
     0
  1
1:1
  0
DICTIONARYVAR
  5
F5691
102
{ACAD_REACTORS
330
F568E
102
}
330
F568E
100
DictionaryVariables
280
     0
  1
Standard
  0
DICTIONARYVAR
  5
F5690
102
{ACAD_REACTORS
330
F568E
102
}
330
F568E
100
DictionaryVariables
280
     0
  1
Standard
  0
DICTIONARYVAR
  5
F5692
102
{ACAD_REACTORS
330
F568E
102
}
330
F568E
100
DictionaryVariables
280
     0
  1
0
  0
DICTIONARY
  5
F597A
330
F5687
100
AcDbDictionary
280
     1
281
     1
  3
ACAD_ROUNDTRIP_2008_TABLESTYLE_CELLSTYLEMAP
360
F597B
  0
CELLSTYLEMAP
  5
F597B
102
{ACAD_REACTORS
330
F597A
102
}
330
F597A
100
AcDbCellStyleMap
 90
        3
300
CELLSTYLE
  1
TABLEFORMAT_BEGIN
 90
        5
170
     1
 91
        0
 92
    32768
 62
   257
 93
        1
300
CONTENTFORMAT
  1
CONTENTFORMAT_BEGIN
 90
        0
 91
        0
 92
        4
 93
        0
300

 40
0.0
140
1.0
 94
        5
 62
     0
340
F5608
144
0.25
309
CONTENTFORMAT_END
171
     1
301
MARGIN
  1
CELLMARGIN_BEGIN
 40
0.06
 40
0.06
 40
0.06
 40
0.06
 40
0.06
 40
0.06
309
CELLMARGIN_END
 94
        6
 95
        1
302
GRIDFORMAT
  1
GRIDFORMAT_BEGIN
 90
        0
 91
        1
 62
     0
 92
       -2
340
F560A
 93
        0
 40
0.045
309
GRIDFORMAT_END
 95
        2
302
GRIDFORMAT
  1
GRIDFORMAT_BEGIN
 90
        0
 91
        1
 62
     0
 92
       -2
340
F560A
 93
        0
 40
0.045
309
GRIDFORMAT_END
 95
        4
302
GRIDFORMAT
  1
GRIDFORMAT_BEGIN
 90
        0
 91
        1
 62
     0
 92
       -2
340
F560A
 93
        0
 40
0.045
309
GRIDFORMAT_END
 95
        8
302
GRIDFORMAT
  1
GRIDFORMAT_BEGIN
 90
        0
 91
        1
 62
     0
 92
       -2
340
F560A
 93
        0
 40
0.045
309
GRIDFORMAT_END
 95
       16
302
GRIDFORMAT
  1
GRIDFORMAT_BEGIN
 90
        0
 91
        1
 62
     0
 92
       -2
340
F560A
 93
        0
 40
0.045
309
GRIDFORMAT_END
 95
       32
302
GRIDFORMAT
  1
GRIDFORMAT_BEGIN
 90
        0
 91
        1
 62
     0
 92
       -2
340
F560A
 93
        0
 40
0.045
309
GRIDFORMAT_END
309
TABLEFORMAT_END
  1
CELLSTYLE_BEGIN
 90
        1
 91
        1
300
_TITLE
309
CELLSTYLE_END
300
CELLSTYLE
  1
TABLEFORMAT_BEGIN
 90
        5
170
     1
 91
        0
 92
        0
 62
   257
 93
        1
300
CONTENTFORMAT
  1
CONTENTFORMAT_BEGIN
 90
        0
 91
        0
 92
        4
 93
        0
300

 40
0.0
140
1.0
 94
        5
 62
     0
340
F5608
144
0.18
309
CONTENTFORMAT_END
171
     1
301
MARGIN
  1
CELLMARGIN_BEGIN
 40
0.06
 40
0.06
 40
0.06
 40
0.06
 40
0.06
 40
0.06
309
CELLMARGIN_END
 94
        6
 95
        1
302
GRIDFORMAT
  1
GRIDFORMAT_BEGIN
 90
        0
 91
        1
 62
     0
 92
       -2
340
F560A
 93
        0
 40
0.045
309
GRIDFORMAT_END
 95
        2
302
GRIDFORMAT
  1
GRIDFORMAT_BEGIN
 90
        0
 91
        1
 62
     0
 92
       -2
340
F560A
 93
        0
 40
0.045
309
GRIDFORMAT_END
 95
        4
302
GRIDFORMAT
  1
GRIDFORMAT_BEGIN
 90
        0
 91
        1
 62
     0
 92
       -2
340
F560A
 93
        0
 40
0.045
309
GRIDFORMAT_END
 95
        8
302
GRIDFORMAT
  1
GRIDFORMAT_BEGIN
 90
        0
 91
        1
 62
     0
 92
       -2
340
F560A
 93
        0
 40
0.045
309
GRIDFORMAT_END
 95
       16
302
GRIDFORMAT
  1
GRIDFORMAT_BEGIN
 90
        0
 91
        1
 62
     0
 92
       -2
340
F560A
 93
        0
 40
0.045
309
GRIDFORMAT_END
 95
       32
302
GRIDFORMAT
  1
GRIDFORMAT_BEGIN
 90
        0
 91
        1
 62
     0
 92
       -2
340
F560A
 93
        0
 40
0.045
309
GRIDFORMAT_END
309
TABLEFORMAT_END
  1
CELLSTYLE_BEGIN
 90
        2
 91
        1
300
_HEADER
309
CELLSTYLE_END
300
CELLSTYLE
  1
TABLEFORMAT_BEGIN
 90
        5
170
     1
 91
        0
 92
        0
 62
   257
 93
        1
300
CONTENTFORMAT
  1
CONTENTFORMAT_BEGIN
 90
        0
 91
        0
 92
        4
 93
        0
300

 40
0.0
140
1.0
 94
        2
 62
     0
340
F5608
144
0.18
309
CONTENTFORMAT_END
171
     1
301
MARGIN
  1
CELLMARGIN_BEGIN
 40
0.06
 40
0.06
 40
0.06
 40
0.06
 40
0.06
 40
0.06
309
CELLMARGIN_END
 94
        6
 95
        1
302
GRIDFORMAT
  1
GRIDFORMAT_BEGIN
 90
        0
 91
        1
 62
     0
 92
       -2
340
F560A
 93
        0
 40
0.045
309
GRIDFORMAT_END
 95
        2
302
GRIDFORMAT
  1
GRIDFORMAT_BEGIN
 90
        0
 91
        1
 62
     0
 92
       -2
340
F560A
 93
        0
 40
0.045
309
GRIDFORMAT_END
 95
        4
302
GRIDFORMAT
  1
GRIDFORMAT_BEGIN
 90
        0
 91
        1
 62
     0
 92
       -2
340
F560A
 93
        0
 40
0.045
309
GRIDFORMAT_END
 95
        8
302
GRIDFORMAT
  1
GRIDFORMAT_BEGIN
 90
        0
 91
        1
 62
     0
 92
       -2
340
F560A
 93
        0
 40
0.045
309
GRIDFORMAT_END
 95
       16
302
GRIDFORMAT
  1
GRIDFORMAT_BEGIN
 90
        0
 91
        1
 62
     0
 92
       -2
340
F560A
 93
        0
 40
0.045
309
GRIDFORMAT_END
 95
       32
302
GRIDFORMAT
  1
GRIDFORMAT_BEGIN
 90
        0
 91
        1
 62
     0
 92
       -2
340
F560A
 93
        0
 40
0.045
309
GRIDFORMAT_END
309
TABLEFORMAT_END
  1
CELLSTYLE_BEGIN
 90
        3
 91
        2
300
_DATA
309
CELLSTYLE_END
  0
ENDSEC
  0
EOF
