  0
SECTION
  2
HEADER
  9
$ACADVER
  1
AC1032
  9
$ACADMAINTVER
 90
       55
  9
$DWGCODEPAGE
  3
ANSI_1252
  9
$LASTSAVEDBY
  1
ucom07
  9
$REQUIREDVERSIONS
160
                 0
  9
$INSBASE
 10
0.0
 20
0.0
 30
0.0
  9
$EXTMIN
 10
-0.0000000000145519
 20
-3000.0
 30
0.0
  9
$EXTMAX
 10
22190.92367485948
 20
24052.89687195065
 30
0.0
  9
$LIMMIN
 10
0.0
 20
0.0
  9
$LIMMAX
 10
12.0
 20
9.0
  9
$ORTHOMODE
 70
     1
  9
$REGENMODE
 70
     1
  9
$FILLMODE
 70
     1
  9
$QTEXTMODE
 70
     0
  9
$MIRRTEXT
 70
     0
  9
$LTSCALE
 40
1.0
  9
$ATTMODE
 70
     1
  9
$TEXTSIZE
 40
0.2
  9
$TRACEWID
 40
0.05
  9
$TEXTSTYLE
  7
STANDARD
  9
$CLAYER
  8
0
  9
$CELTYPE
  6
ByLayer
  9
$CECOLOR
 62
   256
  9
$CELTSCALE
 40
1.0
  9
$DISPSILH
 70
     0
  9
$DIMSCALE
 40
1.0
  9
$DIMASZ
 40
0.18
  9
$DIMEXO
 40
0.0625
  9
$DIMDLI
 40
0.38
  9
$DIMRND
 40
0.0
  9
$DIMDLE
 40
0.0
  9
$DIMEXE
 40
0.18
  9
$DIMTP
 40
0.0
  9
$DIMTM
 40
0.0
  9
$DIMTXT
 40
0.18
  9
$DIMCEN
 40
0.09
  9
$DIMTSZ
 40
0.0
  9
$DIMTOL
 70
     0
  9
$DIMLIM
 70
     0
  9
$DIMTIH
 70
     1
  9
$DIMTOH
 70
     1
  9
$DIMSE1
 70
     0
  9
$DIMSE2
 70
     0
  9
$DIMTAD
 70
     0
  9
$DIMZIN
 70
     0
  9
$DIMBLK
  1

  9
$DIMASO
 70
     1
  9
$DIMSHO
 70
     1
  9
$DIMPOST
  1

  9
$DIMAPOST
  1

  9
$DIMALT
 70
     0
  9
$DIMALTD
 70
     2
  9
$DIMALTF
 40
25.4
  9
$DIMLFAC
 40
1.0
  9
$DIMTOFL
 70
     0
  9
$DIMTVP
 40
0.0
  9
$DIMTIX
 70
     0
  9
$DIMSOXD
 70
     0
  9
$DIMSAH
 70
     0
  9
$DIMBLK1
  1

  9
$DIMBLK2
  1

  9
$DIMSTYLE
  2
STANDARD
  9
$DIMCLRD
 70
     0
  9
$DIMCLRE
 70
     0
  9
$DIMCLRT
 70
     0
  9
$DIMTFAC
 40
1.0
  9
$DIMGAP
 40
0.09
  9
$DIMJUST
 70
     0
  9
$DIMSD1
 70
     0
  9
$DIMSD2
 70
     0
  9
$DIMTOLJ
 70
     1
  9
$DIMTZIN
 70
     0
  9
$DIMALTZ
 70
     0
  9
$DIMALTTZ
 70
     0
  9
$DIMUPT
 70
     0
  9
$DIMDEC
 70
     4
  9
$DIMTDEC
 70
     4
  9
$DIMALTU
 70
     2
  9
$DIMALTTD
 70
     2
  9
$DIMTXSTY
  7
STANDARD
  9
$DIMAUNIT
 70
     0
  9
$DIMADEC
 70
     0
  9
$DIMALTRND
 40
0.0
  9
$DIMAZIN
 70
     0
  9
$DIMDSEP
 70
    46
  9
$DIMATFIT
 70
     3
  9
$DIMFRAC
 70
     0
  9
$DIMLDRBLK
  1

  9
$DIMLUNIT
 70
     2
  9
$DIMLWD
 70
    -2
  9
$DIMLWE
 70
    -2
  9
$DIMTMOVE
 70
     2
  9
$DIMFXL
 40
1.0
  9
$DIMFXLON
 70
     0
  9
$DIMJOGANG
 40
0.7853981633974483
  9
$DIMTFILL
 70
     0
  9
$DIMTFILLCLR
 70
     0
  9
$DIMARCSYM
 70
     0
  9
$DIMLTYPE
  6

  9
$DIMLTEX1
  6

  9
$DIMLTEX2
  6

  9
$DIMTXTDIRECTION
 70
     0
  9
$LUNITS
 70
     2
  9
$LUPREC
 70
     4
  9
$SKETCHINC
 40
0.1
  9
$FILLETRAD
 40
0.0
  9
$AUNITS
 70
     0
  9
$AUPREC
 70
     0
  9
$MENU
  1
.
  9
$ELEVATION
 40
0.0
  9
$PELEVATION
 40
0.0
  9
$THICKNESS
 40
0.0
  9
$LIMCHECK
 70
     0
  9
$CHAMFERA
 40
0.0
  9
$CHAMFERB
 40
0.0
  9
$CHAMFERC
 40
0.0
  9
$CHAMFERD
 40
0.0
  9
$SKPOLY
 70
     0
  9
$TDCREATE
 40
2457352.652196898
  9
$TDUCREATE
 40
2457352.568863565
  9
$TDUPDATE
 40
2460453.412408148
  9
$TDUUPDATE
 40
2460453.329074815
  9
$TDINDWG
 40
1.1066327546
  9
$TDUSRTIMER
 40
0.0035798727
  9
$USRTIMER
 70
     1
  9
$ANGBASE
 50
0.0
  9
$ANGDIR
 70
     0
  9
$PDMODE
 70
     0
  9
$PDSIZE
 40
0.0
  9
$PLINEWID
 40
0.0
  9
$SPLFRAME
 70
     0
  9
$SPLINETYPE
 70
     6
  9
$SPLINESEGS
 70
     8
  9
$HANDSEED
  5
8A439
  9
$SURFTAB1
 70
     6
  9
$SURFTAB2
 70
     6
  9
$SURFTYPE
 70
     6
  9
$SURFU
 70
     6
  9
$SURFV
 70
     6
  9
$UCSBASE
  2

  9
$UCSNAME
  2

  9
$UCSORG
 10
0.0
 20
0.0
 30
0.0
  9
$UCSXDIR
 10
1.0
 20
0.0
 30
0.0
  9
$UCSYDIR
 10
0.0
 20
1.0
 30
0.0
  9
$UCSORTHOREF
  2

  9
$UCSORTHOVIEW
 70
     0
  9
$UCSORGTOP
 10
0.0
 20
0.0
 30
0.0
  9
$UCSORGBOTTOM
 10
0.0
 20
0.0
 30
0.0
  9
$UCSORGLEFT
 10
0.0
 20
0.0
 30
0.0
  9
$UCSORGRIGHT
 10
0.0
 20
0.0
 30
0.0
  9
$UCSORGFRONT
 10
0.0
 20
0.0
 30
0.0
  9
$UCSORGBACK
 10
0.0
 20
0.0
 30
0.0
  9
$PUCSBASE
  2

  9
$PUCSNAME
  2

  9
$PUCSORG
 10
0.0
 20
0.0
 30
0.0
  9
$PUCSXDIR
 10
1.0
 20
0.0
 30
0.0
  9
$PUCSYDIR
 10
0.0
 20
1.0
 30
0.0
  9
$PUCSORTHOREF
  2

  9
$PUCSORTHOVIEW
 70
     0
  9
$PUCSORGTOP
 10
0.0
 20
0.0
 30
0.0
  9
$PUCSORGBOTTOM
 10
0.0
 20
0.0
 30
0.0
  9
$PUCSORGLEFT
 10
0.0
 20
0.0
 30
0.0
  9
$PUCSORGRIGHT
 10
0.0
 20
0.0
 30
0.0
  9
$PUCSORGFRONT
 10
0.0
 20
0.0
 30
0.0
  9
$PUCSORGBACK
 10
0.0
 20
0.0
 30
0.0
  9
$USERI1
 70
     0
  9
$USERI2
 70
     0
  9
$USERI3
 70
     0
  9
$USERI4
 70
     0
  9
$USERI5
 70
     0
  9
$USERR1
 40
0.0
  9
$USERR2
 40
0.0
  9
$USERR3
 40
0.0
  9
$USERR4
 40
0.0
  9
$USERR5
 40
0.0
  9
$WORLDVIEW
 70
     1
  9
$SHADEDGE
 70
     3
  9
$SHADEDIF
 70
    70
  9
$TILEMODE
 70
     1
  9
$MAXACTVP
 70
    64
  9
$PINSBASE
 10
0.0
 20
0.0
 30
0.0
  9
$PLIMCHECK
 70
     0
  9
$PEXTMIN
 10
0.0
 20
0.0
 30
0.0
  9
$PEXTMAX
 10
0.0
 20
0.0
 30
0.0
  9
$PLIMMIN
 10
0.0
 20
0.0
  9
$PLIMMAX
 10
0.0
 20
0.0
  9
$UNITMODE
 70
     0
  9
$VISRETAIN
 70
     1
  9
$PLINEGEN
 70
     0
  9
$PSLTSCALE
 70
     1
  9
$TREEDEPTH
 70
  3020
  9
$CMLSTYLE
  2
Standard
  9
$CMLJUST
 70
     0
  9
$CMLSCALE
 40
1.0
  9
$PROXYGRAPHICS
 70
     1
  9
$MEASUREMENT
 70
     0
  9
$CELWEIGHT
370
    -1
  9
$ENDCAPS
280
     0
  9
$JOINSTYLE
280
     0
  9
$LWDISPLAY
290
     0
  9
$INSUNITS
 70
     0
  9
$HYPERLINKBASE
  1

  9
$STYLESHEET
  1

  9
$XEDIT
290
     1
  9
$CEPSNTYPE
380
     0
  9
$PSTYLEMODE
290
     1
  9
$FINGERPRINTGUID
  2
{47810207-c380-4a4b-a343-f8e9fc161739}
  9
$VERSIONGUID
  2
{FAEB1C32-E019-11D5-929B-00C0DF256EC4}
  9
$EXTNAMES
290
     1
  9
$PSVPSCALE
 40
0.0
  9
$OLESTARTUP
290
     0
  9
$SORTENTS
280
   127
  9
$INDEXCTL
280
     0
  9
$HIDETEXT
280
     1
  9
$XCLIPFRAME
280
     2
  9
$HALOGAP
280
     0
  9
$OBSCOLOR
 70
   257
  9
$OBSLTYPE
280
     0
  9
$INTERSECTIONDISPLAY
280
     0
  9
$INTERSECTIONCOLOR
 70
   257
  9
$DIMASSOC
280
     2
  9
$PROJECTNAME
  1

  9
$CAMERADISPLAY
290
     0
  9
$LENSLENGTH
 40
50.0
  9
$CAMERAHEIGHT
 40
0.0
  9
$STEPSPERSEC
 40
2.0
  9
$STEPSIZE
 40
6.0
  9
$3DDWFPREC
 40
2.0
  9
$PSOLWIDTH
 40
0.25
  9
$PSOLHEIGHT
 40
4.0
  9
$LOFTANG1
 40
1.570796326794897
  9
$LOFTANG2
 40
1.570796326794897
  9
$LOFTMAG1
 40
0.0
  9
$LOFTMAG2
 40
0.0
  9
$LOFTPARAM
 70
     7
  9
$LOFTNORMALS
280
     1
  9
$LATITUDE
 40
37.795
  9
$LONGITUDE
 40
-122.394
  9
$NORTHDIRECTION
 40
0.0
  9
$TIMEZONE
 70
 -8000
  9
$LIGHTGLYPHDISPLAY
280
     1
  9
$TILEMODELIGHTSYNCH
280
     1
  9
$SOLIDHIST
280
     0
  9
$SHOWHIST
280
     1
  9
$DWFFRAME
280
     2
  9
$DGNFRAME
280
     2
  9
$REALWORLDSCALE
290
     1
  9
$INTERFERECOLOR
 62
   256
  9
$CSHADOW
280
     0
  9
$SHADOWPLANELOCATION
 40
0.0
  0
ENDSEC
  0
SECTION
  2
CLASSES
  0
CLASS
  1
ACDBDICTIONARYWDFLT
  2
AcDbDictionaryWithDefault
  3
ObjectDBX Classes
 90
        0
 91
        3
280
     0
281
     0
  0
CLASS
  1
MATERIAL
  2
AcDbMaterial
  3
ObjectDBX Classes
 90
     1153
 91
        3
280
     0
281
     0
  0
CLASS
  1
SCALE
  2
AcDbScale
  3
ObjectDBX Classes
 90
     1153
 91
        3
280
     0
281
     0
  0
CLASS
  1
VISUALSTYLE
  2
AcDbVisualStyle
  3
ObjectDBX Classes
 90
     4095
 91
        3
280
     0
281
     0
  0
CLASS
  1
TABLESTYLE
  2
AcDbTableStyle
  3
ObjectDBX Classes
 90
     4095
 91
        3
280
     0
281
     0
  0
CLASS
  1
MLEADERSTYLE
  2
AcDbMLeaderStyle
  3
ACDB_MLEADERSTYLE_CLASS
 90
     4095
 91
        3
280
     0
281
     0
  0
CLASS
  1
DICTIONARYVAR
  2
AcDbDictionaryVar
  3
ObjectDBX Classes
 90
        0
 91
        3
280
     0
281
     0
  0
CLASS
  1
CELLSTYLEMAP
  2
AcDbCellStyleMap
  3
ObjectDBX Classes
 90
     1152
 91
        3
280
     0
281
     0
  0
CLASS
  1
SUN
  2
AcDbSun
  3
SCENEOE
 90
     1153
 91
        3
280
     0
281
     0
  0
CLASS
  1
SORTENTSTABLE
  2
AcDbSortentsTable
  3
ObjectDBX Classes
 90
        0
 91
        3
280
     0
281
     0
  0
CLASS
  1
DIMASSOC
  2
AcDbDimAssoc
  3
"AcDbDimAssoc|Product Desc:     AcDim ARX App For Dimension|Company:          Autodesk, Inc.|WEB Address:      www.autodesk.com"
 90
        0
 91
        3
280
     0
281
     0
  0
CLASS
  1
BREAKDATA
  2
AcDbBreakData
  3
ObjectDBX Classes
 90
     1024
 91
        3
280
     0
281
     0
  0
ENDSEC
  0
SECTION
  2
TABLES
  0
TABLE
  2
VPORT
  5
897E0
330
0
100
AcDbSymbolTable
 70
     1
  0
VPORT
  5
897F7
330
897E0
100
AcDbSymbolTableRecord
100
AcDbViewportTableRecord
  2
*ACTIVE
 70
     0
 10
0.0
 20
0.0
 11
1.0
 21
1.0
 12
11095.46183742973
 22
10526.44843597533
 13
0.0
 23
0.0
 14
0.5
 24
0.5
 15
0.5
 25
0.5
 16
0.0
 26
0.0
 36
1.0
 17
0.0
 27
0.0
 37
0.0
 40
27593.95480938967
 41
1.944065484311051
 42
50.0
 43
0.0
 44
0.0
 50
0.0
 51
0.0
 71
    16
 72
  1000
 73
     1
 74
     3
 75
     0
 76
     0
 77
     0
 78
     0
281
     0
 65
     0
110
0.0
120
0.0
130
0.0
111
1.0
121
0.0
131
0.0
112
0.0
122
1.0
132
0.0
 79
     0
146
0.0
348
898E0
 60
     3
 61
     5
292
     1
282
     1
141
0.0
142
0.0
 63
   256
361
89903
  0
ENDTAB
  0
TABLE
  2
LTYPE
  5
897DD
330
0
100
AcDbSymbolTable
 70
     1
  0
LTYPE
  5
897EB
330
897DD
100
AcDbSymbolTableRecord
100
AcDbLinetypeTableRecord
  2
ByBlock
 70
     0
  3

 72
    65
 73
     0
 40
0.0
  0
LTYPE
  5
897EC
330
897DD
100
AcDbSymbolTableRecord
100
AcDbLinetypeTableRecord
  2
ByLayer
 70
     0
  3

 72
    65
 73
     0
 40
0.0
  0
LTYPE
  5
897ED
330
897DD
100
AcDbSymbolTableRecord
100
AcDbLinetypeTableRecord
  2
CONTINUOUS
 70
     0
  3
Solid line
 72
    65
 73
     0
 40
0.0
  0
ENDTAB
  0
TABLE
  2
LAYER
  5
897DB
102
{ACAD_XDICTIONARY
360
89C27
102
}
330
0
100
AcDbSymbolTable
 70
     1
  0
LAYER
  5
897E8
330
897DB
100
AcDbSymbolTableRecord
100
AcDbLayerTableRecord
  2
0
 70
     0
 62
     7
  6
CONTINUOUS
370
    -3
390
897E7
347
897FE
348
0
  0
ENDTAB
  0
TABLE
  2
STYLE
  5
897DC
330
0
100
AcDbSymbolTable
 70
     2
  0
STYLE
  5
897E9
330
897DC
100
AcDbSymbolTableRecord
100
AcDbTextStyleTableRecord
  2
STANDARD
 70
     0
 40
0.0
 41
1.0
 50
0.0
 71
     0
 42
0.2
  3
txt
  4

  0
STYLE
  5
89805
330
897DC
100
AcDbSymbolTableRecord
100
AcDbTextStyleTableRecord
  2
STILE1
 70
     0
 40
0.0
 41
1.0
 50
0.0
 71
     0
 42
19.0
  3
ROMANS.SHX
  4

  0
ENDTAB
  0
TABLE
  2
VIEW
  5
897DE
330
0
100
AcDbSymbolTable
 70
     0
  0
ENDTAB
  0
TABLE
  2
UCS
  5
897DF
330
0
100
AcDbSymbolTable
 70
     0
  0
ENDTAB
  0
TABLE
  2
APPID
  5
897E1
330
0
100
AcDbSymbolTable
 70
    11
  0
APPID
  5
897EA
330
897E1
100
AcDbSymbolTableRecord
100
AcDbRegAppTableRecord
  2
ACAD
 70
     0
  0
APPID
  5
89808
330
897E1
100
AcDbSymbolTableRecord
100
AcDbRegAppTableRecord
  2
DCO15
 70
     0
  0
APPID
  5
89809
330
897E1
100
AcDbSymbolTableRecord
100
AcDbRegAppTableRecord
  2
ACAECLAYERSTANDARD
 70
     0
  0
APPID
  5
8980A
330
897E1
100
AcDbSymbolTableRecord
100
AcDbRegAppTableRecord
  2
ACAD_DSTYLE_DIMRADIAL_EXTE
 70
     0
  0
APPID
  5
8980B
330
897E1
100
AcDbSymbolTableRecord
100
AcDbRegAppTableRecord
  2
ACLAYERTOOLS
 70
     0
  0
APPID
  5
8980C
330
897E1
100
AcDbSymbolTableRecord
100
AcDbRegAppTableRecord
  2
HATCHBACKGROUNDCOLOR
 70
     0
  0
APPID
  5
8980D
330
897E1
100
AcDbSymbolTableRecord
100
AcDbRegAppTableRecord
  2
PE_URL
 70
     0
  0
APPID
  5
89AF2
330
897E1
100
AcDbSymbolTableRecord
100
AcDbRegAppTableRecord
  2
ACAD_PSEXT
 70
     0
  0
APPID
  5
89AF3
330
897E1
100
AcDbSymbolTableRecord
100
AcDbRegAppTableRecord
  2
ACAD_NAV_VCDISPLAY
 70
     0
  0
APPID
  5
8A2B6
330
897E1
100
AcDbSymbolTableRecord
100
AcDbRegAppTableRecord
  2
ENABLE_CUSTOM_SPLIT
 70
     0
  0
APPID
  5
8A2B8
330
897E1
100
AcDbSymbolTableRecord
100
AcDbRegAppTableRecord
  2
FX_DIMP_FAV_VERSION
 70
     0
  0
ENDTAB
  0
TABLE
  2
DIMSTYLE
  5
897E2
330
0
100
AcDbSymbolTable
 70
     1
100
AcDbDimStyleTable
  0
DIMSTYLE
105
8980E
330
897E2
100
AcDbSymbolTableRecord
100
AcDbDimStyleTableRecord
  2
STANDARD
 70
     0
178
     0
340
897E9
  0
ENDTAB
  0
TABLE
  2
BLOCK_RECORD
  5
897DA
330
0
100
AcDbSymbolTable
 70
     0
  0
BLOCK_RECORD
  5
897F4
102
{ACAD_XDICTIONARY
360
89F5A
102
}
330
897DA
100
AcDbSymbolTableRecord
100
AcDbBlockTableRecord
  2
*Model_Space
340
897F5
 70
     0
280
     1
281
     0
  0
BLOCK_RECORD
  5
897F2
330
897DA
100
AcDbSymbolTableRecord
100
AcDbBlockTableRecord
  2
*Paper_Space
340
897F3
 70
     0
280
     1
281
     0
  0
ENDTAB
  0
ENDSEC
  0
SECTION
  2
BLOCKS
  0
BLOCK
  5
89815
330
897F4
100
AcDbEntity
  8
0
100
AcDbBlockBegin
  2
*Model_Space
 70
     0
 10
0.0
 20
0.0
 30
0.0
  3
*Model_Space
  1

  0
ENDBLK
  5
81298
330
897F4
100
AcDbEntity
  8
0
100
AcDbBlockEnd
  0
BLOCK
  5
89816
330
897F2
100
AcDbEntity
 67
     1
  8
0
100
AcDbBlockBegin
  2
*Paper_Space
 70
     0
 10
0.0
 20
0.0
 30
0.0
  3
*Paper_Space
  1

  0
ENDBLK
  5
81294
330
897F2
100
AcDbEntity
 67
     1
  8
0
100
AcDbBlockEnd
  0
ENDSEC
  0
SECTION
  2
ENTITIES
  0
TEXT
  5
13CA
330
897F4
100
AcDbEntity
  8
0
100
AcDbText
 10
3173.906836621406
 20
-2567.752003269268
 30
0.0
 40
125.0
  1
Questo disegno è di proprietà di Fantin S.r.l.   
  7
STILE1
 72
     1
 11
5596.525884240453
 21
-2567.752003269268
 31
0.0
100
AcDbText
  0
TEXT
  5
13CB
330
897F4
100
AcDbEntity
  8
0
100
AcDbText
 10
3418.608701111533
 20
-2221.267769596467
 30
0.0
 40
125.0
  1
Frame Beds & Accessories
  7
STILE1
 72
     1
 11
4739.851260635342
 21
-2221.267769596467
 31
0.0
100
AcDbText
  0
LWPOLYLINE
  5
13CC
330
897F4
100
AcDbEntity
  8
0
100
AcDbPolyline
 90
       15
 70
     0
 43
0.0
 10
2006.841552732509
 20
-2700.0
 10
2006.841552732509
 20
-2312.338907876984
 10
2108.19109429605
 20
-2312.338907876984
 42
-0.316444976687396
 10
2159.138888884334
 20
-2340.583523220848
 10
2259.932047529143
 20
-2510.602430555737
 10
2262.700181747784
 20
-2510.602430555737
 10
2262.700181747784
 20
-2312.338907876984
 10
2375.123982746151
 20
-2312.338907876984
 10
2375.123982746151
 20
-2700.0
 10
2292.601888021451
 20
-2700.0
 42
-0.312959769389874
 10
2241.654093428512
 20
-2671.757107204758
 10
2122.03348795883
 20
-2478.480360242539
 10
2119.268798828122
 20
-2478.480360242539
 10
2119.268798828122
 20
-2700.0
 10
2006.841552732509
 20
-2700.0
  0
LWPOLYLINE
  5
13CD
330
897F4
100
AcDbEntity
  8
0
100
AcDbPolyline
 90
       15
 70
     0
 43
0.0
 10
1030.479098847133
 20
-2700.0
 10
1030.479098847133
 20
-2312.338907876984
 10
1131.828640410672
 20
-2312.338907876984
 42
-0.316444976687396
 10
1182.776435003613
 20
-2340.583523220848
 10
1283.569593643765
 20
-2510.602430555737
 10
1286.337727867063
 20
-2510.602430555737
 10
1286.337727867063
 20
-2312.338907876984
 10
1398.761528860774
 20
-2312.338907876984
 10
1398.761528860774
 20
-2700.0
 10
1316.239434136075
 20
-2700.0
 42
-0.312959769389874
 10
1265.291639538477
 20
-2671.757107204758
 10
1145.671034073454
 20
-2478.480360242539
 10
1142.906344942745
 20
-2478.480360242539
 10
1142.906344942745
 20
-2700.0
 10
1030.479098847133
 20
-2700.0
  0
LWPOLYLINE
  5
13CE
330
897F4
100
AcDbEntity
  8
0
100
AcDbPolyline
 90
        9
 70
     0
 43
0.0
 10
1783.103271485303
 20
-2312.340630425606
 10
1783.103271485303
 20
-2403.163682725281
 10
1666.807183162307
 20
-2403.163682725281
 10
1666.807183162307
 20
-2700.0
 10
1547.737792972472
 20
-2700.0
 10
1547.737792972472
 20
-2403.163682725281
 10
1434.204671224576
 20
-2403.163682725281
 10
1434.204671224576
 20
-2312.340630425606
 10
1783.103271485303
 20
-2312.340630425606
  0
LWPOLYLINE
  5
13CF
330
897F4
100
AcDbEntity
  8
0
100
AcDbPolyline
 90
        4
 70
     1
 43
0.0
 10
1820.206949869168
 20
-2312.340630425606
 10
1939.276340059002
 20
-2312.340630425606
 10
1939.276340059002
 20
-2700.0
 10
1820.206949869168
 20
-2700.0
  0
LWPOLYLINE
  5
13D0
330
897F4
100
AcDbEntity
  8
0
100
AcDbPolyline
 90
       11
 70
     0
 43
0.0
 10
605.1458875834904
 20
-2312.342352973064
 10
605.1458875834904
 20
-2401.503146700561
 10
419.0693901898304
 20
-2401.503146700561
 10
419.0693901898304
 20
-2478.47863769508
 10
549.213039819148
 20
-2478.47863769508
 10
549.213039819148
 20
-2561.551947699627
 10
419.0693901898304
 20
-2561.551947699627
 10
419.0693901898304
 20
-2700.0
 10
299.9999999999968
 20
-2700.0
 10
299.9999999999968
 20
-2312.342352973064
 10
605.1458875834904
 20
-2312.342352973064
  0
LWPOLYLINE
  5
13D1
330
897F4
100
AcDbEntity
  8
0
100
AcDbPolyline
 90
        5
 70
     0
 43
0.0
 10
791.2309977225921
 20
-2419.221272786381
 10
824.4589436845808
 20
-2533.309054904385
 10
751.9104003906209
 20
-2533.309054904385
 10
785.1383463572669
 20
-2419.221272786381
 10
791.2309977225921
 20
-2419.221272786381
  0
LWPOLYLINE
  5
13D2
330
897F4
100
AcDbEntity
  8
0
100
AcDbPolyline
 90
       16
 70
     1
 43
0.0
 10
847.7226611692406
 20
-2616.377197265392
 10
847.7226611692406
 20
-2616.377197265392
 10
872.0839436817876
 20
-2700.0
 10
997.80064561404
 20
-2700.0
 10
880.3917914489252
 20
-2347.225667317398
 42
0.1089385125692126
 10
867.6499316329099
 20
-2319.554529597517
 42
0.1589313772246072
 10
855.6541064428129
 20
-2312.269657640718
 42
0.058673645385263
 10
839.4089355459415
 20
-2310.678371853428
 10
839.4089355459415
 20
-2310.678371853428
 10
744.1606580931663
 20
-2310.678371853428
 42
0.058673645385263
 10
727.9154871962916
 20
-2312.269657640718
 42
0.1589313772246072
 10
715.9196620061953
 20
-2319.554529597517
 42
0.1089385125692126
 10
703.1778021901818
 20
-2347.225667317398
 10
585.7689480297228
 20
-2700.0
 10
704.8348931223122
 20
-2700.0
 10
728.6473931185869
 20
-2616.377197265392
  0
TEXT
  5
13D3
330
897F4
100
AcDbEntity
  8
0
100
AcDbText
 10
3484.840736835662
 20
-2829.836209557483
 30
0.0
 40
125.0
  1
This drawing is property of Fantin S.r.l. 
  7
STILE1
 72
     1
 11
5499.721689216614
 21
-2829.836209557483
 31
0.0
100
AcDbText
  0
LWPOLYLINE
  5
13D4
330
897F4
100
AcDbEntity
  8
0
100
AcDbPolyline
 90
        2
 70
     0
 43
0.0
 10
2675.123982746151
 20
-2312.338907876984
 10
8025.37194823846
 20
-2312.338907876983
  0
LWPOLYLINE
  5
13D5
330
897F4
100
AcDbEntity
  8
0
100
AcDbPolyline
 90
        4
 70
     1
 43
0.0
 10
-0.0000000000031832
 20
-2012.342352973064
 10
8025.37194823846
 20
-2012.342352973064
 10
8025.37194823846
 20
-3000.0
 10
-0.0000000000031832
 20
-3000.0
  0
LINE
  5
13D6
330
897F4
100
AcDbEntity
  8
0
100
AcDbLine
 10
2675.123982746151
 20
-2012.342352973064
 30
0.0
 11
2675.123982746151
 21
-3000.0
 31
0.0
  0
LINE
  5
13D7
330
897F4
100
AcDbEntity
  8
0
100
AcDbLine
 10
6747.493701050595
 20
-2312.338907876984
 30
0.0
 11
6747.493701050595
 21
-2012.342352973064
 31
0.0
  0
TEXT
  5
13D8
330
897F4
100
AcDbEntity
  8
0
100
AcDbText
 10
6924.416716516008
 20
-2221.267769596467
 30
0.0
 40
125.0
  1
2024-06
  7
STILE1
 72
     1
 11
7359.312549849341
 21
-2221.267769596467
 31
0.0
100
AcDbText
  0
LINE
  5
13D9
330
897F4
100
AcDbEntity
  8
0
100
AcDbLine
 10
8025.37194823846
 20
-2012.342352973064
 30
0.0
 11
8025.37194823846
 21
-3000.0
 31
0.0
  0
LWPOLYLINE
  5
532B4
330
897F4
100
AcDbEntity
  8
0
100
AcDbPolyline
 90
        2
 70
     0
 43
0.0
 10
0.0000000000077307
 20
20950.9563482846
 10
0.0000000000077307
 20
20467.63739561667
  0
TEXT
  5
560EB
330
897F4
100
AcDbEntity
  8
0
100
AcDbText
 10
32110.59474111392
 20
10168.618969215
 30
0.0
 40
100.0
  1

  7
STILE1
100
AcDbText
  0
LWPOLYLINE
  5
6820E
330
897F4
100
AcDbEntity
  8
0
100
AcDbPolyline
 90
        4
 70
     1
 43
0.0
 10
-0.0000000000086402
 20
24052.89687195065
 10
22190.92367485948
 20
24052.89687195065
 10
22190.92367485948
 20
8698.982167156484
 10
-0.0000000000163709
 20
8698.98216715649
  0
LWPOLYLINE
  5
825B4
330
897F4
100
AcDbEntity
  8
0
100
AcDbPolyline
 90
        4
 70
     1
 43
0.0
 10
0.0
 20
8144.945525098043
 10
22190.92367485948
 20
8144.945525098041
 10
22190.92367485948
 20
-1458.305710914622
 10
-0.0000000000031832
 20
-1458.30571091462
  0
LWPOLYLINE
  5
89941
330
897F4
100
AcDbEntity
  8
0
100
AcDbPolyline
 90
        4
 70
     1
 43
0.0
 10
820.000002396046
 20
23242.57791928271
 10
820.000002396046
 20
23277.57791928271
 10
1805.000002396047
 20
23277.57791928271
 10
1805.000002396047
 20
23242.57791928271
  0
LWPOLYLINE
  5
89942
330
897F4
100
AcDbEntity
  8
0
100
AcDbPolyline
 90
        4
 70
     1
 43
0.0
 10
820.0000023960533
 20
21172.57791928271
 10
820.0000023960533
 20
21207.57791928271
 10
1805.000002396054
 20
21207.57791928271
 10
1805.000002396054
 20
21172.57791928271
  0
LWPOLYLINE
  5
89943
330
897F4
100
AcDbEntity
  8
0
100
AcDbPolyline
 90
        4
 70
     1
 43
0.0
 10
820.000002396046
 20
23242.57791928271
 10
820.000002396046
 20
21207.57791928271
 10
855.000002396046
 20
21207.57791928271
 10
855.000002396046
 20
23242.57791928271
  0
LWPOLYLINE
  5
89944
330
897F4
100
AcDbEntity
  8
0
100
AcDbPolyline
 90
        4
 70
     1
 43
0.0
 10
1805.000002396049
 20
23242.5779192827
 10
1805.000002396014
 20
21207.5779192827
 10
1770.000002396014
 20
21207.5779192827
 10
1770.000002396049
 20
23242.5779192827
  0
LWPOLYLINE
  5
89955
330
897F4
100
AcDbEntity
  8
0
100
AcDbPolyline
 90
        4
 70
     0
 43
0.0
 10
855.000002396046
 20
23242.57791928271
 10
905.000002396046
 20
23192.57791928271
 10
1720.000002396047
 20
23192.57791928271
 10
1770.000002396047
 20
23242.57791928271
  0
LWPOLYLINE
  5
89963
330
897F4
100
AcDbEntity
  8
0
100
AcDbPolyline
 90
        4
 70
     0
 43
0.0
 10
855.000002396046
 20
21207.57791928271
 10
905.000002396046
 20
21257.57791928271
 10
1720.000002396047
 20
21257.57791928271
 10
1770.000002396047
 20
21207.57791928271
  0
LINE
  5
89964
330
897F4
100
AcDbEntity
  8
0
100
AcDbLine
 10
905.000002396046
 20
23192.57791928271
 30
0.0
 11
905.000002396046
 21
21257.57791928271
 31
0.0
  0
LINE
  5
89965
330
897F4
100
AcDbEntity
  8
0
100
AcDbLine
 10
1720.000002396047
 20
23192.57791928271
 30
0.0
 11
1720.000002396047
 21
21257.57791928271
 31
0.0
  0
LWPOLYLINE
  5
89966
330
897F4
100
AcDbEntity
  8
0
100
AcDbPolyline
 90
        4
 70
     1
 43
0.0
 10
9236.584465887812
 20
23242.57791928271
 10
9236.584465887812
 20
23277.57791928271
 10
10921.58446588781
 20
23277.57791928271
 10
10921.58446588781
 20
23242.57791928271
  0
LWPOLYLINE
  5
89967
330
897F4
100
AcDbEntity
  8
0
100
AcDbPolyline
 90
        4
 70
     1
 43
0.0
 10
9236.58446588782
 20
21172.57791928271
 10
9236.58446588782
 20
21207.57791928271
 10
10921.58446588782
 20
21207.57791928271
 10
10921.58446588782
 20
21172.57791928271
  0
LWPOLYLINE
  5
89968
330
897F4
100
AcDbEntity
  8
0
100
AcDbPolyline
 90
        4
 70
     1
 43
0.0
 10
9236.584465887812
 20
23242.57791928271
 10
9236.584465887812
 20
21207.57791928271
 10
9271.584465887812
 20
21207.57791928271
 10
9271.584465887812
 20
23242.57791928271
  0
LWPOLYLINE
  5
89969
330
897F4
100
AcDbEntity
  8
0
100
AcDbPolyline
 90
        4
 70
     1
 43
0.0
 10
10921.58446588782
 20
23242.5779192827
 10
10921.58446588778
 20
21207.5779192827
 10
10886.58446588778
 20
21207.5779192827
 10
10886.58446588782
 20
23242.5779192827
  0
LWPOLYLINE
  5
8996B
330
897F4
100
AcDbEntity
  8
0
100
AcDbPolyline
 90
        4
 70
     0
 43
0.0
 10
9271.584465887812
 20
23242.57791928271
 10
9321.584465887812
 20
23192.57791928271
 10
10836.58446588781
 20
23192.57791928271
 10
10886.58446588781
 20
23242.57791928271
  0
LWPOLYLINE
  5
8996C
330
897F4
100
AcDbEntity
  8
0
100
AcDbPolyline
 90
        4
 70
     0
 43
0.0
 10
9271.584465887812
 20
21207.57791928271
 10
9321.584465887812
 20
21257.57791928271
 10
10836.58446588781
 20
21257.57791928271
 10
10886.58446588781
 20
21207.57791928271
  0
LINE
  5
8996D
330
897F4
100
AcDbEntity
  8
0
100
AcDbLine
 10
9321.584465887812
 20
23192.57791928271
 30
0.0
 11
9321.584465887812
 21
21257.57791928271
 31
0.0
  0
LINE
  5
8996E
330
897F4
100
AcDbEntity
  8
0
100
AcDbLine
 10
10836.58446588781
 20
23192.57791928271
 30
0.0
 11
10836.58446588781
 21
21257.57791928271
 31
0.0
  0
LWPOLYLINE
  5
8996F
330
897F4
100
AcDbEntity
  8
0
100
AcDbPolyline
 90
        4
 70
     1
 43
0.0
 10
13768.4145929325
 20
23242.57791928271
 10
13768.4145929325
 20
23277.57791928271
 10
15653.4145929325
 20
23277.57791928271
 10
15653.4145929325
 20
23242.57791928271
  0
LWPOLYLINE
  5
89970
330
897F4
100
AcDbEntity
  8
0
100
AcDbPolyline
 90
        4
 70
     1
 43
0.0
 10
13768.4145929325
 20
21172.57791928271
 10
13768.4145929325
 20
21207.57791928271
 10
15653.4145929325
 20
21207.57791928271
 10
15653.4145929325
 20
21172.57791928271
  0
LWPOLYLINE
  5
89971
330
897F4
100
AcDbEntity
  8
0
100
AcDbPolyline
 90
        4
 70
     1
 43
0.0
 10
13768.4145929325
 20
23242.57791928271
 10
13768.4145929325
 20
21207.57791928271
 10
13803.4145929325
 20
21207.57791928271
 10
13803.4145929325
 20
23242.57791928271
  0
LWPOLYLINE
  5
89972
330
897F4
100
AcDbEntity
  8
0
100
AcDbPolyline
 90
        4
 70
     1
 43
0.0
 10
15653.4145929325
 20
23242.5779192827
 10
15653.41459293246
 20
21207.5779192827
 10
15618.41459293246
 20
21207.5779192827
 10
15618.4145929325
 20
23242.5779192827
  0
LWPOLYLINE
  5
89974
330
897F4
100
AcDbEntity
  8
0
100
AcDbPolyline
 90
        4
 70
     0
 43
0.0
 10
13803.4145929325
 20
23242.57791928271
 10
13853.4145929325
 20
23192.57791928271
 10
15568.4145929325
 20
23192.57791928271
 10
15618.4145929325
 20
23242.57791928271
  0
LWPOLYLINE
  5
89975
330
897F4
100
AcDbEntity
  8
0
100
AcDbPolyline
 90
        4
 70
     0
 43
0.0
 10
13803.4145929325
 20
21207.57791928271
 10
13853.4145929325
 20
21257.57791928271
 10
15568.4145929325
 20
21257.57791928271
 10
15618.4145929325
 20
21207.57791928271
  0
LINE
  5
89976
330
897F4
100
AcDbEntity
  8
0
100
AcDbLine
 10
13853.4145929325
 20
23192.57791928271
 30
0.0
 11
13853.4145929325
 21
21257.57791928271
 31
0.0
  0
LINE
  5
89977
330
897F4
100
AcDbEntity
  8
0
100
AcDbLine
 10
15568.4145929325
 20
23192.57791928271
 30
0.0
 11
15568.4145929325
 21
21257.57791928271
 31
0.0
  0
LWPOLYLINE
  5
89979
330
897F4
100
AcDbEntity
  8
0
100
AcDbPolyline
 90
        8
 70
     1
 43
0.0
 10
855.0000023960457
 20
20062.57791928271
 10
820.0000023960456
 20
20062.57791928271
 10
820.0000023960456
 20
20377.57791928271
 10
1805.000002396045
 20
20377.57791928271
 10
1805.000002396045
 20
20062.57791928271
 10
1770.000002396045
 20
20062.57791928271
 10
1770.000002396045
 20
20342.57791928271
 10
855.0000023960456
 20
20342.57791928271
  0
LINE
  5
899A5
330
897F4
100
AcDbEntity
  8
0
100
AcDbLine
 10
855.0000023960456
 20
20307.57791928271
 30
0.0
 11
1770.000002396045
 21
20307.57791928271
 31
0.0
  0
LWPOLYLINE
  5
899A7
330
897F4
100
AcDbEntity
  8
0
100
AcDbPolyline
 90
        8
 70
     1
 43
0.0
 10
9271.58446588781
 20
20062.57791928271
 10
9236.58446588781
 20
20062.57791928271
 10
9236.58446588781
 20
20377.57791928271
 10
10921.58446588781
 20
20377.57791928271
 10
10921.58446588781
 20
20062.57791928271
 10
10886.58446588781
 20
20062.57791928271
 10
10886.58446588781
 20
20342.57791928271
 10
9271.58446588781
 20
20342.57791928271
  0
LINE
  5
899A8
330
897F4
100
AcDbEntity
  8
0
100
AcDbLine
 10
9271.58446588781
 20
20307.57791928271
 30
0.0
 11
10886.58446588781
 21
20307.57791928271
 31
0.0
  0
LWPOLYLINE
  5
899A9
330
897F4
100
AcDbEntity
  8
0
100
AcDbPolyline
 90
        8
 70
     1
 43
0.0
 10
13803.41459293249
 20
20062.57791928271
 10
13768.41459293249
 20
20062.57791928271
 10
13768.41459293249
 20
20377.57791928271
 10
15653.41459293249
 20
20377.57791928271
 10
15653.41459293249
 20
20062.57791928271
 10
15618.41459293249
 20
20062.57791928271
 10
15618.41459293249
 20
20342.57791928271
 10
13803.41459293249
 20
20342.57791928271
  0
LINE
  5
899AA
330
897F4
100
AcDbEntity
  8
0
100
AcDbLine
 10
13803.41459293249
 20
20307.57791928271
 30
0.0
 11
15618.41459293249
 21
20307.57791928271
 31
0.0
  0
LWPOLYLINE
  5
899AC
330
897F4
100
AcDbEntity
  8
0
100
AcDbPolyline
 90
        8
 70
     1
 43
0.0
 10
855.0000023960448
 20
18662.57791928271
 10
820.0000023960447
 20
18662.57791928271
 10
820.0000023960447
 20
18977.57791928271
 10
1805.000002396044
 20
18977.57791928271
 10
1805.000002396044
 20
18662.57791928271
 10
1770.000002396044
 20
18662.57791928271
 10
1770.000002396044
 20
18942.57791928271
 10
855.0000023960447
 20
18942.57791928271
  0
LINE
  5
899B0
330
897F4
100
AcDbEntity
  8
0
100
AcDbLine
 10
855.0000023960447
 20
18857.57791928271
 30
0.0
 11
1770.000002396044
 21
18857.57791928271
 31
0.0
  0
LWPOLYLINE
  5
899B1
330
897F4
100
AcDbEntity
  8
0
100
AcDbPolyline
 90
        8
 70
     1
 43
0.0
 10
9271.58446588781
 20
18662.57791928271
 10
9236.58446588781
 20
18662.57791928271
 10
9236.58446588781
 20
18977.57791928271
 10
10921.58446588781
 20
18977.57791928271
 10
10921.58446588781
 20
18662.57791928271
 10
10886.58446588781
 20
18662.57791928271
 10
10886.58446588781
 20
18942.57791928271
 10
9271.58446588781
 20
18942.57791928271
  0
LINE
  5
899B2
330
897F4
100
AcDbEntity
  8
0
100
AcDbLine
 10
9271.58446588781
 20
18857.57791928271
 30
0.0
 11
10886.58446588781
 21
18857.57791928271
 31
0.0
  0
LWPOLYLINE
  5
899B3
330
897F4
100
AcDbEntity
  8
0
100
AcDbPolyline
 90
        8
 70
     1
 43
0.0
 10
13803.41459293249
 20
18662.57791928271
 10
13768.41459293249
 20
18662.57791928271
 10
13768.41459293249
 20
18977.57791928271
 10
15653.41459293249
 20
18977.57791928271
 10
15653.41459293249
 20
18662.57791928271
 10
15618.41459293249
 20
18662.57791928271
 10
15618.41459293249
 20
18942.57791928271
 10
13803.41459293249
 20
18942.57791928271
  0
LINE
  5
899B4
330
897F4
100
AcDbEntity
  8
0
100
AcDbLine
 10
13803.41459293249
 20
18857.57791928271
 30
0.0
 11
15618.41459293249
 21
18857.57791928271
 31
0.0
  0
LINE
  5
899B7
330
897F4
100
AcDbEntity
  8
0
100
AcDbLine
 10
19195.91459293249
 20
20307.57791928271
 30
0.0
 11
21025.91459293249
 21
20307.57791928271
 31
0.0
  0
LINE
  5
899B9
330
897F4
100
AcDbEntity
  8
0
100
AcDbLine
 10
19195.91459293249
 20
20377.57791928271
 30
0.0
 11
19160.91459293249
 21
20377.57791928271
 31
0.0
  0
LINE
  5
899D2
330
897F4
100
AcDbEntity
  8
0
100
AcDbLine
 10
19195.91459293249
 20
18857.57791928271
 30
0.0
 11
21025.91459293249
 21
18857.57791928271
 31
0.0
  0
LINE
  5
899D3
330
897F4
100
AcDbEntity
  8
0
100
AcDbLine
 10
19195.91459293249
 20
18977.57791928271
 30
0.0
 11
19160.91459293249
 21
18977.57791928271
 31
0.0
  0
LWPOLYLINE
  5
899FA
330
897F4
100
AcDbEntity
  8
0
100
AcDbPolyline
 90
        8
 70
     1
 43
0.0
 10
855.0000023960457
 20
17052.57791928271
 10
820.0000023960456
 20
17052.57791928271
 10
820.0000023960456
 20
17367.57791928271
 10
1805.000002396045
 20
17367.57791928271
 10
1805.000002396045
 20
17052.57791928271
 10
1770.000002396045
 20
17052.57791928271
 10
1770.000002396045
 20
17332.57791928271
 10
855.0000023960456
 20
17332.57791928271
  0
LINE
  5
899FE
330
897F4
100
AcDbEntity
  8
0
100
AcDbLine
 10
855.0000023960456
 20
17297.57791928271
 30
0.0
 11
1770.000002396045
 21
17297.57791928271
 31
0.0
  0
LWPOLYLINE
  5
899FF
330
897F4
100
AcDbEntity
  8
0
100
AcDbPolyline
 90
        8
 70
     1
 43
0.0
 10
9271.58446588781
 20
17052.57791928271
 10
9236.58446588781
 20
17052.57791928271
 10
9236.58446588781
 20
17367.57791928271
 10
10921.58446588781
 20
17367.57791928271
 10
10921.58446588781
 20
17052.57791928271
 10
10886.58446588781
 20
17052.57791928271
 10
10886.58446588781
 20
17332.57791928271
 10
9271.58446588781
 20
17332.57791928271
  0
LINE
  5
89A00
330
897F4
100
AcDbEntity
  8
0
100
AcDbLine
 10
9271.58446588781
 20
17297.57791928271
 30
0.0
 11
10886.58446588781
 21
17297.57791928271
 31
0.0
  0
LWPOLYLINE
  5
89A01
330
897F4
100
AcDbEntity
  8
0
100
AcDbPolyline
 90
        8
 70
     1
 43
0.0
 10
13803.41459293249
 20
17052.57791928271
 10
13768.41459293249
 20
17052.57791928271
 10
13768.41459293249
 20
17367.57791928271
 10
15653.41459293249
 20
17367.57791928271
 10
15653.41459293249
 20
17052.57791928271
 10
15618.41459293249
 20
17052.57791928271
 10
15618.41459293249
 20
17332.57791928271
 10
13803.41459293249
 20
17332.57791928271
  0
LINE
  5
89A02
330
897F4
100
AcDbEntity
  8
0
100
AcDbLine
 10
13803.41459293249
 20
17297.57791928271
 30
0.0
 11
15618.41459293249
 21
17297.57791928271
 31
0.0
  0
LWPOLYLINE
  5
89A04
330
897F4
100
AcDbEntity
  8
0
100
AcDbPolyline
 90
        8
 70
     1
 43
0.0
 10
855.0000023960444
 20
15452.57791928271
 10
820.0000023960442
 20
15452.57791928271
 10
820.0000023960442
 20
15767.57791928271
 10
1805.000002396044
 20
15767.57791928271
 10
1805.000002396044
 20
15452.57791928271
 10
1770.000002396044
 20
15452.57791928271
 10
1770.000002396044
 20
15732.57791928271
 10
855.0000023960442
 20
15732.57791928271
  0
LINE
  5
89A08
330
897F4
100
AcDbEntity
  8
0
100
AcDbLine
 10
855.0000023960442
 20
15647.57791928271
 30
0.0
 11
1770.000002396044
 21
15647.57791928271
 31
0.0
  0
LWPOLYLINE
  5
89A09
330
897F4
100
AcDbEntity
  8
0
100
AcDbPolyline
 90
        8
 70
     1
 43
0.0
 10
9271.584465887809
 20
15452.57791928271
 10
9236.584465887809
 20
15452.57791928271
 10
9236.584465887809
 20
15767.57791928271
 10
10921.58446588781
 20
15767.57791928271
 10
10921.58446588781
 20
15452.57791928271
 10
10886.58446588781
 20
15452.57791928271
 10
10886.58446588781
 20
15732.57791928271
 10
9271.584465887809
 20
15732.57791928271
  0
LINE
  5
89A0A
330
897F4
100
AcDbEntity
  8
0
100
AcDbLine
 10
9271.584465887809
 20
15647.57791928271
 30
0.0
 11
10886.58446588781
 21
15647.57791928271
 31
0.0
  0
LWPOLYLINE
  5
89A0B
330
897F4
100
AcDbEntity
  8
0
100
AcDbPolyline
 90
        8
 70
     1
 43
0.0
 10
13803.41459293249
 20
15452.57791928271
 10
13768.41459293249
 20
15452.57791928271
 10
13768.41459293249
 20
15767.57791928271
 10
15653.41459293249
 20
15767.57791928271
 10
15653.41459293249
 20
15452.57791928271
 10
15618.41459293249
 20
15452.57791928271
 10
15618.41459293249
 20
15732.57791928271
 10
13803.41459293249
 20
15732.57791928271
  0
LINE
  5
89A0C
330
897F4
100
AcDbEntity
  8
0
100
AcDbLine
 10
13803.41459293249
 20
15647.57791928271
 30
0.0
 11
15618.41459293249
 21
15647.57791928271
 31
0.0
  0
LINE
  5
89A0E
330
897F4
100
AcDbEntity
  8
0
100
AcDbLine
 10
19195.91459293249
 20
17297.57791928271
 30
0.0
 11
21025.91459293249
 21
17297.57791928271
 31
0.0
  0
LWPOLYLINE
  5
89A10
330
897F4
100
AcDbEntity
  8
0
100
AcDbPolyline
 90
        4
 70
     0
 43
0.0
 10
19160.91459293249
 20
17367.57791928271
 10
19160.91459293249
 20
17922.57791928271
 10
19195.91459293249
 20
17922.57791928271
 10
19195.91459293249
 20
17367.57791928271
  0
LINE
  5
89A12
330
897F4
100
AcDbEntity
  8
0
100
AcDbLine
 10
19195.91459293249
 20
15647.57791928271
 30
0.0
 11
21025.91459293249
 21
15647.57791928271
 31
0.0
  0
LWPOLYLINE
  5
89A14
330
897F4
100
AcDbEntity
  8
0
100
AcDbPolyline
 90
        4
 70
     0
 43
0.0
 10
19160.91459293249
 20
15767.57791928271
 10
19160.91459293249
 20
16322.57791928271
 10
19195.91459293249
 20
16322.57791928271
 10
19195.91459293249
 20
15767.57791928271
  0
LINE
  5
89A15
330
897F4
100
AcDbEntity
  8
0
100
AcDbLine
 10
19195.91459293249
 20
17052.57791928271
 30
0.0
 11
19160.91459293249
 21
17052.57791928271
 31
0.0
  0
LINE
  5
89A16
330
897F4
100
AcDbEntity
  8
0
100
AcDbLine
 10
19160.91459293249
 20
17052.57791928271
 30
0.0
 11
19160.91459293249
 21
17367.57791928271
 31
0.0
  0
LINE
  5
89A17
330
897F4
100
AcDbEntity
  8
0
100
AcDbLine
 10
19195.91459293249
 20
17367.57791928271
 30
0.0
 11
21060.91459293249
 21
17367.57791928271
 31
0.0
  0
LINE
  5
89A18
330
897F4
100
AcDbEntity
  8
0
100
AcDbLine
 10
21060.91459293249
 20
17367.57791928271
 30
0.0
 11
21060.91459293249
 21
17052.57791928271
 31
0.0
  0
LINE
  5
89A19
330
897F4
100
AcDbEntity
  8
0
100
AcDbLine
 10
21060.91459293249
 20
17052.57791928271
 30
0.0
 11
21025.91459293249
 21
17052.57791928271
 31
0.0
  0
LINE
  5
89A1A
330
897F4
100
AcDbEntity
  8
0
100
AcDbLine
 10
21025.91459293249
 20
17052.57791928271
 30
0.0
 11
21025.91459293249
 21
17367.57791928271
 31
0.0
  0
LINE
  5
89A1B
330
897F4
100
AcDbEntity
  8
0
100
AcDbLine
 10
21025.91459293249
 20
17332.57791928271
 30
0.0
 11
19195.91459293249
 21
17332.57791928271
 31
0.0
  0
LINE
  5
89A1C
330
897F4
100
AcDbEntity
  8
0
100
AcDbLine
 10
19195.91459293249
 20
17367.57791928271
 30
0.0
 11
19195.91459293249
 21
17052.57791928271
 31
0.0
  0
LINE
  5
89A1D
330
897F4
100
AcDbEntity
  8
0
100
AcDbLine
 10
19195.91459293249
 20
15452.57791928271
 30
0.0
 11
19160.91459293249
 21
15452.57791928271
 31
0.0
  0
LINE
  5
89A1E
330
897F4
100
AcDbEntity
  8
0
100
AcDbLine
 10
19160.91459293249
 20
15452.57791928271
 30
0.0
 11
19160.91459293249
 21
15767.57791928271
 31
0.0
  0
LINE
  5
89A1F
330
897F4
100
AcDbEntity
  8
0
100
AcDbLine
 10
19195.91459293249
 20
15767.57791928271
 30
0.0
 11
21060.91459293249
 21
15767.57791928271
 31
0.0
  0
LINE
  5
89A20
330
897F4
100
AcDbEntity
  8
0
100
AcDbLine
 10
21060.91459293249
 20
15767.57791928271
 30
0.0
 11
21060.91459293249
 21
15452.57791928271
 31
0.0
  0
LINE
  5
89A21
330
897F4
100
AcDbEntity
  8
0
100
AcDbLine
 10
21060.91459293249
 20
15452.57791928271
 30
0.0
 11
21025.91459293249
 21
15452.57791928271
 31
0.0
  0
LINE
  5
89A22
330
897F4
100
AcDbEntity
  8
0
100
AcDbLine
 10
21025.91459293249
 20
15452.57791928271
 30
0.0
 11
21025.91459293249
 21
15767.57791928271
 31
0.0
  0
LINE
  5
89A23
330
897F4
100
AcDbEntity
  8
0
100
AcDbLine
 10
21025.91459293249
 20
15732.57791928271
 30
0.0
 11
19195.91459293249
 21
15732.57791928271
 31
0.0
  0
LINE
  5
89A24
330
897F4
100
AcDbEntity
  8
0
100
AcDbLine
 10
19195.91459293249
 20
15767.57791928271
 30
0.0
 11
19195.91459293249
 21
15452.57791928271
 31
0.0
  0
LINE
  5
89A25
330
897F4
100
AcDbEntity
  8
0
100
AcDbLine
 10
19195.91459293249
 20
18662.57791928271
 30
0.0
 11
19160.91459293249
 21
18662.57791928271
 31
0.0
  0
LINE
  5
89A26
330
897F4
100
AcDbEntity
  8
0
100
AcDbLine
 10
19160.91459293249
 20
18662.57791928271
 30
0.0
 11
19160.91459293249
 21
18977.57791928271
 31
0.0
  0
LINE
  5
89A27
330
897F4
100
AcDbEntity
  8
0
100
AcDbLine
 10
19160.91459293249
 20
18977.57791928271
 30
0.0
 11
21060.91459293249
 21
18977.57791928271
 31
0.0
  0
LINE
  5
89A28
330
897F4
100
AcDbEntity
  8
0
100
AcDbLine
 10
21060.91459293249
 20
18977.57791928271
 30
0.0
 11
21060.91459293249
 21
18662.57791928271
 31
0.0
  0
LINE
  5
89A29
330
897F4
100
AcDbEntity
  8
0
100
AcDbLine
 10
21060.91459293249
 20
18662.57791928271
 30
0.0
 11
21025.91459293249
 21
18662.57791928271
 31
0.0
  0
LINE
  5
89A2A
330
897F4
100
AcDbEntity
  8
0
100
AcDbLine
 10
21025.91459293249
 20
18662.57791928271
 30
0.0
 11
21025.91459293249
 21
18977.57791928271
 31
0.0
  0
LINE
  5
89A2B
330
897F4
100
AcDbEntity
  8
0
100
AcDbLine
 10
21025.91459293249
 20
18942.57791928271
 30
0.0
 11
19195.91459293249
 21
18942.57791928271
 31
0.0
  0
LINE
  5
89A2C
330
897F4
100
AcDbEntity
  8
0
100
AcDbLine
 10
19195.91459293249
 20
18977.57791928271
 30
0.0
 11
19195.91459293249
 21
18662.57791928271
 31
0.0
  0
LINE
  5
89A2D
330
897F4
100
AcDbEntity
  8
0
100
AcDbLine
 10
19195.91459293249
 20
20062.57791928271
 30
0.0
 11
19160.91459293249
 21
20062.57791928271
 31
0.0
  0
LINE
  5
89A2E
330
897F4
100
AcDbEntity
  8
0
100
AcDbLine
 10
19160.91459293249
 20
20062.57791928271
 30
0.0
 11
19160.91459293249
 21
20377.57791928271
 31
0.0
  0
LINE
  5
89A2F
330
897F4
100
AcDbEntity
  8
0
100
AcDbLine
 10
19160.91459293249
 20
20377.57791928271
 30
0.0
 11
21060.91459293249
 21
20377.57791928271
 31
0.0
  0
LINE
  5
89A30
330
897F4
100
AcDbEntity
  8
0
100
AcDbLine
 10
21060.91459293249
 20
20377.57791928271
 30
0.0
 11
21060.91459293249
 21
20062.57791928271
 31
0.0
  0
LINE
  5
89A31
330
897F4
100
AcDbEntity
  8
0
100
AcDbLine
 10
21060.91459293249
 20
20062.57791928271
 30
0.0
 11
21025.91459293249
 21
20062.57791928271
 31
0.0
  0
LINE
  5
89A32
330
897F4
100
AcDbEntity
  8
0
100
AcDbLine
 10
21025.91459293249
 20
20062.57791928271
 30
0.0
 11
21025.91459293249
 21
20377.57791928271
 31
0.0
  0
LINE
  5
89A33
330
897F4
100
AcDbEntity
  8
0
100
AcDbLine
 10
21025.91459293249
 20
20342.57791928271
 30
0.0
 11
19195.91459293249
 21
20342.57791928271
 31
0.0
  0
LINE
  5
89A34
330
897F4
100
AcDbEntity
  8
0
100
AcDbLine
 10
19195.91459293249
 20
20377.57791928271
 30
0.0
 11
19195.91459293249
 21
20062.57791928271
 31
0.0
  0
LWPOLYLINE
  5
89A41
330
897F4
100
AcDbEntity
  8
0
100
AcDbPolyline
 90
        8
 70
     1
 43
0.0
 10
13803.41459293249
 20
15767.57791928271
 10
13768.41459293249
 20
15767.57791928271
 10
13768.41459293249
 20
16322.57791928271
 10
15653.41459293249
 20
16322.57791928271
 10
15653.41459293249
 20
15767.57791928271
 10
15618.41459293249
 20
15767.57791928271
 10
15618.41459293249
 20
16287.57791928271
 10
13803.41459293249
 20
16287.57791928271
  0
LWPOLYLINE
  5
89A42
330
897F4
100
AcDbEntity
  8
0
100
AcDbPolyline
 90
        8
 70
     1
 43
0.0
 10
9271.584465887809
 20
15767.57791928271
 10
9236.584465887809
 20
15767.57791928271
 10
9236.584465887809
 20
16322.57791928271
 10
10921.58446588781
 20
16322.57791928271
 10
10921.58446588781
 20
15767.57791928271
 10
10886.58446588781
 20
15767.57791928271
 10
10886.58446588781
 20
16287.57791928271
 10
9271.584465887809
 20
16287.57791928271
  0
LWPOLYLINE
  5
89A43
330
897F4
100
AcDbEntity
  8
0
100
AcDbPolyline
 90
        8
 70
     1
 43
0.0
 10
855.0000023960441
 20
15767.57791928271
 10
820.000002396044
 20
15767.57791928271
 10
820.0000023960438
 20
16322.57791928271
 10
1805.000002396044
 20
16322.57791928271
 10
1805.000002396044
 20
15767.57791928271
 10
1770.000002396044
 20
15767.57791928271
 10
1770.000002396044
 20
16287.57791928271
 10
855.0000023960438
 20
16287.57791928271
  0
LWPOLYLINE
  5
89A44
330
897F4
100
AcDbEntity
  8
0
100
AcDbPolyline
 90
        8
 70
     1
 43
0.0
 10
13803.41459293249
 20
17367.57791928271
 10
13768.41459293249
 20
17367.57791928271
 10
13768.41459293249
 20
17922.57791928271
 10
15653.41459293249
 20
17922.57791928271
 10
15653.41459293249
 20
17367.57791928271
 10
15618.41459293249
 20
17367.57791928271
 10
15618.41459293249
 20
17887.57791928271
 10
13803.41459293249
 20
17887.57791928271
  0
LWPOLYLINE
  5
89A45
330
897F4
100
AcDbEntity
  8
0
100
AcDbPolyline
 90
        8
 70
     1
 43
0.0
 10
9271.58446588781
 20
17367.57791928271
 10
9236.58446588781
 20
17367.57791928271
 10
9236.58446588781
 20
17922.57791928271
 10
10921.58446588781
 20
17922.57791928271
 10
10921.58446588781
 20
17367.57791928271
 10
10886.58446588781
 20
17367.57791928271
 10
10886.58446588781
 20
17887.57791928271
 10
9271.58446588781
 20
17887.57791928271
  0
LWPOLYLINE
  5
89A46
330
897F4
100
AcDbEntity
  8
0
100
AcDbPolyline
 90
        8
 70
     1
 43
0.0
 10
855.0000023960455
 20
17367.57791928271
 10
820.0000023960454
 20
17367.57791928271
 10
820.0000023960451
 20
17922.57791928271
 10
1805.000002396045
 20
17922.57791928271
 10
1805.000002396045
 20
17367.57791928271
 10
1770.000002396045
 20
17367.57791928271
 10
1770.000002396045
 20
17887.57791928271
 10
855.0000023960451
 20
17887.57791928271
  0
LWPOLYLINE
  5
89A8B
330
897F4
100
AcDbEntity
  8
0
100
AcDbPolyline
 90
        4
 70
     1
 43
0.0
 10
19160.91459293249
 20
6304.626572430103
 10
19160.91459293249
 20
6789.626572430103
 10
19175.91459293249
 20
6789.626572430103
 10
19175.91459293249
 20
6304.626572430103
  0
LWPOLYLINE
  5
89A9E
330
897F4
100
AcDbEntity
  8
0
100
AcDbPolyline
 90
        4
 70
     1
 43
0.0
 10
15583.41459293249
 20
6789.626572430099
 10
13768.41459293249
 20
6789.626572430099
 10
13768.41459293249
 20
6269.626572430099
 10
15583.41459293249
 20
6269.626572430099
  0
LWPOLYLINE
  5
89AA0
330
897F4
100
AcDbEntity
  8
0
100
AcDbPolyline
 90
        4
 70
     1
 43
0.0
 10
10851.58446588781
 20
6269.626572430108
 10
10851.58446588781
 20
6789.626572430108
 10
9236.584465887812
 20
6789.626572430105
 10
9236.584465887812
 20
6269.626572430105
  0
LWPOLYLINE
  5
89AA3
330
897F4
100
AcDbEntity
  8
0
100
AcDbPolyline
 90
        4
 70
     1
 43
0.0
 10
820.0000023960606
 20
6789.626572430105
 10
820.000002396061
 20
6269.626572430105
 10
1735.000002396061
 20
6269.626572430105
 10
1735.000002396061
 20
6789.626572430105
  0
LWPOLYLINE
  5
89AE3
330
897F4
100
AcDbEntity
  8
0
100
AcDbPolyline
 90
        4
 70
     1
 43
0.0
 10
812.5000023960614
 20
5494.626572430105
 10
812.5000023960614
 20
5044.626572430105
 10
1142.500002396062
 20
5044.626572430105
 10
1142.500002396062
 20
5494.626572430105
  0
LWPOLYLINE
  5
89AE4
330
897F4
100
AcDbEntity
  8
0
100
AcDbPolyline
 90
        4
 70
     1
 43
0.0
 10
19160.91459293249
 20
5494.626572430103
 10
19160.91459293249
 20
5044.626572430103
 10
19195.91459293249
 20
5044.626572430103
 10
19195.91459293249
 20
5494.626572430103
  0
LWPOLYLINE
  5
89D57
330
897F4
100
AcDbEntity
  8
0
100
AcDbPolyline
 90
        8
 70
     1
 43
0.0
 10
1682.500002396046
 20
2269.626572430108
 10
842.500002396046
 20
2269.626572430101
 42
-0.4142135623730955
 10
812.500002396046
 20
2299.626572430101
 10
812.500002396046
 20
4239.626572430101
 42
-0.4142135623730955
 10
842.500002396046
 20
4269.626572430101
 10
1682.500002396046
 20
4269.626572430108
 42
-0.4142135623730955
 10
1712.500002396046
 20
4239.626572430108
 10
1712.500002396046
 20
2299.626572430108
 42
-0.4142135623730955
  0
LWPOLYLINE
  5
89D58
330
897F4
100
AcDbEntity
  8
0
100
AcDbPolyline
 90
        8
 70
     1
 43
0.0
 10
1677.500002396046
 20
2299.626572430108
 10
847.500002396046
 20
2299.626572430101
 42
-0.4142135623730953
 10
842.500002396046
 20
2304.626572430101
 10
842.500002396046
 20
4234.626572430101
 42
-0.4142135623730953
 10
847.500002396046
 20
4239.626572430101
 10
1677.500002396046
 20
4239.626572430108
 42
-0.4142135623730953
 10
1682.500002396046
 20
4234.626572430108
 10
1682.500002396046
 20
2304.626572430108
 42
-0.4142135623730953
  0
LWPOLYLINE
  5
89D59
330
897F4
100
AcDbEntity
  8
0
100
AcDbPolyline
 90
        4
 70
     1
 43
0.0
 10
1670.000002396046
 20
2329.626572430101
 10
852.500002396046
 20
2329.626572430101
 10
852.500002396046
 20
2409.626572430101
 10
1670.000002396046
 20
2409.626572430101
  0
LWPOLYLINE
  5
89D5A
330
897F4
100
AcDbEntity
  8
0
100
AcDbPolyline
 90
        4
 70
     1
 43
0.0
 10
1670.000002396046
 20
2479.626572430101
 10
852.500002396046
 20
2479.626572430101
 10
852.500002396046
 20
2559.626572430101
 10
1670.000002396046
 20
2559.626572430101
  0
LWPOLYLINE
  5
89D5B
330
897F4
100
AcDbEntity
  8
0
100
AcDbPolyline
 90
        4
 70
     1
 43
0.0
 10
1670.000002396046
 20
2629.626572430101
 10
852.500002396046
 20
2629.626572430101
 10
852.500002396046
 20
2709.626572430101
 10
1670.000002396046
 20
2709.626572430101
  0
LWPOLYLINE
  5
89D5C
330
897F4
100
AcDbEntity
  8
0
100
AcDbPolyline
 90
        4
 70
     1
 43
0.0
 10
1670.000002396046
 20
2779.626572430101
 10
852.500002396046
 20
2779.626572430101
 10
852.500002396046
 20
2859.626572430101
 10
1670.000002396046
 20
2859.626572430101
  0
LWPOLYLINE
  5
89D5D
330
897F4
100
AcDbEntity
  8
0
100
AcDbPolyline
 90
        4
 70
     1
 43
0.0
 10
1670.000002396046
 20
2929.626572430101
 10
852.500002396046
 20
2929.626572430101
 10
852.500002396046
 20
3009.626572430101
 10
1670.000002396046
 20
3009.626572430101
  0
LWPOLYLINE
  5
89D5E
330
897F4
100
AcDbEntity
  8
0
100
AcDbPolyline
 90
        4
 70
     1
 43
0.0
 10
1670.000002396046
 20
3079.626572430101
 10
852.500002396046
 20
3079.626572430101
 10
852.500002396046
 20
3159.626572430101
 10
1670.000002396046
 20
3159.626572430101
  0
LWPOLYLINE
  5
89D5F
330
897F4
100
AcDbEntity
  8
0
100
AcDbPolyline
 90
        4
 70
     1
 43
0.0
 10
1670.000002396046
 20
3229.626572430101
 10
852.500002396046
 20
3229.626572430101
 10
852.500002396046
 20
3309.626572430101
 10
1670.000002396046
 20
3309.626572430101
  0
LWPOLYLINE
  5
89D60
330
897F4
100
AcDbEntity
  8
0
100
AcDbPolyline
 90
        4
 70
     1
 43
0.0
 10
1670.000002396046
 20
3379.626572430101
 10
852.500002396046
 20
3379.626572430101
 10
852.500002396046
 20
3459.626572430101
 10
1670.000002396046
 20
3459.626572430101
  0
LWPOLYLINE
  5
89D61
330
897F4
100
AcDbEntity
  8
0
100
AcDbPolyline
 90
        4
 70
     1
 43
0.0
 10
1670.000002396046
 20
3529.626572430101
 10
852.500002396046
 20
3529.626572430101
 10
852.500002396046
 20
3609.626572430101
 10
1670.000002396046
 20
3609.626572430101
  0
LWPOLYLINE
  5
89D62
330
897F4
100
AcDbEntity
  8
0
100
AcDbPolyline
 90
        4
 70
     1
 43
0.0
 10
1670.000002396046
 20
3679.626572430101
 10
852.500002396046
 20
3679.626572430101
 10
852.500002396046
 20
3759.626572430101
 10
1670.000002396046
 20
3759.626572430101
  0
LWPOLYLINE
  5
89D63
330
897F4
100
AcDbEntity
  8
0
100
AcDbPolyline
 90
        4
 70
     1
 43
0.0
 10
1670.000002396046
 20
3829.626572430101
 10
852.500002396046
 20
3829.626572430101
 10
852.500002396046
 20
3909.626572430101
 10
1670.000002396046
 20
3909.626572430101
  0
LWPOLYLINE
  5
89D64
330
897F4
100
AcDbEntity
  8
0
100
AcDbPolyline
 90
        4
 70
     1
 43
0.0
 10
1670.000002396046
 20
3979.626572430101
 10
852.500002396046
 20
3979.626572430101
 10
852.500002396046
 20
4059.626572430101
 10
1670.000002396046
 20
4059.626572430101
  0
LWPOLYLINE
  5
89D65
330
897F4
100
AcDbEntity
  8
0
100
AcDbPolyline
 90
        4
 70
     1
 43
0.0
 10
1670.000002396046
 20
4129.626572430101
 10
852.500002396046
 20
4129.626572430101
 10
852.500002396046
 20
4209.626572430101
 10
1670.000002396046
 20
4209.626572430101
  0
LWPOLYLINE
  5
89D67
330
897F4
100
AcDbEntity
  8
0
100
AcDbPolyline
 90
        8
 70
     1
 43
0.0
 10
10799.08446588783
 20
2269.626572430105
 10
9259.084465887827
 20
2269.626572430105
 42
-0.4142135623730955
 10
9229.084465887827
 20
2299.626572430105
 10
9229.084465887827
 20
4239.626572430105
 42
-0.4142135623730955
 10
9259.084465887827
 20
4269.626572430105
 10
10799.08446588783
 20
4269.626572430105
 42
-0.4142135623730955
 10
10829.08446588783
 20
4239.626572430105
 10
10829.08446588783
 20
2299.626572430105
 42
-0.4142135623730955
  0
LWPOLYLINE
  5
89D68
330
897F4
100
AcDbEntity
  8
0
100
AcDbPolyline
 90
        8
 70
     1
 43
0.0
 10
10794.08446588783
 20
2299.626572430105
 10
9264.084465887827
 20
2299.626572430105
 42
-0.4142135623730953
 10
9259.084465887827
 20
2304.626572430105
 10
9259.084465887827
 20
4234.626572430105
 42
-0.4142135623730953
 10
9264.084465887827
 20
4239.626572430105
 10
10794.08446588783
 20
4239.626572430105
 42
-0.4142135623730953
 10
10799.08446588783
 20
4234.626572430105
 10
10799.08446588783
 20
2304.626572430105
 42
-0.4142135623730953
  0
LINE
  5
89D69
330
897F4
100
AcDbEntity
  8
0
100
AcDbLine
 10
10016.58446588783
 20
2299.626572430105
 30
0.0
 11
10016.58446588783
 21
4239.626572430105
 31
0.0
  0
LINE
  5
89D6A
330
897F4
100
AcDbEntity
  8
0
100
AcDbLine
 10
10041.58446588783
 20
2299.626572430105
 30
0.0
 11
10041.58446588783
 21
4239.626572430105
 31
0.0
  0
LWPOLYLINE
  5
89D6B
330
897F4
100
AcDbEntity
  8
0
100
AcDbPolyline
 90
        4
 70
     1
 43
0.0
 10
10006.58446588783
 20
2329.626572430105
 10
9269.084465887827
 20
2329.626572430105
 10
9269.084465887827
 20
2409.626572430105
 10
10006.58446588783
 20
2409.626572430105
  0
LWPOLYLINE
  5
89D6C
330
897F4
100
AcDbEntity
  8
0
100
AcDbPolyline
 90
        4
 70
     1
 43
0.0
 10
10006.58446588783
 20
2479.626572430105
 10
9269.084465887827
 20
2479.626572430105
 10
9269.084465887827
 20
2559.626572430105
 10
10006.58446588783
 20
2559.626572430105
  0
LWPOLYLINE
  5
89D6D
330
897F4
100
AcDbEntity
  8
0
100
AcDbPolyline
 90
        4
 70
     1
 43
0.0
 10
10006.58446588783
 20
2629.626572430105
 10
9269.084465887827
 20
2629.626572430105
 10
9269.084465887827
 20
2709.626572430105
 10
10006.58446588783
 20
2709.626572430105
  0
LWPOLYLINE
  5
89D6E
330
897F4
100
AcDbEntity
  8
0
100
AcDbPolyline
 90
        4
 70
     1
 43
0.0
 10
10006.58446588783
 20
2779.626572430105
 10
9269.084465887827
 20
2779.626572430105
 10
9269.084465887827
 20
2859.626572430105
 10
10006.58446588783
 20
2859.626572430105
  0
LWPOLYLINE
  5
89D6F
330
897F4
100
AcDbEntity
  8
0
100
AcDbPolyline
 90
        4
 70
     1
 43
0.0
 10
10006.58446588783
 20
2929.626572430105
 10
9269.084465887827
 20
2929.626572430105
 10
9269.084465887827
 20
3009.626572430105
 10
10006.58446588783
 20
3009.626572430105
  0
LWPOLYLINE
  5
89D70
330
897F4
100
AcDbEntity
  8
0
100
AcDbPolyline
 90
        4
 70
     1
 43
0.0
 10
10006.58446588783
 20
3079.626572430105
 10
9269.084465887827
 20
3079.626572430105
 10
9269.084465887827
 20
3159.626572430105
 10
10006.58446588783
 20
3159.626572430105
  0
LWPOLYLINE
  5
89D71
330
897F4
100
AcDbEntity
  8
0
100
AcDbPolyline
 90
        4
 70
     1
 43
0.0
 10
10006.58446588783
 20
3229.626572430105
 10
9269.084465887827
 20
3229.626572430105
 10
9269.084465887827
 20
3309.626572430105
 10
10006.58446588783
 20
3309.626572430105
  0
LWPOLYLINE
  5
89D72
330
897F4
100
AcDbEntity
  8
0
100
AcDbPolyline
 90
        4
 70
     1
 43
0.0
 10
10006.58446588783
 20
3379.626572430105
 10
9269.084465887827
 20
3379.626572430105
 10
9269.084465887827
 20
3459.626572430105
 10
10006.58446588783
 20
3459.626572430105
  0
LWPOLYLINE
  5
89D73
330
897F4
100
AcDbEntity
  8
0
100
AcDbPolyline
 90
        4
 70
     1
 43
0.0
 10
10006.58446588783
 20
3529.626572430105
 10
9269.084465887827
 20
3529.626572430105
 10
9269.084465887827
 20
3609.626572430105
 10
10006.58446588783
 20
3609.626572430105
  0
LWPOLYLINE
  5
89D74
330
897F4
100
AcDbEntity
  8
0
100
AcDbPolyline
 90
        4
 70
     1
 43
0.0
 10
10006.58446588783
 20
3679.626572430105
 10
9269.084465887827
 20
3679.626572430105
 10
9269.084465887827
 20
3759.626572430105
 10
10006.58446588783
 20
3759.626572430105
  0
LWPOLYLINE
  5
89D75
330
897F4
100
AcDbEntity
  8
0
100
AcDbPolyline
 90
        4
 70
     1
 43
0.0
 10
10006.58446588783
 20
3829.626572430105
 10
9269.084465887827
 20
3829.626572430105
 10
9269.084465887827
 20
3909.626572430105
 10
10006.58446588783
 20
3909.626572430105
  0
LWPOLYLINE
  5
89D76
330
897F4
100
AcDbEntity
  8
0
100
AcDbPolyline
 90
        4
 70
     1
 43
0.0
 10
10006.58446588783
 20
3979.626572430105
 10
9269.084465887827
 20
3979.626572430105
 10
9269.084465887827
 20
4059.626572430105
 10
10006.58446588783
 20
4059.626572430105
  0
LWPOLYLINE
  5
89D77
330
897F4
100
AcDbEntity
  8
0
100
AcDbPolyline
 90
        4
 70
     1
 43
0.0
 10
10006.58446588783
 20
4129.626572430105
 10
9269.084465887827
 20
4129.626572430105
 10
9269.084465887827
 20
4209.626572430105
 10
10006.58446588783
 20
4209.626572430105
  0
LWPOLYLINE
  5
89D78
330
897F4
100
AcDbEntity
  8
0
100
AcDbPolyline
 90
        4
 70
     1
 43
0.0
 10
10051.58446588783
 20
2329.626572430105
 10
10789.08446588783
 20
2329.626572430105
 10
10789.08446588783
 20
2409.626572430105
 10
10051.58446588783
 20
2409.626572430105
  0
LWPOLYLINE
  5
89D79
330
897F4
100
AcDbEntity
  8
0
100
AcDbPolyline
 90
        4
 70
     1
 43
0.0
 10
10051.58446588783
 20
2479.626572430105
 10
10789.08446588783
 20
2479.626572430105
 10
10789.08446588783
 20
2559.626572430105
 10
10051.58446588783
 20
2559.626572430105
  0
LWPOLYLINE
  5
89D7A
330
897F4
100
AcDbEntity
  8
0
100
AcDbPolyline
 90
        4
 70
     1
 43
0.0
 10
10051.58446588783
 20
2629.626572430105
 10
10789.08446588783
 20
2629.626572430105
 10
10789.08446588783
 20
2709.626572430105
 10
10051.58446588783
 20
2709.626572430105
  0
LWPOLYLINE
  5
89D7B
330
897F4
100
AcDbEntity
  8
0
100
AcDbPolyline
 90
        4
 70
     1
 43
0.0
 10
10051.58446588783
 20
2779.626572430105
 10
10789.08446588783
 20
2779.626572430105
 10
10789.08446588783
 20
2859.626572430105
 10
10051.58446588783
 20
2859.626572430105
  0
LWPOLYLINE
  5
89D7C
330
897F4
100
AcDbEntity
  8
0
100
AcDbPolyline
 90
        4
 70
     1
 43
0.0
 10
10051.58446588783
 20
2929.626572430105
 10
10789.08446588783
 20
2929.626572430105
 10
10789.08446588783
 20
3009.626572430105
 10
10051.58446588783
 20
3009.626572430105
  0
LWPOLYLINE
  5
89D7D
330
897F4
100
AcDbEntity
  8
0
100
AcDbPolyline
 90
        4
 70
     1
 43
0.0
 10
10051.58446588783
 20
3079.626572430105
 10
10789.08446588783
 20
3079.626572430105
 10
10789.08446588783
 20
3159.626572430105
 10
10051.58446588783
 20
3159.626572430105
  0
LWPOLYLINE
  5
89D7E
330
897F4
100
AcDbEntity
  8
0
100
AcDbPolyline
 90
        4
 70
     1
 43
0.0
 10
10051.58446588783
 20
3229.626572430105
 10
10789.08446588783
 20
3229.626572430105
 10
10789.08446588783
 20
3309.626572430105
 10
10051.58446588783
 20
3309.626572430105
  0
LWPOLYLINE
  5
89D7F
330
897F4
100
AcDbEntity
  8
0
100
AcDbPolyline
 90
        4
 70
     1
 43
0.0
 10
10051.58446588783
 20
3379.626572430105
 10
10789.08446588783
 20
3379.626572430105
 10
10789.08446588783
 20
3459.626572430105
 10
10051.58446588783
 20
3459.626572430105
  0
LWPOLYLINE
  5
89D80
330
897F4
100
AcDbEntity
  8
0
100
AcDbPolyline
 90
        4
 70
     1
 43
0.0
 10
10051.58446588783
 20
3529.626572430105
 10
10789.08446588783
 20
3529.626572430105
 10
10789.08446588783
 20
3609.626572430105
 10
10051.58446588783
 20
3609.626572430105
  0
LWPOLYLINE
  5
89D81
330
897F4
100
AcDbEntity
  8
0
100
AcDbPolyline
 90
        4
 70
     1
 43
0.0
 10
10051.58446588783
 20
3679.626572430105
 10
10789.08446588783
 20
3679.626572430105
 10
10789.08446588783
 20
3759.626572430105
 10
10051.58446588783
 20
3759.626572430105
  0
LWPOLYLINE
  5
89D82
330
897F4
100
AcDbEntity
  8
0
100
AcDbPolyline
 90
        4
 70
     1
 43
0.0
 10
10051.58446588783
 20
3829.626572430105
 10
10789.08446588783
 20
3829.626572430105
 10
10789.08446588783
 20
3909.626572430105
 10
10051.58446588783
 20
3909.626572430105
  0
LWPOLYLINE
  5
89D83
330
897F4
100
AcDbEntity
  8
0
100
AcDbPolyline
 90
        4
 70
     1
 43
0.0
 10
10051.58446588783
 20
3979.626572430105
 10
10789.08446588783
 20
3979.626572430105
 10
10789.08446588783
 20
4059.626572430105
 10
10051.58446588783
 20
4059.626572430105
  0
LWPOLYLINE
  5
89D84
330
897F4
100
AcDbEntity
  8
0
100
AcDbPolyline
 90
        4
 70
     1
 43
0.0
 10
10051.58446588783
 20
4129.626572430105
 10
10789.08446588783
 20
4129.626572430105
 10
10789.08446588783
 20
4209.626572430105
 10
10051.58446588783
 20
4209.626572430105
  0
LWPOLYLINE
  5
89D85
330
897F4
100
AcDbEntity
  8
0
100
AcDbPolyline
 90
        8
 70
     1
 43
0.0
 10
15530.91459293248
 20
2269.626572430097
 10
13790.91459293248
 20
2269.626572430097
 42
-0.4142135623730955
 10
13760.91459293248
 20
2299.626572430097
 10
13760.91459293248
 20
4239.626572430097
 42
-0.4142135623730955
 10
13790.91459293248
 20
4269.626572430097
 10
15530.91459293248
 20
4269.626572430097
 42
-0.4142135623730955
 10
15560.91459293248
 20
4239.626572430097
 10
15560.91459293248
 20
2299.626572430097
 42
-0.4142135623730955
  0
LWPOLYLINE
  5
89D86
330
897F4
100
AcDbEntity
  8
0
100
AcDbPolyline
 90
        8
 70
     1
 43
0.0
 10
15525.91459293248
 20
2299.626572430097
 10
13795.91459293248
 20
2299.626572430097
 42
-0.4142135623730953
 10
13790.91459293248
 20
2304.626572430097
 10
13790.91459293248
 20
4234.626572430097
 42
-0.4142135623730953
 10
13795.91459293248
 20
4239.626572430097
 10
15525.91459293248
 20
4239.626572430097
 42
-0.4142135623730953
 10
15530.91459293248
 20
4234.626572430097
 10
15530.91459293248
 20
2304.626572430097
 42
-0.4142135623730953
  0
LINE
  5
89D87
330
897F4
100
AcDbEntity
  8
0
100
AcDbLine
 10
14648.41459293248
 20
2299.626572430097
 30
0.0
 11
14648.41459293248
 21
4239.626572430097
 31
0.0
  0
LINE
  5
89D88
330
897F4
100
AcDbEntity
  8
0
100
AcDbLine
 10
14673.41459293248
 20
2299.626572430097
 30
0.0
 11
14673.41459293248
 21
4239.626572430097
 31
0.0
  0
LWPOLYLINE
  5
89D89
330
897F4
100
AcDbEntity
  8
0
100
AcDbPolyline
 90
        4
 70
     1
 43
0.0
 10
14638.41459293248
 20
2329.626572430097
 10
13800.91459293248
 20
2329.626572430097
 10
13800.91459293248
 20
2409.626572430097
 10
14638.41459293248
 20
2409.626572430097
  0
LWPOLYLINE
  5
89D8A
330
897F4
100
AcDbEntity
  8
0
100
AcDbPolyline
 90
        4
 70
     1
 43
0.0
 10
14638.41459293248
 20
2479.626572430097
 10
13800.91459293248
 20
2479.626572430097
 10
13800.91459293248
 20
2559.626572430097
 10
14638.41459293248
 20
2559.626572430097
  0
LWPOLYLINE
  5
89D8B
330
897F4
100
AcDbEntity
  8
0
100
AcDbPolyline
 90
        4
 70
     1
 43
0.0
 10
14638.41459293248
 20
2629.626572430097
 10
13800.91459293248
 20
2629.626572430097
 10
13800.91459293248
 20
2709.626572430097
 10
14638.41459293248
 20
2709.626572430097
  0
LWPOLYLINE
  5
89D8C
330
897F4
100
AcDbEntity
  8
0
100
AcDbPolyline
 90
        4
 70
     1
 43
0.0
 10
14638.41459293248
 20
2779.626572430097
 10
13800.91459293248
 20
2779.626572430097
 10
13800.91459293248
 20
2859.626572430097
 10
14638.41459293248
 20
2859.626572430097
  0
LWPOLYLINE
  5
89D8D
330
897F4
100
AcDbEntity
  8
0
100
AcDbPolyline
 90
        4
 70
     1
 43
0.0
 10
14638.41459293248
 20
2929.626572430097
 10
13800.91459293248
 20
2929.626572430097
 10
13800.91459293248
 20
3009.626572430097
 10
14638.41459293248
 20
3009.626572430097
  0
LWPOLYLINE
  5
89D8E
330
897F4
100
AcDbEntity
  8
0
100
AcDbPolyline
 90
        4
 70
     1
 43
0.0
 10
14638.41459293248
 20
3079.626572430097
 10
13800.91459293248
 20
3079.626572430097
 10
13800.91459293248
 20
3159.626572430097
 10
14638.41459293248
 20
3159.626572430097
  0
LWPOLYLINE
  5
89D8F
330
897F4
100
AcDbEntity
  8
0
100
AcDbPolyline
 90
        4
 70
     1
 43
0.0
 10
14638.41459293248
 20
3229.626572430097
 10
13800.91459293248
 20
3229.626572430097
 10
13800.91459293248
 20
3309.626572430097
 10
14638.41459293248
 20
3309.626572430097
  0
LWPOLYLINE
  5
89D90
330
897F4
100
AcDbEntity
  8
0
100
AcDbPolyline
 90
        4
 70
     1
 43
0.0
 10
14638.41459293248
 20
3379.626572430097
 10
13800.91459293248
 20
3379.626572430097
 10
13800.91459293248
 20
3459.626572430097
 10
14638.41459293248
 20
3459.626572430097
  0
LWPOLYLINE
  5
89D91
330
897F4
100
AcDbEntity
  8
0
100
AcDbPolyline
 90
        4
 70
     1
 43
0.0
 10
14638.41459293248
 20
3529.626572430097
 10
13800.91459293248
 20
3529.626572430097
 10
13800.91459293248
 20
3609.626572430097
 10
14638.41459293248
 20
3609.626572430097
  0
LWPOLYLINE
  5
89D92
330
897F4
100
AcDbEntity
  8
0
100
AcDbPolyline
 90
        4
 70
     1
 43
0.0
 10
14638.41459293248
 20
3679.626572430097
 10
13800.91459293248
 20
3679.626572430097
 10
13800.91459293248
 20
3759.626572430097
 10
14638.41459293248
 20
3759.626572430097
  0
LWPOLYLINE
  5
89D93
330
897F4
100
AcDbEntity
  8
0
100
AcDbPolyline
 90
        4
 70
     1
 43
0.0
 10
14638.41459293248
 20
3829.626572430097
 10
13800.91459293248
 20
3829.626572430097
 10
13800.91459293248
 20
3909.626572430097
 10
14638.41459293248
 20
3909.626572430097
  0
LWPOLYLINE
  5
89D94
330
897F4
100
AcDbEntity
  8
0
100
AcDbPolyline
 90
        4
 70
     1
 43
0.0
 10
14638.41459293248
 20
3979.626572430097
 10
13800.91459293248
 20
3979.626572430097
 10
13800.91459293248
 20
4059.626572430097
 10
14638.41459293248
 20
4059.626572430097
  0
LWPOLYLINE
  5
89D95
330
897F4
100
AcDbEntity
  8
0
100
AcDbPolyline
 90
        4
 70
     1
 43
0.0
 10
14638.41459293248
 20
4129.626572430097
 10
13800.91459293248
 20
4129.626572430097
 10
13800.91459293248
 20
4209.626572430097
 10
14638.41459293248
 20
4209.626572430097
  0
LWPOLYLINE
  5
89D96
330
897F4
100
AcDbEntity
  8
0
100
AcDbPolyline
 90
        4
 70
     1
 43
0.0
 10
14683.41459293248
 20
2329.626572430097
 10
15520.91459293248
 20
2329.626572430097
 10
15520.91459293248
 20
2409.626572430097
 10
14683.41459293248
 20
2409.626572430097
  0
LWPOLYLINE
  5
89D97
330
897F4
100
AcDbEntity
  8
0
100
AcDbPolyline
 90
        4
 70
     1
 43
0.0
 10
14683.41459293248
 20
2479.626572430097
 10
15520.91459293248
 20
2479.626572430097
 10
15520.91459293248
 20
2559.626572430097
 10
14683.41459293248
 20
2559.626572430097
  0
LWPOLYLINE
  5
89D98
330
897F4
100
AcDbEntity
  8
0
100
AcDbPolyline
 90
        4
 70
     1
 43
0.0
 10
14683.41459293248
 20
2629.626572430097
 10
15520.91459293248
 20
2629.626572430097
 10
15520.91459293248
 20
2709.626572430097
 10
14683.41459293248
 20
2709.626572430097
  0
LWPOLYLINE
  5
89D99
330
897F4
100
AcDbEntity
  8
0
100
AcDbPolyline
 90
        4
 70
     1
 43
0.0
 10
14683.41459293248
 20
2779.626572430097
 10
15520.91459293248
 20
2779.626572430097
 10
15520.91459293248
 20
2859.626572430097
 10
14683.41459293248
 20
2859.626572430097
  0
LWPOLYLINE
  5
89D9A
330
897F4
100
AcDbEntity
  8
0
100
AcDbPolyline
 90
        4
 70
     1
 43
0.0
 10
14683.41459293248
 20
2929.626572430097
 10
15520.91459293248
 20
2929.626572430097
 10
15520.91459293248
 20
3009.626572430097
 10
14683.41459293248
 20
3009.626572430097
  0
LWPOLYLINE
  5
89D9B
330
897F4
100
AcDbEntity
  8
0
100
AcDbPolyline
 90
        4
 70
     1
 43
0.0
 10
14683.41459293248
 20
3079.626572430097
 10
15520.91459293248
 20
3079.626572430097
 10
15520.91459293248
 20
3159.626572430097
 10
14683.41459293248
 20
3159.626572430097
  0
LWPOLYLINE
  5
89D9C
330
897F4
100
AcDbEntity
  8
0
100
AcDbPolyline
 90
        4
 70
     1
 43
0.0
 10
14683.41459293248
 20
3229.626572430097
 10
15520.91459293248
 20
3229.626572430097
 10
15520.91459293248
 20
3309.626572430097
 10
14683.41459293248
 20
3309.626572430097
  0
LWPOLYLINE
  5
89D9D
330
897F4
100
AcDbEntity
  8
0
100
AcDbPolyline
 90
        4
 70
     1
 43
0.0
 10
14683.41459293248
 20
3379.626572430097
 10
15520.91459293248
 20
3379.626572430097
 10
15520.91459293248
 20
3459.626572430097
 10
14683.41459293248
 20
3459.626572430097
  0
LWPOLYLINE
  5
89D9E
330
897F4
100
AcDbEntity
  8
0
100
AcDbPolyline
 90
        4
 70
     1
 43
0.0
 10
14683.41459293248
 20
3529.626572430097
 10
15520.91459293248
 20
3529.626572430097
 10
15520.91459293248
 20
3609.626572430097
 10
14683.41459293248
 20
3609.626572430097
  0
LWPOLYLINE
  5
89D9F
330
897F4
100
AcDbEntity
  8
0
100
AcDbPolyline
 90
        4
 70
     1
 43
0.0
 10
14683.41459293248
 20
3679.626572430097
 10
15520.91459293248
 20
3679.626572430097
 10
15520.91459293248
 20
3759.626572430097
 10
14683.41459293248
 20
3759.626572430097
  0
LWPOLYLINE
  5
89DA0
330
897F4
100
AcDbEntity
  8
0
100
AcDbPolyline
 90
        4
 70
     1
 43
0.0
 10
14683.41459293248
 20
3829.626572430097
 10
15520.91459293248
 20
3829.626572430097
 10
15520.91459293248
 20
3909.626572430097
 10
14683.41459293248
 20
3909.626572430097
  0
LWPOLYLINE
  5
89DA1
330
897F4
100
AcDbEntity
  8
0
100
AcDbPolyline
 90
        4
 70
     1
 43
0.0
 10
14683.41459293248
 20
3979.626572430097
 10
15520.91459293248
 20
3979.626572430097
 10
15520.91459293248
 20
4059.626572430097
 10
14683.41459293248
 20
4059.626572430097
  0
LWPOLYLINE
  5
89DA2
330
897F4
100
AcDbEntity
  8
0
100
AcDbPolyline
 90
        4
 70
     1
 43
0.0
 10
14683.41459293248
 20
4129.626572430097
 10
15520.91459293248
 20
4129.626572430097
 10
15520.91459293248
 20
4209.626572430097
 10
14683.41459293248
 20
4209.626572430097
  0
LWPOLYLINE
  5
89DA6
330
897F4
100
AcDbEntity
  8
0
100
AcDbPolyline
 90
        8
 70
     1
 43
0.0
 10
1682.500002396046
 20
-505.3734275698953
 10
842.5000023960462
 20
-505.3734275699026
 42
-0.4142135623730955
 10
812.5000023960462
 20
-475.3734275699026
 10
812.5000023960462
 20
1464.626572430097
 42
-0.4142135623730955
 10
842.5000023960462
 20
1494.626572430097
 10
1682.500002396046
 20
1494.626572430105
 42
-0.4142135623730955
 10
1712.500002396046
 20
1464.626572430105
 10
1712.500002396046
 20
-475.3734275698953
 42
-0.4142135623730955
  0
LWPOLYLINE
  5
89DB5
330
897F4
100
AcDbEntity
  8
0
100
AcDbPolyline
 90
        8
 70
     1
 43
0.0
 10
10799.08446588783
 20
-505.3734275698989
 10
9259.084465887827
 20
-505.3734275698989
 42
-0.4142135623730955
 10
9229.084465887827
 20
-475.3734275698989
 10
9229.084465887827
 20
1464.626572430101
 42
-0.4142135623730955
 10
9259.084465887827
 20
1494.626572430101
 10
10799.08446588783
 20
1494.626572430101
 42
-0.4142135623730955
 10
10829.08446588783
 20
1464.626572430101
 10
10829.08446588783
 20
-475.3734275698989
 42
-0.4142135623730955
  0
LWPOLYLINE
  5
89DD3
330
897F4
100
AcDbEntity
  8
0
100
AcDbPolyline
 90
        8
 70
     1
 43
0.0
 10
15530.91459293248
 20
-505.3734275699061
 10
13790.91459293248
 20
-505.3734275699061
 42
-0.4142135623730955
 10
13760.91459293248
 20
-475.3734275699061
 10
13760.91459293248
 20
1464.626572430094
 42
-0.4142135623730955
 10
13790.91459293248
 20
1494.626572430094
 10
15530.91459293248
 20
1494.626572430094
 42
-0.4142135623730955
 10
15560.91459293248
 20
1464.626572430094
 10
15560.91459293248
 20
-475.3734275699061
 42
-0.4142135623730955
  0
LWPOLYLINE
  5
89DF6
330
897F4
100
AcDbEntity
  8
0
100
AcDbPolyline
 90
        8
 70
     1
 43
0.0
 10
19340.91459293249
 20
-505.3734275699034
 10
19190.91459293249
 20
-505.3734275699034
 42
-0.4142135623730955
 10
19160.91459293249
 20
-475.3734275699034
 10
19160.91459293249
 20
1464.626572430096
 42
-0.4142135623730955
 10
19190.91459293249
 20
1494.626572430096
 10
19340.91459293249
 20
1494.626572430096
 42
-0.4142135623730955
 10
19370.91459293249
 20
1464.626572430096
 10
19370.91459293249
 20
-475.3734275699034
 42
-0.4142135623730955
  0
LWPOLYLINE
  5
89DF7
330
897F4
100
AcDbEntity
  8
0
100
AcDbPolyline
 90
        4
 70
     1
 43
0.0
 10
19160.91459293249
 20
4269.626572430101
 10
19160.91459293249
 20
2269.626572430101
 10
19206.91459293249
 20
2269.626572430101
 10
19206.91459293249
 20
4269.626572430101
  0
LINE
  5
89DFA
330
897F4
100
AcDbEntity
  8
0
100
AcDbLine
 10
19195.91459293249
 20
17922.57791928271
 30
0.0
 11
19195.91459293249
 21
17877.57791928271
 31
0.0
  0
LWPOLYLINE
  5
89E09
330
897F4
100
AcDbEntity
  8
0
100
AcDbPolyline
 90
        4
 70
     0
 43
0.0
 10
19195.91459293249
 20
17377.57791928271
 42
0.1817630643734065
 10
19220.91459293249
 20
17427.57791928271
 10
19220.91459293249
 20
17827.57791928271
 42
0.1817630643734065
 10
19195.91459293249
 20
17877.57791928271
  0
LWPOLYLINE
  5
89E16
330
897F4
100
AcDbEntity
  8
0
100
AcDbPolyline
 90
        4
 70
     0
 43
0.0
 10
19195.91459293249
 20
15777.57791928271
 42
0.1817630643734065
 10
19220.91459293249
 20
15827.57791928271
 10
19220.91459293249
 20
16227.57791928271
 42
0.1817630643734065
 10
19195.91459293249
 20
16277.57791928271
  0
LWPOLYLINE
  5
8A0AD
330
897F4
100
AcDbEntity
  8
0
100
AcDbPolyline
 90
        4
 70
     1
 43
0.0
 10
4881.485174409254
 20
23242.57791928271
 10
4881.485174409254
 20
23277.57791928271
 10
6366.485174409254
 20
23277.57791928271
 10
6366.485174409254
 20
23242.57791928271
  0
LWPOLYLINE
  5
8A0AE
330
897F4
100
AcDbEntity
  8
0
100
AcDbPolyline
 90
        4
 70
     1
 43
0.0
 10
4881.485174409254
 20
21172.57791928271
 10
4881.485174409254
 20
21207.57791928271
 10
6366.485174409254
 20
21207.57791928271
 10
6366.485174409254
 20
21172.57791928271
  0
LWPOLYLINE
  5
8A0AF
330
897F4
100
AcDbEntity
  8
0
100
AcDbPolyline
 90
        4
 70
     1
 43
0.0
 10
4881.485174409254
 20
23242.57791928271
 10
4881.485174409254
 20
21207.57791928271
 10
4916.485174409254
 20
21207.57791928271
 10
4916.485174409254
 20
23242.57791928271
  0
LWPOLYLINE
  5
8A0B0
330
897F4
100
AcDbEntity
  8
0
100
AcDbPolyline
 90
        4
 70
     1
 43
0.0
 10
6366.485174409254
 20
23242.5779192827
 10
6366.485174409225
 20
21207.5779192827
 10
6331.485174409225
 20
21207.5779192827
 10
6331.485174409254
 20
23242.5779192827
  0
LWPOLYLINE
  5
8A0B1
330
897F4
100
AcDbEntity
  8
0
100
AcDbPolyline
 90
        4
 70
     0
 43
0.0
 10
4916.485174409254
 20
23242.57791928271
 10
4966.485174409254
 20
23192.57791928271
 10
6281.485174409254
 20
23192.57791928271
 10
6331.485174409254
 20
23242.57791928271
  0
LWPOLYLINE
  5
8A0B2
330
897F4
100
AcDbEntity
  8
0
100
AcDbPolyline
 90
        4
 70
     0
 43
0.0
 10
4916.485174409254
 20
21207.57791928271
 10
4966.485174409254
 20
21257.57791928271
 10
6281.485174409254
 20
21257.57791928271
 10
6331.485174409254
 20
21207.57791928271
  0
LINE
  5
8A0B3
330
897F4
100
AcDbEntity
  8
0
100
AcDbLine
 10
4966.485174409254
 20
23192.57791928271
 30
0.0
 11
4966.485174409254
 21
21257.57791928271
 31
0.0
  0
LINE
  5
8A0B4
330
897F4
100
AcDbEntity
  8
0
100
AcDbLine
 10
6281.485174409254
 20
23192.57791928271
 30
0.0
 11
6281.485174409254
 21
21257.57791928271
 31
0.0
  0
LWPOLYLINE
  5
8A0B5
330
897F4
100
AcDbEntity
  8
0
100
AcDbPolyline
 90
        8
 70
     1
 43
0.0
 10
4916.485174409254
 20
20062.57791928271
 10
4881.485174409254
 20
20062.57791928271
 10
4881.485174409254
 20
20377.57791928271
 10
6366.485174409254
 20
20377.57791928271
 10
6366.485174409254
 20
20062.57791928271
 10
6331.485174409254
 20
20062.57791928271
 10
6331.485174409254
 20
20342.57791928271
 10
4916.485174409254
 20
20342.57791928271
  0
LINE
  5
8A0B6
330
897F4
100
AcDbEntity
  8
0
100
AcDbLine
 10
4916.485174409254
 20
20307.57791928271
 30
0.0
 11
6331.485174409254
 21
20307.57791928271
 31
0.0
  0
LWPOLYLINE
  5
8A0B7
330
897F4
100
AcDbEntity
  8
0
100
AcDbPolyline
 90
        8
 70
     1
 43
0.0
 10
4916.485174409254
 20
18662.57791928271
 10
4881.485174409254
 20
18662.57791928271
 10
4881.485174409254
 20
18977.57791928271
 10
6366.485174409254
 20
18977.57791928271
 10
6366.485174409254
 20
18662.57791928271
 10
6331.485174409254
 20
18662.57791928271
 10
6331.485174409254
 20
18942.57791928271
 10
4916.485174409254
 20
18942.57791928271
1001
PE_URL
1000

  0
LINE
  5
8A0B8
330
897F4
100
AcDbEntity
  8
0
100
AcDbLine
 10
4916.485174409254
 20
18857.57791928271
 30
0.0
 11
6331.485174409254
 21
18857.57791928271
 31
0.0
1001
PE_URL
1000

  0
LWPOLYLINE
  5
8A0B9
330
897F4
100
AcDbEntity
  8
0
100
AcDbPolyline
 90
        8
 70
     1
 43
0.0
 10
4916.485174409254
 20
17052.57791928271
 10
4881.485174409254
 20
17052.57791928271
 10
4881.485174409254
 20
17367.57791928271
 10
6366.485174409254
 20
17367.57791928271
 10
6366.485174409254
 20
17052.57791928271
 10
6331.485174409254
 20
17052.57791928271
 10
6331.485174409254
 20
17332.57791928271
 10
4916.485174409254
 20
17332.57791928271
1001
PE_URL
1000

  0
LINE
  5
8A0BA
330
897F4
100
AcDbEntity
  8
0
100
AcDbLine
 10
4916.485174409254
 20
17297.57791928271
 30
0.0
 11
6331.485174409254
 21
17297.57791928271
 31
0.0
1001
PE_URL
1000

  0
LWPOLYLINE
  5
8A0BB
330
897F4
100
AcDbEntity
  8
0
100
AcDbPolyline
 90
        8
 70
     1
 43
0.0
 10
4916.485174409254
 20
15452.57791928271
 10
4881.485174409254
 20
15452.57791928271
 10
4881.485174409254
 20
15767.57791928271
 10
6366.485174409254
 20
15767.57791928271
 10
6366.485174409254
 20
15452.57791928271
 10
6331.485174409254
 20
15452.57791928271
 10
6331.485174409254
 20
15732.57791928271
 10
4916.485174409254
 20
15732.57791928271
  0
LINE
  5
8A0BC
330
897F4
100
AcDbEntity
  8
0
100
AcDbLine
 10
4916.485174409254
 20
15647.57791928271
 30
0.0
 11
6331.485174409254
 21
15647.57791928271
 31
0.0
  0
LWPOLYLINE
  5
8A0BD
330
897F4
100
AcDbEntity
  8
0
100
AcDbPolyline
 90
        8
 70
     1
 43
0.0
 10
4916.485174409254
 20
15767.57791928271
 10
4881.485174409254
 20
15767.57791928271
 10
4881.485174409254
 20
16322.57791928271
 10
6366.485174409254
 20
16322.57791928271
 10
6366.485174409254
 20
15767.57791928271
 10
6331.485174409254
 20
15767.57791928271
 10
6331.485174409254
 20
16287.57791928271
 10
4916.485174409254
 20
16287.57791928271
  0
LWPOLYLINE
  5
8A0BE
330
897F4
100
AcDbEntity
  8
0
100
AcDbPolyline
 90
        8
 70
     1
 43
0.0
 10
4916.485174409254
 20
17367.57791928271
 10
4881.485174409254
 20
17367.57791928271
 10
4881.485174409254
 20
17922.57791928271
 10
6366.485174409254
 20
17922.57791928271
 10
6366.485174409254
 20
17367.57791928271
 10
6331.485174409254
 20
17367.57791928271
 10
6331.485174409254
 20
17887.57791928271
 10
4916.485174409254
 20
17887.57791928271
1001
PE_URL
1000

  0
LWPOLYLINE
  5
8A15F
330
897F4
100
AcDbEntity
  8
0
100
AcDbPolyline
 90
        8
 70
     1
 43
0.0
 10
9271.584465887821
 20
12274.81511713334
 10
9236.584465887821
 20
12274.81511713334
 10
9236.584465887821
 20
12589.81511713334
 10
10921.58446588782
 20
12589.81511713334
 10
10921.58446588782
 20
12274.81511713334
 10
10886.58446588782
 20
12274.81511713334
 10
10886.58446588782
 20
12554.81511713334
 10
9271.584465887821
 20
12554.81511713334
  0
LINE
  5
8A160
330
897F4
100
AcDbEntity
  8
0
100
AcDbLine
 10
9271.584465887821
 20
12519.81511713334
 30
0.0
 11
10886.58446588782
 21
12519.81511713334
 31
0.0
  0
LWPOLYLINE
  5
8A161
330
897F4
100
AcDbEntity
  8
0
100
AcDbPolyline
 90
        8
 70
     1
 43
0.0
 10
13803.4145929325
 20
12274.81511713334
 10
13768.4145929325
 20
12274.81511713334
 10
13768.4145929325
 20
12589.81511713334
 10
15653.4145929325
 20
12589.81511713334
 10
15653.4145929325
 20
12274.81511713334
 10
15618.4145929325
 20
12274.81511713334
 10
15618.4145929325
 20
12554.81511713334
 10
13803.4145929325
 20
12554.81511713334
  0
LINE
  5
8A162
330
897F4
100
AcDbEntity
  8
0
100
AcDbLine
 10
13803.4145929325
 20
12519.81511713334
 30
0.0
 11
15618.4145929325
 21
12519.81511713334
 31
0.0
  0
LWPOLYLINE
  5
8A163
330
897F4
100
AcDbEntity
  8
0
100
AcDbPolyline
 90
        8
 70
     1
 43
0.0
 10
9271.584465887821
 20
9544.81511713334
 10
9236.584465887821
 20
9544.81511713334
 10
9236.584465887821
 20
9859.81511713334
 10
10921.58446588782
 20
9859.81511713334
 10
10921.58446588782
 20
9544.81511713334
 10
10886.58446588782
 20
9544.81511713334
 10
10886.58446588782
 20
9824.81511713334
 10
9271.584465887821
 20
9824.81511713334
  0
LINE
  5
8A164
330
897F4
100
AcDbEntity
  8
0
100
AcDbLine
 10
9271.584465887821
 20
9739.81511713334
 30
0.0
 11
10886.58446588782
 21
9739.81511713334
 31
0.0
  0
LWPOLYLINE
  5
8A165
330
897F4
100
AcDbEntity
  8
0
 62
     0
100
AcDbPolyline
 90
        8
 70
     1
 43
0.0
 10
13803.4145929325
 20
9544.815117133337
 10
13768.4145929325
 20
9544.815117133337
 10
13768.4145929325
 20
9859.815117133337
 10
15653.4145929325
 20
9859.815117133337
 10
15653.4145929325
 20
9544.815117133337
 10
15618.4145929325
 20
9544.815117133337
 10
15618.4145929325
 20
9824.815117133337
 10
13803.4145929325
 20
9824.815117133337
  0
LINE
  5
8A166
330
897F4
100
AcDbEntity
  8
0
 62
     0
100
AcDbLine
 10
13803.4145929325
 20
9739.815117133337
 30
0.0
 11
15618.4145929325
 21
9739.815117133337
 31
0.0
  0
LINE
  5
8A167
330
897F4
100
AcDbEntity
  8
0
100
AcDbLine
 10
19195.91459293249
 20
12519.81511713334
 30
0.0
 11
21225.91459293251
 21
12519.81511713334
 31
0.0
  0
LWPOLYLINE
  5
8A168
330
897F4
100
AcDbEntity
  8
0
100
AcDbPolyline
 90
        4
 70
     0
 43
0.0
 10
19160.91459293249
 20
12589.81511713334
 10
19160.91459293249
 20
14274.81511713334
 10
19195.91459293249
 20
14274.81511713334
 10
19195.91459293249
 20
12589.81511713334
  0
LINE
  5
8A169
330
897F4
100
AcDbEntity
  8
0
100
AcDbLine
 10
19195.91459293249
 20
9739.815117133337
 30
0.0
 11
21225.91459293251
 21
9739.815117133337
 31
0.0
  0
LWPOLYLINE
  5
8A16A
330
897F4
100
AcDbEntity
  8
0
100
AcDbPolyline
 90
        4
 70
     0
 43
0.0
 10
19160.91459293249
 20
9859.815117133337
 10
19160.91459293249
 20
11544.81511713334
 10
19195.91459293249
 20
11544.81511713334
 10
19195.91459293249
 20
9859.815117133337
  0
LINE
  5
8A16B
330
897F4
100
AcDbEntity
  8
0
100
AcDbLine
 10
19195.91459293249
 20
12274.81511713334
 30
0.0
 11
19160.91459293249
 21
12274.81511713334
 31
0.0
  0
LINE
  5
8A16C
330
897F4
100
AcDbEntity
  8
0
100
AcDbLine
 10
19160.91459293249
 20
12274.81511713334
 30
0.0
 11
19160.91459293249
 21
12589.81511713334
 31
0.0
  0
LINE
  5
8A16D
330
897F4
100
AcDbEntity
  8
0
100
AcDbLine
 10
19195.91459293249
 20
12589.81511713334
 30
0.0
 11
21225.91459293251
 21
12589.81511713334
 31
0.0
  0
LINE
  5
8A16E
330
897F4
100
AcDbEntity
  8
0
100
AcDbLine
 10
21260.91459293251
 20
12589.81511713334
 30
0.0
 11
21260.91459293251
 21
12274.81511713334
 31
0.0
  0
LINE
  5
8A16F
330
897F4
100
AcDbEntity
  8
0
100
AcDbLine
 10
21260.91459293251
 20
12274.81511713334
 30
0.0
 11
21225.91459293251
 21
12274.81511713334
 31
0.0
  0
LINE
  5
8A170
330
897F4
100
AcDbEntity
  8
0
100
AcDbLine
 10
21225.91459293251
 20
12274.81511713334
 30
0.0
 11
21225.91459293251
 21
12589.81511713334
 31
0.0
  0
LINE
  5
8A171
330
897F4
100
AcDbEntity
  8
0
100
AcDbLine
 10
21225.91459293251
 20
12554.81511713334
 30
0.0
 11
19195.91459293249
 21
12554.81511713334
 31
0.0
  0
LINE
  5
8A172
330
897F4
100
AcDbEntity
  8
0
100
AcDbLine
 10
19195.91459293249
 20
12589.81511713334
 30
0.0
 11
19195.91459293249
 21
12274.81511713334
 31
0.0
  0
LINE
  5
8A173
330
897F4
100
AcDbEntity
  8
0
100
AcDbLine
 10
19195.91459293249
 20
9544.815117133337
 30
0.0
 11
19160.91459293249
 21
9544.815117133337
 31
0.0
  0
LINE
  5
8A174
330
897F4
100
AcDbEntity
  8
0
100
AcDbLine
 10
19160.91459293249
 20
9544.815117133337
 30
0.0
 11
19160.91459293249
 21
9859.815117133337
 31
0.0
  0
LINE
  5
8A175
330
897F4
100
AcDbEntity
  8
0
100
AcDbLine
 10
19195.91459293249
 20
9859.815117133337
 30
0.0
 11
21225.91459293251
 21
9859.815117133337
 31
0.0
  0
LINE
  5
8A176
330
897F4
100
AcDbEntity
  8
0
100
AcDbLine
 10
21260.91459293251
 20
9859.815117133337
 30
0.0
 11
21260.91459293251
 21
9544.815117133337
 31
0.0
  0
LINE
  5
8A177
330
897F4
100
AcDbEntity
  8
0
100
AcDbLine
 10
21260.91459293251
 20
9544.815117133337
 30
0.0
 11
21225.91459293251
 21
9544.815117133337
 31
0.0
  0
LINE
  5
8A178
330
897F4
100
AcDbEntity
  8
0
100
AcDbLine
 10
21225.91459293251
 20
9544.815117133337
 30
0.0
 11
21225.91459293251
 21
9859.815117133337
 31
0.0
  0
LINE
  5
8A179
330
897F4
100
AcDbEntity
  8
0
100
AcDbLine
 10
21225.91459293251
 20
9824.815117133337
 30
0.0
 11
19195.91459293249
 21
9824.815117133337
 31
0.0
  0
LINE
  5
8A17A
330
897F4
100
AcDbEntity
  8
0
100
AcDbLine
 10
19195.91459293249
 20
9859.815117133337
 30
0.0
 11
19195.91459293249
 21
9544.815117133337
 31
0.0
  0
LWPOLYLINE
  5
8A17B
330
897F4
100
AcDbEntity
  8
0
100
AcDbPolyline
 90
        8
 70
     0
 43
0.0
 10
13803.4145929325
 20
13109.81511713335
 10
13803.4145929325
 20
12589.81511713334
 10
13768.4145929325
 20
12589.81511713334
 10
13768.4145929325
 20
14274.81511713334
 10
15653.4145929325
 20
14274.81511713334
 10
15653.4145929325
 20
12589.81511713334
 10
15618.4145929325
 20
12589.81511713334
 10
15618.4145929325
 20
13109.81511713335
  0
LWPOLYLINE
  5
8A17C
330
897F4
100
AcDbEntity
  8
0
100
AcDbPolyline
 90
        4
 70
     0
 43
0.0
 10
15618.4145929325
 20
13144.81511713335
 10
15618.4145929325
 20
14239.81511713334
 10
13803.4145929325
 20
14239.81511713334
 10
13803.4145929325
 20
13144.81511713335
  0
LWPOLYLINE
  5
8A17D
330
897F4
100
AcDbEntity
  8
0
100
AcDbPolyline
 90
        8
 70
     0
 43
0.0
 10
9271.584465887821
 20
13109.81511713335
 10
9271.584465887821
 20
12589.81511713334
 10
9236.584465887821
 20
12589.81511713334
 10
9236.584465887821
 20
14274.81511713334
 10
10921.58446588782
 20
14274.81511713334
 10
10921.58446588782
 20
12589.81511713334
 10
10886.58446588782
 20
12589.81511713334
 10
10886.58446588782
 20
13109.81511713335
  0
LWPOLYLINE
  5
8A17E
330
897F4
100
AcDbEntity
  8
0
100
AcDbPolyline
 90
        4
 70
     0
 43
0.0
 10
10886.58446588782
 20
13144.81511713335
 10
10886.58446588782
 20
14239.81511713334
 10
9271.584465887821
 20
14239.81511713334
 10
9271.584465887821
 20
13144.81511713335
  0
LINE
  5
8A17F
330
897F4
100
AcDbEntity
  8
0
100
AcDbLine
 10
19195.91459293249
 20
14274.81511713334
 30
0.0
 11
19195.91459293249
 21
14229.81511713334
 31
0.0
  0
LINE
  5
8A184
330
897F4
100
AcDbEntity
  8
0
100
AcDbLine
 10
9271.584465887821
 20
13144.81511713335
 30
0.0
 11
10886.58446588782
 21
13144.81511713335
 31
0.0
  0
LINE
  5
8A185
330
897F4
100
AcDbEntity
  8
0
100
AcDbLine
 10
10886.58446588782
 20
13109.81511713335
 30
0.0
 11
9271.584465887821
 21
13109.81511713335
 31
0.0
  0
LINE
  5
8A186
330
897F4
100
AcDbEntity
  8
0
100
AcDbLine
 10
13803.4145929325
 20
13144.81511713335
 30
0.0
 11
15618.4145929325
 21
13144.81511713335
 31
0.0
  0
LINE
  5
8A187
330
897F4
100
AcDbEntity
  8
0
100
AcDbLine
 10
15618.4145929325
 20
13109.81511713335
 30
0.0
 11
13803.4145929325
 21
13109.81511713335
 31
0.0
  0
LWPOLYLINE
  5
8A188
330
897F4
100
AcDbEntity
  8
0
 62
     0
100
AcDbPolyline
 90
        8
 70
     0
 43
0.0
 10
13803.4145929325
 20
10379.81511713335
 10
13803.4145929325
 20
9859.815117133337
 10
13768.4145929325
 20
9859.815117133337
 10
13768.4145929325
 20
11544.81511713334
 10
15653.4145929325
 20
11544.81511713334
 10
15653.4145929325
 20
9859.815117133337
 10
15618.4145929325
 20
9859.815117133337
 10
15618.4145929325
 20
10379.81511713335
  0
LWPOLYLINE
  5
8A189
330
897F4
100
AcDbEntity
  8
0
 62
     0
100
AcDbPolyline
 90
        4
 70
     0
 43
0.0
 10
15618.4145929325
 20
10414.81511713335
 10
15618.4145929325
 20
11509.81511713334
 10
13803.4145929325
 20
11509.81511713334
 10
13803.4145929325
 20
10414.81511713335
  0
LWPOLYLINE
  5
8A18A
330
897F4
100
AcDbEntity
  8
0
100
AcDbPolyline
 90
        8
 70
     0
 43
0.0
 10
9271.584465887821
 20
10379.81511713335
 10
9271.584465887821
 20
9859.81511713334
 10
9236.584465887821
 20
9859.81511713334
 10
9236.584465887821
 20
11544.81511713334
 10
10921.58446588782
 20
11544.81511713334
 10
10921.58446588782
 20
9859.81511713334
 10
10886.58446588782
 20
9859.81511713334
 10
10886.58446588782
 20
10379.81511713335
  0
LWPOLYLINE
  5
8A18B
330
897F4
100
AcDbEntity
  8
0
100
AcDbPolyline
 90
        4
 70
     0
 43
0.0
 10
10886.58446588782
 20
10414.81511713335
 10
10886.58446588782
 20
11509.81511713334
 10
9271.584465887821
 20
11509.81511713334
 10
9271.584465887821
 20
10414.81511713335
  0
LINE
  5
8A18C
330
897F4
100
AcDbEntity
  8
0
100
AcDbLine
 10
9271.584465887821
 20
10414.81511713335
 30
0.0
 11
10886.58446588782
 21
10414.81511713335
 31
0.0
  0
LINE
  5
8A18D
330
897F4
100
AcDbEntity
  8
0
100
AcDbLine
 10
10886.58446588782
 20
10379.81511713335
 30
0.0
 11
9271.584465887821
 21
10379.81511713335
 31
0.0
  0
LINE
  5
8A18E
330
897F4
100
AcDbEntity
  8
0
 62
     0
100
AcDbLine
 10
13803.4145929325
 20
10414.81511713335
 30
0.0
 11
15618.4145929325
 21
10414.81511713335
 31
0.0
  0
LINE
  5
8A18F
330
897F4
100
AcDbEntity
  8
0
 62
     0
100
AcDbLine
 10
15618.4145929325
 20
10379.81511713335
 30
0.0
 11
13803.4145929325
 21
10379.81511713335
 31
0.0
  0
LWPOLYLINE
  5
8A194
330
897F4
100
AcDbEntity
  8
0
100
AcDbPolyline
 90
        4
 70
     0
 43
0.0
 10
19195.91459293249
 20
12599.81511713334
 42
0.1817630643734065
 10
19220.91459293249
 20
12649.81511713334
 10
19220.91459293249
 20
13049.81511713334
 42
0.1817630643734065
 10
19195.91459293249
 20
13099.81511713334
  0
LWPOLYLINE
  5
8A195
330
897F4
100
AcDbEntity
  8
0
100
AcDbPolyline
 90
        4
 70
     0
 43
0.0
 10
19195.91459293249
 20
9869.815117133337
 42
0.1817630643734065
 10
19220.91459293249
 20
9919.815117133337
 10
19220.91459293249
 20
10319.81511713334
 42
0.1817630643734065
 10
19195.91459293249
 20
10369.81511713334
  0
LWPOLYLINE
  5
8A196
330
897F4
100
AcDbEntity
  8
0
100
AcDbPolyline
 90
        4
 70
     0
 43
0.0
 10
21260.91459293251
 20
12589.81511713334
 10
21260.91459293251
 20
14274.81511713334
 10
21225.91459293251
 20
14274.81511713334
 10
21225.91459293251
 20
12589.81511713334
  0
LINE
  5
8A197
330
897F4
100
AcDbEntity
  8
0
100
AcDbLine
 10
21225.91459293251
 20
14274.81511713334
 30
0.0
 11
21225.91459293251
 21
14229.81511713334
 31
0.0
  0
LWPOLYLINE
  5
8A198
330
897F4
100
AcDbEntity
  8
0
100
AcDbPolyline
 90
        4
 70
     0
 43
0.0
 10
21260.91459293251
 20
9859.815117133337
 10
21260.91459293251
 20
11544.81511713334
 10
21225.91459293251
 20
11544.81511713334
 10
21225.91459293251
 20
9859.815117133337
  0
LINE
  5
8A199
330
897F4
100
AcDbEntity
  8
0
100
AcDbLine
 10
19195.91459293249
 20
11544.81511713334
 30
0.0
 11
21225.91459293251
 21
11544.81511713334
 31
0.0
  0
LINE
  5
8A19A
330
897F4
100
AcDbEntity
  8
0
100
AcDbLine
 10
21225.91459293251
 20
14274.81511713334
 30
0.0
 11
19195.91459293249
 21
14274.81511713334
 31
0.0
  0
LINE
  5
8A19B
330
897F4
100
AcDbEntity
  8
0
100
AcDbLine
 10
21225.91459293251
 20
14239.81511713334
 30
0.0
 11
19195.91459293249
 21
14239.81511713334
 31
0.0
  0
LINE
  5
8A19C
330
897F4
100
AcDbEntity
  8
0
100
AcDbLine
 10
19195.91459293249
 20
11509.81511713334
 30
0.0
 11
21225.91459293251
 21
11509.81511713334
 31
0.0
  0
LWPOLYLINE
  5
8A27A
330
897F4
100
AcDbEntity
  8
0
100
AcDbPolyline
 90
        4
 70
     1
 43
0.0
 10
6296.485174409254
 20
6269.626572430105
 10
6296.485174409254
 20
6789.626572430105
 10
4881.485174409254
 20
6789.626572430105
 10
4881.485174409254
 20
6269.626572430105
  0
LWPOLYLINE
  5
8A27B
330
897F4
100
AcDbEntity
  8
0
100
AcDbPolyline
 90
        8
 70
     1
 43
0.0
 10
6243.985174409283
 20
2269.626572430105
 10
4903.985174409283
 20
2269.626572430105
 42
-0.4142135623730955
 10
4873.985174409283
 20
2299.626572430105
 10
4873.985174409283
 20
4239.626572430105
 42
-0.4142135623730955
 10
4903.985174409283
 20
4269.626572430105
 10
6243.985174409283
 20
4269.626572430105
 42
-0.4142135623730955
 10
6273.985174409283
 20
4239.626572430105
 10
6273.985174409283
 20
2299.626572430105
 42
-0.4142135623730955
  0
LWPOLYLINE
  5
8A27C
330
897F4
100
AcDbEntity
  8
0
100
AcDbPolyline
 90
        8
 70
     1
 43
0.0
 10
6238.985174409283
 20
2299.626572430105
 10
4908.985174409283
 20
2299.626572430105
 42
-0.4142135623730953
 10
4903.985174409283
 20
2304.626572430105
 10
4903.985174409283
 20
4234.626572430105
 42
-0.4142135623730953
 10
4908.985174409283
 20
4239.626572430105
 10
6238.985174409283
 20
4239.626572430105
 42
-0.4142135623730953
 10
6243.985174409283
 20
4234.626572430105
 10
6243.985174409283
 20
2304.626572430105
 42
-0.4142135623730953
  0
LINE
  5
8A27D
330
897F4
100
AcDbEntity
  8
0
100
AcDbLine
 10
5561.485174409283
 20
2299.626572430105
 30
0.0
 11
5561.485174409283
 21
4239.626572430105
 31
0.0
  0
LINE
  5
8A27E
330
897F4
100
AcDbEntity
  8
0
100
AcDbLine
 10
5586.485174409283
 20
2299.626572430105
 30
0.0
 11
5586.485174409283
 21
4239.626572430105
 31
0.0
  0
LWPOLYLINE
  5
8A27F
330
897F4
100
AcDbEntity
  8
0
100
AcDbPolyline
 90
        4
 70
     1
 43
0.0
 10
5551.485174409283
 20
2329.626572430105
 10
4913.985174409283
 20
2329.626572430105
 10
4913.985174409283
 20
2409.626572430105
 10
5551.485174409283
 20
2409.626572430105
  0
LWPOLYLINE
  5
8A280
330
897F4
100
AcDbEntity
  8
0
100
AcDbPolyline
 90
        4
 70
     1
 43
0.0
 10
5551.485174409283
 20
2479.626572430105
 10
4913.985174409283
 20
2479.626572430105
 10
4913.985174409283
 20
2559.626572430105
 10
5551.485174409283
 20
2559.626572430105
  0
LWPOLYLINE
  5
8A281
330
897F4
100
AcDbEntity
  8
0
100
AcDbPolyline
 90
        4
 70
     1
 43
0.0
 10
5551.485174409283
 20
2629.626572430105
 10
4913.985174409283
 20
2629.626572430105
 10
4913.985174409283
 20
2709.626572430105
 10
5551.485174409283
 20
2709.626572430105
  0
LWPOLYLINE
  5
8A282
330
897F4
100
AcDbEntity
  8
0
100
AcDbPolyline
 90
        4
 70
     1
 43
0.0
 10
5551.485174409283
 20
2779.626572430105
 10
4913.985174409283
 20
2779.626572430105
 10
4913.985174409283
 20
2859.626572430105
 10
5551.485174409283
 20
2859.626572430105
  0
LWPOLYLINE
  5
8A283
330
897F4
100
AcDbEntity
  8
0
100
AcDbPolyline
 90
        4
 70
     1
 43
0.0
 10
5551.485174409283
 20
2929.626572430105
 10
4913.985174409283
 20
2929.626572430105
 10
4913.985174409283
 20
3009.626572430105
 10
5551.485174409283
 20
3009.626572430105
  0
LWPOLYLINE
  5
8A284
330
897F4
100
AcDbEntity
  8
0
100
AcDbPolyline
 90
        4
 70
     1
 43
0.0
 10
5551.485174409283
 20
3079.626572430105
 10
4913.985174409283
 20
3079.626572430105
 10
4913.985174409283
 20
3159.626572430105
 10
5551.485174409283
 20
3159.626572430105
  0
LWPOLYLINE
  5
8A285
330
897F4
100
AcDbEntity
  8
0
100
AcDbPolyline
 90
        4
 70
     1
 43
0.0
 10
5551.485174409283
 20
3229.626572430105
 10
4913.985174409283
 20
3229.626572430105
 10
4913.985174409283
 20
3309.626572430105
 10
5551.485174409283
 20
3309.626572430105
  0
LWPOLYLINE
  5
8A286
330
897F4
100
AcDbEntity
  8
0
100
AcDbPolyline
 90
        4
 70
     1
 43
0.0
 10
5551.485174409283
 20
3379.626572430105
 10
4913.985174409283
 20
3379.626572430105
 10
4913.985174409283
 20
3459.626572430105
 10
5551.485174409283
 20
3459.626572430105
  0
LWPOLYLINE
  5
8A287
330
897F4
100
AcDbEntity
  8
0
100
AcDbPolyline
 90
        4
 70
     1
 43
0.0
 10
5551.485174409283
 20
3529.626572430105
 10
4913.985174409283
 20
3529.626572430105
 10
4913.985174409283
 20
3609.626572430105
 10
5551.485174409283
 20
3609.626572430105
  0
LWPOLYLINE
  5
8A288
330
897F4
100
AcDbEntity
  8
0
100
AcDbPolyline
 90
        4
 70
     1
 43
0.0
 10
5551.485174409283
 20
3679.626572430105
 10
4913.985174409283
 20
3679.626572430105
 10
4913.985174409283
 20
3759.626572430105
 10
5551.485174409283
 20
3759.626572430105
  0
LWPOLYLINE
  5
8A289
330
897F4
100
AcDbEntity
  8
0
100
AcDbPolyline
 90
        4
 70
     1
 43
0.0
 10
5551.485174409283
 20
3829.626572430105
 10
4913.985174409283
 20
3829.626572430105
 10
4913.985174409283
 20
3909.626572430105
 10
5551.485174409283
 20
3909.626572430105
  0
LWPOLYLINE
  5
8A28A
330
897F4
100
AcDbEntity
  8
0
100
AcDbPolyline
 90
        4
 70
     1
 43
0.0
 10
5551.485174409283
 20
3979.626572430105
 10
4913.985174409283
 20
3979.626572430105
 10
4913.985174409283
 20
4059.626572430105
 10
5551.485174409283
 20
4059.626572430105
  0
LWPOLYLINE
  5
8A28B
330
897F4
100
AcDbEntity
  8
0
100
AcDbPolyline
 90
        4
 70
     1
 43
0.0
 10
5551.485174409283
 20
4129.626572430105
 10
4913.985174409283
 20
4129.626572430105
 10
4913.985174409283
 20
4209.626572430105
 10
5551.485174409283
 20
4209.626572430105
  0
LWPOLYLINE
  5
8A28C
330
897F4
100
AcDbEntity
  8
0
100
AcDbPolyline
 90
        4
 70
     1
 43
0.0
 10
5596.485174409283
 20
2329.626572430105
 10
6233.985174409283
 20
2329.626572430105
 10
6233.985174409283
 20
2409.626572430105
 10
5596.485174409283
 20
2409.626572430105
  0
LWPOLYLINE
  5
8A28D
330
897F4
100
AcDbEntity
  8
0
100
AcDbPolyline
 90
        4
 70
     1
 43
0.0
 10
5596.485174409283
 20
2479.626572430105
 10
6233.985174409283
 20
2479.626572430105
 10
6233.985174409283
 20
2559.626572430105
 10
5596.485174409283
 20
2559.626572430105
  0
LWPOLYLINE
  5
8A28E
330
897F4
100
AcDbEntity
  8
0
100
AcDbPolyline
 90
        4
 70
     1
 43
0.0
 10
5596.485174409283
 20
2629.626572430105
 10
6233.985174409283
 20
2629.626572430105
 10
6233.985174409283
 20
2709.626572430105
 10
5596.485174409283
 20
2709.626572430105
  0
LWPOLYLINE
  5
8A28F
330
897F4
100
AcDbEntity
  8
0
100
AcDbPolyline
 90
        4
 70
     1
 43
0.0
 10
5596.485174409283
 20
2779.626572430105
 10
6233.985174409283
 20
2779.626572430105
 10
6233.985174409283
 20
2859.626572430105
 10
5596.485174409283
 20
2859.626572430105
  0
LWPOLYLINE
  5
8A290
330
897F4
100
AcDbEntity
  8
0
100
AcDbPolyline
 90
        4
 70
     1
 43
0.0
 10
5596.485174409283
 20
2929.626572430105
 10
6233.985174409283
 20
2929.626572430105
 10
6233.985174409283
 20
3009.626572430105
 10
5596.485174409283
 20
3009.626572430105
  0
LWPOLYLINE
  5
8A291
330
897F4
100
AcDbEntity
  8
0
100
AcDbPolyline
 90
        4
 70
     1
 43
0.0
 10
5596.485174409283
 20
3079.626572430105
 10
6233.985174409283
 20
3079.626572430105
 10
6233.985174409283
 20
3159.626572430105
 10
5596.485174409283
 20
3159.626572430105
  0
LWPOLYLINE
  5
8A292
330
897F4
100
AcDbEntity
  8
0
100
AcDbPolyline
 90
        4
 70
     1
 43
0.0
 10
5596.485174409283
 20
3229.626572430105
 10
6233.985174409283
 20
3229.626572430105
 10
6233.985174409283
 20
3309.626572430105
 10
5596.485174409283
 20
3309.626572430105
  0
LWPOLYLINE
  5
8A293
330
897F4
100
AcDbEntity
  8
0
100
AcDbPolyline
 90
        4
 70
     1
 43
0.0
 10
5596.485174409283
 20
3379.626572430105
 10
6233.985174409283
 20
3379.626572430105
 10
6233.985174409283
 20
3459.626572430105
 10
5596.485174409283
 20
3459.626572430105
  0
LWPOLYLINE
  5
8A294
330
897F4
100
AcDbEntity
  8
0
100
AcDbPolyline
 90
        4
 70
     1
 43
0.0
 10
5596.485174409283
 20
3529.626572430105
 10
6233.985174409283
 20
3529.626572430105
 10
6233.985174409283
 20
3609.626572430105
 10
5596.485174409283
 20
3609.626572430105
  0
LWPOLYLINE
  5
8A295
330
897F4
100
AcDbEntity
  8
0
100
AcDbPolyline
 90
        4
 70
     1
 43
0.0
 10
5596.485174409283
 20
3679.626572430105
 10
6233.985174409283
 20
3679.626572430105
 10
6233.985174409283
 20
3759.626572430105
 10
5596.485174409283
 20
3759.626572430105
  0
LWPOLYLINE
  5
8A296
330
897F4
100
AcDbEntity
  8
0
100
AcDbPolyline
 90
        4
 70
     1
 43
0.0
 10
5596.485174409283
 20
3829.626572430105
 10
6233.985174409283
 20
3829.626572430105
 10
6233.985174409283
 20
3909.626572430105
 10
5596.485174409283
 20
3909.626572430105
  0
LWPOLYLINE
  5
8A297
330
897F4
100
AcDbEntity
  8
0
100
AcDbPolyline
 90
        4
 70
     1
 43
0.0
 10
5596.485174409283
 20
3979.626572430105
 10
6233.985174409283
 20
3979.626572430105
 10
6233.985174409283
 20
4059.626572430105
 10
5596.485174409283
 20
4059.626572430105
  0
LWPOLYLINE
  5
8A298
330
897F4
100
AcDbEntity
  8
0
100
AcDbPolyline
 90
        4
 70
     1
 43
0.0
 10
5596.485174409283
 20
4129.626572430105
 10
6233.985174409283
 20
4129.626572430105
 10
6233.985174409283
 20
4209.626572430105
 10
5596.485174409283
 20
4209.626572430105
  0
LWPOLYLINE
  5
8A299
330
897F4
100
AcDbEntity
  8
0
100
AcDbPolyline
 90
        8
 70
     1
 43
0.0
 10
6243.985174409283
 20
-505.3734275699026
 10
4903.985174409283
 20
-505.3734275699026
 42
-0.4142135623730955
 10
4873.985174409283
 20
-475.3734275699026
 10
4873.985174409283
 20
1464.626572430097
 42
-0.4142135623730955
 10
4903.985174409283
 20
1494.626572430097
 10
6243.985174409283
 20
1494.626572430097
 42
-0.4142135623730955
 10
6273.985174409283
 20
1464.626572430097
 10
6273.985174409283
 20
-475.3734275699026
 42
-0.4142135623730955
  0
ENDSEC
  0
SECTION
  2
OBJECTS
  0
DICTIONARY
  5
897E4
330
0
100
AcDbDictionary
281
     1
  3
ACAD_COLOR
350
89AF8
  3
ACAD_DETAILVIEWSTYLE
350
89901
  3
ACAD_GROUP
350
897E5
  3
ACAD_LAYOUT
350
897F1
  3
ACAD_MATERIAL
350
897FB
  3
ACAD_MLEADERSTYLE
350
898F6
  3
ACAD_MLINESTYLE
350
897EE
  3
ACAD_PLOTSETTINGS
350
897F0
  3
ACAD_PLOTSTYLENAME
350
897E6
  3
ACAD_SCALELIST
350
898B9
  3
ACAD_SECTIONVIEWSTYLE
350
89902
  3
ACAD_TABLESTYLE
350
898F4
  3
ACAD_VISUALSTYLE
350
898DB
  3
ACDB_RECOMPOSE_DATA
350
8A438
  3
AcDbVariableDictionary
350
898F9
  3
APPDATA
350
898F8
  3
FX_DICT_DIMENSION_PALETTE
350
8A2B7
  3
PRINTCONFIG
350
8A2CB
  0
SUN
  5
89903
330
897F7
100
AcDbSun
 90
        1
290
     0
 63
     7
421
 16777215
 40
1.0
291
     1
 91
  2455826
 92
 54000000
292
     0
 70
     2
 71
   256
280
     1
  0
DICTIONARY
  5
89C27
330
897DB
100
AcDbDictionary
280
     1
281
     1
  3
ACAD_LAYERSTATES
360
89C28
  3
ACLYDICTIONARY
360
89E1C
  0
DICTIONARY
  5
89F5A
330
897F4
100
AcDbDictionary
280
     1
281
     1
  3
ACAD_SORTENTS
360
89F5B
  3
DIM_BOUNDING_BOXES_V1
360
8A2A3
  0
DICTIONARY
  5
89AF8
102
{ACAD_REACTORS
330
897E4
102
}
330
897E4
100
AcDbDictionary
281
     1
  0
DICTIONARY
  5
89901
102
{ACAD_REACTORS
330
897E4
102
}
330
897E4
100
AcDbDictionary
281
     1
  0
DICTIONARY
  5
897E5
102
{ACAD_REACTORS
330
897E4
102
}
330
897E4
100
AcDbDictionary
281
     1
  0
DICTIONARY
  5
897F1
102
{ACAD_REACTORS
330
897E4
102
}
330
897E4
100
AcDbDictionary
281
     1
  3
Foglio1
350
897F3
  3
Model
350
897F5
  0
DICTIONARY
  5
897FB
102
{ACAD_REACTORS
330
897E4
102
}
330
897E4
100
AcDbDictionary
281
     1
  3
ByBlock
350
897FD
  3
ByLayer
350
897FC
  3
Global
350
897FE
  0
DICTIONARY
  5
898F6
102
{ACAD_REACTORS
330
897E4
102
}
330
897E4
100
AcDbDictionary
281
     1
  3
Standard
350
898F7
  0
DICTIONARY
  5
897EE
102
{ACAD_REACTORS
330
897E4
102
}
330
897E4
100
AcDbDictionary
281
     1
  3
Standard
350
897EF
  0
DICTIONARY
  5
897F0
102
{ACAD_REACTORS
330
897E4
102
}
330
897E4
100
AcDbDictionary
281
     1
  0
ACDBDICTIONARYWDFLT
  5
897E6
102
{ACAD_REACTORS
330
897E4
102
}
330
897E4
100
AcDbDictionary
281
     1
  3
Normal
350
897E7
100
AcDbDictionaryWithDefault
340
897E7
  0
DICTIONARY
  5
898B9
102
{ACAD_REACTORS
330
897E4
102
}
330
897E4
100
AcDbDictionary
281
     1
  3
A0
350
898BA
  3
A1
350
898BB
  3
A2
350
898BC
  3
A3
350
898BD
  3
A4
350
898BE
  3
A5
350
898BF
  3
A6
350
898C0
  3
A7
350
898C1
  3
A8
350
898C2
  3
A9
350
898C3
  3
B0
350
898C4
  3
B1
350
898C5
  3
B2
350
898C6
  3
B3
350
898C7
  3
B4
350
898C8
  3
B5
350
898C9
  3
B6
350
898CA
  3
B7
350
898CB
  3
B8
350
898CC
  3
B9
350
898CD
  3
C0
350
898CE
  3
C1
350
898CF
  3
C2
350
898D0
  3
C3
350
898D1
  3
C4
350
898D2
  3
C5
350
898D3
  3
C6
350
898D4
  3
C7
350
898D5
  3
C8
350
898D6
  3
C9
350
898D7
  3
D0
350
898D8
  3
D1
350
898D9
  3
D2
350
898DA
  0
DICTIONARY
  5
89902
102
{ACAD_REACTORS
330
897E4
102
}
330
897E4
100
AcDbDictionary
281
     1
  0
DICTIONARY
  5
898F4
102
{ACAD_REACTORS
330
897E4
102
}
330
897E4
100
AcDbDictionary
281
     1
  3
Standard
350
898F5
  0
DICTIONARY
  5
898DB
102
{ACAD_REACTORS
330
897E4
102
}
330
897E4
100
AcDbDictionary
281
     1
  3
2dWireframe
350
898E0
  3
Basic
350
898E3
  3
Brighten
350
898E7
  3
ColorChange
350
898EB
  3
Conceptual
350
898E5
  3
Dim
350
898E6
  3
EdgeColorOff
350
898EE
  3
Facepattern
350
898EA
  3
Flat
350
898DC
  3
FlatWithEdges
350
898DD
  3
Gouraud
350
898DE
  3
GouraudWithEdges
350
898DF
  3
Hidden
350
898E2
  3
JitterOff
350
898EC
  3
Linepattern
350
898E9
  3
OverhangOff
350
898ED
  3
Realistic
350
898E4
  3
Shaded
350
898F3
  3
Shaded with edges
350
898F2
  3
Shades of Gray
350
898EF
  3
Sketchy
350
898F0
  3
Thicken
350
898E8
  3
Wireframe
350
898E1
  3
X-Ray
350
898F1
  0
XRECORD
  5
8A438
102
{ACAD_REACTORS
330
897E4
102
}
330
897E4
100
AcDbXrecord
280
     1
 90
        1
330
898F5
  0
DICTIONARY
  5
898F9
102
{ACAD_REACTORS
330
897E4
102
}
330
897E4
100
AcDbDictionary
281
     1
  3
CANNOSCALE
350
898FA
  3
CMLEADERSTYLE
350
898FF
  3
CTABLESTYLE
350
898FE
  3
MSLTSCALE
350
89900
  0
DICTIONARY
  5
898F8
102
{ACAD_REACTORS
330
897E4
102
}
330
897E4
100
AcDbDictionary
281
     1
  0
DICTIONARY
  5
8A2B7
102
{ACAD_REACTORS
330
897E4
102
}
330
897E4
100
AcDbDictionary
281
     1
1001
FX_DIMP_FAV_VERSION
1071
        1
  0
DICTIONARYVAR
  5
8A2CB
102
{ACAD_REACTORS
330
897E4
102
}
330
897E4
100
DictionaryVariables
280
     0
  1
0
  0
DICTIONARY
  5
89C28
102
{ACAD_REACTORS
330
89C27
102
}
330
89C27
100
AcDbDictionary
281
     1
  0
DICTIONARY
  5
89E1C
102
{ACAD_REACTORS
330
89C27
102
}
330
89C27
100
AcDbDictionary
281
     1
1001
ACAD
1000
<All
  0
SORTENTSTABLE
  5
89F5B
102
{ACAD_REACTORS
330
89F5A
102
}
330
89F5A
100
AcDbSortentsTable
330
897F4
  0
DICTIONARY
  5
8A2A3
102
{ACAD_REACTORS
330
89F5A
102
}
330
89F5A
100
AcDbDictionary
281
     1
  0
LAYOUT
  5
897F3
102
{ACAD_REACTORS
330
897F1
102
}
330
897F1
100
AcDbPlotSettings
  1

  2
none_device
  4

  6

 40
0.0
 41
0.0
 42
0.0
 43
0.0
 44
0.0
 45
0.0
 46
0.0
 47
0.0
 48
0.0
 49
0.0
140
0.0
141
0.0
142
1.0
143
1.0
 70
   688
 72
     0
 73
     0
 74
     5
  7

 75
    16
 76
     0
 77
     2
 78
   300
147
1.0
148
0.0
149
0.0
100
AcDbLayout
  1
Foglio1
 70
     1
 71
     1
 10
0.0
 20
0.0
 11
0.0
 21
0.0
 12
0.0
 22
0.0
 32
0.0
 14
0.0
 24
0.0
 34
0.0
 15
0.0
 25
0.0
 35
0.0
146
0.0
 13
0.0
 23
0.0
 33
0.0
 16
1.0
 26
0.0
 36
0.0
 17
0.0
 27
1.0
 37
0.0
 76
     0
330
897F2
  0
LAYOUT
  5
897F5
102
{ACAD_REACTORS
330
897F1
102
}
330
897F1
100
AcDbPlotSettings
  1

  2
none_device
  4
Letter_(8.50_x_11.00_Inches)
  6

 40
6.35
 41
6.35
 42
6.35
 43
6.35
 44
215.9
 45
279.4
 46
0.0
 47
0.0
 48
0.0
 49
0.0
140
0.0
141
0.0
142
1.0
143
1.0
 70
  1712
 72
     0
 73
     0
 74
     0
  7

 75
     0
 76
     0
 77
     2
 78
   300
147
1.0
148
0.0
149
0.0
100
AcDbLayout
  1
Model
 70
     1
 71
     0
 10
0.0
 20
0.0
 11
12.0
 21
9.0
 12
0.0
 22
0.0
 32
0.0
 14
-0.0000000000145519
 24
-3000.0
 34
0.0
 15
22190.92367485948
 25
24052.89687195065
 35
0.0
146
0.0
 13
0.0
 23
0.0
 33
0.0
 16
1.0
 26
0.0
 36
0.0
 17
0.0
 27
1.0
 37
0.0
 76
     0
330
897F4
331
897F7
  0
MATERIAL
  5
897FD
102
{ACAD_REACTORS
330
897FB
102
}
330
897FB
100
AcDbMaterial
  1
ByBlock
 72
     1
 94
      127
  0
MATERIAL
  5
897FC
102
{ACAD_REACTORS
330
897FB
102
}
330
897FB
100
AcDbMaterial
  1
ByLayer
 72
     1
 94
      127
  0
MATERIAL
  5
897FE
102
{ACAD_REACTORS
330
897FB
102
}
330
897FB
100
AcDbMaterial
  1
Global
 72
     1
 94
      127
  0
MLEADERSTYLE
  5
898F7
102
{ACAD_REACTORS
330
898F6
102
}
330
898F6
100
AcDbMLeaderStyle
179
     2
170
     2
171
     1
172
     0
 90
        2
 40
0.0
 41
0.0
173
     1
 91
-1056964608
340
897EB
 92
       -2
290
     1
 42
0.09
291
     1
 43
0.36
  3
Standard
341
0
 44
0.18
300

342
897E9
174
     1
178
     1
175
     1
176
     0
 93
-1056964608
 45
0.18
292
     0
297
     0
 46
0.18
343
0
 94
-1056964608
 47
1.0
 49
1.0
140
1.0
293
     1
141
0.0
294
     1
177
     0
142
1.0
295
     0
296
     0
143
0.125
271
     0
272
     9
273
     9
298
     0
  0
MLINESTYLE
  5
897EF
102
{ACAD_REACTORS
330
897EE
102
}
330
897EE
100
AcDbMlineStyle
  2
Standard
 70
     0
  3

 62
   256
 51
90.0
 52
90.0
 71
     2
 49
0.5
 62
   256
  6
BYLAYER
 49
-0.5
 62
   256
  6
BYLAYER
  0
ACDBPLACEHOLDER
  5
897E7
102
{ACAD_REACTORS
330
897E6
102
}
330
897E6
  0
SCALE
  5
898BA
102
{ACAD_REACTORS
330
898B9
102
}
330
898B9
100
AcDbScale
 70
     0
300
1:1
140
1.0
141
1.0
290
     1
  0
SCALE
  5
898BB
102
{ACAD_REACTORS
330
898B9
102
}
330
898B9
100
AcDbScale
 70
     0
300
1:2
140
1.0
141
2.0
290
     0
  0
SCALE
  5
898BC
102
{ACAD_REACTORS
330
898B9
102
}
330
898B9
100
AcDbScale
 70
     0
300
1:4
140
1.0
141
4.0
290
     0
  0
SCALE
  5
898BD
102
{ACAD_REACTORS
330
898B9
102
}
330
898B9
100
AcDbScale
 70
     0
300
1:5
140
1.0
141
5.0
290
     0
  0
SCALE
  5
898BE
102
{ACAD_REACTORS
330
898B9
102
}
330
898B9
100
AcDbScale
 70
     0
300
1:8
140
1.0
141
8.0
290
     0
  0
SCALE
  5
898BF
102
{ACAD_REACTORS
330
898B9
102
}
330
898B9
100
AcDbScale
 70
     0
300
1:10
140
1.0
141
10.0
290
     0
  0
SCALE
  5
898C0
102
{ACAD_REACTORS
330
898B9
102
}
330
898B9
100
AcDbScale
 70
     0
300
1:16
140
1.0
141
16.0
290
     0
  0
SCALE
  5
898C1
102
{ACAD_REACTORS
330
898B9
102
}
330
898B9
100
AcDbScale
 70
     0
300
1:20
140
1.0
141
20.0
290
     0
  0
SCALE
  5
898C2
102
{ACAD_REACTORS
330
898B9
102
}
330
898B9
100
AcDbScale
 70
     0
300
1:30
140
1.0
141
30.0
290
     0
  0
SCALE
  5
898C3
102
{ACAD_REACTORS
330
898B9
102
}
330
898B9
100
AcDbScale
 70
     0
300
1:40
140
1.0
141
40.0
290
     0
  0
SCALE
  5
898C4
102
{ACAD_REACTORS
330
898B9
102
}
330
898B9
100
AcDbScale
 70
     0
300
1:50
140
1.0
141
50.0
290
     0
  0
SCALE
  5
898C5
102
{ACAD_REACTORS
330
898B9
102
}
330
898B9
100
AcDbScale
 70
     0
300
1:100
140
1.0
141
100.0
290
     0
  0
SCALE
  5
898C6
102
{ACAD_REACTORS
330
898B9
102
}
330
898B9
100
AcDbScale
 70
     0
300
2:1
140
2.0
141
1.0
290
     0
  0
SCALE
  5
898C7
102
{ACAD_REACTORS
330
898B9
102
}
330
898B9
100
AcDbScale
 70
     0
300
4:1
140
4.0
141
1.0
290
     0
  0
SCALE
  5
898C8
102
{ACAD_REACTORS
330
898B9
102
}
330
898B9
100
AcDbScale
 70
     0
300
8:1
140
8.0
141
1.0
290
     0
  0
SCALE
  5
898C9
102
{ACAD_REACTORS
330
898B9
102
}
330
898B9
100
AcDbScale
 70
     0
300
10:1
140
10.0
141
1.0
290
     0
  0
SCALE
  5
898CA
102
{ACAD_REACTORS
330
898B9
102
}
330
898B9
100
AcDbScale
 70
     0
300
100:1
140
100.0
141
1.0
290
     0
  0
SCALE
  5
898CB
102
{ACAD_REACTORS
330
898B9
102
}
330
898B9
100
AcDbScale
 70
     0
300
1/128" = 1'-0"
140
0.0078125
141
12.0
290
     0
  0
SCALE
  5
898CC
102
{ACAD_REACTORS
330
898B9
102
}
330
898B9
100
AcDbScale
 70
     0
300
1/64" = 1'-0"
140
0.015625
141
12.0
290
     0
  0
SCALE
  5
898CD
102
{ACAD_REACTORS
330
898B9
102
}
330
898B9
100
AcDbScale
 70
     0
300
1/32" = 1'-0"
140
0.03125
141
12.0
290
     0
  0
SCALE
  5
898CE
102
{ACAD_REACTORS
330
898B9
102
}
330
898B9
100
AcDbScale
 70
     0
300
1/16" = 1'-0"
140
0.0625
141
12.0
290
     0
  0
SCALE
  5
898CF
102
{ACAD_REACTORS
330
898B9
102
}
330
898B9
100
AcDbScale
 70
     0
300
3/32" = 1'-0"
140
0.09375
141
12.0
290
     0
  0
SCALE
  5
898D0
102
{ACAD_REACTORS
330
898B9
102
}
330
898B9
100
AcDbScale
 70
     0
300
1/8" = 1'-0"
140
0.125
141
12.0
290
     0
  0
SCALE
  5
898D1
102
{ACAD_REACTORS
330
898B9
102
}
330
898B9
100
AcDbScale
 70
     0
300
3/16" = 1'-0"
140
0.1875
141
12.0
290
     0
  0
SCALE
  5
898D2
102
{ACAD_REACTORS
330
898B9
102
}
330
898B9
100
AcDbScale
 70
     0
300
1/4" = 1'-0"
140
0.25
141
12.0
290
     0
  0
SCALE
  5
898D3
102
{ACAD_REACTORS
330
898B9
102
}
330
898B9
100
AcDbScale
 70
     0
300
3/8" = 1'-0"
140
0.375
141
12.0
290
     0
  0
SCALE
  5
898D4
102
{ACAD_REACTORS
330
898B9
102
}
330
898B9
100
AcDbScale
 70
     0
300
1/2" = 1'-0"
140
0.5
141
12.0
290
     0
  0
SCALE
  5
898D5
102
{ACAD_REACTORS
330
898B9
102
}
330
898B9
100
AcDbScale
 70
     0
300
3/4" = 1'-0"
140
0.75
141
12.0
290
     0
  0
SCALE
  5
898D6
102
{ACAD_REACTORS
330
898B9
102
}
330
898B9
100
AcDbScale
 70
     0
300
1" = 1'-0"
140
1.0
141
12.0
290
     0
  0
SCALE
  5
898D7
102
{ACAD_REACTORS
330
898B9
102
}
330
898B9
100
AcDbScale
 70
     0
300
1-1/2" = 1'-0"
140
1.5
141
12.0
290
     0
  0
SCALE
  5
898D8
102
{ACAD_REACTORS
330
898B9
102
}
330
898B9
100
AcDbScale
 70
     0
300
3" = 1'-0"
140
3.0
141
12.0
290
     0
  0
SCALE
  5
898D9
102
{ACAD_REACTORS
330
898B9
102
}
330
898B9
100
AcDbScale
 70
     0
300
6" = 1'-0"
140
6.0
141
12.0
290
     0
  0
SCALE
  5
898DA
102
{ACAD_REACTORS
330
898B9
102
}
330
898B9
100
AcDbScale
 70
     0
300
1'-0" = 1'-0"
140
12.0
141
12.0
290
     0
  0
TABLESTYLE
  5
898F5
102
{ACAD_REACTORS
330
898F4
102
}
102
{ACAD_XDICTIONARY
360
8A436
102
}
330
898F4
100
AcDbTableStyle
  3
Standard
 70
     0
 71
     0
 40
0.06
 41
0.06
280
     0
281
     0
  7
STANDARD
140
0.18
170
     2
 62
     0
 63
   257
283
     0
 90
        4
 91
        0
  1

274
    -2
284
     1
 64
     0
275
    -2
285
     1
 65
     0
276
    -2
286
     1
 66
     0
277
    -2
287
     1
 67
     0
278
    -2
288
     1
 68
     0
279
    -2
289
     1
 69
     0
  7
STANDARD
140
0.25
170
     5
 62
     0
 63
   257
283
     0
 90
        4
 91
        0
  1

274
    -2
284
     1
 64
     0
275
    -2
285
     1
 65
     0
276
    -2
286
     1
 66
     0
277
    -2
287
     1
 67
     0
278
    -2
288
     1
 68
     0
279
    -2
289
     1
 69
     0
  7
STANDARD
140
0.18
170
     5
 62
     0
 63
   257
283
     0
 90
        4
 91
        0
  1

274
    -2
284
     1
 64
     0
275
    -2
285
     1
 65
     0
276
    -2
286
     1
 66
     0
277
    -2
287
     1
 67
     0
278
    -2
288
     1
 68
     0
279
    -2
289
     1
 69
     0
  0
VISUALSTYLE
  5
898E0
102
{ACAD_REACTORS
330
898DB
102
}
330
898DB
100
AcDbVisualStyle
  2
2dWireframe
 70
     4
177
     3
291
     0
 70
    58
 90
        0
176
     1
 90
        2
176
     1
 90
        0
176
     1
 90
        0
176
     1
 40
0.6
176
     1
 40
30.0
176
     1
 62
     7
420
 16777215
176
     1
 90
        1
176
     1
 90
        4
176
     1
 62
     7
176
     1
 62
   257
176
     1
 90
        1
176
     1
 90
        1
176
     1
 40
1.0
176
     1
 90
        0
176
     1
 62
   257
176
     1
 40
1.0
176
     1
 90
        1
176
     1
 90
        6
176
     1
 90
        2
176
     1
 62
     7
176
     1
 90
        5
176
     1
 90
        0
176
     1
 90
        0
176
     1
290
     0
176
     1
 90
        1
176
     1
 40
0.0
176
     1
 90
        0
176
     1
290
     1
176
     1
290
     1
176
     1
290
     0
176
     1
290
     0
176
     1
290
     0
176
     1
290
     0
176
     1
290
     0
176
     1
290
     0
176
     1
290
     0
176
     1
 90
       50
176
     1
 40
0.0
176
     1
 40
1.0
176
     1
 90
        0
176
     1
 62
    18
420
        0
176
     1
 90
       50
176
     1
 90
        3
176
     1
 62
     5
420
      255
176
     1
290
     0
176
     1
 90
       50
176
     1
 90
       50
176
     1
 90
       50
176
     1
290
     0
176
     1
 90
       50
176
     1
 62
   256
176
     0
 40
1.0
176
     0
 90
        2
176
     1
  1
strokes_ogs.tif
176
     1
290
     0
176
     1
 40
1.0
176
     1
 40
1.0
176
     1
  0
VISUALSTYLE
  5
898E3
102
{ACAD_REACTORS
330
898DB
102
}
330
898DB
100
AcDbVisualStyle
  2
Basic
 70
     7
177
     3
291
     1
 70
    58
 90
        1
176
     1
 90
        0
176
     1
 90
        1
176
     1
 90
        0
176
     1
 40
0.6
176
     1
 40
30.0
176
     1
 62
     7
420
 16777215
176
     1
 90
        0
176
     1
 90
        4
176
     1
 62
     7
176
     1
 62
   257
176
     1
 90
        1
176
     1
 90
        1
176
     1
 40
1.0
176
     1
 90
        8
176
     1
 62
     7
176
     1
 40
1.0
176
     1
 90
        1
176
     1
 90
        6
176
     1
 90
        2
176
     1
 62
     7
176
     1
 90
        5
176
     1
 90
        0
176
     1
 90
        0
176
     1
290
     0
176
     1
 90
        1
176
     1
 40
0.0
176
     1
 90
        0
176
     1
290
     0
176
     1
290
     1
176
     1
290
     1
176
     1
290
     0
176
     1
290
     0
176
     1
290
     0
176
     1
290
     0
176
     1
290
     0
176
     1
290
     0
176
     1
 90
       50
176
     1
 40
0.0
176
     1
 40
1.0
176
     1
 90
        0
176
     1
 62
    18
420
        0
176
     1
 90
       50
176
     1
 90
        3
176
     1
 62
     5
420
      255
176
     1
290
     0
176
     1
 90
       50
176
     1
 90
       50
176
     1
 90
       50
176
     1
290
     0
176
     1
 90
       50
176
     1
 62
   256
176
     0
 40
1.0
176
     0
 90
        2
176
     1
  1
strokes_ogs.tif
176
     1
290
     0
176
     1
 40
1.0
176
     1
 40
1.0
176
     1
  0
VISUALSTYLE
  5
898E7
102
{ACAD_REACTORS
330
898DB
102
}
330
898DB
100
AcDbVisualStyle
  2
Brighten
 70
    12
177
     3
291
     1
 70
    58
 90
        2
176
     1
 90
        2
176
     1
 90
        0
176
     1
 90
        0
176
     1
 40
0.6
176
     1
 40
30.0
176
     1
 62
     7
420
 16777215
176
     1
 90
        1
176
     1
 90
        4
176
     1
 62
     7
176
     1
 62
   257
176
     1
 90
        1
176
     1
 90
        1
176
     1
 40
1.0
176
     1
 90
        8
176
     1
 62
     7
176
     1
 40
1.0
176
     1
 90
        1
176
     1
 90
        6
176
     1
 90
        2
176
     1
 62
     7
176
     1
 90
        5
176
     1
 90
        0
176
     1
 90
        0
176
     1
290
     0
176
     1
 90
        1
176
     1
 40
50.0
176
     1
 90
        0
176
     1
290
     0
176
     1
290
     1
176
     1
290
     1
176
     1
290
     0
176
     1
290
     0
176
     1
290
     0
176
     1
290
     0
176
     1
290
     0
176
     1
290
     0
176
     1
 90
       50
176
     1
 40
0.0
176
     1
 40
1.0
176
     1
 90
        0
176
     1
 62
    18
420
        0
176
     1
 90
       50
176
     1
 90
        3
176
     1
 62
     5
420
      255
176
     1
290
     0
176
     1
 90
       50
176
     1
 90
       50
176
     1
 90
       50
176
     1
290
     0
176
     1
 90
       50
176
     1
 62
   256
176
     0
 40
1.0
176
     0
 90
        2
176
     1
  1
strokes_ogs.tif
176
     1
290
     0
176
     1
 40
1.0
176
     1
 40
1.0
176
     1
  0
VISUALSTYLE
  5
898EB
102
{ACAD_REACTORS
330
898DB
102
}
330
898DB
100
AcDbVisualStyle
  2
ColorChange
 70
    16
177
     3
291
     1
 70
    58
 90
        2
176
     1
 90
        2
176
     1
 90
        3
176
     1
 90
        0
176
     1
 40
0.6
176
     1
 40
30.0
176
     1
 62
     8
420
  8421504
176
     1
 90
        1
176
     1
 90
        4
176
     1
 62
     7
176
     1
 62
   257
176
     1
 90
        1
176
     1
 90
        1
176
     1
 40
1.0
176
     1
 90
        8
176
     1
 62
     8
420
  8421504
176
     1
 40
1.0
176
     1
 90
        1
176
     1
 90
        6
176
     1
 90
        2
176
     1
 62
     7
176
     1
 90
        5
176
     1
 90
        0
176
     1
 90
        0
176
     1
290
     0
176
     1
 90
        1
176
     1
 40
0.0
176
     1
 90
        0
176
     1
290
     0
176
     1
290
     1
176
     1
290
     1
176
     1
290
     0
176
     1
290
     0
176
     1
290
     0
176
     1
290
     0
176
     1
290
     0
176
     1
290
     0
176
     1
 90
       50
176
     1
 40
0.0
176
     1
 40
1.0
176
     1
 90
        0
176
     1
 62
    18
420
        0
176
     1
 90
       50
176
     1
 90
        3
176
     1
 62
     5
420
      255
176
     1
290
     0
176
     1
 90
       50
176
     1
 90
       50
176
     1
 90
       50
176
     1
290
     0
176
     1
 90
       50
176
     1
 62
   256
176
     0
 40
1.0
176
     0
 90
        2
176
     1
  1
strokes_ogs.tif
176
     1
290
     0
176
     1
 40
1.0
176
     1
 40
1.0
176
     1
  0
VISUALSTYLE
  5
898E5
102
{ACAD_REACTORS
330
898DB
102
}
330
898DB
100
AcDbVisualStyle
  2
Conceptual
 70
     9
177
     3
291
     0
 70
    58
 90
        3
176
     1
 90
        2
176
     1
 90
        0
176
     1
 90
        0
176
     1
 40
0.6
176
     1
 40
30.0
176
     1
 62
     7
420
 16777215
176
     1
 90
        2
176
     1
 90
        2
176
     1
 62
     7
176
     1
 62
   257
176
     1
 90
        1
176
     1
 90
        1
176
     1
 40
179.0
176
     1
 90
        8
176
     1
 62
     7
176
     1
 40
1.0
176
     1
 90
        1
176
     1
 90
        6
176
     1
 90
        2
176
     1
 62
     7
176
     1
 90
        3
176
     1
 90
        0
176
     1
 90
        0
176
     1
290
     0
176
     1
 90
        1
176
     1
 40
0.0
176
     1
 90
        0
176
     1
290
     0
176
     1
290
     1
176
     1
290
     1
176
     1
290
     0
176
     1
290
     0
176
     1
290
     0
176
     1
290
     0
176
     1
290
     0
176
     1
290
     0
176
     1
 90
       50
176
     1
 40
0.0
176
     1
 40
1.0
176
     1
 90
        0
176
     1
 62
    18
420
        0
176
     1
 90
       50
176
     1
 90
        3
176
     1
 62
     5
420
      255
176
     1
290
     0
176
     1
 90
       50
176
     1
 90
       50
176
     1
 90
       50
176
     1
290
     0
176
     1
 90
       50
176
     1
 62
   256
176
     0
 40
1.0
176
     0
 90
        2
176
     1
  1
strokes_ogs.tif
176
     1
290
     0
176
     1
 40
1.0
176
     1
 40
1.0
176
     1
  0
VISUALSTYLE
  5
898E6
102
{ACAD_REACTORS
330
898DB
102
}
330
898DB
100
AcDbVisualStyle
  2
Dim
 70
    11
177
     3
291
     1
 70
    58
 90
        2
176
     1
 90
        2
176
     1
 90
        0
176
     1
 90
        0
176
     1
 40
0.6
176
     1
 40
30.0
176
     1
 62
     7
420
 16777215
176
     1
 90
        1
176
     1
 90
        4
176
     1
 62
     7
176
     1
 62
   257
176
     1
 90
        1
176
     1
 90
        1
176
     1
 40
1.0
176
     1
 90
        8
176
     1
 62
     7
176
     1
 40
1.0
176
     1
 90
        1
176
     1
 90
        6
176
     1
 90
        2
176
     1
 62
     7
176
     1
 90
        5
176
     1
 90
        0
176
     1
 90
        0
176
     1
290
     0
176
     1
 90
        1
176
     1
 40
-50.0
176
     1
 90
        0
176
     1
290
     0
176
     1
290
     1
176
     1
290
     1
176
     1
290
     0
176
     1
290
     0
176
     1
290
     0
176
     1
290
     0
176
     1
290
     0
176
     1
290
     0
176
     1
 90
       50
176
     1
 40
0.0
176
     1
 40
1.0
176
     1
 90
        0
176
     1
 62
    18
420
        0
176
     1
 90
       50
176
     1
 90
        3
176
     1
 62
     5
420
      255
176
     1
290
     0
176
     1
 90
       50
176
     1
 90
       50
176
     1
 90
       50
176
     1
290
     0
176
     1
 90
       50
176
     1
 62
   256
176
     0
 40
1.0
176
     0
 90
        2
176
     1
  1
strokes_ogs.tif
176
     1
290
     0
176
     1
 40
1.0
176
     1
 40
1.0
176
     1
  0
VISUALSTYLE
  5
898EE
102
{ACAD_REACTORS
330
898DB
102
}
330
898DB
100
AcDbVisualStyle
  2
EdgeColorOff
 70
    22
177
     3
291
     1
 70
    58
 90
        2
176
     0
 90
        2
176
     0
 90
        0
176
     0
 90
        0
176
     0
 40
0.6
176
     0
 40
30.0
176
     0
 62
     7
420
 16777215
176
     0
 90
        1
176
     0
 90
        4
176
     0
 62
     7
176
     0
 62
   257
176
     0
 90
        1
176
     0
 90
        1
176
     0
 40
1.0
176
     0
 90
        8
176
     2
 62
     7
176
     0
 40
1.0
176
     0
 90
        1
176
     0
 90
        6
176
     0
 90
        2
176
     0
 62
     7
176
     0
 90
        5
176
     0
 90
        0
176
     0
 90
        0
176
     0
290
     0
176
     0
 90
        1
176
     0
 40
0.0
176
     0
 90
        0
176
     0
290
     0
176
     0
290
     1
176
     0
290
     1
176
     0
290
     0
176
     0
290
     0
176
     0
290
     0
176
     0
290
     0
176
     0
290
     0
176
     0
290
     0
176
     0
 90
       50
176
     0
 40
0.0
176
     0
 40
1.0
176
     0
 90
        0
176
     0
 62
    18
420
        0
176
     0
 90
       50
176
     0
 90
        3
176
     0
 62
     5
420
      255
176
     0
290
     0
176
     0
 90
       50
176
     0
 90
       50
176
     0
 90
       50
176
     0
290
     0
176
     0
 90
       50
176
     0
 62
   256
176
     0
 40
1.0
176
     0
 90
        2
176
     0
  1
strokes_ogs.tif
176
     0
290
     0
176
     0
 40
1.0
176
     0
 40
1.0
176
     0
  0
VISUALSTYLE
  5
898EA
102
{ACAD_REACTORS
330
898DB
102
}
330
898DB
100
AcDbVisualStyle
  2
Facepattern
 70
    15
177
     3
291
     1
 70
    58
 90
        2
176
     1
 90
        2
176
     1
 90
        0
176
     1
 90
        0
176
     1
 40
0.6
176
     1
 40
30.0
176
     1
 62
     7
420
 16777215
176
     1
 90
        1
176
     1
 90
        4
176
     1
 62
     7
176
     1
 62
   257
176
     1
 90
        1
176
     1
 90
        1
176
     1
 40
1.0
176
     1
 90
        8
176
     1
 62
     7
176
     1
 40
1.0
176
     1
 90
        1
176
     1
 90
        6
176
     1
 90
        2
176
     1
 62
     7
176
     1
 90
        5
176
     1
 90
        0
176
     1
 90
        0
176
     1
290
     0
176
     1
 90
        1
176
     1
 40
0.0
176
     1
 90
        0
176
     1
290
     0
176
     1
290
     1
176
     1
290
     1
176
     1
290
     0
176
     1
290
     0
176
     1
290
     0
176
     1
290
     0
176
     1
290
     0
176
     1
290
     0
176
     1
 90
       50
176
     1
 40
0.0
176
     1
 40
1.0
176
     1
 90
        0
176
     1
 62
    18
420
        0
176
     1
 90
       50
176
     1
 90
        3
176
     1
 62
     5
420
      255
176
     1
290
     0
176
     1
 90
       50
176
     1
 90
       50
176
     1
 90
       50
176
     1
290
     0
176
     1
 90
       50
176
     1
 62
   256
176
     0
 40
1.0
176
     0
 90
        2
176
     1
  1
strokes_ogs.tif
176
     1
290
     0
176
     1
 40
1.0
176
     1
 40
1.0
176
     1
  0
VISUALSTYLE
  5
898DC
102
{ACAD_REACTORS
330
898DB
102
}
330
898DB
100
AcDbVisualStyle
  2
Flat
 70
     0
177
     3
291
     1
 70
    58
 90
        2
176
     1
 90
        1
176
     1
 90
        1
176
     1
 90
        2
176
     1
 40
0.6
176
     1
 40
30.0
176
     1
 62
     7
420
 16777215
176
     1
 90
        0
176
     1
 90
        0
176
     1
 62
     7
176
     1
 62
   257
176
     1
 90
        1
176
     1
 90
        1
176
     1
 40
1.0
176
     1
 90
        8
176
     1
 62
     7
176
     1
 40
1.0
176
     1
 90
        1
176
     1
 90
        6
176
     1
 90
        2
176
     1
 62
     7
176
     1
 90
        5
176
     1
 90
        0
176
     1
 90
        0
176
     1
290
     0
176
     1
 90
       13
176
     1
 40
0.0
176
     1
 90
        0
176
     1
290
     0
176
     1
290
     1
176
     1
290
     1
176
     1
290
     0
176
     1
290
     0
176
     1
290
     0
176
     1
290
     0
176
     1
290
     0
176
     1
290
     0
176
     1
 90
       50
176
     1
 40
0.0
176
     1
 40
1.0
176
     1
 90
        0
176
     1
 62
    18
420
        0
176
     1
 90
       50
176
     1
 90
        3
176
     1
 62
     5
420
      255
176
     1
290
     0
176
     1
 90
       50
176
     1
 90
       50
176
     1
 90
       50
176
     1
290
     0
176
     1
 90
       50
176
     1
 62
   256
176
     0
 40
1.0
176
     0
 90
        2
176
     1
  1
strokes_ogs.tif
176
     1
290
     0
176
     1
 40
1.0
176
     1
 40
1.0
176
     1
  0
VISUALSTYLE
  5
898DD
102
{ACAD_REACTORS
330
898DB
102
}
330
898DB
100
AcDbVisualStyle
  2
FlatWithEdges
 70
     1
177
     3
291
     1
 70
    58
 90
        2
176
     1
 90
        1
176
     1
 90
        1
176
     1
 90
        2
176
     1
 40
0.6
176
     1
 40
30.0
176
     1
 62
     7
420
 16777215
176
     1
 90
        1
176
     1
 90
        0
176
     1
 62
     7
176
     1
 62
   257
176
     1
 90
        1
176
     1
 90
        1
176
     1
 40
1.0
176
     1
 90
        0
176
     1
 62
   257
176
     1
 40
1.0
176
     1
 90
        1
176
     1
 90
        6
176
     1
 90
        2
176
     1
 62
     7
176
     1
 90
        5
176
     1
 90
        0
176
     1
 90
        0
176
     1
290
     0
176
     1
 90
       13
176
     1
 40
0.0
176
     1
 90
        0
176
     1
290
     0
176
     1
290
     1
176
     1
290
     1
176
     1
290
     0
176
     1
290
     0
176
     1
290
     0
176
     1
290
     0
176
     1
290
     0
176
     1
290
     0
176
     1
 90
       50
176
     1
 40
0.0
176
     1
 40
1.0
176
     1
 90
        0
176
     1
 62
    18
420
        0
176
     1
 90
       50
176
     1
 90
        3
176
     1
 62
     5
420
      255
176
     1
290
     0
176
     1
 90
       50
176
     1
 90
       50
176
     1
 90
       50
176
     1
290
     0
176
     1
 90
       50
176
     1
 62
   256
176
     0
 40
1.0
176
     0
 90
        2
176
     1
  1
strokes_ogs.tif
176
     1
290
     0
176
     1
 40
1.0
176
     1
 40
1.0
176
     1
  0
VISUALSTYLE
  5
898DE
102
{ACAD_REACTORS
330
898DB
102
}
330
898DB
100
AcDbVisualStyle
  2
Gouraud
 70
     2
177
     3
291
     1
 70
    58
 90
        2
176
     1
 90
        2
176
     1
 90
        1
176
     1
 90
        2
176
     1
 40
0.6
176
     1
 40
30.0
176
     1
 62
     7
420
 16777215
176
     1
 90
        0
176
     1
 90
        0
176
     1
 62
     7
176
     1
 62
   257
176
     1
 90
        1
176
     1
 90
        1
176
     1
 40
1.0
176
     1
 90
        0
176
     1
 62
     7
176
     1
 40
1.0
176
     1
 90
        1
176
     1
 90
        6
176
     1
 90
        2
176
     1
 62
     7
176
     1
 90
        5
176
     1
 90
        0
176
     1
 90
        0
176
     1
290
     0
176
     1
 90
       13
176
     1
 40
0.0
176
     1
 90
        0
176
     1
290
     0
176
     1
290
     1
176
     1
290
     1
176
     1
290
     0
176
     1
290
     0
176
     1
290
     0
176
     1
290
     0
176
     1
290
     0
176
     1
290
     0
176
     1
 90
       50
176
     1
 40
0.0
176
     1
 40
1.0
176
     1
 90
        0
176
     1
 62
    18
420
        0
176
     1
 90
       50
176
     1
 90
        3
176
     1
 62
     5
420
      255
176
     1
290
     0
176
     1
 90
       50
176
     1
 90
       50
176
     1
 90
       50
176
     1
290
     0
176
     1
 90
       50
176
     1
 62
   256
176
     0
 40
1.0
176
     0
 90
        2
176
     1
  1
strokes_ogs.tif
176
     1
290
     0
176
     1
 40
1.0
176
     1
 40
1.0
176
     1
  0
VISUALSTYLE
  5
898DF
102
{ACAD_REACTORS
330
898DB
102
}
330
898DB
100
AcDbVisualStyle
  2
GouraudWithEdges
 70
     3
177
     3
291
     1
 70
    58
 90
        2
176
     1
 90
        2
176
     1
 90
        1
176
     1
 90
        2
176
     1
 40
0.6
176
     1
 40
30.0
176
     1
 62
     7
420
 16777215
176
     1
 90
        1
176
     1
 90
        0
176
     1
 62
     7
176
     1
 62
   257
176
     1
 90
        1
176
     1
 90
        1
176
     1
 40
1.0
176
     1
 90
        0
176
     1
 62
   257
176
     1
 40
1.0
176
     1
 90
        1
176
     1
 90
        6
176
     1
 90
        2
176
     1
 62
     7
176
     1
 90
        5
176
     1
 90
        0
176
     1
 90
        0
176
     1
290
     0
176
     1
 90
       13
176
     1
 40
0.0
176
     1
 90
        0
176
     1
290
     0
176
     1
290
     1
176
     1
290
     1
176
     1
290
     0
176
     1
290
     0
176
     1
290
     0
176
     1
290
     0
176
     1
290
     0
176
     1
290
     0
176
     1
 90
       50
176
     1
 40
0.0
176
     1
 40
1.0
176
     1
 90
        0
176
     1
 62
    18
420
        0
176
     1
 90
       50
176
     1
 90
        3
176
     1
 62
     5
420
      255
176
     1
290
     0
176
     1
 90
       50
176
     1
 90
       50
176
     1
 90
       50
176
     1
290
     0
176
     1
 90
       50
176
     1
 62
   256
176
     0
 40
1.0
176
     0
 90
        2
176
     1
  1
strokes_ogs.tif
176
     1
290
     0
176
     1
 40
1.0
176
     1
 40
1.0
176
     1
  0
VISUALSTYLE
  5
898E2
102
{ACAD_REACTORS
330
898DB
102
}
330
898DB
100
AcDbVisualStyle
  2
Hidden
 70
     6
177
     3
291
     0
 70
    58
 90
        1
176
     1
 90
        2
176
     1
 90
        2
176
     1
 90
        0
176
     1
 40
0.6
176
     1
 40
30.0
176
     1
 62
     7
420
 16777215
176
     1
 90
        2
176
     1
 90
        2
176
     1
 62
     7
176
     1
 62
   257
176
     1
 90
        2
176
     1
 90
        1
176
     1
 40
40.0
176
     1
 90
        0
176
     1
 62
   257
176
     1
 40
1.0
176
     1
 90
        1
176
     1
 90
        6
176
     1
 90
        2
176
     1
 62
     7
176
     1
 90
        3
176
     1
 90
        0
176
     1
 90
        0
176
     1
290
     0
176
     1
 90
        1
176
     1
 40
0.0
176
     1
 90
        0
176
     1
290
     0
176
     1
290
     1
176
     1
290
     1
176
     1
290
     0
176
     1
290
     0
176
     1
290
     0
176
     1
290
     0
176
     1
290
     0
176
     1
290
     0
176
     1
 90
       50
176
     1
 40
0.0
176
     1
 40
1.0
176
     1
 90
        0
176
     1
 62
    18
420
        0
176
     1
 90
       50
176
     1
 90
        3
176
     1
 62
     5
420
      255
176
     1
290
     0
176
     1
 90
       50
176
     1
 90
       50
176
     1
 90
       50
176
     1
290
     0
176
     1
 90
       50
176
     1
 62
   256
176
     0
 40
1.0
176
     0
 90
        2
176
     1
  1
strokes_ogs.tif
176
     1
290
     0
176
     1
 40
1.0
176
     1
 40
1.0
176
     1
  0
VISUALSTYLE
  5
898EC
102
{ACAD_REACTORS
330
898DB
102
}
330
898DB
100
AcDbVisualStyle
  2
JitterOff
 70
    20
177
     3
291
     1
 70
    58
 90
        2
176
     0
 90
        2
176
     0
 90
        0
176
     0
 90
        0
176
     0
 40
0.6
176
     0
 40
30.0
176
     0
 62
     7
420
 16777215
176
     0
 90
        1
176
     0
 90
        4
176
     0
 62
     7
176
     0
 62
   257
176
     0
 90
        1
176
     0
 90
        1
176
     0
 40
1.0
176
     0
 90
       10
176
     2
 62
     7
176
     0
 40
1.0
176
     0
 90
        1
176
     0
 90
        6
176
     0
 90
        2
176
     0
 62
     7
176
     0
 90
        5
176
     0
 90
        0
176
     0
 90
        0
176
     0
290
     0
176
     0
 90
        1
176
     0
 40
0.0
176
     0
 90
        0
176
     0
290
     0
176
     0
290
     1
176
     0
290
     1
176
     0
290
     0
176
     0
290
     0
176
     0
290
     0
176
     0
290
     0
176
     0
290
     0
176
     0
290
     0
176
     0
 90
       50
176
     0
 40
0.0
176
     0
 40
1.0
176
     0
 90
        0
176
     0
 62
    18
420
        0
176
     0
 90
       50
176
     0
 90
        3
176
     0
 62
     5
420
      255
176
     0
290
     0
176
     0
 90
       50
176
     0
 90
       50
176
     0
 90
       50
176
     0
290
     0
176
     0
 90
       50
176
     0
 62
   256
176
     0
 40
1.0
176
     0
 90
        2
176
     0
  1
strokes_ogs.tif
176
     0
290
     0
176
     0
 40
1.0
176
     0
 40
1.0
176
     0
  0
VISUALSTYLE
  5
898E9
102
{ACAD_REACTORS
330
898DB
102
}
330
898DB
100
AcDbVisualStyle
  2
Linepattern
 70
    14
177
     3
291
     1
 70
    58
 90
        2
176
     1
 90
        2
176
     1
 90
        0
176
     1
 90
        0
176
     1
 40
0.6
176
     1
 40
30.0
176
     1
 62
     7
420
 16777215
176
     1
 90
        1
176
     1
 90
        4
176
     1
 62
     7
176
     1
 62
   257
176
     1
 90
        7
176
     1
 90
        7
176
     1
 40
1.0
176
     1
 90
        8
176
     1
 62
     7
176
     1
 40
1.0
176
     1
 90
        1
176
     1
 90
        6
176
     1
 90
        2
176
     1
 62
     7
176
     1
 90
        5
176
     1
 90
        0
176
     1
 90
        0
176
     1
290
     0
176
     1
 90
        1
176
     1
 40
0.0
176
     1
 90
        0
176
     1
290
     0
176
     1
290
     1
176
     1
290
     1
176
     1
290
     0
176
     1
290
     0
176
     1
290
     0
176
     1
290
     0
176
     1
290
     0
176
     1
290
     0
176
     1
 90
       50
176
     1
 40
0.0
176
     1
 40
1.0
176
     1
 90
        0
176
     1
 62
    18
420
        0
176
     1
 90
       50
176
     1
 90
        3
176
     1
 62
     5
420
      255
176
     1
290
     0
176
     1
 90
       50
176
     1
 90
       50
176
     1
 90
       50
176
     1
290
     0
176
     1
 90
       50
176
     1
 62
   256
176
     0
 40
1.0
176
     0
 90
        2
176
     1
  1
strokes_ogs.tif
176
     1
290
     0
176
     1
 40
1.0
176
     1
 40
1.0
176
     1
  0
VISUALSTYLE
  5
898ED
102
{ACAD_REACTORS
330
898DB
102
}
330
898DB
100
AcDbVisualStyle
  2
OverhangOff
 70
    21
177
     3
291
     1
 70
    58
 90
        2
176
     0
 90
        2
176
     0
 90
        0
176
     0
 90
        0
176
     0
 40
0.6
176
     0
 40
30.0
176
     0
 62
     7
420
 16777215
176
     0
 90
        1
176
     0
 90
        4
176
     0
 62
     7
176
     0
 62
   257
176
     0
 90
        1
176
     0
 90
        1
176
     0
 40
1.0
176
     0
 90
        9
176
     2
 62
     7
176
     0
 40
1.0
176
     0
 90
        1
176
     0
 90
        6
176
     0
 90
        2
176
     0
 62
     7
176
     0
 90
        5
176
     0
 90
        0
176
     0
 90
        0
176
     0
290
     0
176
     0
 90
        1
176
     0
 40
0.0
176
     0
 90
        0
176
     0
290
     0
176
     0
290
     1
176
     0
290
     1
176
     0
290
     0
176
     0
290
     0
176
     0
290
     0
176
     0
290
     0
176
     0
290
     0
176
     0
290
     0
176
     0
 90
       50
176
     0
 40
0.0
176
     0
 40
1.0
176
     0
 90
        0
176
     0
 62
    18
420
        0
176
     0
 90
       50
176
     0
 90
        3
176
     0
 62
     5
420
      255
176
     0
290
     0
176
     0
 90
       50
176
     0
 90
       50
176
     0
 90
       50
176
     0
290
     0
176
     0
 90
       50
176
     0
 62
   256
176
     0
 40
1.0
176
     0
 90
        2
176
     0
  1
strokes_ogs.tif
176
     0
290
     0
176
     0
 40
1.0
176
     0
 40
1.0
176
     0
  0
VISUALSTYLE
  5
898E4
102
{ACAD_REACTORS
330
898DB
102
}
330
898DB
100
AcDbVisualStyle
  2
Realistic
 70
     8
177
     3
291
     0
 70
    58
 90
        2
176
     1
 90
        3
176
     1
 90
        0
176
     1
 90
        2
176
     1
 40
0.6
176
     1
 40
30.0
176
     1
 62
     7
420
 16777215
176
     1
 90
        0
176
     1
 90
        0
176
     1
 62
     7
176
     1
 62
   257
176
     1
 90
        1
176
     1
 90
        1
176
     1
 40
1.0
176
     1
 90
        8
176
     1
 62
   257
176
     1
 40
1.0
176
     1
 90
        1
176
     1
 90
        6
176
     1
 90
        2
176
     1
 62
     7
176
     1
 90
        3
176
     1
 90
        0
176
     1
 90
        0
176
     1
290
     0
176
     1
 90
       13
176
     1
 40
0.0
176
     1
 90
        0
176
     1
290
     0
176
     1
290
     1
176
     1
290
     1
176
     1
290
     0
176
     1
290
     0
176
     1
290
     0
176
     1
290
     0
176
     1
290
     0
176
     1
290
     0
176
     1
 90
       50
176
     1
 40
0.0
176
     1
 40
1.0
176
     1
 90
        0
176
     1
 62
    18
420
        0
176
     1
 90
       50
176
     1
 90
        3
176
     1
 62
     5
420
      255
176
     1
290
     0
176
     1
 90
       50
176
     1
 90
       50
176
     1
 90
       50
176
     1
290
     0
176
     1
 90
       50
176
     1
 62
   256
176
     0
 40
1.0
176
     0
 90
        2
176
     1
  1
strokes_ogs.tif
176
     1
290
     0
176
     1
 40
1.0
176
     1
 40
1.0
176
     1
  0
VISUALSTYLE
  5
898F3
102
{ACAD_REACTORS
330
898DB
102
}
330
898DB
100
AcDbVisualStyle
  2
Shaded
 70
    27
177
     3
291
     0
 70
    58
 90
        2
176
     1
 90
        2
176
     1
 90
        1
176
     1
 90
        2
176
     1
 40
0.6
176
     1
 40
30.0
176
     1
 62
     7
420
 16777215
176
     1
 90
        0
176
     1
 90
        4
176
     1
 62
     7
176
     1
 62
   257
176
     1
 90
        1
176
     1
 90
        1
176
     1
 40
1.0
176
     1
 90
        8
176
     1
 62
   257
176
     1
 40
1.0
176
     1
 90
        1
176
     1
 90
        6
176
     1
 90
        2
176
     1
 62
     8
420
  7895160
176
     1
 90
        3
176
     1
 90
        0
176
     1
 90
        0
176
     1
290
     0
176
     1
 90
        5
176
     1
 40
0.0
176
     1
 90
        0
176
     1
290
     0
176
     1
290
     1
176
     1
290
     1
176
     1
290
     0
176
     1
290
     0
176
     1
290
     0
176
     1
290
     0
176
     1
290
     0
176
     1
290
     0
176
     1
 90
       50
176
     1
 40
0.0
176
     1
 40
1.0
176
     1
 90
        0
176
     1
 62
    18
420
        0
176
     1
 90
       50
176
     1
 90
        3
176
     1
 62
     5
420
      255
176
     1
290
     0
176
     1
 90
       50
176
     1
 90
       50
176
     1
 90
       50
176
     1
290
     0
176
     1
 90
       50
176
     1
 62
   256
176
     0
 40
1.0
176
     0
 90
        2
176
     1
  1
strokes_ogs.tif
176
     1
290
     0
176
     1
 40
1.0
176
     1
 40
1.0
176
     1
  0
VISUALSTYLE
  5
898F2
102
{ACAD_REACTORS
330
898DB
102
}
330
898DB
100
AcDbVisualStyle
  2
Shaded with edges
 70
    26
177
     3
291
     0
 70
    58
 90
        2
176
     1
 90
        2
176
     1
 90
        1
176
     1
 90
        2
176
     1
 40
0.6
176
     1
 40
30.0
176
     1
 62
     7
420
 16777215
176
     1
 90
        1
176
     1
 90
       10
176
     1
 62
     7
176
     1
 62
   257
176
     1
 90
        2
176
     1
 90
        1
176
     1
 40
1.0
176
     1
 90
        8
176
     1
 62
   257
176
     1
 40
1.0
176
     1
 90
        1
176
     1
 90
        6
176
     1
 90
        2
176
     1
 62
     7
176
     1
 90
        3
176
     1
 90
        0
176
     1
 90
        0
176
     1
290
     0
176
     1
 90
        5
176
     1
 40
0.0
176
     1
 90
        0
176
     1
290
     0
176
     1
290
     1
176
     1
290
     1
176
     1
290
     0
176
     1
290
     0
176
     1
290
     0
176
     1
290
     0
176
     1
290
     0
176
     1
290
     0
176
     1
 90
       50
176
     1
 40
0.0
176
     1
 40
1.0
176
     1
 90
        0
176
     1
 62
    18
420
        0
176
     1
 90
       50
176
     1
 90
        3
176
     1
 62
     5
420
      255
176
     1
290
     0
176
     1
 90
       50
176
     1
 90
       50
176
     1
 90
       50
176
     1
290
     0
176
     1
 90
       50
176
     1
 62
   256
176
     0
 40
1.0
176
     0
 90
        2
176
     1
  1
strokes_ogs.tif
176
     1
290
     0
176
     1
 40
1.0
176
     1
 40
1.0
176
     1
  0
VISUALSTYLE
  5
898EF
102
{ACAD_REACTORS
330
898DB
102
}
330
898DB
100
AcDbVisualStyle
  2
Shades of Gray
 70
    23
177
     3
291
     0
 70
    58
 90
        2
176
     1
 90
        2
176
     1
 90
        3
176
     1
 90
        0
176
     1
 40
0.6
176
     1
 40
30.0
176
     1
 62
     7
420
 16777215
176
     1
 90
        2
176
     1
 90
        2
176
     1
 62
     7
176
     1
 62
     7
176
     1
 90
        1
176
     1
 90
        1
176
     1
 40
40.0
176
     1
 90
        8
176
     1
 62
     7
176
     1
 40
1.0
176
     1
 90
        1
176
     1
 90
        6
176
     1
 90
        2
176
     1
 62
     7
176
     1
 90
        3
176
     1
 90
        0
176
     1
 90
        0
176
     1
290
     0
176
     1
 90
        1
176
     1
 40
0.0
176
     1
 90
        0
176
     1
290
     0
176
     1
290
     1
176
     1
290
     1
176
     1
290
     0
176
     1
290
     0
176
     1
290
     0
176
     1
290
     0
176
     1
290
     0
176
     1
290
     0
176
     1
 90
       50
176
     1
 40
0.0
176
     1
 40
1.0
176
     1
 90
        0
176
     1
 62
    18
420
        0
176
     1
 90
       50
176
     1
 90
        3
176
     1
 62
     5
420
      255
176
     1
290
     0
176
     1
 90
       50
176
     1
 90
       50
176
     1
 90
       50
176
     1
290
     0
176
     1
 90
       50
176
     1
 62
   256
176
     0
 40
1.0
176
     0
 90
        2
176
     1
  1
strokes_ogs.tif
176
     1
290
     0
176
     1
 40
1.0
176
     1
 40
1.0
176
     1
  0
VISUALSTYLE
  5
898F0
102
{ACAD_REACTORS
330
898DB
102
}
330
898DB
100
AcDbVisualStyle
  2
Sketchy
 70
    24
177
     3
291
     0
 70
    58
 90
        1
176
     1
 90
        2
176
     1
 90
        2
176
     1
 90
        0
176
     1
 40
0.6
176
     1
 40
30.0
176
     1
 62
     7
420
 16777215
176
     1
 90
        2
176
     1
 90
        2
176
     1
 62
     7
176
     1
 62
     7
176
     1
 90
        1
176
     1
 90
        1
176
     1
 40
40.0
176
     1
 90
       11
176
     1
 62
     7
176
     1
 40
1.0
176
     1
 90
        1
176
     1
 90
        6
176
     1
 90
        2
176
     1
 62
     7
176
     1
 90
        6
176
     1
 90
        0
176
     1
 90
        0
176
     1
290
     0
176
     1
 90
        1
176
     1
 40
0.0
176
     1
 90
        0
176
     1
290
     0
176
     1
290
     1
176
     1
290
     1
176
     1
290
     0
176
     1
290
     0
176
     1
290
     0
176
     1
290
     0
176
     1
290
     0
176
     1
290
     0
176
     1
 90
       50
176
     1
 40
0.0
176
     1
 40
1.0
176
     1
 90
        0
176
     1
 62
    18
420
        0
176
     1
 90
       50
176
     1
 90
        3
176
     1
 62
     5
420
      255
176
     1
290
     0
176
     1
 90
       50
176
     1
 90
       50
176
     1
 90
       50
176
     1
290
     0
176
     1
 90
       50
176
     1
 62
   256
176
     0
 40
1.0
176
     0
 90
        2
176
     1
  1
strokes_ogs.tif
176
     1
290
     0
176
     1
 40
1.0
176
     1
 40
1.0
176
     1
  0
VISUALSTYLE
  5
898E8
102
{ACAD_REACTORS
330
898DB
102
}
330
898DB
100
AcDbVisualStyle
  2
Thicken
 70
    13
177
     3
291
     1
 70
    58
 90
        2
176
     1
 90
        2
176
     1
 90
        0
176
     1
 90
        0
176
     1
 40
0.6
176
     1
 40
30.0
176
     1
 62
     7
420
 16777215
176
     1
 90
        1
176
     1
 90
        4
176
     1
 62
     7
176
     1
 62
   257
176
     1
 90
        1
176
     1
 90
        1
176
     1
 40
1.0
176
     1
 90
       12
176
     1
 62
     7
176
     1
 40
1.0
176
     1
 90
        1
176
     1
 90
        6
176
     1
 90
        2
176
     1
 62
     7
176
     1
 90
        5
176
     1
 90
        0
176
     1
 90
        0
176
     1
290
     0
176
     1
 90
        1
176
     1
 40
0.0
176
     1
 90
        0
176
     1
290
     0
176
     1
290
     1
176
     1
290
     1
176
     1
290
     0
176
     1
290
     0
176
     1
290
     0
176
     1
290
     0
176
     1
290
     0
176
     1
290
     0
176
     1
 90
       50
176
     1
 40
0.0
176
     1
 40
1.0
176
     1
 90
        0
176
     1
 62
    18
420
        0
176
     1
 90
       50
176
     1
 90
        3
176
     1
 62
     5
420
      255
176
     1
290
     0
176
     1
 90
       50
176
     1
 90
       50
176
     1
 90
       50
176
     1
290
     0
176
     1
 90
       50
176
     1
 62
   256
176
     0
 40
1.0
176
     0
 90
        2
176
     1
  1
strokes_ogs.tif
176
     1
290
     0
176
     1
 40
1.0
176
     1
 40
1.0
176
     1
  0
VISUALSTYLE
  5
898E1
102
{ACAD_REACTORS
330
898DB
102
}
330
898DB
100
AcDbVisualStyle
  2
Wireframe
 70
     5
177
     3
291
     0
 70
    58
 90
        0
176
     1
 90
        2
176
     1
 90
        0
176
     1
 90
        0
176
     1
 40
0.6
176
     1
 40
30.0
176
     1
 62
     7
420
 16777215
176
     1
 90
        1
176
     1
 90
        4
176
     1
 62
     7
176
     1
 62
   257
176
     1
 90
        1
176
     1
 90
        1
176
     1
 40
1.0
176
     1
 90
        0
176
     1
 62
   257
176
     1
 40
1.0
176
     1
 90
        1
176
     1
 90
        6
176
     1
 90
        2
176
     1
 62
     7
176
     1
 90
        3
176
     1
 90
        0
176
     1
 90
        0
176
     1
290
     0
176
     1
 90
        1
176
     1
 40
0.0
176
     1
 90
        0
176
     1
290
     0
176
     1
290
     1
176
     1
290
     1
176
     1
290
     0
176
     1
290
     0
176
     1
290
     0
176
     1
290
     0
176
     1
290
     0
176
     1
290
     0
176
     1
 90
       50
176
     1
 40
0.0
176
     1
 40
1.0
176
     1
 90
        0
176
     1
 62
    18
420
        0
176
     1
 90
       50
176
     1
 90
        3
176
     1
 62
     5
420
      255
176
     1
290
     0
176
     1
 90
       50
176
     1
 90
       50
176
     1
 90
       50
176
     1
290
     0
176
     1
 90
       50
176
     1
 62
   256
176
     0
 40
1.0
176
     0
 90
        2
176
     1
  1
strokes_ogs.tif
176
     1
290
     0
176
     1
 40
1.0
176
     1
 40
1.0
176
     1
  0
VISUALSTYLE
  5
898F1
102
{ACAD_REACTORS
330
898DB
102
}
330
898DB
100
AcDbVisualStyle
  2
X-Ray
 70
    25
177
     3
291
     0
 70
    58
 90
        2
176
     1
 90
        2
176
     1
 90
        1
176
     1
 90
        1
176
     1
 40
0.5
176
     1
 40
30.0
176
     1
 62
     7
420
 16777215
176
     1
 90
        1
176
     1
 90
        0
176
     1
 62
     7
176
     1
 62
   257
176
     1
 90
        1
176
     1
 90
        1
176
     1
 40
1.0
176
     1
 90
        8
176
     1
 62
     7
176
     1
 40
1.0
176
     1
 90
        1
176
     1
 90
        6
176
     1
 90
        2
176
     1
 62
     7
176
     1
 90
        3
176
     1
 90
        0
176
     1
 90
        0
176
     1
290
     0
176
     1
 90
       13
176
     1
 40
0.0
176
     1
 90
        0
176
     1
290
     0
176
     1
290
     1
176
     1
290
     1
176
     1
290
     0
176
     1
290
     0
176
     1
290
     0
176
     1
290
     0
176
     1
290
     0
176
     1
290
     0
176
     1
 90
       50
176
     1
 40
0.0
176
     1
 40
1.0
176
     1
 90
        0
176
     1
 62
    18
420
        0
176
     1
 90
       50
176
     1
 90
        3
176
     1
 62
     5
420
      255
176
     1
290
     0
176
     1
 90
       50
176
     1
 90
       50
176
     1
 90
       50
176
     1
290
     0
176
     1
 90
       50
176
     1
 62
   256
176
     0
 40
1.0
176
     0
 90
        2
176
     1
  1
strokes_ogs.tif
176
     1
290
     0
176
     1
 40
1.0
176
     1
 40
1.0
176
     1
  0
DICTIONARYVAR
  5
898FA
102
{ACAD_REACTORS
330
898F9
102
}
330
898F9
100
DictionaryVariables
280
     0
  1
1:1
  0
DICTIONARYVAR
  5
898FF
102
{ACAD_REACTORS
330
898F9
102
}
330
898F9
100
DictionaryVariables
280
     0
  1
Standard
  0
DICTIONARYVAR
  5
898FE
102
{ACAD_REACTORS
330
898F9
102
}
330
898F9
100
DictionaryVariables
280
     0
  1
Standard
  0
DICTIONARYVAR
  5
89900
102
{ACAD_REACTORS
330
898F9
102
}
330
898F9
100
DictionaryVariables
280
     0
  1
0
  0
DICTIONARY
  5
8A436
330
898F5
100
AcDbDictionary
280
     1
281
     1
  3
ACAD_ROUNDTRIP_2008_TABLESTYLE_CELLSTYLEMAP
360
8A437
  0
CELLSTYLEMAP
  5
8A437
102
{ACAD_REACTORS
330
8A436
102
}
330
8A436
100
AcDbCellStyleMap
 90
        3
300
CELLSTYLE
  1
TABLEFORMAT_BEGIN
 90
        5
170
     1
 91
        0
 92
    32768
 62
   257
 93
        1
300
CONTENTFORMAT
  1
CONTENTFORMAT_BEGIN
 90
        0
 91
        0
 92
        4
 93
        0
300

 40
0.0
140
1.0
 94
        5
 62
     0
340
897E9
144
0.25
309
CONTENTFORMAT_END
171
     1
301
MARGIN
  1
CELLMARGIN_BEGIN
 40
0.06
 40
0.06
 40
0.06
 40
0.06
 40
0.06
 40
0.06
309
CELLMARGIN_END
 94
        6
 95
        1
302
GRIDFORMAT
  1
GRIDFORMAT_BEGIN
 90
        0
 91
        1
 62
     0
 92
       -2
340
897EB
 93
        0
 40
0.045
309
GRIDFORMAT_END
 95
        2
302
GRIDFORMAT
  1
GRIDFORMAT_BEGIN
 90
        0
 91
        1
 62
     0
 92
       -2
340
897EB
 93
        0
 40
0.045
309
GRIDFORMAT_END
 95
        4
302
GRIDFORMAT
  1
GRIDFORMAT_BEGIN
 90
        0
 91
        1
 62
     0
 92
       -2
340
897EB
 93
        0
 40
0.045
309
GRIDFORMAT_END
 95
        8
302
GRIDFORMAT
  1
GRIDFORMAT_BEGIN
 90
        0
 91
        1
 62
     0
 92
       -2
340
897EB
 93
        0
 40
0.045
309
GRIDFORMAT_END
 95
       16
302
GRIDFORMAT
  1
GRIDFORMAT_BEGIN
 90
        0
 91
        1
 62
     0
 92
       -2
340
897EB
 93
        0
 40
0.045
309
GRIDFORMAT_END
 95
       32
302
GRIDFORMAT
  1
GRIDFORMAT_BEGIN
 90
        0
 91
        1
 62
     0
 92
       -2
340
897EB
 93
        0
 40
0.045
309
GRIDFORMAT_END
309
TABLEFORMAT_END
  1
CELLSTYLE_BEGIN
 90
        1
 91
        1
300
_TITLE
309
CELLSTYLE_END
300
CELLSTYLE
  1
TABLEFORMAT_BEGIN
 90
        5
170
     1
 91
        0
 92
        0
 62
   257
 93
        1
300
CONTENTFORMAT
  1
CONTENTFORMAT_BEGIN
 90
        0
 91
        0
 92
        4
 93
        0
300

 40
0.0
140
1.0
 94
        5
 62
     0
340
897E9
144
0.18
309
CONTENTFORMAT_END
171
     1
301
MARGIN
  1
CELLMARGIN_BEGIN
 40
0.06
 40
0.06
 40
0.06
 40
0.06
 40
0.06
 40
0.06
309
CELLMARGIN_END
 94
        6
 95
        1
302
GRIDFORMAT
  1
GRIDFORMAT_BEGIN
 90
        0
 91
        1
 62
     0
 92
       -2
340
897EB
 93
        0
 40
0.045
309
GRIDFORMAT_END
 95
        2
302
GRIDFORMAT
  1
GRIDFORMAT_BEGIN
 90
        0
 91
        1
 62
     0
 92
       -2
340
897EB
 93
        0
 40
0.045
309
GRIDFORMAT_END
 95
        4
302
GRIDFORMAT
  1
GRIDFORMAT_BEGIN
 90
        0
 91
        1
 62
     0
 92
       -2
340
897EB
 93
        0
 40
0.045
309
GRIDFORMAT_END
 95
        8
302
GRIDFORMAT
  1
GRIDFORMAT_BEGIN
 90
        0
 91
        1
 62
     0
 92
       -2
340
897EB
 93
        0
 40
0.045
309
GRIDFORMAT_END
 95
       16
302
GRIDFORMAT
  1
GRIDFORMAT_BEGIN
 90
        0
 91
        1
 62
     0
 92
       -2
340
897EB
 93
        0
 40
0.045
309
GRIDFORMAT_END
 95
       32
302
GRIDFORMAT
  1
GRIDFORMAT_BEGIN
 90
        0
 91
        1
 62
     0
 92
       -2
340
897EB
 93
        0
 40
0.045
309
GRIDFORMAT_END
309
TABLEFORMAT_END
  1
CELLSTYLE_BEGIN
 90
        2
 91
        1
300
_HEADER
309
CELLSTYLE_END
300
CELLSTYLE
  1
TABLEFORMAT_BEGIN
 90
        5
170
     1
 91
        0
 92
        0
 62
   257
 93
        1
300
CONTENTFORMAT
  1
CONTENTFORMAT_BEGIN
 90
        0
 91
        0
 92
        4
 93
        0
300

 40
0.0
140
1.0
 94
        2
 62
     0
340
897E9
144
0.18
309
CONTENTFORMAT_END
171
     1
301
MARGIN
  1
CELLMARGIN_BEGIN
 40
0.06
 40
0.06
 40
0.06
 40
0.06
 40
0.06
 40
0.06
309
CELLMARGIN_END
 94
        6
 95
        1
302
GRIDFORMAT
  1
GRIDFORMAT_BEGIN
 90
        0
 91
        1
 62
     0
 92
       -2
340
897EB
 93
        0
 40
0.045
309
GRIDFORMAT_END
 95
        2
302
GRIDFORMAT
  1
GRIDFORMAT_BEGIN
 90
        0
 91
        1
 62
     0
 92
       -2
340
897EB
 93
        0
 40
0.045
309
GRIDFORMAT_END
 95
        4
302
GRIDFORMAT
  1
GRIDFORMAT_BEGIN
 90
        0
 91
        1
 62
     0
 92
       -2
340
897EB
 93
        0
 40
0.045
309
GRIDFORMAT_END
 95
        8
302
GRIDFORMAT
  1
GRIDFORMAT_BEGIN
 90
        0
 91
        1
 62
     0
 92
       -2
340
897EB
 93
        0
 40
0.045
309
GRIDFORMAT_END
 95
       16
302
GRIDFORMAT
  1
GRIDFORMAT_BEGIN
 90
        0
 91
        1
 62
     0
 92
       -2
340
897EB
 93
        0
 40
0.045
309
GRIDFORMAT_END
 95
       32
302
GRIDFORMAT
  1
GRIDFORMAT_BEGIN
 90
        0
 91
        1
 62
     0
 92
       -2
340
897EB
 93
        0
 40
0.045
309
GRIDFORMAT_END
309
TABLEFORMAT_END
  1
CELLSTYLE_BEGIN
 90
        3
 91
        2
300
_DATA
309
CELLSTYLE_END
  0
ENDSEC
  0
EOF
