  0
SECTION
  2
HEADER
  9
$ACADVER
  1
AC1032
  9
$ACADMAINTVER
 90
       55
  9
$DWGCODEPAGE
  3
ANSI_1252
  9
$LASTSAVEDBY
  1
ucom07
  9
$REQUIREDVERSIONS
160
                 0
  9
$INSBASE
 10
0.0
 20
0.0
 30
0.0
  9
$EXTMIN
 10
-4012.685974119231
 20
-987.6576470269356
 30
0.0
  9
$EXTMAX
 10
47134.08970799963
 20
14792.18109737554
 30
0.0
  9
$LIMMIN
 10
0.0
 20
0.0
  9
$LIMMAX
 10
12.0
 20
9.0
  9
$ORTHOMODE
 70
     1
  9
$REGENMODE
 70
     1
  9
$FILLMODE
 70
     1
  9
$QTEXTMODE
 70
     0
  9
$MIRRTEXT
 70
     0
  9
$LTSCALE
 40
5.0
  9
$ATTMODE
 70
     1
  9
$TEXTSIZE
 40
19.0
  9
$TRACEWID
 40
0.05
  9
$TEXTSTYLE
  7
STILE1
  9
$CLAYER
  8
0
  9
$CELTYPE
  6
ByLayer
  9
$CECOLOR
 62
   256
  9
$CELTSCALE
 40
1.0
  9
$DISPSILH
 70
     0
  9
$DIMSCALE
 40
50.0
  9
$DIMASZ
 40
2.5
  9
$DIMEXO
 40
1.0
  9
$DIMDLI
 40
0.0
  9
$DIMRND
 40
0.0
  9
$DIMDLE
 40
0.0
  9
$DIMEXE
 40
1.0
  9
$DIMTP
 40
0.0
  9
$DIMTM
 40
0.0
  9
$DIMTXT
 40
2.5
  9
$DIMCEN
 40
1.0
  9
$DIMTSZ
 40
0.0
  9
$DIMTOL
 70
     0
  9
$DIMLIM
 70
     0
  9
$DIMTIH
 70
     0
  9
$DIMTOH
 70
     0
  9
$DIMSE1
 70
     0
  9
$DIMSE2
 70
     0
  9
$DIMTAD
 70
     1
  9
$DIMZIN
 70
     8
  9
$DIMBLK
  1

  9
$DIMASO
 70
     1
  9
$DIMSHO
 70
     0
  9
$DIMPOST
  1

  9
$DIMAPOST
  1

  9
$DIMALT
 70
     0
  9
$DIMALTD
 70
     2
  9
$DIMALTF
 40
25.4
  9
$DIMLFAC
 40
1.0
  9
$DIMTOFL
 70
     1
  9
$DIMTVP
 40
0.0
  9
$DIMTIX
 70
     1
  9
$DIMSOXD
 70
     0
  9
$DIMSAH
 70
     0
  9
$DIMBLK1
  1

  9
$DIMBLK2
  1

  9
$DIMSTYLE
  2
STANDARD
  9
$DIMCLRD
 70
     0
  9
$DIMCLRE
 70
     0
  9
$DIMCLRT
 70
     0
  9
$DIMTFAC
 40
1.0
  9
$DIMGAP
 40
1.5
  9
$DIMJUST
 70
     0
  9
$DIMSD1
 70
     0
  9
$DIMSD2
 70
     0
  9
$DIMTOLJ
 70
     1
  9
$DIMTZIN
 70
     0
  9
$DIMALTZ
 70
     0
  9
$DIMALTTZ
 70
     0
  9
$DIMUPT
 70
     0
  9
$DIMDEC
 70
     4
  9
$DIMTDEC
 70
     4
  9
$DIMALTU
 70
     2
  9
$DIMALTTD
 70
     2
  9
$DIMTXSTY
  7
STANDARD
  9
$DIMAUNIT
 70
     0
  9
$DIMADEC
 70
     0
  9
$DIMALTRND
 40
0.0
  9
$DIMAZIN
 70
     0
  9
$DIMDSEP
 70
    46
  9
$DIMATFIT
 70
     3
  9
$DIMFRAC
 70
     0
  9
$DIMLDRBLK
  1

  9
$DIMLUNIT
 70
     2
  9
$DIMLWD
 70
    -2
  9
$DIMLWE
 70
    -2
  9
$DIMTMOVE
 70
     2
  9
$DIMFXL
 40
1.0
  9
$DIMFXLON
 70
     0
  9
$DIMJOGANG
 40
0.7853981633974483
  9
$DIMTFILL
 70
     0
  9
$DIMTFILLCLR
 70
     0
  9
$DIMARCSYM
 70
     0
  9
$DIMLTYPE
  6

  9
$DIMLTEX1
  6

  9
$DIMLTEX2
  6

  9
$DIMTXTDIRECTION
 70
     0
  9
$LUNITS
 70
     2
  9
$LUPREC
 70
     4
  9
$SKETCHINC
 40
0.1
  9
$FILLETRAD
 40
20.0
  9
$AUNITS
 70
     0
  9
$AUPREC
 70
     0
  9
$MENU
  1
acad
  9
$ELEVATION
 40
0.0
  9
$PELEVATION
 40
0.0
  9
$THICKNESS
 40
0.0
  9
$LIMCHECK
 70
     0
  9
$CHAMFERA
 40
1200.0
  9
$CHAMFERB
 40
1200.0
  9
$CHAMFERC
 40
0.0
  9
$CHAMFERD
 40
0.0
  9
$SKPOLY
 70
     0
  9
$TDCREATE
 40
2450277.504307743
  9
$TDUCREATE
 40
2450277.42097441
  9
$TDUPDATE
 40
2460453.475309792
  9
$TDUUPDATE
 40
2460453.391976458
  9
$TDINDWG
 40
26.4766044329
  9
$TDUSRTIMER
 40
0.0024170486
  9
$USRTIMER
 70
     1
  9
$ANGBASE
 50
0.0
  9
$ANGDIR
 70
     0
  9
$PDMODE
 70
     0
  9
$PDSIZE
 40
0.0
  9
$PLINEWID
 40
0.0
  9
$SPLFRAME
 70
     0
  9
$SPLINETYPE
 70
     6
  9
$SPLINESEGS
 70
     8
  9
$HANDSEED
  5
FBEBB
  9
$SURFTAB1
 70
     6
  9
$SURFTAB2
 70
     6
  9
$SURFTYPE
 70
     6
  9
$SURFU
 70
     6
  9
$SURFV
 70
     6
  9
$UCSBASE
  2

  9
$UCSNAME
  2

  9
$UCSORG
 10
0.0
 20
0.0
 30
0.0
  9
$UCSXDIR
 10
1.0
 20
0.0
 30
0.0
  9
$UCSYDIR
 10
0.0
 20
1.0
 30
0.0
  9
$UCSORTHOREF
  2

  9
$UCSORTHOVIEW
 70
     0
  9
$UCSORGTOP
 10
0.0
 20
0.0
 30
0.0
  9
$UCSORGBOTTOM
 10
0.0
 20
0.0
 30
0.0
  9
$UCSORGLEFT
 10
0.0
 20
0.0
 30
0.0
  9
$UCSORGRIGHT
 10
0.0
 20
0.0
 30
0.0
  9
$UCSORGFRONT
 10
0.0
 20
0.0
 30
0.0
  9
$UCSORGBACK
 10
0.0
 20
0.0
 30
0.0
  9
$PUCSBASE
  2

  9
$PUCSNAME
  2

  9
$PUCSORG
 10
0.0
 20
0.0
 30
0.0
  9
$PUCSXDIR
 10
1.0
 20
0.0
 30
0.0
  9
$PUCSYDIR
 10
0.0
 20
1.0
 30
0.0
  9
$PUCSORTHOREF
  2

  9
$PUCSORTHOVIEW
 70
     0
  9
$PUCSORGTOP
 10
0.0
 20
0.0
 30
0.0
  9
$PUCSORGBOTTOM
 10
0.0
 20
0.0
 30
0.0
  9
$PUCSORGLEFT
 10
0.0
 20
0.0
 30
0.0
  9
$PUCSORGRIGHT
 10
0.0
 20
0.0
 30
0.0
  9
$PUCSORGFRONT
 10
0.0
 20
0.0
 30
0.0
  9
$PUCSORGBACK
 10
0.0
 20
0.0
 30
0.0
  9
$USERI1
 70
     0
  9
$USERI2
 70
     0
  9
$USERI3
 70
     0
  9
$USERI4
 70
     0
  9
$USERI5
 70
     0
  9
$USERR1
 40
0.0
  9
$USERR2
 40
0.0
  9
$USERR3
 40
0.0
  9
$USERR4
 40
0.0
  9
$USERR5
 40
0.0
  9
$WORLDVIEW
 70
     0
  9
$SHADEDGE
 70
     3
  9
$SHADEDIF
 70
    70
  9
$TILEMODE
 70
     1
  9
$MAXACTVP
 70
    16
  9
$PINSBASE
 10
0.0
 20
0.0
 30
0.0
  9
$PLIMCHECK
 70
     0
  9
$PEXTMIN
 10
0.0
 20
0.0
 30
0.0
  9
$PEXTMAX
 10
0.0
 20
0.0
 30
0.0
  9
$PLIMMIN
 10
0.0
 20
0.0
  9
$PLIMMAX
 10
0.0
 20
0.0
  9
$UNITMODE
 70
     0
  9
$VISRETAIN
 70
     0
  9
$PLINEGEN
 70
     0
  9
$PSLTSCALE
 70
     1
  9
$TREEDEPTH
 70
  3020
  9
$CMLSTYLE
  2
Standard
  9
$CMLJUST
 70
     0
  9
$CMLSCALE
 40
1.0
  9
$PROXYGRAPHICS
 70
     1
  9
$MEASUREMENT
 70
     0
  9
$CELWEIGHT
370
    -1
  9
$ENDCAPS
280
     0
  9
$JOINSTYLE
280
     0
  9
$LWDISPLAY
290
     0
  9
$INSUNITS
 70
     0
  9
$HYPERLINKBASE
  1

  9
$STYLESHEET
  1

  9
$XEDIT
290
     1
  9
$CEPSNTYPE
380
     0
  9
$PSTYLEMODE
290
     1
  9
$FINGERPRINTGUID
  2
{504aca9f-d785-4261-ae16-8715acbed4bf}
  9
$VERSIONGUID
  2
{FAEB1C32-E019-11D5-929B-00C0DF256EC4}
  9
$EXTNAMES
290
     1
  9
$PSVPSCALE
 40
0.0
  9
$OLESTARTUP
290
     0
  9
$SORTENTS
280
   127
  9
$INDEXCTL
280
     0
  9
$HIDETEXT
280
     1
  9
$XCLIPFRAME
280
     2
  9
$HALOGAP
280
     0
  9
$OBSCOLOR
 70
   257
  9
$OBSLTYPE
280
     0
  9
$INTERSECTIONDISPLAY
280
     0
  9
$INTERSECTIONCOLOR
 70
   257
  9
$DIMASSOC
280
     2
  9
$PROJECTNAME
  1

  9
$CAMERADISPLAY
290
     0
  9
$LENSLENGTH
 40
50.0
  9
$CAMERAHEIGHT
 40
0.0
  9
$STEPSPERSEC
 40
2.0
  9
$STEPSIZE
 40
6.0
  9
$3DDWFPREC
 40
2.0
  9
$PSOLWIDTH
 40
0.25
  9
$PSOLHEIGHT
 40
4.0
  9
$LOFTANG1
 40
1.570796326794897
  9
$LOFTANG2
 40
1.570796326794897
  9
$LOFTMAG1
 40
0.0
  9
$LOFTMAG2
 40
0.0
  9
$LOFTPARAM
 70
     7
  9
$LOFTNORMALS
280
     1
  9
$LATITUDE
 40
37.795
  9
$LONGITUDE
 40
-122.394
  9
$NORTHDIRECTION
 40
0.0
  9
$TIMEZONE
 70
 -8000
  9
$LIGHTGLYPHDISPLAY
280
     1
  9
$TILEMODELIGHTSYNCH
280
     1
  9
$SOLIDHIST
280
     0
  9
$SHOWHIST
280
     1
  9
$DWFFRAME
280
     2
  9
$DGNFRAME
280
     2
  9
$REALWORLDSCALE
290
     1
  9
$INTERFERECOLOR
 62
   256
  9
$CSHADOW
280
     0
  9
$SHADOWPLANELOCATION
 40
0.0
  0
ENDSEC
  0
SECTION
  2
CLASSES
  0
CLASS
  1
ACDBDICTIONARYWDFLT
  2
AcDbDictionaryWithDefault
  3
ObjectDBX Classes
 90
        0
 91
        3
280
     0
281
     0
  0
CLASS
  1
MATERIAL
  2
AcDbMaterial
  3
ObjectDBX Classes
 90
     1153
 91
        3
280
     0
281
     0
  0
CLASS
  1
SCALE
  2
AcDbScale
  3
ObjectDBX Classes
 90
     1153
 91
        3
280
     0
281
     0
  0
CLASS
  1
VISUALSTYLE
  2
AcDbVisualStyle
  3
ObjectDBX Classes
 90
     4095
 91
        3
280
     0
281
     0
  0
CLASS
  1
TABLESTYLE
  2
AcDbTableStyle
  3
ObjectDBX Classes
 90
     4095
 91
        3
280
     0
281
     0
  0
CLASS
  1
MLEADERSTYLE
  2
AcDbMLeaderStyle
  3
ACDB_MLEADERSTYLE_CLASS
 90
     4095
 91
        3
280
     0
281
     0
  0
CLASS
  1
DICTIONARYVAR
  2
AcDbDictionaryVar
  3
ObjectDBX Classes
 90
        0
 91
        3
280
     0
281
     0
  0
CLASS
  1
DIMASSOC
  2
AcDbDimAssoc
  3
"AcDbDimAssoc|Product Desc:     AcDim ARX App For Dimension|Company:          Autodesk, Inc.|WEB Address:      www.autodesk.com"
 90
        0
 91
        3
280
     0
281
     0
  0
CLASS
  1
BREAKDATA
  2
AcDbBreakData
  3
ObjectDBX Classes
 90
     1024
 91
        3
280
     0
281
     0
  0
CLASS
  1
SUN
  2
AcDbSun
  3
SCENEOE
 90
     1153
 91
        3
280
     0
281
     0
  0
CLASS
  1
SORTENTSTABLE
  2
AcDbSortentsTable
  3
ObjectDBX Classes
 90
        0
 91
        3
280
     0
281
     0
  0
CLASS
  1
CELLSTYLEMAP
  2
AcDbCellStyleMap
  3
ObjectDBX Classes
 90
     1152
 91
        3
280
     0
281
     0
  0
ENDSEC
  0
SECTION
  2
TABLES
  0
TABLE
  2
VPORT
  5
FB74F
330
0
100
AcDbSymbolTable
 70
     1
  0
VPORT
  5
FB766
330
FB74F
100
AcDbSymbolTableRecord
100
AcDbViewportTableRecord
  2
*ACTIVE
 70
     0
 10
0.0
 20
0.0
 11
1.0
 21
1.0
 12
21560.7018669402
 22
6902.261725174302
 13
0.0
 23
0.0
 14
1.0
 24
1.0
 15
0.0
 25
0.0
 16
0.0
 26
0.0
 36
1.0
 17
0.0
 27
0.0
 37
0.0
 40
26835.36723262666
 41
1.944065484311051
 42
50.0
 43
0.0
 44
0.0
 50
0.0
 51
0.0
 71
    16
 72
   100
 73
     1
 74
     1
 75
     0
 76
     1
 77
     0
 78
     0
281
     0
 65
     0
110
0.0
120
0.0
130
0.0
111
1.0
121
0.0
131
0.0
112
0.0
122
1.0
132
0.0
 79
     0
146
0.0
348
FB7C8
 60
     3
 61
     5
292
     1
282
     1
141
0.0
142
0.0
 63
   256
361
FB836
  0
ENDTAB
  0
TABLE
  2
LTYPE
  5
FB74C
330
0
100
AcDbSymbolTable
 70
     1
  0
LTYPE
  5
FB75A
330
FB74C
100
AcDbSymbolTableRecord
100
AcDbLinetypeTableRecord
  2
ByBlock
 70
     0
  3

 72
    65
 73
     0
 40
0.0
  0
LTYPE
  5
FB75B
330
FB74C
100
AcDbSymbolTableRecord
100
AcDbLinetypeTableRecord
  2
ByLayer
 70
     0
  3

 72
    65
 73
     0
 40
0.0
  0
LTYPE
  5
FB75C
330
FB74C
100
AcDbSymbolTableRecord
100
AcDbLinetypeTableRecord
  2
CONTINUOUS
 70
     0
  3
Solid line
 72
    65
 73
     0
 40
0.0
  0
ENDTAB
  0
TABLE
  2
LAYER
  5
FB74A
102
{ACAD_XDICTIONARY
360
FB8FF
102
}
330
0
100
AcDbSymbolTable
 70
     1
  0
LAYER
  5
FB757
330
FB74A
100
AcDbSymbolTableRecord
100
AcDbLayerTableRecord
  2
0
 70
     0
 62
     7
  6
CONTINUOUS
370
    -3
390
FB756
347
FB76C
348
0
  0
ENDTAB
  0
TABLE
  2
STYLE
  5
FB74B
330
0
100
AcDbSymbolTable
 70
     2
  0
STYLE
  5
FB758
330
FB74B
100
AcDbSymbolTableRecord
100
AcDbTextStyleTableRecord
  2
STANDARD
 70
     0
 40
0.0
 41
1.0
 50
0.0
 71
     0
 42
2.5
  3
txt
  4

  0
STYLE
  5
FB76F
330
FB74B
100
AcDbSymbolTableRecord
100
AcDbTextStyleTableRecord
  2
STILE1
 70
     0
 40
0.0
 41
1.0
 50
0.0
 71
     0
 42
19.0
  3
ROMANS.SHX
  4

  0
ENDTAB
  0
TABLE
  2
VIEW
  5
FB74D
330
0
100
AcDbSymbolTable
 70
     0
  0
ENDTAB
  0
TABLE
  2
UCS
  5
FB74E
330
0
100
AcDbSymbolTable
 70
     0
  0
ENDTAB
  0
TABLE
  2
APPID
  5
FB750
330
0
100
AcDbSymbolTable
 70
    44
  0
APPID
  5
FB759
330
FB750
100
AcDbSymbolTableRecord
100
AcDbRegAppTableRecord
  2
ACAD
 70
     0
  0
APPID
  5
FB771
330
FB750
100
AcDbSymbolTableRecord
100
AcDbRegAppTableRecord
  2
DCO15
 70
     0
  0
APPID
  5
FB772
330
FB750
100
AcDbSymbolTableRecord
100
AcDbRegAppTableRecord
  2
ACAECLAYERSTANDARD
 70
     0
  0
APPID
  5
FB773
330
FB750
100
AcDbSymbolTableRecord
100
AcDbRegAppTableRecord
  2
ACDBDYNAMICBLOCKGUID
 70
     0
  0
APPID
  5
FB774
330
FB750
100
AcDbSymbolTableRecord
100
AcDbRegAppTableRecord
  2
ACDBBLOCKREPETAG
 70
     0
  0
APPID
  5
FB775
330
FB750
100
AcDbSymbolTableRecord
100
AcDbRegAppTableRecord
  2
ACAD_PSEXT
 70
     0
  0
APPID
  5
FB776
330
FB750
100
AcDbSymbolTableRecord
100
AcDbRegAppTableRecord
  2
ACAD_DSTYLE_DIMJAG
 70
     0
  0
APPID
  5
FB777
330
FB750
100
AcDbSymbolTableRecord
100
AcDbRegAppTableRecord
  2
ACAD_DSTYLE_DIMTALN
 70
     0
  0
APPID
  5
FB778
330
FB750
100
AcDbSymbolTableRecord
100
AcDbRegAppTableRecord
  2
ACAD_DSTYLE_DIMRADIAL_EXTE
 70
     0
  0
APPID
  5
FB779
330
FB750
100
AcDbSymbolTableRecord
100
AcDbRegAppTableRecord
  2
RAK
 70
     0
  0
APPID
  5
FB77A
330
FB750
100
AcDbSymbolTableRecord
100
AcDbRegAppTableRecord
  2
ACLAYERTOOLS
 70
     0
  0
APPID
  5
FB77B
330
FB750
100
AcDbSymbolTableRecord
100
AcDbRegAppTableRecord
  2
REVIT
 70
     0
  0
APPID
  5
FB77C
330
FB750
100
AcDbSymbolTableRecord
100
AcDbRegAppTableRecord
  2
ACAD_MLEADERVER
 70
     0
  0
APPID
  5
FB77D
330
FB750
100
AcDbSymbolTableRecord
100
AcDbRegAppTableRecord
  2
ACAD_DSTYLE_DIMBREAK
 70
     0
  0
APPID
  5
FB77E
330
FB750
100
AcDbSymbolTableRecord
100
AcDbRegAppTableRecord
  2
ACCMTRANSPARENCY
 70
     0
  0
APPID
  5
FB77F
330
FB750
100
AcDbSymbolTableRecord
100
AcDbRegAppTableRecord
  2
ACAD_NAV_VCDISPLAY
 70
     0
  0
APPID
  5
FB780
330
FB750
100
AcDbSymbolTableRecord
100
AcDbRegAppTableRecord
  2
GRADIENTCOLOR1ACI
 70
     0
  0
APPID
  5
FB781
330
FB750
100
AcDbSymbolTableRecord
100
AcDbRegAppTableRecord
  2
GRADIENTCOLOR2ACI
 70
     0
  0
APPID
  5
FB782
330
FB750
100
AcDbSymbolTableRecord
100
AcDbRegAppTableRecord
  2
PROGE_PRINT_SETTINGS
 70
     0
  0
APPID
  5
FB783
330
FB750
100
AcDbSymbolTableRecord
100
AcDbRegAppTableRecord
  2
AA_WLPR
 70
     0
  0
APPID
  5
FB784
330
FB750
100
AcDbSymbolTableRecord
100
AcDbRegAppTableRecord
  2
AA_WLENT
 70
     0
  0
APPID
  5
FB785
330
FB750
100
AcDbSymbolTableRecord
100
AcDbRegAppTableRecord
  2
AA_WLTP
 70
     0
  0
APPID
  5
FB786
330
FB750
100
AcDbSymbolTableRecord
100
AcDbRegAppTableRecord
  2
AA_WLBK
 70
     0
  0
APPID
  5
FB787
330
FB750
100
AcDbSymbolTableRecord
100
AcDbRegAppTableRecord
  2
ACAD_DSTYLE_DIMJOGGED_JOGA
 70
     0
  0
APPID
  5
FB788
330
FB750
100
AcDbSymbolTableRecord
100
AcDbRegAppTableRecord
  2
$DDT_AUDIT_GENERATED__2CAF
 70
     0
  0
APPID
  5
FB789
330
FB750
100
AcDbSymbolTableRecord
100
AcDbRegAppTableRecord
  2
ACAD_DSTYLE_DIMEXT_LENGTH
 70
     0
  0
APPID
  5
FB78A
330
FB750
100
AcDbSymbolTableRecord
100
AcDbRegAppTableRecord
  2
ACAD_DSTYLE_DIMEXT_ENABLED
 70
     0
  0
APPID
  5
FB78B
330
FB750
100
AcDbSymbolTableRecord
100
AcDbRegAppTableRecord
  2
ACAD_DSTYLE_DIMJOGGED_JOG0
 70
     0
  0
APPID
  5
FB78C
330
FB750
100
AcDbSymbolTableRecord
100
AcDbRegAppTableRecord
  2
ACAD_DSTYLE_DIMARC_LENGTH_
 70
     0
  0
APPID
  5
FB78D
330
FB750
100
AcDbSymbolTableRecord
100
AcDbRegAppTableRecord
  2
C_AND_O
 70
     0
  0
APPID
  5
FB78E
330
FB750
100
AcDbSymbolTableRecord
100
AcDbRegAppTableRecord
  2
AVE_FINISH
 70
     0
  0
APPID
  5
FB78F
330
FB750
100
AcDbSymbolTableRecord
100
AcDbRegAppTableRecord
  2
AVE_RENDER
 70
     0
  0
APPID
  5
FB790
330
FB750
100
AcDbSymbolTableRecord
100
AcDbRegAppTableRecord
  2
AVE_ENTITY_MATERIAL
 70
     0
  0
APPID
  5
FB791
330
FB750
100
AcDbSymbolTableRecord
100
AcDbRegAppTableRecord
  2
AVE_MATERIAL
 70
     0
  0
APPID
  5
FB792
330
FB750
100
AcDbSymbolTableRecord
100
AcDbRegAppTableRecord
  2
ADDC5$_$SETUP-
 70
     0
  0
APPID
  5
FB793
330
FB750
100
AcDbSymbolTableRecord
100
AcDbRegAppTableRecord
  2
ADDC4$_$SETUP-
 70
     0
  0
APPID
  5
FB794
330
FB750
100
AcDbSymbolTableRecord
100
AcDbRegAppTableRecord
  2
ADDC4$_$ARTSETUP-
 70
     0
  0
APPID
  5
FB795
330
FB750
100
AcDbSymbolTableRecord
100
AcDbRegAppTableRecord
  2
GENIUS_GENODEF_13
 70
     0
  0
APPID
  5
FB796
330
FB750
100
AcDbSymbolTableRecord
100
AcDbRegAppTableRecord
  2
GENIUS_GENOBJ-N-REC_13
 70
     0
  0
APPID
  5
FB797
330
FB750
100
AcDbSymbolTableRecord
100
AcDbRegAppTableRecord
  2
GENIUS_GENREC_14
 70
     0
  0
APPID
  5
FB7F4
330
FB750
100
AcDbSymbolTableRecord
100
AcDbRegAppTableRecord
  2
ENABLE_CUSTOM_SPLIT
 70
     0
  0
APPID
  5
FB88F
330
FB750
100
AcDbSymbolTableRecord
100
AcDbRegAppTableRecord
  2
AcadAnnotative
 70
     0
  0
APPID
  5
FB892
330
FB750
100
AcDbSymbolTableRecord
100
AcDbRegAppTableRecord
  2
ACAD_DSTYLE_DIMRADIAL_EXTENSION
 70
     0
  0
APPID
  5
FB893
330
FB750
100
AcDbSymbolTableRecord
100
AcDbRegAppTableRecord
  2
PE_URL
 70
     0
  0
ENDTAB
  0
TABLE
  2
DIMSTYLE
  5
FB751
330
0
100
AcDbSymbolTable
 70
     1
100
AcDbDimStyleTable
  0
DIMSTYLE
105
FB798
330
FB751
100
AcDbSymbolTableRecord
100
AcDbDimStyleTableRecord
  2
STANDARD
 70
     0
178
     0
340
FB76F
  0
ENDTAB
  0
TABLE
  2
BLOCK_RECORD
  5
FB749
330
0
100
AcDbSymbolTable
 70
     0
  0
BLOCK_RECORD
  5
FB763
102
{ACAD_XDICTIONARY
360
FB834
102
}
330
FB749
100
AcDbSymbolTableRecord
100
AcDbBlockTableRecord
  2
*Model_Space
340
FB764
 70
     0
280
     1
281
     0
  0
BLOCK_RECORD
  5
FB761
330
FB749
100
AcDbSymbolTableRecord
100
AcDbBlockTableRecord
  2
*Paper_Space
340
FB762
 70
     0
280
     1
281
     0
  0
ENDTAB
  0
ENDSEC
  0
SECTION
  2
BLOCKS
  0
BLOCK
  5
FB799
330
FB763
100
AcDbEntity
  8
0
100
AcDbBlockBegin
  2
*Model_Space
 70
     0
 10
0.0
 20
0.0
 30
0.0
  3
*Model_Space
  1

  0
ENDBLK
  5
FA869
330
FB763
100
AcDbEntity
  8
0
100
AcDbBlockEnd
  0
BLOCK
  5
FB79A
330
FB761
100
AcDbEntity
 67
     1
  8
0
100
AcDbBlockBegin
  2
*Paper_Space
 70
     0
 10
0.0
 20
0.0
 30
0.0
  3
*Paper_Space
  1

  0
ENDBLK
  5
FA865
330
FB761
100
AcDbEntity
 67
     1
  8
0
100
AcDbBlockEnd
  0
ENDSEC
  0
SECTION
  2
ENTITIES
  0
LINE
  5
DD2BF
330
FB763
100
AcDbEntity
  8
0
100
AcDbLine
 10
4012.685974119231
 20
0.0000000000002274
 30
0.0
 11
4012.685974119231
 21
-987.6576470269353
 31
0.0
  0
TEXT
  5
DD2C0
330
FB763
100
AcDbEntity
  8
0
100
AcDbText
 10
2240.022522568668
 20
-208.9254166234015
 30
0.0
 40
125.0
  1
2024-06
  7
STILE1
 72
     1
 11
2674.918355902001
 21
-208.9254166234015
 31
0.0
100
AcDbText
  0
LINE
  5
DD2C1
330
FB763
100
AcDbEntity
  8
0
100
AcDbLine
 10
1337.561991373077
 20
-299.9965549039189
 30
0.0
 11
1337.561991373077
 21
0.0
 31
0.0
  0
LINE
  5
DD2C2
330
FB763
100
AcDbEntity
  8
0
100
AcDbLine
 10
-1337.561991373077
 20
0.0
 30
0.0
 11
-1337.561991373077
 21
-987.6576470269353
 31
0.0
  0
LWPOLYLINE
  5
DD2C3
330
FB763
100
AcDbEntity
  8
0
100
AcDbPolyline
 90
        4
 70
     1
 43
0.0
 10
-4012.685974119231
 20
0.0
 10
4012.685974119231
 20
0.0
 10
4012.685974119231
 20
-987.6576470269353
 10
-4012.685974119231
 20
-987.6576470269353
  0
LWPOLYLINE
  5
DD2C4
330
FB763
100
AcDbEntity
  8
0
100
AcDbPolyline
 90
        2
 70
     0
 43
0.0
 10
-1337.561991373077
 20
-299.9965549039189
 10
4012.685974119231
 20
-299.9965549039186
  0
TEXT
  5
DD2C5
330
FB763
100
AcDbEntity
  8
0
100
AcDbText
 10
-527.8452372835668
 20
-817.4938565844182
 30
0.0
 40
125.0
  1
This drawing is property of Fantin S.r.l. 
  7
STILE1
 72
     1
 11
1487.035715097386
 21
-817.4938565844182
 31
0.0
100
AcDbText
  0
LWPOLYLINE
  5
DD2C6
330
FB763
100
AcDbEntity
  8
0
  6
Continuous
100
AcDbPolyline
 90
       16
 70
     1
 43
0.0
 10
-3164.963312949987
 20
-604.0348442923276
 10
-3164.963312949987
 20
-604.0348442923276
 10
-3140.60203043744
 20
-687.6576470269355
 10
-3014.885328505188
 20
-687.6576470269355
 10
-3132.294182670303
 20
-334.8833143443335
 42
0.1089385125692126
 10
-3145.036042486318
 20
-307.2121766244527
 42
0.1589313772246072
 10
-3157.031867676415
 20
-299.9273046676535
 42
0.058673645385263
 10
-3173.277038573287
 20
-298.3360188803636
 10
-3173.277038573287
 20
-298.3360188803636
 10
-3268.525316026062
 20
-298.3360188803636
 42
0.058673645385263
 10
-3284.770486922936
 20
-299.9273046676535
 42
0.1589313772246072
 10
-3296.766312113032
 20
-307.2121766244527
 42
0.1089385125692126
 10
-3309.508171929046
 20
-334.8833143443335
 10
-3426.917026089505
 20
-687.6576470269355
 10
-3307.851080996916
 20
-687.6576470269355
 10
-3284.038581000641
 20
-604.0348442923276
  0
LWPOLYLINE
  5
DD2C7
330
FB763
100
AcDbEntity
  8
0
  6
Continuous
100
AcDbPolyline
 90
        5
 70
     0
 43
0.0
 10
-3221.454976396636
 20
-406.8789198133162
 10
-3188.227030434647
 20
-520.96670193132
 10
-3260.775573728607
 20
-520.96670193132
 10
-3227.547627761961
 20
-406.8789198133162
 10
-3221.454976396636
 20
-406.8789198133162
  0
LWPOLYLINE
  5
DD2C8
330
FB763
100
AcDbEntity
  8
0
  6
Continuous
100
AcDbPolyline
 90
       11
 70
     0
 43
0.0
 10
-3407.540086535738
 20
-300.0
 10
-3407.540086535738
 20
-389.1607937274967
 10
-3593.616583929397
 20
-389.1607937274967
 10
-3593.616583929397
 20
-466.1362847220151
 10
-3463.47293430008
 20
-466.1362847220151
 10
-3463.47293430008
 20
-549.2095947265625
 10
-3593.616583929397
 20
-549.2095947265625
 10
-3593.616583929397
 20
-687.6576470269355
 10
-3712.685974119231
 20
-687.6576470269355
 10
-3712.685974119231
 20
-300.0
 10
-3407.540086535738
 20
-300.0
  0
LWPOLYLINE
  5
DD2C9
330
FB763
100
AcDbEntity
  8
0
  6
Continuous
100
AcDbPolyline
 90
        4
 70
     1
 43
0.0
 10
-2192.47902425006
 20
-299.9982774525415
 10
-2073.409634060226
 20
-299.9982774525415
 10
-2073.409634060226
 20
-687.6576470269355
 10
-2192.47902425006
 20
-687.6576470269355
  0
LWPOLYLINE
  5
DD2CA
330
FB763
100
AcDbEntity
  8
0
  6
Continuous
100
AcDbPolyline
 90
        9
 70
     0
 43
0.0
 10
-2229.582702633925
 20
-299.9982774525415
 10
-2229.582702633925
 20
-390.8213297522161
 10
-2345.878790956922
 20
-390.8213297522161
 10
-2345.878790956922
 20
-687.6576470269355
 10
-2464.948181146756
 20
-687.6576470269355
 10
-2464.948181146756
 20
-390.8213297522161
 10
-2578.481302894652
 20
-390.8213297522161
 10
-2578.481302894652
 20
-299.9982774525415
 10
-2229.582702633925
 20
-299.9982774525415
  0
LWPOLYLINE
  5
DD2CB
330
FB763
100
AcDbEntity
  8
0
  6
Continuous
100
AcDbPolyline
 90
       15
 70
     0
 43
0.0
 10
-2982.206875272095
 20
-687.6576470269355
 10
-2982.206875272095
 20
-299.9965549039189
 10
-2880.857333708556
 20
-299.9965549039189
 42
-0.316444976687396
 10
-2829.909539115615
 20
-328.2411702477839
 10
-2729.116380475462
 20
-498.2600775826719
 10
-2726.348246252165
 20
-498.2600775826719
 10
-2726.348246252165
 20
-299.9965549039189
 10
-2613.924445258454
 20
-299.9965549039189
 10
-2613.924445258454
 20
-687.6576470269355
 10
-2696.446539983154
 20
-687.6576470269355
 42
-0.312959769389874
 10
-2747.39433458075
 20
-659.4147542316932
 10
-2867.014940045774
 20
-466.1380072694737
 10
-2869.779629176483
 20
-466.1380072694737
 10
-2869.779629176483
 20
-687.6576470269355
 10
-2982.206875272095
 20
-687.6576470269355
  0
LWPOLYLINE
  5
DD2CC
330
FB763
100
AcDbEntity
  8
0
  6
Continuous
100
AcDbPolyline
 90
       15
 70
     0
 43
0.0
 10
-2005.844421386719
 20
-687.6576470269355
 10
-2005.844421386719
 20
-299.9965549039189
 10
-1904.494879823178
 20
-299.9965549039189
 42
-0.316444976687396
 10
-1853.547085234894
 20
-328.2411702477839
 10
-1752.753926590085
 20
-498.2600775826719
 10
-1749.985792371444
 20
-498.2600775826719
 10
-1749.985792371444
 20
-299.9965549039189
 10
-1637.561991373077
 20
-299.9965549039189
 10
-1637.561991373077
 20
-687.6576470269355
 10
-1720.084086097777
 20
-687.6576470269355
 42
-0.312959769389874
 10
-1771.031880690716
 20
-659.4147542316932
 10
-1890.652486160398
 20
-466.1380072694737
 10
-1893.417175291106
 20
-466.1380072694737
 10
-1893.417175291106
 20
-687.6576470269355
 10
-2005.844421386719
 20
-687.6576470269355
  0
TEXT
  5
DD2CD
330
FB763
100
AcDbEntity
  8
0
100
AcDbText
 10
-1185.617471924592
 20
-208.9254166234014
 30
0.0
 40
125.0
  1
Frame Bookcase System
  7
STILE1
 72
     1
 11
7.741903075408115
 21
-208.9254166234014
 31
0.0
100
AcDbText
  0
TEXT
  5
DD2CE
330
FB763
100
AcDbEntity
  8
0
100
AcDbText
 10
-838.7791374978221
 20
-555.4096502962035
 30
0.0
 40
125.0
  1
Questo disegno è di proprietà di Fantin S.r.l.   
  7
STILE1
 72
     1
 11
1583.839910121225
 21
-555.4096502962035
 31
0.0
100
AcDbText
  0
LWPOLYLINE
  5
FBCD5
330
FB763
100
AcDbEntity
  8
0
100
AcDbPolyline
 90
        4
 70
     1
 43
0.0
 10
11567.11550869248
 20
12986.71334485728
 10
11567.11550869248
 20
12626.71334485728
 10
11602.11550869248
 20
12626.71334485728
 10
11602.11550869248
 20
12986.71334485728
  0
TEXT
  5
FBCD6
330
FB763
100
AcDbEntity
  8
0
100
AcDbText
 10
9696.9741069542
 20
12144.8460393096
 30
0.0
 40
100.0
  1
L 150
  7
STILE1
100
AcDbText
  0
LWPOLYLINE
  5
FBCD7
330
FB763
100
AcDbEntity
  8
0
100
AcDbPolyline
 90
        4
 70
     1
 43
0.0
 10
9187.115508692485
 20
12986.71334485728
 10
10687.11550869248
 20
12986.71334485728
 10
10687.11550869248
 20
12626.71334485728
 10
9187.115508692485
 20
12626.71334485728
  0
LWPOLYLINE
  5
FBCD8
330
FB763
100
AcDbEntity
  8
0
100
AcDbPolyline
 90
        4
 70
     1
 43
0.0
 10
7557.115508692492
 20
12986.71334485728
 10
8557.115508692492
 20
12986.71334485728
 10
8557.115508692492
 20
12626.71334485728
 10
7557.115508692492
 20
12626.71334485728
  0
LWPOLYLINE
  5
FBCD9
330
FB763
100
AcDbEntity
  8
0
100
AcDbPolyline
 90
        4
 70
     1
 43
0.0
 10
6377.115508692492
 20
12986.71334485728
 10
6377.115508692492
 20
12626.71334485728
 10
6877.115508692492
 20
12626.71334485728
 10
6877.115508692492
 20
12986.71334485728
  0
LWPOLYLINE
  5
FBCDA
330
FB763
100
AcDbEntity
  8
0
100
AcDbPolyline
 90
        2
 70
     0
 43
0.0
 10
2703.027228341802
 20
12576.7133448573
 10
2993.027228341802
 20
12576.7133448573
  0
LWPOLYLINE
  5
FBCDB
330
FB763
100
AcDbEntity
  8
0
100
AcDbPolyline
 90
        2
 70
     0
 43
0.0
 10
2993.027228341802
 20
12541.71334485729
 10
2703.027228341802
 20
12541.71334485729
  0
LWPOLYLINE
  5
FBCDC
330
FB763
100
AcDbEntity
  8
0
100
AcDbPolyline
 90
        2
 70
     0
 43
0.0
 10
2703.027228341802
 20
12166.71334485729
 10
2993.027228341802
 20
12166.71334485729
  0
LWPOLYLINE
  5
FBCDD
330
FB763
100
AcDbEntity
  8
0
100
AcDbPolyline
 90
        2
 70
     0
 43
0.0
 10
2993.027228341802
 20
12131.7133448573
 10
2703.027228341802
 20
12131.7133448573
  0
LWPOLYLINE
  5
FBCDE
330
FB763
100
AcDbEntity
  8
0
100
AcDbPolyline
 90
        2
 70
     0
 43
0.0
 10
2703.027228341802
 20
11756.7133448573
 10
2993.027228341802
 20
11756.7133448573
  0
LWPOLYLINE
  5
FBCDF
330
FB763
100
AcDbEntity
  8
0
100
AcDbPolyline
 90
        2
 70
     0
 43
0.0
 10
2993.027228341802
 20
11721.71334485729
 10
2703.027228341802
 20
11721.71334485729
  0
LWPOLYLINE
  5
FBCE0
330
FB763
100
AcDbEntity
  8
0
100
AcDbPolyline
 90
        2
 70
     0
 43
0.0
 10
1453.027228341802
 20
11756.7133448573
 10
1743.027228341802
 20
11756.7133448573
  0
LWPOLYLINE
  5
FBCE1
330
FB763
100
AcDbEntity
  8
0
100
AcDbPolyline
 90
        2
 70
     0
 43
0.0
 10
1743.027228341802
 20
11721.71334485729
 10
1453.027228341802
 20
11721.71334485729
  0
LWPOLYLINE
  5
FBCE2
330
FB763
100
AcDbEntity
  8
0
100
AcDbPolyline
 90
        2
 70
     0
 43
0.0
 10
1453.027228341802
 20
12166.71334485729
 10
1743.027228341802
 20
12166.71334485729
  0
LWPOLYLINE
  5
FBCE3
330
FB763
100
AcDbEntity
  8
0
100
AcDbPolyline
 90
        2
 70
     0
 43
0.0
 10
1743.027228341802
 20
12131.7133448573
 10
1453.027228341802
 20
12131.7133448573
  0
LWPOLYLINE
  5
FBCE4
330
FB763
100
AcDbEntity
  8
0
100
AcDbPolyline
 90
        2
 70
     0
 43
0.0
 10
2703.027228341802
 20
11346.71334485729
 10
2993.027228341802
 20
11346.71334485729
  0
LWPOLYLINE
  5
FBCE5
330
FB763
100
AcDbEntity
  8
0
100
AcDbPolyline
 90
        2
 70
     0
 43
0.0
 10
2993.027228341802
 20
11311.71334485729
 10
2703.027228341802
 20
11311.71334485729
  0
LWPOLYLINE
  5
FBCE6
330
FB763
100
AcDbEntity
  8
0
100
AcDbPolyline
 90
        2
 70
     0
 43
0.0
 10
1453.027228341802
 20
11346.71334485729
 10
1743.027228341802
 20
11346.71334485729
  0
LWPOLYLINE
  5
FBCE7
330
FB763
100
AcDbEntity
  8
0
100
AcDbPolyline
 90
        2
 70
     0
 43
0.0
 10
1743.027228341802
 20
11311.71334485729
 10
1453.027228341802
 20
11311.71334485729
  0
LWPOLYLINE
  5
FBCE8
330
FB763
100
AcDbEntity
  8
0
100
AcDbPolyline
 90
        2
 70
     0
 43
0.0
 10
-1046.972771658198
 20
11346.71334485729
 10
-756.9727716581983
 20
11346.71334485729
  0
LWPOLYLINE
  5
FBCE9
330
FB763
100
AcDbEntity
  8
0
100
AcDbPolyline
 90
        2
 70
     0
 43
0.0
 10
-756.9727716581983
 20
11311.71334485729
 10
-1046.972771658198
 20
11311.71334485729
  0
LWPOLYLINE
  5
FBCEA
330
FB763
100
AcDbEntity
  8
0
100
AcDbPolyline
 90
        2
 70
     0
 43
0.0
 10
2703.027228341802
 20
10936.71334485729
 10
2993.027228341802
 20
10936.71334485729
  0
LWPOLYLINE
  5
FBCEB
330
FB763
100
AcDbEntity
  8
0
100
AcDbPolyline
 90
        2
 70
     0
 43
0.0
 10
2993.027228341802
 20
10901.71334485729
 10
2703.027228341802
 20
10901.71334485729
  0
LWPOLYLINE
  5
FBCEC
330
FB763
100
AcDbEntity
  8
0
100
AcDbPolyline
 90
        2
 70
     0
 43
0.0
 10
1453.027228341802
 20
10936.71334485729
 10
1743.027228341802
 20
10936.71334485729
  0
LWPOLYLINE
  5
FBCED
330
FB763
100
AcDbEntity
  8
0
100
AcDbPolyline
 90
        2
 70
     0
 43
0.0
 10
1743.027228341802
 20
10901.71334485729
 10
1453.027228341802
 20
10901.71334485729
  0
LWPOLYLINE
  5
FBCEE
330
FB763
100
AcDbEntity
  8
0
100
AcDbPolyline
 90
        2
 70
     0
 43
0.0
 10
-1046.972771658198
 20
10936.71334485729
 10
-756.9727716581983
 20
10936.71334485729
  0
LWPOLYLINE
  5
FBCEF
330
FB763
100
AcDbEntity
  8
0
100
AcDbPolyline
 90
        2
 70
     0
 43
0.0
 10
-756.9727716581983
 20
10901.71334485729
 10
-1046.972771658198
 20
10901.71334485729
  0
LWPOLYLINE
  5
FBCF0
330
FB763
100
AcDbEntity
  8
0
100
AcDbPolyline
 90
        2
 70
     0
 43
0.0
 10
-2296.972771658198
 20
10936.71334485729
 10
-2006.972771658198
 20
10936.71334485729
  0
LWPOLYLINE
  5
FBCF1
330
FB763
100
AcDbEntity
  8
0
100
AcDbPolyline
 90
        2
 70
     0
 43
0.0
 10
-2006.972771658198
 20
10901.71334485729
 10
-2296.972771658198
 20
10901.71334485729
  0
TEXT
  5
FBCF2
330
FB763
100
AcDbEntity
  8
0
100
AcDbText
 10
3133.244681736229
 20
12855.09650893679
 30
0.0
 40
100.0
  1
H 2530
  7
STILE1
100
AcDbText
  0
TEXT
  5
FBCF3
330
FB763
100
AcDbEntity
  8
0
100
AcDbText
 10
1883.244681736229
 20
12445.0965089368
 30
0.0
 40
100.0
  1
H 2120
  7
STILE1
100
AcDbText
  0
TEXT
  5
FBCF4
330
FB763
100
AcDbEntity
  8
0
100
AcDbText
 10
-616.7553182637712
 20
11625.09650893681
 30
0.0
 40
100.0
  1
H 1300
  7
STILE1
100
AcDbText
  0
TEXT
  5
FBCF5
330
FB763
100
AcDbEntity
  8
0
100
AcDbText
 10
-1866.755318263771
 20
11215.09650893681
 30
0.0
 40
100.0
  1
H 890
  7
STILE1
100
AcDbText
  0
LWPOLYLINE
  5
FBCF6
330
FB763
100
AcDbEntity
  8
0
100
AcDbPolyline
 90
        5
 70
     0
 43
0.0
 10
2670.527228341802
 20
10459.71334485729
 10
2700.527228341802
 20
10459.71334485729
 10
2700.527228341802
 20
10456.71334485729
 10
2670.527228341802
 20
10456.71334485729
 10
2670.527228341802
 20
10459.71334485729
  0
LWPOLYLINE
  5
FBCF7
330
FB763
100
AcDbEntity
  8
0
100
AcDbPolyline
 90
        5
 70
     0
 43
0.0
 10
3025.527228341802
 20
10459.71334485729
 10
2995.527228341802
 20
10459.71334485729
 10
2995.527228341802
 20
10456.71334485729
 10
3025.527228341802
 20
10456.71334485729
 10
3025.527228341802
 20
10459.71334485729
  0
LWPOLYLINE
  5
FBCF8
330
FB763
100
AcDbEntity
  8
0
100
AcDbPolyline
 90
        9
 70
     0
 43
0.0
 10
2668.027228341802
 20
10459.71334485729
 10
2703.027228341802
 20
10459.71334485729
 10
2703.027228341802
 20
10491.71334485729
 10
2993.027228341802
 20
10491.71334485729
 10
2993.027228341802
 20
10459.71334485729
 10
3028.027228341802
 20
10459.71334485729
 10
3028.027228341802
 20
12986.71334485728
 10
2668.027228341802
 20
12986.71334485728
 10
2668.027228341802
 20
10459.71334485729
  0
LWPOLYLINE
  5
FBCF9
330
FB763
100
AcDbEntity
  8
0
100
AcDbPolyline
 90
        4
 70
     0
 43
0.0
 10
2703.027228341802
 20
12576.7133448573
 10
2703.027228341802
 20
12951.71334485728
 10
2993.027228341802
 20
12951.71334485728
 10
2993.027228341802
 20
12576.7133448573
  0
LWPOLYLINE
  5
FBCFA
330
FB763
100
AcDbEntity
  8
0
100
AcDbPolyline
 90
        2
 70
     0
 43
0.0
 10
2993.027228341802
 20
12541.71334485729
 10
2993.027228341802
 20
12166.71334485729
  0
LWPOLYLINE
  5
FBCFB
330
FB763
100
AcDbEntity
  8
0
100
AcDbPolyline
 90
        2
 70
     0
 43
0.0
 10
2993.027228341802
 20
12131.7133448573
 10
2993.027228341802
 20
11756.7133448573
  0
LWPOLYLINE
  5
FBCFC
330
FB763
100
AcDbEntity
  8
0
100
AcDbPolyline
 90
        2
 70
     0
 43
0.0
 10
2993.027228341802
 20
11721.71334485729
 10
2993.027228341802
 20
11346.71334485729
  0
LWPOLYLINE
  5
FBCFD
330
FB763
100
AcDbEntity
  8
0
100
AcDbPolyline
 90
        2
 70
     0
 43
0.0
 10
2993.027228341802
 20
11311.71334485729
 10
2993.027228341802
 20
10936.71334485729
  0
LWPOLYLINE
  5
FBCFE
330
FB763
100
AcDbEntity
  8
0
100
AcDbPolyline
 90
        4
 70
     0
 43
0.0
 10
2993.027228341802
 20
10901.71334485729
 10
2993.027228341802
 20
10526.71334485729
 10
2703.027228341802
 20
10526.71334485729
 10
2703.027228341802
 20
10901.71334485729
  0
LWPOLYLINE
  5
FBCFF
330
FB763
100
AcDbEntity
  8
0
100
AcDbPolyline
 90
        2
 70
     0
 43
0.0
 10
2703.027228341802
 20
10936.71334485729
 10
2703.027228341802
 20
11311.71334485729
  0
LWPOLYLINE
  5
FBD00
330
FB763
100
AcDbEntity
  8
0
100
AcDbPolyline
 90
        2
 70
     0
 43
0.0
 10
2703.027228341802
 20
11346.71334485729
 10
2703.027228341802
 20
11721.71334485729
  0
LWPOLYLINE
  5
FBD01
330
FB763
100
AcDbEntity
  8
0
100
AcDbPolyline
 90
        2
 70
     0
 43
0.0
 10
2703.027228341802
 20
11756.7133448573
 10
2703.027228341802
 20
12131.7133448573
  0
LWPOLYLINE
  5
FBD02
330
FB763
100
AcDbEntity
  8
0
100
AcDbPolyline
 90
        2
 70
     0
 43
0.0
 10
2703.027228341802
 20
12166.71334485729
 10
2703.027228341802
 20
12541.71334485729
  0
LWPOLYLINE
  5
FBD03
330
FB763
100
AcDbEntity
  8
0
100
AcDbPolyline
 90
        5
 70
     0
 43
0.0
 10
1420.527228341802
 20
10459.71334485729
 10
1450.527228341802
 20
10459.71334485729
 10
1450.527228341802
 20
10456.71334485729
 10
1420.527228341802
 20
10456.71334485729
 10
1420.527228341802
 20
10459.71334485729
  0
LWPOLYLINE
  5
FBD04
330
FB763
100
AcDbEntity
  8
0
100
AcDbPolyline
 90
        5
 70
     0
 43
0.0
 10
1775.527228341802
 20
10459.71334485729
 10
1745.527228341802
 20
10459.71334485729
 10
1745.527228341802
 20
10456.71334485729
 10
1775.527228341802
 20
10456.71334485729
 10
1775.527228341802
 20
10459.71334485729
  0
LWPOLYLINE
  5
FBD05
330
FB763
100
AcDbEntity
  8
0
100
AcDbPolyline
 90
        9
 70
     0
 43
0.0
 10
1418.027228341802
 20
10459.71334485729
 10
1453.027228341802
 20
10459.71334485729
 10
1453.027228341802
 20
10491.71334485729
 10
1743.027228341802
 20
10491.71334485729
 10
1743.027228341802
 20
10459.71334485729
 10
1778.027228341802
 20
10459.71334485729
 10
1778.027228341802
 20
12576.7133448573
 10
1418.027228341802
 20
12576.7133448573
 10
1418.027228341802
 20
10459.71334485729
  0
LWPOLYLINE
  5
FBD06
330
FB763
100
AcDbEntity
  8
0
100
AcDbPolyline
 90
        4
 70
     0
 43
0.0
 10
1453.027228341802
 20
12166.71334485729
 10
1453.027228341802
 20
12541.71334485729
 10
1743.027228341802
 20
12541.71334485729
 10
1743.027228341802
 20
12166.71334485729
  0
LWPOLYLINE
  5
FBD07
330
FB763
100
AcDbEntity
  8
0
100
AcDbPolyline
 90
        2
 70
     0
 43
0.0
 10
1743.027228341802
 20
12131.7133448573
 10
1743.027228341802
 20
11756.7133448573
  0
LWPOLYLINE
  5
FBD08
330
FB763
100
AcDbEntity
  8
0
100
AcDbPolyline
 90
        2
 70
     0
 43
0.0
 10
1743.027228341802
 20
11721.71334485729
 10
1743.027228341802
 20
11346.71334485729
  0
LWPOLYLINE
  5
FBD09
330
FB763
100
AcDbEntity
  8
0
100
AcDbPolyline
 90
        2
 70
     0
 43
0.0
 10
1743.027228341802
 20
11311.71334485729
 10
1743.027228341802
 20
10936.71334485729
  0
LWPOLYLINE
  5
FBD0A
330
FB763
100
AcDbEntity
  8
0
100
AcDbPolyline
 90
        4
 70
     0
 43
0.0
 10
1743.027228341802
 20
10901.71334485729
 10
1743.027228341802
 20
10526.71334485729
 10
1453.027228341802
 20
10526.71334485729
 10
1453.027228341802
 20
10901.71334485729
  0
LWPOLYLINE
  5
FBD0B
330
FB763
100
AcDbEntity
  8
0
100
AcDbPolyline
 90
        2
 70
     0
 43
0.0
 10
1453.027228341802
 20
10936.71334485729
 10
1453.027228341802
 20
11311.71334485729
  0
LWPOLYLINE
  5
FBD0C
330
FB763
100
AcDbEntity
  8
0
100
AcDbPolyline
 90
        2
 70
     0
 43
0.0
 10
1453.027228341802
 20
11346.71334485729
 10
1453.027228341802
 20
11721.71334485729
  0
LWPOLYLINE
  5
FBD0D
330
FB763
100
AcDbEntity
  8
0
100
AcDbPolyline
 90
        2
 70
     0
 43
0.0
 10
1453.027228341802
 20
11756.7133448573
 10
1453.027228341802
 20
12131.7133448573
  0
LWPOLYLINE
  5
FBD0E
330
FB763
100
AcDbEntity
  8
0
100
AcDbPolyline
 90
        5
 70
     0
 43
0.0
 10
-1079.472771658198
 20
10459.71334485729
 10
-1049.472771658198
 20
10459.71334485729
 10
-1049.472771658198
 20
10456.71334485729
 10
-1079.472771658198
 20
10456.71334485729
 10
-1079.472771658198
 20
10459.71334485729
  0
LWPOLYLINE
  5
FBD0F
330
FB763
100
AcDbEntity
  8
0
100
AcDbPolyline
 90
        5
 70
     0
 43
0.0
 10
-724.4727716581983
 20
10459.71334485729
 10
-754.4727716581983
 20
10459.71334485729
 10
-754.4727716581983
 20
10456.71334485729
 10
-724.4727716581983
 20
10456.71334485729
 10
-724.4727716581983
 20
10459.71334485729
  0
LWPOLYLINE
  5
FBD10
330
FB763
100
AcDbEntity
  8
0
100
AcDbPolyline
 90
        9
 70
     0
 43
0.0
 10
-1081.972771658198
 20
10459.71334485729
 10
-1046.972771658198
 20
10459.71334485729
 10
-1046.972771658198
 20
10491.71334485729
 10
-756.9727716581983
 20
10491.71334485729
 10
-756.9727716581983
 20
10459.71334485729
 10
-721.9727716581983
 20
10459.71334485729
 10
-721.9727716581983
 20
11756.7133448573
 10
-1081.972771658198
 20
11756.7133448573
 10
-1081.972771658198
 20
10459.71334485729
  0
LWPOLYLINE
  5
FBD11
330
FB763
100
AcDbEntity
  8
0
100
AcDbPolyline
 90
        4
 70
     0
 43
0.0
 10
-1046.972771658198
 20
11346.71334485729
 10
-1046.972771658198
 20
11721.71334485729
 10
-756.9727716581983
 20
11721.71334485729
 10
-756.9727716581983
 20
11346.71334485729
  0
LWPOLYLINE
  5
FBD12
330
FB763
100
AcDbEntity
  8
0
100
AcDbPolyline
 90
        2
 70
     0
 43
0.0
 10
-756.9727716581983
 20
11311.71334485729
 10
-756.9727716581983
 20
10936.71334485729
  0
LWPOLYLINE
  5
FBD13
330
FB763
100
AcDbEntity
  8
0
100
AcDbPolyline
 90
        4
 70
     0
 43
0.0
 10
-756.9727716581983
 20
10901.71334485729
 10
-756.9727716581983
 20
10526.71334485729
 10
-1046.972771658198
 20
10526.71334485729
 10
-1046.972771658198
 20
10901.71334485729
  0
LWPOLYLINE
  5
FBD14
330
FB763
100
AcDbEntity
  8
0
100
AcDbPolyline
 90
        2
 70
     0
 43
0.0
 10
-1046.972771658198
 20
10936.71334485729
 10
-1046.972771658198
 20
11311.71334485729
  0
LWPOLYLINE
  5
FBD15
330
FB763
100
AcDbEntity
  8
0
100
AcDbPolyline
 90
        2
 70
     0
 43
0.0
 10
-2296.972771658198
 20
10459.71334485729
 10
-2331.972771658198
 20
10459.71334485729
  0
LWPOLYLINE
  5
FBD16
330
FB763
100
AcDbEntity
  8
0
100
AcDbPolyline
 90
        5
 70
     0
 43
0.0
 10
-2329.472771658198
 20
10459.71334485729
 10
-2299.472771658198
 20
10459.71334485729
 10
-2299.472771658198
 20
10456.71334485729
 10
-2329.472771658198
 20
10456.71334485729
 10
-2329.472771658198
 20
10459.71334485729
  0
LWPOLYLINE
  5
FBD17
330
FB763
100
AcDbEntity
  8
0
100
AcDbPolyline
 90
        5
 70
     0
 43
0.0
 10
-1974.472771658198
 20
10459.71334485729
 10
-2004.472771658198
 20
10459.71334485729
 10
-2004.472771658198
 20
10456.71334485729
 10
-1974.472771658198
 20
10456.71334485729
 10
-1974.472771658198
 20
10459.71334485729
  0
LWPOLYLINE
  5
FBD18
330
FB763
100
AcDbEntity
  8
0
100
AcDbPolyline
 90
        9
 70
     0
 43
0.0
 10
-2331.972771658198
 20
10459.71334485729
 10
-2296.972771658198
 20
10459.71334485729
 10
-2296.972771658198
 20
10491.71334485729
 10
-2006.972771658198
 20
10491.71334485729
 10
-2006.972771658198
 20
10459.71334485729
 10
-1971.972771658198
 20
10459.71334485729
 10
-1971.972771658198
 20
11346.71334485729
 10
-2331.972771658198
 20
11346.71334485729
 10
-2331.972771658198
 20
10459.71334485729
  0
LWPOLYLINE
  5
FBD19
330
FB763
100
AcDbEntity
  8
0
100
AcDbPolyline
 90
        4
 70
     0
 43
0.0
 10
-2296.972771658198
 20
10936.71334485729
 10
-2296.972771658198
 20
11311.71334485729
 10
-2006.972771658198
 20
11311.71334485729
 10
-2006.972771658198
 20
10936.71334485729
  0
LWPOLYLINE
  5
FBD1A
330
FB763
100
AcDbEntity
  8
0
100
AcDbPolyline
 90
        4
 70
     0
 43
0.0
 10
-2006.972771658198
 20
10901.71334485729
 10
-2006.972771658198
 20
10526.71334485729
 10
-2296.972771658198
 20
10526.71334485729
 10
-2296.972771658198
 20
10901.71334485729
  0
LWPOLYLINE
  5
FBD1B
330
FB763
100
AcDbEntity
  8
0
100
AcDbPolyline
 90
        4
 70
     1
 43
0.0
 10
-3546.972771658198
 20
10901.71334485729
 10
-3256.972771658198
 20
10901.71334485729
 10
-3256.972771658198
 20
10526.71334485729
 10
-3546.972771658198
 20
10526.71334485729
  0
LWPOLYLINE
  5
FBD1C
330
FB763
100
AcDbEntity
  8
0
100
AcDbPolyline
 90
        9
 70
     0
 43
0.0
 10
-3581.972771658198
 20
10459.71334485729
 10
-3546.972771658198
 20
10459.71334485729
 10
-3546.972771658198
 20
10491.71334485729
 10
-3256.972771658198
 20
10491.71334485729
 10
-3256.972771658198
 20
10459.71334485729
 10
-3221.972771658198
 20
10459.71334485729
 10
-3221.972771658198
 20
10936.71334485729
 10
-3581.972771658198
 20
10936.71334485729
 10
-3581.972771658198
 20
10459.71334485729
  0
LWPOLYLINE
  5
FBD1D
330
FB763
100
AcDbEntity
  8
0
100
AcDbPolyline
 90
        5
 70
     0
 43
0.0
 10
-3224.472771658198
 20
10459.71334485729
 10
-3254.472771658198
 20
10459.71334485729
 10
-3254.472771658198
 20
10456.71334485729
 10
-3224.472771658198
 20
10456.71334485729
 10
-3224.472771658198
 20
10459.71334485729
  0
LWPOLYLINE
  5
FBD1E
330
FB763
100
AcDbEntity
  8
0
100
AcDbPolyline
 90
        5
 70
     0
 43
0.0
 10
-3579.472771658198
 20
10459.71334485729
 10
-3549.472771658198
 20
10459.71334485729
 10
-3549.472771658198
 20
10456.71334485729
 10
-3579.472771658198
 20
10456.71334485729
 10
-3579.472771658198
 20
10459.71334485729
  0
TEXT
  5
FBD1F
330
FB763
100
AcDbEntity
  8
0
100
AcDbText
 10
-3116.755318263771
 20
10805.09650893681
 30
0.0
 40
100.0
  1
H 480
  7
STILE1
100
AcDbText
  0
TEXT
  5
FBD20
330
FB763
100
AcDbEntity
  8
0
100
AcDbText
 10
7816.974106954214
 20
12144.8460393096
 30
0.0
 40
100.0
  1
L 100
  7
STILE1
100
AcDbText
  0
TEXT
  5
FBD21
330
FB763
100
AcDbEntity
  8
0
100
AcDbText
 10
5433.624406954077
 20
12761.93270107283
 30
0.0
 40
100.0
  1
P 36
  7
STILE1
100
AcDbText
  0
TEXT
  5
FBD22
330
FB763
100
AcDbEntity
  8
0
100
AcDbText
 10
6386.974106954214
 20
12144.8460393096
 30
0.0
 40
100.0
  1
L 50
  7
STILE1
100
AcDbText
  0
TEXT
  5
FBD23
330
FB763
100
AcDbEntity
  8
0
100
AcDbText
 10
11344.47410695419
 20
12144.8460393096
 30
0.0
 40
100.0
  1
H 35
  7
STILE1
100
AcDbText
  0
LWPOLYLINE
  5
FBD24
330
FB763
100
AcDbEntity
  8
0
100
AcDbPolyline
 90
        4
 70
     1
 43
0.0
 10
-4012.685974119231
 20
554.0366420584451
 10
12592.09456441612
 20
554.0366420584451
 10
12592.09456441612
 20
8430.65608328735
 10
-4012.685974119231
 20
8430.656083287342
  0
LWPOLYLINE
  5
FBD25
330
FB763
100
AcDbEntity
  8
0
100
AcDbPolyline
 90
        4
 70
     1
 43
0.0
 10
-4012.685974119231
 20
14792.18109737552
 10
4012.685974119231
 20
14792.18109737552
 10
4012.685974119231
 20
9098.144455317082
 10
-4012.685974119231
 20
9098.144455317086
  0
LWPOLYLINE
  5
FBD26
330
FB763
100
AcDbEntity
  8
0
100
AcDbPolyline
 90
        4
 70
     1
 43
0.0
 10
4566.722616177671
 20
14792.18109737552
 10
12592.09456441612
 20
14792.18109737552
 10
12592.09456441612
 20
9098.144455317082
 10
4566.722616177671
 20
9098.144455317086
  0
TEXT
  5
FBD27
330
FB763
100
AcDbEntity
  8
0
100
AcDbText
 10
5433.624406954077
 20
14377.68085135342
 30
0.0
 40
100.0
  1
Shelves / Ripiani / Regalböden
  7
STILE1
100
AcDbText
  0
TEXT
  5
FBD28
330
FB763
100
AcDbEntity
  8
0
100
AcDbText
 10
-3145.784183342825
 20
14377.68085135342
 30
0.0
 40
100.0
  1
Uprights / Spalle / Pfosten
  7
STILE1
100
AcDbText
  0
LWPOLYLINE
  5
FBD29
330
FB763
100
AcDbEntity
  8
0
100
AcDbPolyline
 90
        4
 70
     0
 43
0.0
 10
203.0272283418017
 20
11756.7133448573
 10
203.0272283418017
 20
12131.7133448573
 10
493.0272283418017
 20
12131.7133448573
 10
493.0272283418017
 20
11756.7133448573
  0
LWPOLYLINE
  5
FBD2A
330
FB763
100
AcDbEntity
  8
0
100
AcDbPolyline
 90
        2
 70
     0
 43
0.0
 10
493.0272283418017
 20
11721.71334485729
 10
493.0272283418017
 20
11346.71334485729
  0
LWPOLYLINE
  5
FBD2B
330
FB763
100
AcDbEntity
  8
0
100
AcDbPolyline
 90
        2
 70
     0
 43
0.0
 10
493.0272283418017
 20
11311.71334485729
 10
493.0272283417944
 20
10936.71334485729
  0
LWPOLYLINE
  5
FBD2C
330
FB763
100
AcDbEntity
  8
0
100
AcDbPolyline
 90
        4
 70
     0
 43
0.0
 10
493.0272283417944
 20
10901.71334485729
 10
493.0272283417944
 20
10526.71334485729
 10
203.0272283418017
 20
10526.71334485729
 10
203.0272283418017
 20
10901.71334485729
  0
LWPOLYLINE
  5
FBD2D
330
FB763
100
AcDbEntity
  8
0
100
AcDbPolyline
 90
        2
 70
     0
 43
0.0
 10
203.0272283418017
 20
10936.71334485729
 10
203.0272283418017
 20
11311.71334485729
  0
LWPOLYLINE
  5
FBD2E
330
FB763
100
AcDbEntity
  8
0
100
AcDbPolyline
 90
        2
 70
     0
 43
0.0
 10
203.0272283418017
 20
11346.71334485729
 10
203.0272283418017
 20
11721.71334485729
  0
LWPOLYLINE
  5
FBD2F
330
FB763
100
AcDbEntity
  8
0
100
AcDbPolyline
 90
        9
 70
     0
 43
0.0
 10
168.0272283418017
 20
10459.71334485729
 10
203.0272283418017
 20
10459.71334485729
 10
203.0272283418017
 20
10491.71334485729
 10
493.0272283417944
 20
10491.71334485729
 10
493.0272283417944
 20
10459.71334485729
 10
528.0272283417944
 20
10459.71334485729
 10
528.0272283418017
 20
12166.7133448573
 10
168.0272283418017
 20
12166.7133448573
 10
168.0272283418017
 20
10459.71334485729
  0
LWPOLYLINE
  5
FBD30
330
FB763
100
AcDbEntity
  8
0
100
AcDbPolyline
 90
        5
 70
     0
 43
0.0
 10
525.5272283417944
 20
10459.71334485729
 10
495.5272283417944
 20
10459.71334485729
 10
495.5272283417944
 20
10456.71334485729
 10
525.5272283417944
 20
10456.71334485729
 10
525.5272283417944
 20
10459.71334485729
  0
LWPOLYLINE
  5
FBD31
330
FB763
100
AcDbEntity
  8
0
100
AcDbPolyline
 90
        5
 70
     0
 43
0.0
 10
170.5272283418017
 20
10459.71334485729
 10
200.5272283418017
 20
10459.71334485729
 10
200.5272283418017
 20
10456.71334485729
 10
170.5272283418017
 20
10456.71334485729
 10
170.5272283418017
 20
10459.71334485729
  0
TEXT
  5
FBD32
330
FB763
100
AcDbEntity
  8
0
100
AcDbText
 10
633.2446817362288
 20
12035.0965089368
 30
0.0
 40
100.0
  1
H 1710
  7
STILE1
100
AcDbText
  0
LWPOLYLINE
  5
FBD33
330
FB763
100
AcDbEntity
  8
0
100
AcDbPolyline
 90
        2
 70
     0
 43
0.0
 10
203.0272283418017
 20
10936.71334485729
 10
493.0272283417944
 20
10936.71334485729
  0
LWPOLYLINE
  5
FBD34
330
FB763
100
AcDbEntity
  8
0
100
AcDbPolyline
 90
        2
 70
     0
 43
0.0
 10
493.0272283417944
 20
10901.71334485729
 10
203.0272283418017
 20
10901.71334485729
  0
LWPOLYLINE
  5
FBD35
330
FB763
100
AcDbEntity
  8
0
100
AcDbPolyline
 90
        2
 70
     0
 43
0.0
 10
203.0272283418017
 20
11346.71334485729
 10
493.0272283417944
 20
11346.71334485729
  0
LWPOLYLINE
  5
FBD36
330
FB763
100
AcDbEntity
  8
0
100
AcDbPolyline
 90
        2
 70
     0
 43
0.0
 10
493.0272283417944
 20
11311.71334485729
 10
203.0272283418017
 20
11311.71334485729
  0
LWPOLYLINE
  5
FBD37
330
FB763
100
AcDbEntity
  8
0
100
AcDbPolyline
 90
        2
 70
     0
 43
0.0
 10
203.0272283418017
 20
11756.7133448573
 10
493.0272283418017
 20
11756.7133448573
  0
LWPOLYLINE
  5
FBD38
330
FB763
100
AcDbEntity
  8
0
100
AcDbPolyline
 90
        2
 70
     0
 43
0.0
 10
493.0272283418017
 20
11721.71334485729
 10
203.0272283418017
 20
11721.71334485729
  0
LWPOLYLINE
  5
FBD39
330
FB763
100
AcDbEntity
  8
0
100
AcDbPolyline
 90
        4
 70
     1
 43
0.0
 10
20268.53186069666
 20
13500.62567601903
 10
20268.53186069666
 20
13125.62567601903
 10
20284.53186069666
 20
13125.62567601902
 10
20284.53186069666
 20
13500.62567601902
  0
TEXT
  5
FBD3A
330
FB763
100
AcDbEntity
  8
0
100
AcDbText
 10
18379.39045895839
 20
12643.75837047133
 30
0.0
 40
100.0
  1
L 150
  7
STILE1
100
AcDbText
  0
LWPOLYLINE
  5
FBD3B
330
FB763
100
AcDbEntity
  8
0
100
AcDbPolyline
 90
        4
 70
     1
 43
0.0
 10
17869.53186069666
 20
13500.62567601902
 10
19369.53186069666
 20
13500.62567601902
 10
19369.53186069666
 20
13125.62567601902
 10
17869.53186069666
 20
13125.62567601902
  0
LWPOLYLINE
  5
FBD3C
330
FB763
100
AcDbEntity
  8
0
100
AcDbPolyline
 90
        4
 70
     1
 43
0.0
 10
16239.53186069666
 20
13500.62567601902
 10
17239.53186069666
 20
13500.62567601902
 10
17239.53186069666
 20
13125.62567601902
 10
16239.53186069666
 20
13125.62567601902
  0
LWPOLYLINE
  5
FBD3D
330
FB763
100
AcDbEntity
  8
0
100
AcDbPolyline
 90
        4
 70
     1
 43
0.0
 10
15059.53186069666
 20
13500.62567601902
 10
15059.53186069666
 20
13125.62567601902
 10
15559.53186069666
 20
13125.62567601902
 10
15559.53186069666
 20
13500.62567601902
  0
TEXT
  5
FBD3E
330
FB763
100
AcDbEntity
  8
0
100
AcDbText
 10
16499.39045895839
 20
12643.75837047133
 30
0.0
 40
100.0
  1
L 100
  7
STILE1
100
AcDbText
  0
TEXT
  5
FBD3F
330
FB763
100
AcDbEntity
  8
0
100
AcDbText
 10
14116.04075895825
 20
13260.84503223456
 30
0.0
 40
100.0
  1
P 37,5
  7
STILE1
100
AcDbText
  0
TEXT
  5
FBD40
330
FB763
100
AcDbEntity
  8
0
100
AcDbText
 10
15069.39045895839
 20
12643.75837047133
 30
0.0
 40
100.0
  1
L 50
  7
STILE1
100
AcDbText
  0
TEXT
  5
FBD41
330
FB763
100
AcDbEntity
  8
0
100
AcDbText
 10
14116.04075895825
 20
14377.68085135342
 30
0.0
 40
100.0
  1
Back panels / Schiene / Wandrückenlehnen
  7
STILE1
100
AcDbText
  0
TEXT
  5
FBD42
330
FB763
100
AcDbEntity
  8
0
100
AcDbText
 10
23530.39019119705
 20
9802.089782487383
 30
0.0
 40
100.0
  1
L 29
  7
STILE1
100
AcDbText
  0
TEXT
  5
FBD43
330
FB763
100
AcDbEntity
  8
0
100
AcDbText
 10
22654.64341141485
 20
10419.1764442506
 30
0.0
 40
100.0
  1
P 37,5
  7
STILE1
100
AcDbText
  0
LWPOLYLINE
  5
FBD44
330
FB763
100
AcDbEntity
  8
0
100
AcDbPolyline
 90
        4
 70
     1
 43
0.0
 10
23598.13451315327
 20
10658.95708803507
 10
23598.13451315327
 20
10283.95708803507
 10
23888.13451315327
 20
10283.95708803507
 10
23888.13451315327
 20
10658.95708803507
  0
LWPOLYLINE
  5
FBD45
330
FB763
100
AcDbEntity
  8
0
100
AcDbPolyline
 90
        4
 70
     1
 43
0.0
 10
28788.13451315327
 20
10658.95708803507
 10
28788.13451315327
 20
10283.95708803507
 10
28823.13451315327
 20
10283.95708803507
 10
28823.13451315327
 20
10658.95708803507
  0
TEXT
  5
FBD46
330
FB763
100
AcDbEntity
  8
0
100
AcDbText
 10
22784.32310146864
 20
7803.424951360385
 30
0.0
 40
100.0
  1
Vertical opening doors / Ante a rialza / Hebe-Turen
  7
STILE1
100
AcDbText
  0
TEXT
  5
FBD47
330
FB763
100
AcDbEntity
  8
0
100
AcDbText
 10
23607.99311141497
 20
6392.558890164348
 30
0.0
 40
100.0
  1
L 50
  7
STILE1
100
AcDbText
  0
TEXT
  5
FBD48
330
FB763
100
AcDbEntity
  8
0
100
AcDbText
 10
22784.32310146864
 20
7009.645551927575
 30
0.0
 40
100.0
  1
H 37,5
  7
STILE1
100
AcDbText
  0
TEXT
  5
FBD49
330
FB763
100
AcDbEntity
  8
0
100
AcDbText
 10
25107.99311141497
 20
6392.558890164348
 30
0.0
 40
100.0
  1
L 100
  7
STILE1
100
AcDbText
  0
LWPOLYLINE
  5
FBD4A
330
FB763
100
AcDbEntity
  8
0
100
AcDbPolyline
 90
        4
 70
     1
 43
0.0
 10
23598.13451315327
 20
7249.426195712045
 10
23598.13451315327
 20
6874.426195712045
 10
24098.13451315327
 20
6874.426195712045
 10
24098.13451315327
 20
7249.426195712045
  0
LWPOLYLINE
  5
FBD4B
330
FB763
100
AcDbEntity
  8
0
100
AcDbPolyline
 90
        4
 70
     1
 43
0.0
 10
24848.13451315327
 20
7249.426195712045
 10
25848.13451315327
 20
7249.426195712045
 10
25848.13451315327
 20
6874.426195712045
 10
24848.13451315327
 20
6874.426195712045
  0
LWPOLYLINE
  5
FBD4C
330
FB763
100
AcDbEntity
  8
0
100
AcDbPolyline
 90
        4
 70
     1
 43
0.0
 10
16309.53186069668
 20
7249.426195712038
 10
17309.53186069668
 20
7249.426195712038
 10
17309.53186069668
 20
6874.426195712038
 10
16309.53186069668
 20
6874.426195712038
  0
LWPOLYLINE
  5
FBD4D
330
FB763
100
AcDbEntity
  8
0
100
AcDbPolyline
 90
        4
 70
     1
 43
0.0
 10
15059.53186069668
 20
7249.426195712038
 10
15059.53186069668
 20
6874.426195712038
 10
15559.53186069668
 20
6874.426195712038
 10
15559.53186069668
 20
7249.426195712038
  0
TEXT
  5
FBD4E
330
FB763
100
AcDbEntity
  8
0
100
AcDbText
 10
16569.39045895839
 20
6392.55889016434
 30
0.0
 40
100.0
  1
L 100
  7
STILE1
100
AcDbText
  0
TEXT
  5
FBD4F
330
FB763
100
AcDbEntity
  8
0
100
AcDbText
 10
14245.72044901206
 20
7009.645551927568
 30
0.0
 40
100.0
  1
H 37,5
  7
STILE1
100
AcDbText
  0
TEXT
  5
FBD50
330
FB763
100
AcDbEntity
  8
0
100
AcDbText
 10
15069.39045895839
 20
6392.55889016434
 30
0.0
 40
100.0
  1
L 50
  7
STILE1
100
AcDbText
  0
LWPOLYLINE
  5
FBD51
330
FB763
100
AcDbEntity
  8
0
100
AcDbPolyline
 90
        4
 70
     1
 43
0.0
 10
27063.78013491043
 20
6874.426195712045
 10
26703.78013491043
 20
6874.426195712045
 10
26703.78013491043
 20
7249.426195712045
 10
27063.78013491043
 20
7249.426195712045
  0
LWPOLYLINE
  5
FBD52
330
FB763
100
AcDbEntity
  8
0
100
AcDbPolyline
 90
        4
 70
     1
 43
0.0
 10
18525.67355232475
 20
6874.426195712042
 10
18165.67355232475
 20
6874.426195712042
 10
18165.67355232475
 20
7249.426195712042
 10
18525.67355232475
 20
7249.426195712042
  0
LWPOLYLINE
  5
FBD53
330
FB763
100
AcDbEntity
  8
0
100
AcDbPolyline
 90
        4
 70
     1
 43
0.0
 10
27063.78013491043
 20
7234.426195712045
 10
27438.78013491043
 20
7234.426195712045
 10
27438.78013491043
 20
7249.426195712045
 10
27063.78013491043
 20
7249.426195712045
  0
ARC
  5
FBD54
330
FB763
100
AcDbEntity
  8
0
100
AcDbCircle
 10
27063.55897069551
 20
7249.969075102605
 30
0.0
 40
375.5429445144248
100
AcDbArc
 50
270.0337425506504
 51
357.6279787935321
  0
ARC
  5
FBD55
330
FB763
100
AcDbEntity
  8
0
100
AcDbCircle
 10
18525.45238810983
 20
6873.883316321468
 30
0.0
 40
375.5429445144248
100
AcDbArc
 50
2.372021206470164
 51
89.96625744934956
  0
LWPOLYLINE
  5
FBD56
330
FB763
100
AcDbEntity
  8
0
100
AcDbPolyline
 90
        4
 70
     1
 43
0.0
 10
18525.67355232475
 20
6889.426195712042
 10
18900.67355232475
 20
6889.426195712042
 10
18900.67355232475
 20
6874.426195712042
 10
18525.67355232475
 20
6874.426195712042
  0
LWPOLYLINE
  5
FBD57
330
FB763
100
AcDbEntity
  8
0
100
AcDbPolyline
 90
        2
 70
     0
 43
0.0
 10
27063.78013491043
 20
7061.926195712045
 10
27251.28013491043
 20
7234.426195712045
  0
LWPOLYLINE
  5
FBD58
330
FB763
100
AcDbEntity
  8
0
100
AcDbPolyline
 90
        2
 70
     0
 43
0.0
 10
27063.78013491043
 20
7075.514425913205
 10
27236.51031947439
 20
7234.426195712045
  0
LWPOLYLINE
  5
FBD59
330
FB763
100
AcDbEntity
  8
0
100
AcDbPolyline
 90
        2
 70
     0
 43
0.0
 10
18525.67355232475
 20
7048.337965510867
 10
18698.40373688871
 20
6889.426195712042
  0
LWPOLYLINE
  5
FBD5A
330
FB763
100
AcDbEntity
  8
0
100
AcDbPolyline
 90
        2
 70
     0
 43
0.0
 10
18525.67355232475
 20
7061.926195712042
 10
18713.17355232475
 20
6889.426195712042
  0
TEXT
  5
FBD5B
330
FB763
100
AcDbEntity
  8
0
100
AcDbText
 10
26643.63873317216
 20
6392.558890164348
 30
0.0
 40
100.0
  1
P 360
  7
STILE1
100
AcDbText
  0
TEXT
  5
FBD5C
330
FB763
100
AcDbEntity
  8
0
100
AcDbText
 10
18105.53215058647
 20
6392.558890164344
 30
0.0
 40
100.0
  1
P 360
  7
STILE1
100
AcDbText
  0
TEXT
  5
FBD5D
330
FB763
100
AcDbEntity
  8
0
100
AcDbText
 10
20026.89045895836
 20
12643.75837047133
 30
0.0
 40
100.0
  1
H 16 
  7
STILE1
100
AcDbText
  0
TEXT
  5
FBD5E
330
FB763
100
AcDbEntity
  8
0
100
AcDbText
 10
28565.49311141497
 20
9802.089782487383
 30
0.0
 40
100.0
  1
H 35 
  7
STILE1
100
AcDbText
  0
TEXT
  5
FBD5F
330
FB763
100
AcDbEntity
  8
0
100
AcDbText
 10
14245.72044901206
 20
7769.312388937591
 30
0.0
 40
100.0
  1
Tilt & turn doors / Ante a ribalta / Dreh-Kipp-Turen
  7
STILE1
100
AcDbText
  0
TEXT
  5
FBD60
330
FB763
100
AcDbEntity
  8
0
100
AcDbText
 10
22654.64341141485
 20
11212.95584368342
 30
0.0
 40
100.0
  1
Sides / Fianchi / Seitenteile
  7
STILE1
100
AcDbText
  0
LWPOLYLINE
  5
FBD61
330
FB763
100
AcDbEntity
  8
0
100
AcDbPolyline
 90
        4
 70
     1
 43
0.0
 10
13249.13896818185
 20
5585.388175246842
 10
29820.75622907878
 20
5585.388175246842
 10
29820.75622907878
 20
8430.656083287364
 10
13249.13896818185
 20
8430.65608328735
  0
LWPOLYLINE
  5
FBD62
330
FB763
100
AcDbEntity
  8
0
100
AcDbPolyline
 90
        4
 70
     1
 43
0.0
 10
13249.13896818185
 20
9098.144455317082
 10
21274.51091642031
 20
9098.144455317082
 10
21274.51091642031
 20
14792.18109737553
 10
13249.13896818185
 20
14792.18109737552
  0
TEXT
  5
FBD63
330
FB763
100
AcDbEntity
  8
0
100
AcDbText
 10
22654.64341141485
 20
14377.68085135342
 30
0.0
 40
100.0
  1
Cable hole (prov.) / Passacavi (predisp.) / Kabeldurchlass (Vlg.)
  7
STILE1
100
AcDbText
  0
CIRCLE
  5
FBD64
330
FB763
100
AcDbEntity
  8
0
 62
   254
 48
10.0
100
AcDbCircle
 10
23848.13451315326
 20
13175.62567601902
 30
0.0
 40
30.0
1001
PE_URL
1000

  0
LWPOLYLINE
  5
FBD65
330
FB763
100
AcDbEntity
  8
0
100
AcDbPolyline
 90
        4
 70
     1
 43
0.0
 10
24098.13451315326
 20
13500.62567601902
 10
24098.13451315326
 20
13125.62567601902
 10
23598.13451315326
 20
13125.62567601902
 10
23598.13451315326
 20
13500.62567601902
1001
PE_URL
1000

  0
CIRCLE
  5
FBD66
330
FB763
100
AcDbEntity
  8
0
 62
   254
 48
10.0
100
AcDbCircle
 10
25278.13451315326
 20
13175.62567601902
 30
0.0
 40
30.0
1001
PE_URL
1000

  0
LWPOLYLINE
  5
FBD67
330
FB763
100
AcDbEntity
  8
0
100
AcDbPolyline
 90
        4
 70
     1
 43
0.0
 10
25778.13451315326
 20
13500.62567601902
 10
25778.13451315326
 20
13125.62567601902
 10
24778.13451315326
 20
13125.62567601902
 10
24778.13451315326
 20
13500.62567601902
1001
PE_URL
1000

  0
CIRCLE
  5
FBD68
330
FB763
100
AcDbEntity
  8
0
 62
   254
 48
10.0
100
AcDbCircle
 10
27158.13451315326
 20
13175.62567601902
 30
0.0
 40
30.0
1001
PE_URL
1000

  0
LWPOLYLINE
  5
FBD69
330
FB763
100
AcDbEntity
  8
0
100
AcDbPolyline
 90
        4
 70
     1
 43
0.0
 10
27908.13451315326
 20
13500.62567601902
 10
27908.13451315326
 20
13125.62567601902
 10
26408.13451315326
 20
13125.62567601902
 10
26408.13451315326
 20
13500.62567601902
1001
PE_URL
1000

  0
LWPOLYLINE
  5
FBD6A
330
FB763
100
AcDbEntity
  8
0
100
AcDbPolyline
 90
        4
 70
     1
 43
0.0
 10
28788.13451315326
 20
13500.62567601902
 10
28788.13451315326
 20
13125.62567601902
 10
28823.13451315326
 20
13125.62567601902
 10
28823.13451315326
 20
13500.62567601902
  0
CIRCLE
  5
FBD6B
330
FB763
100
AcDbEntity
  8
0
100
AcDbCircle
 10
23848.13451315326
 20
13175.62567601902
 30
0.0
 40
23.5000000000002
  0
CIRCLE
  5
FBD6C
330
FB763
100
AcDbEntity
  8
0
100
AcDbCircle
 10
23848.13451315326
 20
13175.62567601902
 30
0.0
 40
33.99999999999982
  0
CIRCLE
  5
FBD6D
330
FB763
100
AcDbEntity
  8
0
100
AcDbCircle
 10
25278.13451315326
 20
13175.62567601902
 30
0.0
 40
23.49999999999998
  0
CIRCLE
  5
FBD6E
330
FB763
100
AcDbEntity
  8
0
100
AcDbCircle
 10
25278.13451315326
 20
13175.62567601902
 30
0.0
 40
34.00000000000014
  0
CIRCLE
  5
FBD6F
330
FB763
100
AcDbEntity
  8
0
100
AcDbCircle
 10
27158.13451315326
 20
13175.62567601902
 30
0.0
 40
23.49999999999982
  0
CIRCLE
  5
FBD70
330
FB763
100
AcDbEntity
  8
0
100
AcDbCircle
 10
27158.13451315326
 20
13175.62567601902
 30
0.0
 40
33.99999999999988
  0
TEXT
  5
FBD71
330
FB763
100
AcDbEntity
  8
0
100
AcDbText
 10
26917.99311141498
 20
12822.07604574761
 30
0.0
 40
100.0
  1
L 150
  7
STILE1
100
AcDbText
  0
TEXT
  5
FBD72
330
FB763
100
AcDbEntity
  8
0
100
AcDbText
 10
25037.99311141498
 20
12822.07604574761
 30
0.0
 40
100.0
  1
L 100
  7
STILE1
100
AcDbText
  0
TEXT
  5
FBD73
330
FB763
100
AcDbEntity
  8
0
100
AcDbText
 10
23607.99311141498
 20
12822.07604574761
 30
0.0
 40
100.0
  1
L 50
  7
STILE1
100
AcDbText
  0
TEXT
  5
FBD74
330
FB763
100
AcDbEntity
  8
0
100
AcDbText
 10
28565.49311141495
 20
12822.07604574761
 30
0.0
 40
100.0
  1
H 35 
  7
STILE1
100
AcDbText
  0
TEXT
  5
FBD75
330
FB763
100
AcDbEntity
  8
0
100
AcDbText
 10
22654.64341141485
 20
13265.17905918978
 30
0.0
 40
100.0
  1
P 37,5
  7
STILE1
100
AcDbText
  0
TEXT
  5
FBD76
330
FB763
100
AcDbEntity
  8
0
100
AcDbText
 10
-3145.784183342825
 20
7719.825050623976
 30
0.0
 40
100.0
  1
Examples of compositions / Esempi di composizioni / Kompositionsbeispiele
  7
STILE1
100
AcDbText
  0
LWPOLYLINE
  5
FBD77
330
FB763
100
AcDbEntity
  8
0
100
AcDbPolyline
 90
        4
 70
     1
 43
0.0
 10
-2296.972771658206
 20
5208.108869716985
 10
-1796.972771658206
 20
5208.108869716985
 10
-1796.972771658206
 20
5243.108869716993
 10
-2296.972771658206
 20
5243.108869716993
  0
LWPOLYLINE
  5
FBD78
330
FB763
100
AcDbEntity
  8
0
100
AcDbPolyline
 90
        4
 70
     1
 43
0.0
 10
-2296.972771658206
 20
4798.108869716989
 10
-1796.972771658206
 20
4798.108869716989
 10
-1796.972771658206
 20
4833.108869716989
 10
-2296.972771658206
 20
4833.108869716989
  0
LWPOLYLINE
  5
FBD79
330
FB763
100
AcDbEntity
  8
0
100
AcDbPolyline
 90
        4
 70
     1
 43
0.0
 10
-1761.972771658206
 20
5653.108869716985
 10
-1796.972771658206
 20
5653.108869716985
 10
-1796.972771658206
 20
4766.108869716989
 10
-1761.972771658206
 20
4766.108869716989
  0
LWPOLYLINE
  5
FBD7A
330
FB763
100
AcDbEntity
  8
0
100
AcDbPolyline
 90
        4
 70
     1
 43
0.0
 10
-2331.972771658198
 20
5243.108869716993
 10
-2296.972771658206
 20
5243.108869716993
 10
-2296.972771658206
 20
4766.108869716989
 10
-2331.972771658198
 20
4766.108869716989
  0
LWPOLYLINE
  5
FBD7B
330
FB763
100
AcDbEntity
  8
0
100
AcDbPolyline
 90
        5
 70
     0
 43
0.0
 10
-2329.472771658206
 20
4766.108869716989
 10
-2299.472771658206
 20
4766.108869716989
 10
-2299.472771658206
 20
4763.108869716989
 10
-2329.472771658206
 20
4763.108869716989
 10
-2329.472771658206
 20
4766.108869716989
  0
LWPOLYLINE
  5
FBD7C
330
FB763
100
AcDbEntity
  8
0
100
AcDbPolyline
 90
        5
 70
     0
 43
0.0
 10
-1764.472771658206
 20
4766.108869716989
 10
-1794.472771658206
 20
4766.108869716989
 10
-1794.472771658206
 20
4763.108869716989
 10
-1764.472771658206
 20
4763.108869716989
 10
-1764.472771658206
 20
4766.108869716989
  0
LWPOLYLINE
  5
FBD7D
330
FB763
100
AcDbEntity
  8
0
100
AcDbPolyline
 90
        5
 70
     0
 43
0.0
 10
-1261.972771658191
 20
5243.108869716993
 10
-1761.972771658206
 20
5243.108869716993
 10
-1761.972771658206
 20
5208.108869716985
 10
-1261.972771658191
 20
5208.108869716985
 10
-1261.972771658191
 20
5243.108869716993
  0
LWPOLYLINE
  5
FBD7E
330
FB763
100
AcDbEntity
  8
0
100
AcDbPolyline
 90
        4
 70
     1
 43
0.0
 10
-1261.972771658191
 20
5618.108869716985
 10
-1761.972771658206
 20
5618.108869716985
 10
-1761.972771658206
 20
5653.108869716985
 10
-1261.972771658191
 20
5653.108869716985
  0
LWPOLYLINE
  5
FBD7F
330
FB763
100
AcDbEntity
  8
0
100
AcDbPolyline
 90
        4
 70
     1
 43
0.0
 10
-1261.972771658191
 20
4798.108869716989
 10
-1761.972771658206
 20
4798.108869716989
 10
-1761.972771658206
 20
4833.108869716989
 10
-1261.972771658191
 20
4833.108869716989
  0
LWPOLYLINE
  5
FBD80
330
FB763
100
AcDbEntity
  8
0
100
AcDbPolyline
 90
        4
 70
     1
 43
0.0
 10
-1226.972771658184
 20
6063.108869716985
 10
-1261.972771658184
 20
6063.108869716985
 10
-1261.972771658191
 20
4766.108869716989
 10
-1226.972771658191
 20
4766.108869716989
  0
LWPOLYLINE
  5
FBD81
330
FB763
100
AcDbEntity
  8
0
100
AcDbPolyline
 90
        5
 70
     0
 43
0.0
 10
-1229.472771658191
 20
4766.108869716989
 10
-1259.472771658191
 20
4766.108869716989
 10
-1259.472771658191
 20
4763.108869716989
 10
-1229.472771658191
 20
4763.108869716989
 10
-1229.472771658191
 20
4766.108869716989
  0
LWPOLYLINE
  5
FBD82
330
FB763
100
AcDbEntity
  8
0
100
AcDbPolyline
 90
        4
 70
     1
 43
0.0
 10
-726.9727716581983
 20
5618.108869716985
 10
-1226.972771658191
 20
5618.108869716985
 10
-1226.972771658191
 20
5653.108869716985
 10
-726.9727716581983
 20
5653.108869716985
  0
LWPOLYLINE
  5
FBD83
330
FB763
100
AcDbEntity
  8
0
100
AcDbPolyline
 90
        5
 70
     0
 43
0.0
 10
-694.472771658191
 20
4766.108869716996
 10
-724.472771658191
 20
4766.108869716996
 10
-724.472771658191
 20
4763.108869716996
 10
-694.472771658191
 20
4763.108869716996
 10
-694.472771658191
 20
4766.108869716996
  0
LWPOLYLINE
  5
FBD84
330
FB763
100
AcDbEntity
  8
0
100
AcDbPolyline
 90
        4
 70
     1
 43
0.0
 10
-691.972771658191
 20
6473.108869716993
 10
-726.9727716581983
 20
6473.108869716993
 10
-726.9727716581983
 20
4766.108869716996
 10
-691.972771658191
 20
4766.108869716996
  0
LWPOLYLINE
  5
FBD85
330
FB763
100
AcDbEntity
  8
0
100
AcDbPolyline
 90
        4
 70
     1
 43
0.0
 10
-726.9727716581983
 20
4798.108869716996
 10
-1226.972771658191
 20
4798.108869716996
 10
-1226.972771658191
 20
4833.108869716989
 10
-726.9727716581983
 20
4833.108869716989
  0
LWPOLYLINE
  5
FBD86
330
FB763
100
AcDbEntity
  8
0
100
AcDbPolyline
 90
        4
 70
     1
 43
0.0
 10
-726.9727716581983
 20
6028.108869716985
 10
-1226.972771658191
 20
6028.108869716985
 10
-1226.972771658191
 20
6063.108869716985
 10
-726.9727716581983
 20
6063.108869716985
  0
LWPOLYLINE
  5
FBD87
330
FB763
100
AcDbEntity
  8
0
100
AcDbPolyline
 90
        5
 70
     0
 43
0.0
 10
-726.9727716581983
 20
5243.108869717007
 10
-1226.972771658191
 20
5243.108869717007
 10
-1226.972771658191
 20
5208.108869716985
 10
-726.9727716581983
 20
5208.108869716985
 10
-726.9727716581983
 20
5243.108869717007
  0
LWPOLYLINE
  5
FBD88
330
FB763
100
AcDbEntity
  8
0
100
AcDbPolyline
 90
        5
 70
     0
 43
0.0
 10
-191.9727716581983
 20
5243.108869717
 10
-691.972771658191
 20
5243.108869717
 10
-691.972771658191
 20
5208.108869716993
 10
-191.9727716581983
 20
5208.108869716993
 10
-191.9727716581983
 20
5243.108869717
  0
LWPOLYLINE
  5
FBD89
330
FB763
100
AcDbEntity
  8
0
100
AcDbPolyline
 90
        4
 70
     1
 43
0.0
 10
-191.9727716581983
 20
6438.108869716993
 10
-691.972771658191
 20
6438.108869716993
 10
-691.972771658191
 20
6473.108869716993
 10
-191.9727716581983
 20
6473.108869716993
  0
LWPOLYLINE
  5
FBD8A
330
FB763
100
AcDbEntity
  8
0
100
AcDbPolyline
 90
        4
 70
     1
 43
0.0
 10
-191.9727716581983
 20
4798.108869716996
 10
-691.972771658191
 20
4798.108869716996
 10
-691.972771658191
 20
4833.108869716996
 10
-191.9727716581983
 20
4833.108869716996
  0
LWPOLYLINE
  5
FBD8B
330
FB763
100
AcDbEntity
  8
0
100
AcDbPolyline
 90
        4
 70
     1
 43
0.0
 10
-156.972771658191
 20
6883.108869716985
 10
-191.9727716581983
 20
6883.108869716985
 10
-191.9727716581983
 20
4766.108869716996
 10
-156.972771658191
 20
4766.108869716996
  0
LWPOLYLINE
  5
FBD8C
330
FB763
100
AcDbEntity
  8
0
100
AcDbPolyline
 90
        5
 70
     0
 43
0.0
 10
-159.472771658191
 20
4766.108869716996
 10
-189.472771658191
 20
4766.108869716996
 10
-189.472771658191
 20
4763.108869716996
 10
-159.472771658191
 20
4763.108869716996
 10
-159.472771658191
 20
4766.108869716996
  0
LWPOLYLINE
  5
FBD8D
330
FB763
100
AcDbEntity
  8
0
100
AcDbPolyline
 90
        4
 70
     1
 43
0.0
 10
-191.9727716581983
 20
5618.108869716993
 10
-691.972771658191
 20
5618.108869716993
 10
-691.972771658191
 20
5653.108869716993
 10
-191.9727716581983
 20
5653.108869716993
  0
LWPOLYLINE
  5
FBD8E
330
FB763
100
AcDbEntity
  8
0
100
AcDbPolyline
 90
        4
 70
     1
 43
0.0
 10
-191.9727716581983
 20
6028.108869716985
 10
-691.972771658191
 20
6028.108869716985
 10
-691.972771658191
 20
6063.108869716985
 10
-191.9727716581983
 20
6063.108869716985
  0
LWPOLYLINE
  5
FBD8F
330
FB763
100
AcDbEntity
  8
0
100
AcDbPolyline
 90
        4
 70
     1
 43
0.0
 10
843.0272283418235
 20
5618.108869716985
 10
-156.972771658191
 20
5618.108869716985
 10
-156.972771658191
 20
5653.108869716985
 10
843.0272283418235
 20
5653.108869716985
  0
LWPOLYLINE
  5
FBD90
330
FB763
100
AcDbEntity
  8
0
100
AcDbPolyline
 90
        5
 70
     0
 43
0.0
 10
875.5272283418235
 20
4766.108869716982
 10
845.527228341809
 20
4766.108869716982
 10
845.527228341809
 20
4763.108869716982
 10
875.5272283418235
 20
4763.108869716982
 10
875.5272283418235
 20
4766.108869716982
  0
LWPOLYLINE
  5
FBD91
330
FB763
100
AcDbEntity
  8
0
100
AcDbPolyline
 90
        4
 70
     1
 43
0.0
 10
878.0272283418308
 20
7293.108869716985
 10
843.0272283418308
 20
7293.108869716985
 10
843.0272283418235
 20
4766.108869716982
 10
878.0272283418235
 20
4766.108869716982
  0
LWPOLYLINE
  5
FBD92
330
FB763
100
AcDbEntity
  8
0
100
AcDbPolyline
 90
        4
 70
     1
 43
0.0
 10
843.0272283418235
 20
4798.108869716982
 10
-156.972771658191
 20
4798.108869716982
 10
-156.972771658191
 20
4833.108869716982
 10
843.0272283418235
 20
4833.108869716982
  0
LWPOLYLINE
  5
FBD93
330
FB763
100
AcDbEntity
  8
0
100
AcDbPolyline
 90
        4
 70
     1
 43
0.0
 10
843.0272283418235
 20
6848.108869716985
 10
-156.972771658191
 20
6848.108869716985
 10
-156.972771658191
 20
6883.108869716985
 10
843.0272283418235
 20
6883.108869716985
  0
LWPOLYLINE
  5
FBD94
330
FB763
100
AcDbEntity
  8
0
100
AcDbPolyline
 90
        5
 70
     0
 43
0.0
 10
843.0272283418235
 20
5243.108869716993
 10
-156.972771658191
 20
5243.108869716993
 10
-156.972771658191
 20
5208.108869716985
 10
843.0272283418235
 20
5208.108869716985
 10
843.0272283418235
 20
5243.108869716993
  0
LWPOLYLINE
  5
FBD95
330
FB763
100
AcDbEntity
  8
0
100
AcDbPolyline
 90
        5
 70
     0
 43
0.0
 10
843.0272283418235
 20
6473.108869716993
 10
-156.972771658191
 20
6473.108869716993
 10
-156.972771658191
 20
6438.108869716985
 10
843.0272283418235
 20
6438.108869716985
 10
843.0272283418235
 20
6473.108869716993
  0
LWPOLYLINE
  5
FBD96
330
FB763
100
AcDbEntity
  8
0
100
AcDbPolyline
 90
        4
 70
     1
 43
0.0
 10
843.0272283418235
 20
6028.108869716985
 10
-156.972771658191
 20
6028.108869716985
 10
-156.972771658191
 20
6063.108869716985
 10
843.0272283418235
 20
6063.108869716985
  0
LWPOLYLINE
  5
FBD97
330
FB763
100
AcDbEntity
  8
0
100
AcDbPolyline
 90
        4
 70
     1
 43
0.0
 10
2378.027228341809
 20
6028.108869716985
 10
878.0272283418235
 20
6028.108869716985
 10
878.0272283418235
 20
6063.108869716985
 10
2378.027228341809
 20
6063.108869716985
  0
LWPOLYLINE
  5
FBD98
330
FB763
100
AcDbEntity
  8
0
100
AcDbPolyline
 90
        5
 70
     0
 43
0.0
 10
2378.027228341809
 20
6473.108869717
 10
878.0272283418235
 20
6473.108869717
 10
878.0272283418235
 20
6438.108869716985
 10
2378.027228341809
 20
6438.108869716985
 10
2378.027228341809
 20
6473.108869717
  0
LWPOLYLINE
  5
FBD99
330
FB763
100
AcDbEntity
  8
0
100
AcDbPolyline
 90
        5
 70
     0
 43
0.0
 10
2378.027228341809
 20
5243.108869717
 10
878.0272283418235
 20
5243.108869717
 10
878.0272283418235
 20
5208.108869716985
 10
2378.027228341809
 20
5208.108869716985
 10
2378.027228341809
 20
5243.108869717
  0
LWPOLYLINE
  5
FBD9A
330
FB763
100
AcDbEntity
  8
0
100
AcDbPolyline
 90
        4
 70
     1
 43
0.0
 10
2378.027228341809
 20
7258.108869716985
 10
878.0272283418235
 20
7258.108869716985
 10
878.0272283418235
 20
7293.108869716985
 10
2378.027228341809
 20
7293.108869716985
  0
LWPOLYLINE
  5
FBD9B
330
FB763
100
AcDbEntity
  8
0
100
AcDbPolyline
 90
        4
 70
     1
 43
0.0
 10
2378.027228341809
 20
4798.108869716982
 10
878.0272283418235
 20
4798.108869716982
 10
878.0272283418235
 20
4833.108869716982
 10
2378.027228341809
 20
4833.108869716982
  0
LWPOLYLINE
  5
FBD9C
330
FB763
100
AcDbEntity
  8
0
100
AcDbPolyline
 90
        4
 70
     1
 43
0.0
 10
2413.027228341809
 20
7293.108869716985
 10
2378.027228341809
 20
7293.108869716985
 10
2378.027228341809
 20
4766.108869716982
 10
2413.027228341809
 20
4766.108869716982
  0
LWPOLYLINE
  5
FBD9D
330
FB763
100
AcDbEntity
  8
0
100
AcDbPolyline
 90
        5
 70
     0
 43
0.0
 10
2410.527228341809
 20
4766.108869716982
 10
2380.527228341809
 20
4766.108869716982
 10
2380.527228341809
 20
4763.108869716982
 10
2410.527228341809
 20
4763.108869716982
 10
2410.527228341809
 20
4766.108869716982
  0
LWPOLYLINE
  5
FBD9E
330
FB763
100
AcDbEntity
  8
0
100
AcDbPolyline
 90
        4
 70
     1
 43
0.0
 10
2378.027228341809
 20
5618.108869716985
 10
878.0272283418235
 20
5618.108869716985
 10
878.0272283418235
 20
5653.108869716985
 10
2378.027228341809
 20
5653.108869716985
  0
LWPOLYLINE
  5
FBD9F
330
FB763
100
AcDbEntity
  8
0
100
AcDbPolyline
 90
        4
 70
     1
 43
0.0
 10
2378.027228341809
 20
6848.108869716985
 10
878.0272283418235
 20
6848.108869716985
 10
878.0272283418235
 20
6883.108869716985
 10
2378.027228341809
 20
6883.108869716985
  0
LWPOLYLINE
  5
FBDA0
330
FB763
100
AcDbEntity
  8
0
100
AcDbPolyline
 90
        4
 70
     1
 43
0.0
 10
9482.115508692477
 20
6028.108869716985
 10
7982.115508692492
 20
6028.108869716985
 10
7982.115508692492
 20
6063.108869716985
 10
9482.115508692477
 20
6063.108869716985
  0
LWPOLYLINE
  5
FBDA1
330
FB763
100
AcDbEntity
  8
0
100
AcDbPolyline
 90
        5
 70
     0
 43
0.0
 10
9482.115508692477
 20
6473.108869717
 10
7982.115508692492
 20
6473.108869717
 10
7982.115508692492
 20
6438.108869716985
 10
9482.115508692477
 20
6438.108869716985
 10
9482.115508692477
 20
6473.108869717
  0
LWPOLYLINE
  5
FBDA2
330
FB763
100
AcDbEntity
  8
0
100
AcDbPolyline
 90
        5
 70
     0
 43
0.0
 10
9482.115508692477
 20
5243.108869717
 10
7982.115508692492
 20
5243.108869717
 10
7982.115508692492
 20
5208.108869716985
 10
9482.115508692477
 20
5208.108869716985
 10
9482.115508692477
 20
5243.108869717
  0
LWPOLYLINE
  5
FBDA3
330
FB763
100
AcDbEntity
  8
0
100
AcDbPolyline
 90
        4
 70
     1
 43
0.0
 10
9482.115508692477
 20
7258.108869716985
 10
7982.115508692492
 20
7258.108869716985
 10
7982.115508692492
 20
7293.108869716985
 10
9482.115508692477
 20
7293.108869716985
  0
LWPOLYLINE
  5
FBDA4
330
FB763
100
AcDbEntity
  8
0
100
AcDbPolyline
 90
        4
 70
     1
 43
0.0
 10
9482.115508692477
 20
4798.108869716985
 10
7982.115508692492
 20
4798.108869716985
 10
7982.115508692492
 20
4833.108869716985
 10
9482.115508692477
 20
4833.108869716985
  0
LWPOLYLINE
  5
FBDA5
330
FB763
100
AcDbEntity
  8
0
100
AcDbPolyline
 90
        4
 70
     1
 43
0.0
 10
9517.115508692477
 20
7293.108869716985
 10
9482.115508692477
 20
7293.108869716985
 10
9482.115508692477
 20
4766.108869716985
 10
9517.115508692477
 20
4766.108869716985
  0
LWPOLYLINE
  5
FBDA6
330
FB763
100
AcDbEntity
  8
0
100
AcDbPolyline
 90
        5
 70
     0
 43
0.0
 10
9514.615508692477
 20
4766.108869716985
 10
9484.615508692477
 20
4766.108869716985
 10
9484.615508692477
 20
4763.108869716985
 10
9514.615508692477
 20
4763.108869716985
 10
9514.615508692477
 20
4766.108869716985
  0
LWPOLYLINE
  5
FBDA7
330
FB763
100
AcDbEntity
  8
0
100
AcDbPolyline
 90
        4
 70
     1
 43
0.0
 10
9482.115508692477
 20
5618.108869716985
 10
7982.115508692492
 20
5618.108869716985
 10
7982.115508692492
 20
5653.108869716985
 10
9482.115508692477
 20
5653.108869716985
  0
LWPOLYLINE
  5
FBDA8
330
FB763
100
AcDbEntity
  8
0
100
AcDbPolyline
 90
        4
 70
     1
 43
0.0
 10
9482.115508692477
 20
6848.108869716985
 10
7982.115508692492
 20
6848.108869716985
 10
7982.115508692492
 20
6883.108869716985
 10
9482.115508692477
 20
6883.108869716985
  0
LWPOLYLINE
  5
FBDA9
330
FB763
100
AcDbEntity
  8
0
100
AcDbPolyline
 90
        4
 70
     1
 43
0.0
 10
7947.115508692492
 20
6028.108869716978
 10
6947.115508692492
 20
6028.108869716978
 10
6947.115508692492
 20
6063.108869716978
 10
7947.115508692492
 20
6063.108869716978
  0
LWPOLYLINE
  5
FBDAA
330
FB763
100
AcDbEntity
  8
0
100
AcDbPolyline
 90
        5
 70
     0
 43
0.0
 10
7947.115508692492
 20
6473.108869716993
 10
6947.115508692492
 20
6473.108869716993
 10
6947.115508692492
 20
6438.108869716978
 10
7947.115508692492
 20
6438.108869716978
 10
7947.115508692492
 20
6473.108869716993
  0
LWPOLYLINE
  5
FBDAB
330
FB763
100
AcDbEntity
  8
0
100
AcDbPolyline
 90
        5
 70
     0
 43
0.0
 10
7947.115508692492
 20
5243.108869716993
 10
6947.115508692492
 20
5243.108869716993
 10
6947.115508692492
 20
5208.108869716978
 10
7947.115508692492
 20
5208.108869716978
 10
7947.115508692492
 20
5243.108869716993
  0
LWPOLYLINE
  5
FBDAC
330
FB763
100
AcDbEntity
  8
0
100
AcDbPolyline
 90
        4
 70
     1
 43
0.0
 10
7947.115508692492
 20
7258.108869716978
 10
6947.115508692492
 20
7258.108869716978
 10
6947.115508692492
 20
7293.108869716985
 10
7947.115508692492
 20
7293.108869716985
  0
LWPOLYLINE
  5
FBDAD
330
FB763
100
AcDbEntity
  8
0
100
AcDbPolyline
 90
        4
 70
     1
 43
0.0
 10
7947.115508692492
 20
4798.108869716982
 10
6947.115508692492
 20
4798.108869716982
 10
6947.115508692492
 20
4833.108869716982
 10
7947.115508692492
 20
4833.108869716982
  0
LWPOLYLINE
  5
FBDAE
330
FB763
100
AcDbEntity
  8
0
100
AcDbPolyline
 90
        4
 70
     1
 43
0.0
 10
7982.115508692492
 20
7293.108869716985
 10
7947.115508692492
 20
7293.108869716985
 10
7947.115508692492
 20
4766.108869716982
 10
7982.115508692492
 20
4766.108869716982
  0
LWPOLYLINE
  5
FBDAF
330
FB763
100
AcDbEntity
  8
0
100
AcDbPolyline
 90
        5
 70
     0
 43
0.0
 10
7979.615508692492
 20
4766.108869716982
 10
7949.615508692492
 20
4766.108869716982
 10
7949.615508692492
 20
4763.108869716982
 10
7979.615508692492
 20
4763.108869716982
 10
7979.615508692492
 20
4766.108869716982
  0
LWPOLYLINE
  5
FBDB0
330
FB763
100
AcDbEntity
  8
0
100
AcDbPolyline
 90
        4
 70
     1
 43
0.0
 10
7947.115508692492
 20
5618.108869716978
 10
6947.115508692492
 20
5618.108869716978
 10
6947.115508692492
 20
5653.108869716978
 10
7947.115508692492
 20
5653.108869716978
  0
LWPOLYLINE
  5
FBDB1
330
FB763
100
AcDbEntity
  8
0
100
AcDbPolyline
 90
        4
 70
     1
 43
0.0
 10
7947.115508692492
 20
6848.108869716985
 10
6947.115508692492
 20
6848.108869716985
 10
6947.115508692492
 20
6883.108869716985
 10
7947.115508692492
 20
6883.108869716985
  0
LWPOLYLINE
  5
FBDB2
330
FB763
100
AcDbEntity
  8
0
100
AcDbPolyline
 90
        4
 70
     1
 43
0.0
 10
6412.115508692485
 20
6848.108869716985
 10
6912.115508692492
 20
6848.108869716985
 10
6912.115508692492
 20
6883.108869716985
 10
6412.115508692485
 20
6883.108869716985
  0
LWPOLYLINE
  5
FBDB3
330
FB763
100
AcDbEntity
  8
0
100
AcDbPolyline
 90
        4
 70
     1
 43
0.0
 10
6412.115508692485
 20
5618.108869716985
 10
6912.115508692492
 20
5618.108869716985
 10
6912.115508692492
 20
5653.108869716985
 10
6412.115508692485
 20
5653.108869716985
  0
LWPOLYLINE
  5
FBDB4
330
FB763
100
AcDbEntity
  8
0
100
AcDbPolyline
 90
        4
 70
     1
 43
0.0
 10
6412.115508692485
 20
7258.108869716985
 10
6912.115508692492
 20
7258.108869716985
 10
6912.115508692492
 20
7293.108869716985
 10
6412.115508692485
 20
7293.108869716985
  0
LWPOLYLINE
  5
FBDB5
330
FB763
100
AcDbEntity
  8
0
100
AcDbPolyline
 90
        4
 70
     1
 43
0.0
 10
6412.115508692485
 20
4798.108869716985
 10
6912.115508692492
 20
4798.108869716985
 10
6912.115508692492
 20
4833.108869716985
 10
6412.115508692485
 20
4833.108869716985
  0
LWPOLYLINE
  5
FBDB6
330
FB763
100
AcDbEntity
  8
0
100
AcDbPolyline
 90
        4
 70
     1
 43
0.0
 10
6947.115508692492
 20
7293.108869716985
 10
6912.115508692492
 20
7293.108869716985
 10
6912.115508692492
 20
4766.108869716985
 10
6947.115508692492
 20
4766.108869716985
  0
LWPOLYLINE
  5
FBDB7
330
FB763
100
AcDbEntity
  8
0
100
AcDbPolyline
 90
        4
 70
     1
 43
0.0
 10
6377.115508692492
 20
7293.108869716985
 10
6412.115508692485
 20
7293.108869716985
 10
6412.115508692485
 20
4766.108869716985
 10
6377.115508692492
 20
4766.108869716985
  0
LWPOLYLINE
  5
FBDB8
330
FB763
100
AcDbEntity
  8
0
100
AcDbPolyline
 90
        5
 70
     0
 43
0.0
 10
6379.615508692492
 20
4766.108869716985
 10
6409.615508692492
 20
4766.108869716985
 10
6409.615508692492
 20
4763.108869716985
 10
6379.615508692492
 20
4763.108869716985
 10
6379.615508692492
 20
4766.108869716985
  0
LWPOLYLINE
  5
FBDB9
330
FB763
100
AcDbEntity
  8
0
100
AcDbPolyline
 90
        5
 70
     0
 43
0.0
 10
6944.615508692492
 20
4766.108869716985
 10
6914.615508692492
 20
4766.108869716985
 10
6914.615508692492
 20
4763.108869716985
 10
6944.615508692492
 20
4763.108869716985
 10
6944.615508692492
 20
4766.108869716985
  0
LWPOLYLINE
  5
FBDBA
330
FB763
100
AcDbEntity
  8
0
100
AcDbPolyline
 90
        2
 70
     0
 43
0.0
 10
6947.115508692492
 20
7293.108869716985
 10
6947.115508692492
 20
4766.108869716985
  0
LWPOLYLINE
  5
FBDBB
330
FB763
100
AcDbEntity
  8
0
100
AcDbPolyline
 90
        5
 70
     0
 43
0.0
 10
6912.115508692492
 20
5243.108869717
 10
6412.115508692485
 20
5243.108869717
 10
6412.115508692485
 20
5208.108869716985
 10
6912.115508692492
 20
5208.108869716985
 10
6912.115508692492
 20
5243.108869717
  0
LWPOLYLINE
  5
FBDBC
330
FB763
100
AcDbEntity
  8
0
100
AcDbPolyline
 90
        5
 70
     0
 43
0.0
 10
6912.115508692492
 20
6473.108869717
 10
6412.115508692485
 20
6473.108869717
 10
6412.115508692485
 20
6438.108869716985
 10
6912.115508692492
 20
6438.108869716985
 10
6912.115508692492
 20
6473.108869717
  0
LWPOLYLINE
  5
FBDBD
330
FB763
100
AcDbEntity
  8
0
100
AcDbPolyline
 90
        4
 70
     1
 43
0.0
 10
6412.115508692485
 20
6028.108869716985
 10
6912.115508692492
 20
6028.108869716985
 10
6912.115508692492
 20
6063.108869716985
 10
6412.115508692485
 20
6063.108869716985
  0
LWPOLYLINE
  5
FBDBE
330
FB763
100
AcDbEntity
  8
0
100
AcDbPolyline
 90
        4
 70
     1
 43
0.0
 10
308.0272283418017
 20
2518.108869716989
 10
-691.9727716581983
 20
2518.108869716989
 10
-691.9727716581983
 20
2553.108869716989
 10
308.0272283418017
 20
2553.108869716989
  0
LWPOLYLINE
  5
FBDBF
330
FB763
100
AcDbEntity
  8
0
100
AcDbPolyline
 90
        5
 70
     0
 43
0.0
 10
340.5272283418162
 20
1666.108869716996
 10
310.5272283418017
 20
1666.108869716996
 10
310.5272283418017
 20
1663.108869716996
 10
340.5272283418162
 20
1663.108869716996
 10
340.5272283418162
 20
1666.108869716996
  0
LWPOLYLINE
  5
FBDC0
330
FB763
100
AcDbEntity
  8
0
100
AcDbPolyline
 90
        4
 70
     1
 43
0.0
 10
343.0272283418162
 20
2963.108869716989
 10
308.0272283418017
 20
2963.108869716989
 10
308.0272283418017
 20
1666.108869716996
 10
343.0272283418162
 20
1666.108869716996
  0
LWPOLYLINE
  5
FBDC1
330
FB763
100
AcDbEntity
  8
0
100
AcDbPolyline
 90
        4
 70
     1
 43
0.0
 10
308.0272283418017
 20
1698.108869716996
 10
-691.9727716581983
 20
1698.108869716996
 10
-691.9727716581983
 20
1733.108869716993
 10
308.0272283418017
 20
1733.108869716993
  0
LWPOLYLINE
  5
FBDC2
330
FB763
100
AcDbEntity
  8
0
100
AcDbPolyline
 90
        4
 70
     1
 43
0.0
 10
308.0272283418017
 20
2928.108869716989
 10
-691.9727716581983
 20
2928.108869716989
 10
-691.9727716581983
 20
2963.108869716989
 10
308.0272283418017
 20
2963.108869716989
  0
LWPOLYLINE
  5
FBDC3
330
FB763
100
AcDbEntity
  8
0
100
AcDbPolyline
 90
        5
 70
     0
 43
0.0
 10
308.0272283418017
 20
2143.108869717007
 10
-691.9727716581983
 20
2143.108869717007
 10
-691.9727716581983
 20
2108.108869716989
 10
308.0272283418017
 20
2108.108869716989
 10
308.0272283418017
 20
2143.108869717007
  0
LWPOLYLINE
  5
FBDC4
330
FB763
100
AcDbEntity
  8
0
100
AcDbPolyline
 90
        4
 70
     1
 43
0.0
 10
-1226.972771658213
 20
2928.108869716989
 10
-726.9727716581983
 20
2928.108869716989
 10
-726.9727716581983
 20
2963.108869716989
 10
-1226.972771658213
 20
2963.108869716989
  0
LWPOLYLINE
  5
FBDC5
330
FB763
100
AcDbEntity
  8
0
100
AcDbPolyline
 90
        4
 70
     1
 43
0.0
 10
-1226.972771658213
 20
1698.108869716996
 10
-726.9727716581983
 20
1698.108869716996
 10
-726.9727716581983
 20
1733.108869716993
 10
-1226.972771658213
 20
1733.108869716993
  0
LWPOLYLINE
  5
FBDC6
330
FB763
100
AcDbEntity
  8
0
100
AcDbPolyline
 90
        4
 70
     1
 43
0.0
 10
-691.9727716581983
 20
2963.108869716989
 10
-726.9727716581983
 20
2963.108869716989
 10
-726.9727716581983
 20
1666.108869716996
 10
-691.9727716581983
 20
1666.108869716996
  0
LWPOLYLINE
  5
FBDC7
330
FB763
100
AcDbEntity
  8
0
100
AcDbPolyline
 90
        5
 70
     0
 43
0.0
 10
-694.4727716582129
 20
1666.108869716996
 10
-724.4727716582129
 20
1666.108869716996
 10
-724.4727716582129
 20
1663.108869716996
 10
-694.4727716582129
 20
1663.108869716996
 10
-694.4727716582129
 20
1666.108869716996
  0
LWPOLYLINE
  5
FBDC8
330
FB763
100
AcDbEntity
  8
0
100
AcDbPolyline
 90
        2
 70
     0
 43
0.0
 10
-691.9727716581983
 20
2963.108869716989
 10
-691.9727716581983
 20
1666.108869716996
  0
LWPOLYLINE
  5
FBDC9
330
FB763
100
AcDbEntity
  8
0
100
AcDbPolyline
 90
        4
 70
     1
 43
0.0
 10
-1761.972771658198
 20
2518.108869716989
 10
-1261.972771658213
 20
2518.108869716989
 10
-1261.972771658213
 20
2553.108869716989
 10
-1761.972771658198
 20
2553.108869716989
  0
LWPOLYLINE
  5
FBDCA
330
FB763
100
AcDbEntity
  8
0
100
AcDbPolyline
 90
        4
 70
     1
 43
0.0
 10
-1761.972771658198
 20
2928.108869716989
 10
-1261.972771658213
 20
2928.108869716989
 10
-1261.972771658213
 20
2963.108869716989
 10
-1761.972771658198
 20
2963.108869716989
  0
LWPOLYLINE
  5
FBDCB
330
FB763
100
AcDbEntity
  8
0
100
AcDbPolyline
 90
        4
 70
     1
 43
0.0
 10
-1761.972771658198
 20
1698.108869716996
 10
-1261.972771658213
 20
1698.108869716996
 10
-1261.972771658213
 20
1733.108869716993
 10
-1761.972771658198
 20
1733.108869716993
  0
LWPOLYLINE
  5
FBDCC
330
FB763
100
AcDbEntity
  8
0
100
AcDbPolyline
 90
        4
 70
     1
 43
0.0
 10
-1226.972771658213
 20
2963.108869716989
 10
-1261.972771658213
 20
2963.108869716989
 10
-1261.972771658213
 20
1666.108869716996
 10
-1226.972771658213
 20
1666.108869716996
  0
LWPOLYLINE
  5
FBDCD
330
FB763
100
AcDbEntity
  8
0
100
AcDbPolyline
 90
        5
 70
     0
 43
0.0
 10
-1229.472771658198
 20
1666.108869716996
 10
-1259.472771658198
 20
1666.108869716996
 10
-1259.472771658198
 20
1663.108869716996
 10
-1229.472771658198
 20
1663.108869716996
 10
-1229.472771658198
 20
1666.108869716996
  0
LWPOLYLINE
  5
FBDCE
330
FB763
100
AcDbEntity
  8
0
100
AcDbPolyline
 90
        2
 70
     0
 43
0.0
 10
-1226.972771658213
 20
2963.108869716989
 10
-1226.972771658213
 20
1666.108869716996
  0
LWPOLYLINE
  5
FBDCF
330
FB763
100
AcDbEntity
  8
0
100
AcDbPolyline
 90
        5
 70
     0
 43
0.0
 10
-1261.972771658213
 20
2143.108869717007
 10
-1761.972771658198
 20
2143.108869717007
 10
-1761.972771658198
 20
2108.108869716989
 10
-1261.972771658213
 20
2108.108869716989
 10
-1261.972771658213
 20
2143.108869717007
  0
LWPOLYLINE
  5
FBDD0
330
FB763
100
AcDbEntity
  8
0
100
AcDbPolyline
 90
        2
 70
     0
 43
0.0
 10
-1761.972771658198
 20
2963.108869716989
 10
-1761.972771658198
 20
1666.108869716996
  0
LWPOLYLINE
  5
FBDD1
330
FB763
100
AcDbEntity
  8
0
100
AcDbPolyline
 90
        5
 70
     0
 43
0.0
 10
-1764.472771658213
 20
1666.108869716996
 10
-1794.472771658213
 20
1666.108869716996
 10
-1794.472771658213
 20
1663.108869716996
 10
-1764.472771658213
 20
1663.108869716996
 10
-1764.472771658213
 20
1666.108869716996
  0
LWPOLYLINE
  5
FBDD2
330
FB763
100
AcDbEntity
  8
0
100
AcDbPolyline
 90
        5
 70
     0
 43
0.0
 10
-2329.472771658198
 20
1666.108869716996
 10
-2299.472771658198
 20
1666.108869716996
 10
-2299.472771658198
 20
1663.108869716996
 10
-2329.472771658198
 20
1663.108869716996
 10
-2329.472771658198
 20
1666.108869716996
  0
LWPOLYLINE
  5
FBDD3
330
FB763
100
AcDbEntity
  8
0
100
AcDbPolyline
 90
        4
 70
     1
 43
0.0
 10
-2331.972771658198
 20
2963.108869716989
 10
-2296.972771658198
 20
2963.108869716989
 10
-2296.972771658198
 20
1666.108869716996
 10
-2331.972771658198
 20
1666.108869716996
  0
LWPOLYLINE
  5
FBDD4
330
FB763
100
AcDbEntity
  8
0
100
AcDbPolyline
 90
        4
 70
     1
 43
0.0
 10
-1761.972771658198
 20
2963.108869716989
 10
-1796.972771658198
 20
2963.108869716989
 10
-1796.972771658198
 20
1666.108869716996
 10
-1761.972771658198
 20
1666.108869716996
  0
LWPOLYLINE
  5
FBDD5
330
FB763
100
AcDbEntity
  8
0
100
AcDbPolyline
 90
        4
 70
     1
 43
0.0
 10
-2296.972771658198
 20
1698.108869716996
 10
-1796.972771658198
 20
1698.108869716996
 10
-1796.972771658198
 20
1733.108869716993
 10
-2296.972771658198
 20
1733.108869716993
  0
LWPOLYLINE
  5
FBDD6
330
FB763
100
AcDbEntity
  8
0
100
AcDbPolyline
 90
        4
 70
     1
 43
0.0
 10
-2296.972771658198
 20
2928.108869716989
 10
-1796.972771658198
 20
2928.108869716989
 10
-1796.972771658198
 20
2963.108869716989
 10
-2296.972771658198
 20
2963.108869716989
  0
LWPOLYLINE
  5
FBDD7
330
FB763
100
AcDbEntity
  8
0
100
AcDbPolyline
 90
        4
 70
     1
 43
0.0
 10
6412.115508692492
 20
2928.108869716996
 10
6912.115508692492
 20
2928.108869716996
 10
6912.115508692492
 20
2963.108869716996
 10
6412.115508692492
 20
2963.108869716996
  0
LWPOLYLINE
  5
FBDD8
330
FB763
100
AcDbEntity
  8
0
100
AcDbPolyline
 90
        5
 70
     0
 43
0.0
 10
6912.115508692492
 20
3373.108869717011
 10
6412.115508692492
 20
3373.108869717011
 10
6412.115508692492
 20
3338.108869716996
 10
6912.115508692492
 20
3338.108869716996
 10
6912.115508692492
 20
3373.108869717011
  0
LWPOLYLINE
  5
FBDD9
330
FB763
100
AcDbEntity
  8
0
100
AcDbPolyline
 90
        5
 70
     0
 43
0.0
 10
6912.115508692492
 20
2143.108869717011
 10
6412.115508692492
 20
2143.108869717011
 10
6412.115508692492
 20
2108.108869716996
 10
6912.115508692492
 20
2108.108869716996
 10
6912.115508692492
 20
2143.108869717011
  0
LWPOLYLINE
  5
FBDDA
330
FB763
100
AcDbEntity
  8
0
100
AcDbPolyline
 90
        5
 70
     0
 43
0.0
 10
6944.615508692477
 20
1666.108869716998
 10
6914.615508692477
 20
1666.108869716998
 10
6914.615508692477
 20
1663.108869716998
 10
6944.615508692477
 20
1663.108869716998
 10
6944.615508692477
 20
1666.108869716998
  0
LWPOLYLINE
  5
FBDDB
330
FB763
100
AcDbEntity
  8
0
100
AcDbPolyline
 90
        5
 70
     0
 43
0.0
 10
6379.615508692492
 20
1666.108869716998
 10
6409.615508692492
 20
1666.108869716998
 10
6409.615508692492
 20
1663.108869716998
 10
6379.615508692492
 20
1663.108869716998
 10
6379.615508692492
 20
1666.108869716998
  0
LWPOLYLINE
  5
FBDDC
330
FB763
100
AcDbEntity
  8
0
100
AcDbPolyline
 90
        4
 70
     1
 43
0.0
 10
6377.115508692492
 20
3783.108869716996
 10
6412.115508692492
 20
3783.108869716996
 10
6412.115508692492
 20
1666.108869716998
 10
6377.115508692492
 20
1666.108869716998
  0
LWPOLYLINE
  5
FBDDD
330
FB763
100
AcDbEntity
  8
0
100
AcDbPolyline
 90
        4
 70
     1
 43
0.0
 10
6947.115508692492
 20
3783.108869716996
 10
6912.115508692492
 20
3783.108869716996
 10
6912.115508692492
 20
1666.108869716998
 10
6947.115508692492
 20
1666.108869716998
  0
LWPOLYLINE
  5
FBDDE
330
FB763
100
AcDbEntity
  8
0
100
AcDbPolyline
 90
        4
 70
     1
 43
0.0
 10
6412.115508692492
 20
1698.108869716998
 10
6912.115508692492
 20
1698.108869716998
 10
6912.115508692492
 20
1733.108869716998
 10
6412.115508692492
 20
1733.108869716998
  0
LWPOLYLINE
  5
FBDDF
330
FB763
100
AcDbEntity
  8
0
100
AcDbPolyline
 90
        4
 70
     1
 43
0.0
 10
6412.115508692492
 20
2518.108869716996
 10
6912.115508692492
 20
2518.108869716996
 10
6912.115508692492
 20
2553.108869716996
 10
6412.115508692492
 20
2553.108869716996
  0
LWPOLYLINE
  5
FBDE0
330
FB763
100
AcDbEntity
  8
0
100
AcDbPolyline
 90
        4
 70
     1
 43
0.0
 10
6412.115508692492
 20
3748.108869716996
 10
6912.115508692492
 20
3748.108869716996
 10
6912.115508692492
 20
3783.108869716996
 10
6412.115508692492
 20
3783.108869716996
  0
LWPOLYLINE
  5
FBDE1
330
FB763
100
AcDbEntity
  8
0
100
AcDbPolyline
 90
        4
 70
     1
 43
0.0
 10
9482.115508692477
 20
3748.108869716996
 10
7982.115508692477
 20
3748.108869716996
 10
7982.115508692477
 20
3783.108869716996
 10
9482.115508692477
 20
3783.108869716996
  0
LWPOLYLINE
  5
FBDE2
330
FB763
100
AcDbEntity
  8
0
100
AcDbPolyline
 90
        4
 70
     1
 43
0.0
 10
9482.115508692477
 20
3338.108869717011
 10
7982.115508692477
 20
3338.108869717011
 10
7982.115508692477
 20
3373.108869717011
 10
9482.115508692477
 20
3373.108869717011
  0
LWPOLYLINE
  5
FBDE3
330
FB763
100
AcDbEntity
  8
0
100
AcDbPolyline
 90
        5
 70
     0
 43
0.0
 10
9514.615508692463
 20
1666.108869716998
 10
9484.615508692463
 20
1666.108869716998
 10
9484.615508692463
 20
1663.108869716998
 10
9514.615508692463
 20
1663.108869716998
 10
9514.615508692463
 20
1666.108869716998
  0
LWPOLYLINE
  5
FBDE4
330
FB763
100
AcDbEntity
  8
0
100
AcDbPolyline
 90
        4
 70
     1
 43
0.0
 10
9517.115508692477
 20
3783.108869716996
 10
9482.115508692477
 20
3783.108869716996
 10
9482.115508692477
 20
1666.108869716998
 10
9517.115508692477
 20
1666.108869716998
  0
LWPOLYLINE
  5
FBDE5
330
FB763
100
AcDbEntity
  8
0
100
AcDbPolyline
 90
        4
 70
     1
 43
0.0
 10
9482.115508692477
 20
1698.108869716998
 10
7982.115508692477
 20
1698.108869716998
 10
7982.115508692477
 20
1733.108869716998
 10
9482.115508692477
 20
1733.108869716998
  0
LWPOLYLINE
  5
FBDE6
330
FB763
100
AcDbEntity
  8
0
100
AcDbPolyline
 90
        5
 70
     0
 43
0.0
 10
9482.115508692477
 20
2143.108869717011
 10
7982.115508692477
 20
2143.108869717011
 10
7982.115508692477
 20
2108.108869716996
 10
9482.115508692477
 20
2108.108869716996
 10
9482.115508692477
 20
2143.108869717011
  0
LWPOLYLINE
  5
FBDE7
330
FB763
100
AcDbEntity
  8
0
100
AcDbPolyline
 90
        4
 70
     1
 43
0.0
 10
7982.115508692477
 20
3783.108869716996
 10
7947.115508692477
 20
3783.108869716996
 10
7947.115508692477
 20
1666.108869716998
 10
7982.115508692477
 20
1666.108869716998
  0
LWPOLYLINE
  5
FBDE8
330
FB763
100
AcDbEntity
  8
0
100
AcDbPolyline
 90
        5
 70
     0
 43
0.0
 10
7979.615508692463
 20
1666.108869716998
 10
7949.615508692463
 20
1666.108869716998
 10
7949.615508692463
 20
1663.108869716998
 10
7979.615508692463
 20
1663.108869716998
 10
7979.615508692463
 20
1666.108869716998
  0
LWPOLYLINE
  5
FBDE9
330
FB763
100
AcDbEntity
  8
0
100
AcDbPolyline
 90
        4
 70
     1
 43
0.0
 10
6947.115508692492
 20
3748.108869716996
 10
7947.115508692477
 20
3748.108869716996
 10
7947.115508692477
 20
3783.108869716996
 10
6947.115508692492
 20
3783.108869716996
  0
LWPOLYLINE
  5
FBDEA
330
FB763
100
AcDbEntity
  8
0
100
AcDbPolyline
 90
        4
 70
     1
 43
0.0
 10
6947.115508692492
 20
2518.108869716996
 10
7947.115508692477
 20
2518.108869716996
 10
7947.115508692477
 20
2553.108869716996
 10
6947.115508692492
 20
2553.108869716996
  0
LWPOLYLINE
  5
FBDEB
330
FB763
100
AcDbEntity
  8
0
100
AcDbPolyline
 90
        4
 70
     1
 43
0.0
 10
6947.115508692492
 20
1698.108869716998
 10
7947.115508692477
 20
1698.108869716998
 10
7947.115508692477
 20
1733.108869716998
 10
6947.115508692492
 20
1733.108869716998
  0
LWPOLYLINE
  5
FBDEC
330
FB763
100
AcDbEntity
  8
0
100
AcDbPolyline
 90
        5
 70
     0
 43
0.0
 10
6914.615508692477
 20
1666.108869716998
 10
6944.615508692477
 20
1666.108869716998
 10
6944.615508692477
 20
1663.108869716998
 10
6914.615508692477
 20
1663.108869716998
 10
6914.615508692477
 20
1666.108869716998
  0
LWPOLYLINE
  5
FBDED
330
FB763
100
AcDbEntity
  8
0
100
AcDbPolyline
 90
        5
 70
     0
 43
0.0
 10
7947.115508692477
 20
2143.108869717011
 10
6947.115508692492
 20
2143.108869717011
 10
6947.115508692492
 20
2108.108869716996
 10
7947.115508692477
 20
2108.108869716996
 10
7947.115508692477
 20
2143.108869717011
  0
LWPOLYLINE
  5
FBDEE
330
FB763
100
AcDbEntity
  8
0
100
AcDbPolyline
 90
        5
 70
     0
 43
0.0
 10
7947.115508692477
 20
3373.108869717011
 10
6947.115508692492
 20
3373.108869717011
 10
6947.115508692492
 20
3338.108869716996
 10
7947.115508692477
 20
3338.108869716996
 10
7947.115508692477
 20
3373.108869717011
  0
LWPOLYLINE
  5
FBDEF
330
FB763
100
AcDbEntity
  8
0
100
AcDbPolyline
 90
        4
 70
     1
 43
0.0
 10
6947.115508692492
 20
2928.108869716996
 10
7947.115508692477
 20
2928.108869716996
 10
7947.115508692477
 20
2963.108869716996
 10
6947.115508692492
 20
2963.108869716996
  0
LWPOLYLINE
  5
FBDF0
330
FB763
100
AcDbEntity
  8
0
100
AcDbPolyline
 90
        2
 70
     0
 43
0.0
 10
5523.618806941951
 20
1663.108869716996
 10
10282.7891306605
 20
1663.108869716996
  0
LWPOLYLINE
  5
FBDF1
330
FB763
100
AcDbEntity
  8
0
100
AcDbPolyline
 90
        2
 70
     0
 43
0.0
 10
5523.618806941951
 20
4763.108869716985
 10
10282.7891306605
 20
4763.108869716985
  0
LWPOLYLINE
  5
FBDF2
330
FB763
100
AcDbEntity
  8
0
100
AcDbPolyline
 90
        2
 70
     0
 43
0.0
 10
-3006.214019527535
 20
4763.108869716989
 10
3102.707855159344
 20
4763.108869716985
  0
LWPOLYLINE
  5
FBDF3
330
FB763
100
AcDbEntity
  8
0
100
AcDbPolyline
 90
        2
 70
     0
 43
0.0
 10
-3006.214019527535
 20
1663.108869716993
 10
1208.147568501219
 20
1663.108869716993
  0
LWPOLYLINE
  5
FBDF4
330
FB763
100
AcDbEntity
  8
0
100
AcDbPolyline
 90
        4
 70
     1
 43
0.0
 10
30529.30916946426
 20
554.0366420584669
 10
47134.08970799963
 20
554.0366420584669
 10
47134.08970799963
 20
14792.18109737554
 10
30529.30916946426
 20
14792.18109737554
  0
LWPOLYLINE
  5
FBDF5
330
FB763
100
AcDbEntity
  8
0
100
AcDbPolyline
 90
        2
 70
     0
 43
0.0
 10
39522.25612657106
 20
2068.393384610694
 10
46105.03582464834
 20
2068.393384610694
  0
LWPOLYLINE
  5
FBDF6
330
FB763
100
AcDbEntity
  8
0
100
AcDbPolyline
 90
        2
 70
     0
 43
0.0
 10
39522.25612657106
 20
7441.448107489005
 10
46105.03582464834
 20
7441.448107489005
  0
LWPOLYLINE
  5
FBDF7
330
FB763
100
AcDbEntity
  8
0
100
AcDbPolyline
 90
        2
 70
     0
 43
0.0
 10
39522.25612657106
 20
11783.69019621382
 10
46105.03582464834
 20
11783.69019621382
  0
LWPOLYLINE
  5
FBDF8
330
FB763
100
AcDbEntity
  8
0
100
AcDbPolyline
 90
        2
 70
     0
 43
0.0
 10
31558.36305281554
 20
7441.448107489005
 10
38141.14275089284
 20
7441.448107489005
  0
LWPOLYLINE
  5
FBDF9
330
FB763
100
AcDbEntity
  8
0
100
AcDbPolyline
 90
        5
 70
     0
 43
0.0
 10
37359.68352473369
 20
11786.69019621382
 10
37329.68352473369
 20
11786.69019621382
 10
37329.68352473369
 20
11783.69019621382
 10
37359.68352473369
 20
11783.69019621382
 10
37359.68352473369
 20
11786.69019621382
  0
LWPOLYLINE
  5
FBDFA
330
FB763
100
AcDbEntity
  8
0
100
AcDbPolyline
 90
        5
 70
     0
 43
0.0
 10
35794.68352473369
 20
11786.69019621382
 10
35824.68352473369
 20
11786.69019621382
 10
35824.68352473369
 20
11783.69019621382
 10
35794.68352473369
 20
11783.69019621382
 10
35794.68352473369
 20
11786.69019621382
  0
LWPOLYLINE
  5
FBDFB
330
FB763
100
AcDbEntity
  8
0
100
AcDbPolyline
 90
        4
 70
     1
 43
0.0
 10
35792.18352473369
 20
12263.69019621383
 10
35827.18352473369
 20
12263.69019621383
 10
35827.18352473369
 20
11786.69019621382
 10
35792.18352473369
 20
11786.69019621382
  0
LWPOLYLINE
  5
FBDFC
330
FB763
100
AcDbEntity
  8
0
100
AcDbPolyline
 90
        4
 70
     1
 43
0.0
 10
37362.18352473369
 20
12263.69019621383
 10
37327.18352473369
 20
12263.69019621383
 10
37327.18352473369
 20
11786.69019621382
 10
37362.18352473369
 20
11786.69019621382
  0
LWPOLYLINE
  5
FBDFD
330
FB763
100
AcDbEntity
  8
0
100
AcDbPolyline
 90
        4
 70
     1
 43
0.0
 10
35827.18352473369
 20
11818.69019621382
 10
37327.18352473369
 20
11818.69019621382
 10
37327.18352473369
 20
11853.69019621382
 10
35827.18352473369
 20
11853.69019621382
  0
LWPOLYLINE
  5
FBDFE
330
FB763
100
AcDbEntity
  8
0
100
AcDbPolyline
 90
        4
 70
     1
 43
0.0
 10
35827.18352473369
 20
12228.69019621382
 10
37327.18352473369
 20
12228.69019621382
 10
37327.18352473369
 20
12263.69019621383
 10
35827.18352473369
 20
12263.69019621383
  0
LWPOLYLINE
  5
FBDFF
330
FB763
100
AcDbEntity
  8
0
100
AcDbPolyline
 90
        5
 70
     0
 43
0.0
 10
37327.18352473369
 20
7921.448107489012
 10
35827.18352473369
 20
7921.448107489012
 10
35827.18352473369
 20
7886.448107488997
 10
37327.18352473369
 20
7886.448107488997
 10
37327.18352473369
 20
7921.448107489012
  0
LWPOLYLINE
  5
FBE00
330
FB763
100
AcDbEntity
  8
0
100
AcDbPolyline
 90
        2
 70
     0
 43
0.0
 10
37362.18352473369
 20
8741.448107488997
 10
37362.18352473369
 20
7444.448107489005
  0
LWPOLYLINE
  5
FBE01
330
FB763
100
AcDbEntity
  8
0
100
AcDbPolyline
 90
        5
 70
     0
 43
0.0
 10
37359.68352473369
 20
7444.448107489005
 10
37329.68352473369
 20
7444.448107489005
 10
37329.68352473369
 20
7441.448107489005
 10
37359.68352473369
 20
7441.448107489005
 10
37359.68352473369
 20
7444.448107489005
  0
LWPOLYLINE
  5
FBE02
330
FB763
100
AcDbEntity
  8
0
100
AcDbPolyline
 90
        5
 70
     0
 43
0.0
 10
35794.68352473369
 20
7444.448107489005
 10
35824.68352473369
 20
7444.448107489005
 10
35824.68352473369
 20
7441.448107489005
 10
35794.68352473369
 20
7441.448107489005
 10
35794.68352473369
 20
7444.448107489005
  0
LWPOLYLINE
  5
FBE03
330
FB763
100
AcDbEntity
  8
0
100
AcDbPolyline
 90
        4
 70
     1
 43
0.0
 10
35792.18352473369
 20
8741.448107488997
 10
35827.18352473369
 20
8741.448107488997
 10
35827.18352473369
 20
7444.448107489005
 10
35792.18352473369
 20
7444.448107489005
  0
LWPOLYLINE
  5
FBE04
330
FB763
100
AcDbEntity
  8
0
100
AcDbPolyline
 90
        4
 70
     1
 43
0.0
 10
37362.18352473369
 20
8741.448107488997
 10
37327.18352473369
 20
8741.448107488997
 10
37327.18352473369
 20
7444.448107489005
 10
37362.18352473369
 20
7444.448107489005
  0
LWPOLYLINE
  5
FBE05
330
FB763
100
AcDbEntity
  8
0
100
AcDbPolyline
 90
        4
 70
     1
 43
0.0
 10
35827.18352473369
 20
7476.448107489005
 10
37327.18352473369
 20
7476.448107489005
 10
37327.18352473369
 20
7511.448107488997
 10
35827.18352473369
 20
7511.448107488997
  0
LWPOLYLINE
  5
FBE06
330
FB763
100
AcDbEntity
  8
0
100
AcDbPolyline
 90
        4
 70
     1
 43
0.0
 10
35827.18352473369
 20
8706.448107488997
 10
37327.18352473369
 20
8706.448107488997
 10
37327.18352473369
 20
8741.448107488997
 10
35827.18352473369
 20
8741.448107488997
  0
LWPOLYLINE
  5
FBE07
330
FB763
100
AcDbEntity
  8
0
100
AcDbPolyline
 90
        4
 70
     1
 43
0.0
 10
35827.18352473369
 20
8296.448107488997
 10
37327.18352473369
 20
8296.448107488997
 10
37327.18352473369
 20
8331.448107488997
 10
35827.18352473369
 20
8331.448107488997
  0
LWPOLYLINE
  5
FBE08
330
FB763
100
AcDbEntity
  8
0
100
AcDbPolyline
 90
        4
 70
     1
 43
0.0
 10
35827.18352473369
 20
2923.393384610694
 10
37327.18352473369
 20
2923.393384610694
 10
37327.18352473369
 20
2958.393384610694
 10
35827.18352473369
 20
2958.393384610694
  0
LWPOLYLINE
  5
FBE09
330
FB763
100
AcDbEntity
  8
0
100
AcDbPolyline
 90
        4
 70
     1
 43
0.0
 10
35827.18352473369
 20
4153.393384610701
 10
37327.18352473369
 20
4153.393384610701
 10
37327.18352473369
 20
4188.393384610694
 10
35827.18352473369
 20
4188.393384610694
  0
LWPOLYLINE
  5
FBE0A
330
FB763
100
AcDbEntity
  8
0
100
AcDbPolyline
 90
        4
 70
     1
 43
0.0
 10
35827.18352473369
 20
2103.393384610694
 10
37327.18352473369
 20
2103.393384610694
 10
37327.18352473369
 20
2138.393384610694
 10
35827.18352473369
 20
2138.393384610694
  0
LWPOLYLINE
  5
FBE0B
330
FB763
100
AcDbEntity
  8
0
100
AcDbPolyline
 90
        4
 70
     1
 43
0.0
 10
37362.18352473369
 20
4188.393384610694
 10
37327.18352473369
 20
4188.393384610694
 10
37327.18352473369
 20
2071.393384610694
 10
37362.18352473369
 20
2071.393384610694
  0
LWPOLYLINE
  5
FBE0C
330
FB763
100
AcDbEntity
  8
0
100
AcDbPolyline
 90
        4
 70
     1
 43
0.0
 10
35792.18352473369
 20
4188.393384610694
 10
35827.18352473369
 20
4188.393384610694
 10
35827.18352473369
 20
2071.393384610694
 10
35792.18352473369
 20
2071.393384610694
  0
LWPOLYLINE
  5
FBE0D
330
FB763
100
AcDbEntity
  8
0
100
AcDbPolyline
 90
        5
 70
     0
 43
0.0
 10
35794.68352473369
 20
2071.393384610694
 10
35824.68352473369
 20
2071.393384610694
 10
35824.68352473369
 20
2068.393384610694
 10
35794.68352473369
 20
2068.393384610694
 10
35794.68352473369
 20
2071.393384610694
  0
LWPOLYLINE
  5
FBE0E
330
FB763
100
AcDbEntity
  8
0
100
AcDbPolyline
 90
        5
 70
     0
 43
0.0
 10
37359.68352473369
 20
2071.393384610694
 10
37329.68352473369
 20
2071.393384610694
 10
37329.68352473369
 20
2068.393384610694
 10
37359.68352473369
 20
2068.393384610694
 10
37359.68352473369
 20
2071.393384610694
  0
LWPOLYLINE
  5
FBE0F
330
FB763
100
AcDbEntity
  8
0
100
AcDbPolyline
 90
        2
 70
     0
 43
0.0
 10
37362.18352473369
 20
4188.393384610694
 10
37362.18352473369
 20
2071.393384610694
  0
LWPOLYLINE
  5
FBE10
330
FB763
100
AcDbEntity
  8
0
100
AcDbPolyline
 90
        5
 70
     0
 43
0.0
 10
37327.18352473369
 20
2548.393384610708
 10
35827.18352473369
 20
2548.393384610708
 10
35827.18352473369
 20
2513.393384610694
 10
37327.18352473369
 20
2513.393384610694
 10
37327.18352473369
 20
2548.393384610708
  0
LWPOLYLINE
  5
FBE11
330
FB763
100
AcDbEntity
  8
0
100
AcDbPolyline
 90
        5
 70
     0
 43
0.0
 10
37327.18352473369
 20
3778.393384610708
 10
35827.18352473369
 20
3778.393384610708
 10
35827.18352473369
 20
3743.393384610694
 10
37327.18352473369
 20
3743.393384610694
 10
37327.18352473369
 20
3778.393384610708
  0
LWPOLYLINE
  5
FBE12
330
FB763
100
AcDbEntity
  8
0
100
AcDbPolyline
 90
        4
 70
     1
 43
0.0
 10
35827.18352473369
 20
3333.393384610694
 10
37327.18352473369
 20
3333.393384610694
 10
37327.18352473369
 20
3368.393384610694
 10
35827.18352473369
 20
3368.393384610694
  0
LWPOLYLINE
  5
FBE13
330
FB763
100
AcDbEntity
  8
0
100
AcDbPolyline
 90
        5
 70
     0
 43
0.0
 10
34789.68352473369
 20
11786.69019621382
 10
34759.68352473369
 20
11786.69019621382
 10
34759.68352473369
 20
11783.69019621382
 10
34789.68352473369
 20
11783.69019621382
 10
34789.68352473369
 20
11786.69019621382
  0
LWPOLYLINE
  5
FBE14
330
FB763
100
AcDbEntity
  8
0
100
AcDbPolyline
 90
        5
 70
     0
 43
0.0
 10
33724.68352473369
 20
11786.69019621382
 10
33754.68352473369
 20
11786.69019621382
 10
33754.68352473369
 20
11783.69019621382
 10
33724.68352473369
 20
11783.69019621382
 10
33724.68352473369
 20
11786.69019621382
  0
LWPOLYLINE
  5
FBE15
330
FB763
100
AcDbEntity
  8
0
100
AcDbPolyline
 90
        4
 70
     1
 43
0.0
 10
33722.18352473369
 20
12263.69019621383
 10
33757.18352473369
 20
12263.69019621383
 10
33757.18352473369
 20
11786.69019621382
 10
33722.18352473369
 20
11786.69019621382
  0
LWPOLYLINE
  5
FBE16
330
FB763
100
AcDbEntity
  8
0
100
AcDbPolyline
 90
        4
 70
     1
 43
0.0
 10
34792.18352473369
 20
12263.69019621383
 10
34757.18352473369
 20
12263.69019621383
 10
34757.18352473369
 20
11786.69019621382
 10
34792.18352473369
 20
11786.69019621382
  0
LWPOLYLINE
  5
FBE17
330
FB763
100
AcDbEntity
  8
0
100
AcDbPolyline
 90
        4
 70
     1
 43
0.0
 10
33757.18352473369
 20
11818.69019621382
 10
34757.18352473369
 20
11818.69019621382
 10
34757.18352473369
 20
11853.69019621382
 10
33757.18352473369
 20
11853.69019621382
  0
LWPOLYLINE
  5
FBE18
330
FB763
100
AcDbEntity
  8
0
100
AcDbPolyline
 90
        4
 70
     1
 43
0.0
 10
33757.18352473369
 20
12228.69019621382
 10
34757.18352473369
 20
12228.69019621382
 10
34757.18352473369
 20
12263.69019621383
 10
33757.18352473369
 20
12263.69019621383
  0
LWPOLYLINE
  5
FBE19
330
FB763
100
AcDbEntity
  8
0
100
AcDbPolyline
 90
        5
 70
     0
 43
0.0
 10
34757.18352473369
 20
7921.448107489012
 10
33757.18352473369
 20
7921.448107489012
 10
33757.18352473369
 20
7886.448107488997
 10
34757.18352473369
 20
7886.448107488997
 10
34757.18352473369
 20
7921.448107489012
  0
LWPOLYLINE
  5
FBE1A
330
FB763
100
AcDbEntity
  8
0
100
AcDbPolyline
 90
        2
 70
     0
 43
0.0
 10
34792.18352473369
 20
8741.448107488997
 10
34792.18352473369
 20
7444.448107489005
  0
LWPOLYLINE
  5
FBE1B
330
FB763
100
AcDbEntity
  8
0
100
AcDbPolyline
 90
        5
 70
     0
 43
0.0
 10
34789.68352473369
 20
7444.448107489005
 10
34759.68352473369
 20
7444.448107489005
 10
34759.68352473369
 20
7441.448107489005
 10
34789.68352473369
 20
7441.448107489005
 10
34789.68352473369
 20
7444.448107489005
  0
LWPOLYLINE
  5
FBE1C
330
FB763
100
AcDbEntity
  8
0
100
AcDbPolyline
 90
        5
 70
     0
 43
0.0
 10
33724.68352473369
 20
7444.448107489005
 10
33754.68352473369
 20
7444.448107489005
 10
33754.68352473369
 20
7441.448107489005
 10
33724.68352473369
 20
7441.448107489005
 10
33724.68352473369
 20
7444.448107489005
  0
LWPOLYLINE
  5
FBE1D
330
FB763
100
AcDbEntity
  8
0
100
AcDbPolyline
 90
        4
 70
     1
 43
0.0
 10
33722.18352473369
 20
8741.448107488997
 10
33757.18352473369
 20
8741.448107488997
 10
33757.18352473369
 20
7444.448107489005
 10
33722.18352473369
 20
7444.448107489005
  0
LWPOLYLINE
  5
FBE1E
330
FB763
100
AcDbEntity
  8
0
100
AcDbPolyline
 90
        4
 70
     1
 43
0.0
 10
34792.18352473369
 20
8741.448107488997
 10
34757.18352473369
 20
8741.448107488997
 10
34757.18352473369
 20
7444.448107489005
 10
34792.18352473369
 20
7444.448107489005
  0
LWPOLYLINE
  5
FBE1F
330
FB763
100
AcDbEntity
  8
0
100
AcDbPolyline
 90
        4
 70
     1
 43
0.0
 10
33757.18352473369
 20
7476.448107489005
 10
34757.18352473369
 20
7476.448107489005
 10
34757.18352473369
 20
7511.448107488997
 10
33757.18352473369
 20
7511.448107488997
  0
LWPOLYLINE
  5
FBE20
330
FB763
100
AcDbEntity
  8
0
100
AcDbPolyline
 90
        4
 70
     1
 43
0.0
 10
33757.18352473369
 20
8706.448107488997
 10
34757.18352473369
 20
8706.448107488997
 10
34757.18352473369
 20
8741.448107488997
 10
33757.18352473369
 20
8741.448107488997
  0
LWPOLYLINE
  5
FBE21
330
FB763
100
AcDbEntity
  8
0
100
AcDbPolyline
 90
        4
 70
     1
 43
0.0
 10
33757.18352473369
 20
8296.448107488997
 10
34757.18352473369
 20
8296.448107488997
 10
34757.18352473369
 20
8331.448107488997
 10
33757.18352473369
 20
8331.448107488997
  0
LWPOLYLINE
  5
FBE22
330
FB763
100
AcDbEntity
  8
0
100
AcDbPolyline
 90
        4
 70
     1
 43
0.0
 10
33757.18352473368
 20
2923.393384610694
 10
34757.18352473368
 20
2923.393384610694
 10
34757.18352473368
 20
2958.393384610694
 10
33757.18352473368
 20
2958.393384610694
  0
LWPOLYLINE
  5
FBE23
330
FB763
100
AcDbEntity
  8
0
100
AcDbPolyline
 90
        4
 70
     1
 43
0.0
 10
33757.18352473368
 20
4153.393384610701
 10
34757.18352473368
 20
4153.393384610701
 10
34757.18352473368
 20
4188.393384610694
 10
33757.18352473368
 20
4188.393384610694
  0
LWPOLYLINE
  5
FBE24
330
FB763
100
AcDbEntity
  8
0
100
AcDbPolyline
 90
        4
 70
     1
 43
0.0
 10
33757.18352473368
 20
2103.393384610694
 10
34757.18352473368
 20
2103.393384610694
 10
34757.18352473368
 20
2138.393384610694
 10
33757.18352473368
 20
2138.393384610694
  0
LWPOLYLINE
  5
FBE25
330
FB763
100
AcDbEntity
  8
0
100
AcDbPolyline
 90
        4
 70
     1
 43
0.0
 10
34792.18352473368
 20
4188.393384610694
 10
34757.18352473368
 20
4188.393384610694
 10
34757.18352473368
 20
2071.393384610694
 10
34792.18352473368
 20
2071.393384610694
  0
LWPOLYLINE
  5
FBE26
330
FB763
100
AcDbEntity
  8
0
100
AcDbPolyline
 90
        4
 70
     1
 43
0.0
 10
33722.18352473369
 20
4188.393384610694
 10
33757.18352473368
 20
4188.393384610694
 10
33757.18352473368
 20
2071.393384610694
 10
33722.18352473369
 20
2071.393384610694
  0
LWPOLYLINE
  5
FBE27
330
FB763
100
AcDbEntity
  8
0
100
AcDbPolyline
 90
        5
 70
     0
 43
0.0
 10
33724.68352473368
 20
2071.393384610694
 10
33754.68352473368
 20
2071.393384610694
 10
33754.68352473368
 20
2068.393384610694
 10
33724.68352473368
 20
2068.393384610694
 10
33724.68352473368
 20
2071.393384610694
  0
LWPOLYLINE
  5
FBE28
330
FB763
100
AcDbEntity
  8
0
100
AcDbPolyline
 90
        5
 70
     0
 43
0.0
 10
34789.68352473368
 20
2071.393384610694
 10
34759.68352473368
 20
2071.393384610694
 10
34759.68352473368
 20
2068.393384610694
 10
34789.68352473368
 20
2068.393384610694
 10
34789.68352473368
 20
2071.393384610694
  0
LWPOLYLINE
  5
FBE29
330
FB763
100
AcDbEntity
  8
0
100
AcDbPolyline
 90
        2
 70
     0
 43
0.0
 10
34792.18352473368
 20
4188.393384610694
 10
34792.18352473368
 20
2071.393384610694
  0
LWPOLYLINE
  5
FBE2A
330
FB763
100
AcDbEntity
  8
0
100
AcDbPolyline
 90
        5
 70
     0
 43
0.0
 10
34757.18352473368
 20
2548.393384610708
 10
33757.18352473368
 20
2548.393384610708
 10
33757.18352473368
 20
2513.393384610694
 10
34757.18352473368
 20
2513.393384610694
 10
34757.18352473368
 20
2548.393384610708
  0
LWPOLYLINE
  5
FBE2B
330
FB763
100
AcDbEntity
  8
0
100
AcDbPolyline
 90
        5
 70
     0
 43
0.0
 10
34757.18352473368
 20
3778.393384610708
 10
33757.18352473368
 20
3778.393384610708
 10
33757.18352473368
 20
3743.393384610694
 10
34757.18352473368
 20
3743.393384610694
 10
34757.18352473368
 20
3778.393384610708
  0
LWPOLYLINE
  5
FBE2C
330
FB763
100
AcDbEntity
  8
0
100
AcDbPolyline
 90
        4
 70
     1
 43
0.0
 10
33757.18352473368
 20
3333.393384610694
 10
34757.18352473368
 20
3333.393384610694
 10
34757.18352473368
 20
3368.393384610694
 10
33757.18352473368
 20
3368.393384610694
  0
LWPOLYLINE
  5
FBE2D
330
FB763
100
AcDbEntity
  8
0
100
AcDbPolyline
 90
        4
 70
     1
 43
0.0
 10
32182.18352473369
 20
3333.393384610701
 10
32682.18352473369
 20
3333.393384610701
 10
32682.18352473369
 20
3368.393384610701
 10
32182.18352473369
 20
3368.393384610701
  0
LWPOLYLINE
  5
FBE2E
330
FB763
100
AcDbEntity
  8
0
100
AcDbPolyline
 90
        5
 70
     0
 43
0.0
 10
32682.18352473369
 20
3778.393384610708
 10
32182.18352473369
 20
3778.393384610708
 10
32182.18352473369
 20
3743.393384610694
 10
32682.18352473369
 20
3743.393384610694
 10
32682.18352473369
 20
3778.393384610708
  0
LWPOLYLINE
  5
FBE2F
330
FB763
100
AcDbEntity
  8
0
100
AcDbPolyline
 90
        5
 70
     0
 43
0.0
 10
32682.18352473369
 20
2548.393384610708
 10
32182.18352473369
 20
2548.393384610708
 10
32182.18352473369
 20
2513.393384610701
 10
32682.18352473369
 20
2513.393384610701
 10
32682.18352473369
 20
2548.393384610708
  0
LWPOLYLINE
  5
FBE30
330
FB763
100
AcDbEntity
  8
0
100
AcDbPolyline
 90
        2
 70
     0
 43
0.0
 10
32717.18352473369
 20
4188.393384610694
 10
32717.18352473369
 20
2071.393384610701
  0
LWPOLYLINE
  5
FBE31
330
FB763
100
AcDbEntity
  8
0
100
AcDbPolyline
 90
        5
 70
     0
 43
0.0
 10
32714.68352473369
 20
2071.393384610701
 10
32684.68352473369
 20
2071.393384610701
 10
32684.68352473369
 20
2068.393384610701
 10
32714.68352473369
 20
2068.393384610701
 10
32714.68352473369
 20
2071.393384610701
  0
LWPOLYLINE
  5
FBE32
330
FB763
100
AcDbEntity
  8
0
100
AcDbPolyline
 90
        5
 70
     0
 43
0.0
 10
32149.68352473369
 20
2071.393384610701
 10
32179.68352473368
 20
2071.393384610701
 10
32179.68352473368
 20
2068.393384610701
 10
32149.68352473369
 20
2068.393384610701
 10
32149.68352473369
 20
2071.393384610701
  0
LWPOLYLINE
  5
FBE33
330
FB763
100
AcDbEntity
  8
0
100
AcDbPolyline
 90
        4
 70
     1
 43
0.0
 10
32147.18352473369
 20
4188.393384610694
 10
32182.18352473369
 20
4188.393384610694
 10
32182.18352473369
 20
2071.393384610701
 10
32147.18352473369
 20
2071.393384610701
  0
LWPOLYLINE
  5
FBE34
330
FB763
100
AcDbEntity
  8
0
100
AcDbPolyline
 90
        4
 70
     1
 43
0.0
 10
32717.18352473369
 20
4188.393384610694
 10
32682.18352473369
 20
4188.393384610694
 10
32682.18352473369
 20
2071.393384610701
 10
32717.18352473369
 20
2071.393384610701
  0
LWPOLYLINE
  5
FBE35
330
FB763
100
AcDbEntity
  8
0
100
AcDbPolyline
 90
        4
 70
     1
 43
0.0
 10
32182.18352473369
 20
2103.393384610701
 10
32682.18352473369
 20
2103.393384610701
 10
32682.18352473369
 20
2138.393384610701
 10
32182.18352473369
 20
2138.393384610701
  0
LWPOLYLINE
  5
FBE36
330
FB763
100
AcDbEntity
  8
0
100
AcDbPolyline
 90
        4
 70
     1
 43
0.0
 10
32182.18352473369
 20
4153.393384610701
 10
32682.18352473369
 20
4153.393384610701
 10
32682.18352473369
 20
4188.393384610694
 10
32182.18352473369
 20
4188.393384610694
  0
LWPOLYLINE
  5
FBE37
330
FB763
100
AcDbEntity
  8
0
100
AcDbPolyline
 90
        4
 70
     1
 43
0.0
 10
32182.18352473369
 20
2923.393384610701
 10
32682.18352473369
 20
2923.393384610701
 10
32682.18352473369
 20
2958.393384610701
 10
32182.18352473369
 20
2958.393384610701
  0
LWPOLYLINE
  5
FBE38
330
FB763
100
AcDbEntity
  8
0
100
AcDbPolyline
 90
        4
 70
     1
 43
0.0
 10
32182.18352473369
 20
8296.448107488997
 10
32682.18352473369
 20
8296.448107488997
 10
32682.18352473369
 20
8331.448107488997
 10
32182.18352473369
 20
8331.448107488997
  0
LWPOLYLINE
  5
FBE39
330
FB763
100
AcDbEntity
  8
0
100
AcDbPolyline
 90
        4
 70
     1
 43
0.0
 10
32182.18352473369
 20
8706.448107488997
 10
32682.18352473369
 20
8706.448107488997
 10
32682.18352473369
 20
8741.448107488997
 10
32182.18352473369
 20
8741.448107488997
  0
LWPOLYLINE
  5
FBE3A
330
FB763
100
AcDbEntity
  8
0
100
AcDbPolyline
 90
        4
 70
     1
 43
0.0
 10
32182.18352473369
 20
7476.448107489005
 10
32682.18352473369
 20
7476.448107489005
 10
32682.18352473369
 20
7511.448107488997
 10
32182.18352473369
 20
7511.448107488997
  0
LWPOLYLINE
  5
FBE3B
330
FB763
100
AcDbEntity
  8
0
100
AcDbPolyline
 90
        4
 70
     1
 43
0.0
 10
32717.18352473369
 20
8741.448107488997
 10
32682.18352473369
 20
8741.448107488997
 10
32682.18352473369
 20
7444.448107489005
 10
32717.18352473369
 20
7444.448107489005
  0
LWPOLYLINE
  5
FBE3C
330
FB763
100
AcDbEntity
  8
0
100
AcDbPolyline
 90
        4
 70
     1
 43
0.0
 10
32147.18352473369
 20
8741.448107488997
 10
32182.18352473369
 20
8741.448107488997
 10
32182.18352473369
 20
7444.448107489005
 10
32147.18352473369
 20
7444.448107489005
  0
LWPOLYLINE
  5
FBE3D
330
FB763
100
AcDbEntity
  8
0
100
AcDbPolyline
 90
        5
 70
     0
 43
0.0
 10
32149.68352473369
 20
7444.448107489005
 10
32179.68352473369
 20
7444.448107489005
 10
32179.68352473369
 20
7441.448107489005
 10
32149.68352473369
 20
7441.448107489005
 10
32149.68352473369
 20
7444.448107489005
  0
LWPOLYLINE
  5
FBE3E
330
FB763
100
AcDbEntity
  8
0
100
AcDbPolyline
 90
        5
 70
     0
 43
0.0
 10
32714.68352473369
 20
7444.448107489005
 10
32684.68352473369
 20
7444.448107489005
 10
32684.68352473369
 20
7441.448107489005
 10
32714.68352473369
 20
7441.448107489005
 10
32714.68352473369
 20
7444.448107489005
  0
LWPOLYLINE
  5
FBE3F
330
FB763
100
AcDbEntity
  8
0
100
AcDbPolyline
 90
        2
 70
     0
 43
0.0
 10
32717.18352473369
 20
8741.448107488997
 10
32717.18352473369
 20
7444.448107489005
  0
LWPOLYLINE
  5
FBE40
330
FB763
100
AcDbEntity
  8
0
100
AcDbPolyline
 90
        5
 70
     0
 43
0.0
 10
32682.18352473369
 20
7921.448107489012
 10
32182.18352473369
 20
7921.448107489012
 10
32182.18352473369
 20
7886.448107488997
 10
32682.18352473369
 20
7886.448107488997
 10
32682.18352473369
 20
7921.448107489012
  0
LWPOLYLINE
  5
FBE41
330
FB763
100
AcDbEntity
  8
0
100
AcDbPolyline
 90
        4
 70
     1
 43
0.0
 10
32182.18352473368
 20
12228.69019621382
 10
32682.18352473368
 20
12228.69019621382
 10
32682.18352473368
 20
12263.69019621383
 10
32182.18352473368
 20
12263.69019621383
  0
LWPOLYLINE
  5
FBE42
330
FB763
100
AcDbEntity
  8
0
100
AcDbPolyline
 90
        4
 70
     1
 43
0.0
 10
32182.18352473368
 20
11818.69019621382
 10
32682.18352473368
 20
11818.69019621382
 10
32682.18352473368
 20
11853.69019621382
 10
32182.18352473368
 20
11853.69019621382
  0
LWPOLYLINE
  5
FBE43
330
FB763
100
AcDbEntity
  8
0
100
AcDbPolyline
 90
        4
 70
     1
 43
0.0
 10
32717.18352473368
 20
12263.69019621383
 10
32682.18352473368
 20
12263.69019621383
 10
32682.18352473368
 20
11786.69019621382
 10
32717.18352473368
 20
11786.69019621382
  0
LWPOLYLINE
  5
FBE44
330
FB763
100
AcDbEntity
  8
0
100
AcDbPolyline
 90
        4
 70
     1
 43
0.0
 10
32147.18352473369
 20
12263.69019621383
 10
32182.18352473368
 20
12263.69019621383
 10
32182.18352473368
 20
11786.69019621382
 10
32147.18352473369
 20
11786.69019621382
  0
LWPOLYLINE
  5
FBE45
330
FB763
100
AcDbEntity
  8
0
100
AcDbPolyline
 90
        5
 70
     0
 43
0.0
 10
32149.68352473368
 20
11786.69019621382
 10
32179.68352473368
 20
11786.69019621382
 10
32179.68352473368
 20
11783.69019621382
 10
32149.68352473368
 20
11783.69019621382
 10
32149.68352473368
 20
11786.69019621382
  0
LWPOLYLINE
  5
FBE46
330
FB763
100
AcDbEntity
  8
0
100
AcDbPolyline
 90
        5
 70
     0
 43
0.0
 10
32714.68352473368
 20
11786.69019621382
 10
32684.68352473368
 20
11786.69019621382
 10
32684.68352473368
 20
11783.69019621382
 10
32714.68352473368
 20
11783.69019621382
 10
32714.68352473368
 20
11786.69019621382
  0
LWPOLYLINE
  5
FBE47
330
FB763
100
AcDbEntity
  8
0
100
AcDbPolyline
 90
        2
 70
     0
 43
0.0
 10
31558.36305281554
 20
2068.393384610694
 10
38141.14275089284
 20
2068.393384610694
  0
LWPOLYLINE
  5
FBE48
330
FB763
100
AcDbEntity
  8
0
100
AcDbPolyline
 90
        2
 70
     0
 43
0.0
 10
31558.36305281554
 20
11783.69019621382
 10
38141.14275089284
 20
11783.69019621382
  0
TEXT
  5
FBE49
330
FB763
100
AcDbEntity
  8
0
100
AcDbText
 10
31396.21096024065
 20
14396.64632221169
 30
0.0
 40
100.0
  1
Single-span compositions /Composizioni a campata unica / Single-span-kompositionen
  7
STILE1
100
AcDbText
  0
LWPOLYLINE
  5
FBE4A
330
FB763
100
AcDbEntity
  8
0
100
AcDbPolyline
 90
        4
 70
     1
 43
0.0
 10
43866.07659848923
 20
12638.69019621382
 10
45366.07659848923
 20
12638.69019621382
 10
45366.07659848923
 20
12673.69019621382
 10
43866.07659848923
 20
12673.69019621382
  0
LWPOLYLINE
  5
FBE4B
330
FB763
100
AcDbEntity
  8
0
100
AcDbPolyline
 90
        4
 70
     1
 43
0.0
 10
43866.07659848923
 20
11818.69019621382
 10
45366.07659848923
 20
11818.69019621382
 10
45366.07659848923
 20
11853.69019621382
 10
43866.07659848923
 20
11853.69019621382
  0
LWPOLYLINE
  5
FBE4C
330
FB763
100
AcDbEntity
  8
0
100
AcDbPolyline
 90
        4
 70
     1
 43
0.0
 10
45401.07659848923
 20
12673.69019621382
 10
45366.07659848923
 20
12673.69019621382
 10
45366.07659848923
 20
11786.69019621382
 10
45401.07659848923
 20
11786.69019621382
  0
LWPOLYLINE
  5
FBE4D
330
FB763
100
AcDbEntity
  8
0
100
AcDbPolyline
 90
        4
 70
     1
 43
0.0
 10
43831.07659848923
 20
12673.69019621382
 10
43866.07659848923
 20
12673.69019621382
 10
43866.07659848923
 20
11786.69019621382
 10
43831.07659848923
 20
11786.69019621382
  0
LWPOLYLINE
  5
FBE4E
330
FB763
100
AcDbEntity
  8
0
100
AcDbPolyline
 90
        5
 70
     0
 43
0.0
 10
43833.57659848923
 20
11786.69019621382
 10
43863.57659848923
 20
11786.69019621382
 10
43863.57659848923
 20
11783.69019621382
 10
43833.57659848923
 20
11783.69019621382
 10
43833.57659848923
 20
11786.69019621382
  0
LWPOLYLINE
  5
FBE4F
330
FB763
100
AcDbEntity
  8
0
100
AcDbPolyline
 90
        5
 70
     0
 43
0.0
 10
45398.57659848923
 20
11786.69019621382
 10
45368.57659848923
 20
11786.69019621382
 10
45368.57659848923
 20
11783.69019621382
 10
45398.57659848923
 20
11783.69019621382
 10
45398.57659848923
 20
11786.69019621382
  0
LWPOLYLINE
  5
FBE50
330
FB763
100
AcDbEntity
  8
0
100
AcDbPolyline
 90
        2
 70
     0
 43
0.0
 10
45401.07659848923
 20
12673.69019621382
 10
45401.07659848923
 20
11786.69019621382
  0
LWPOLYLINE
  5
FBE51
330
FB763
100
AcDbEntity
  8
0
100
AcDbPolyline
 90
        5
 70
     0
 43
0.0
 10
45366.07659848923
 20
12263.69019621383
 10
43866.07659848923
 20
12263.69019621383
 10
43866.07659848923
 20
12228.69019621382
 10
45366.07659848923
 20
12228.69019621382
 10
45366.07659848923
 20
12263.69019621383
  0
LWPOLYLINE
  5
FBE52
330
FB763
100
AcDbEntity
  8
0
100
AcDbPolyline
 90
        4
 70
     1
 43
0.0
 10
41796.07659848923
 20
12638.69019621382
 10
42796.07659848923
 20
12638.69019621382
 10
42796.07659848923
 20
12673.69019621382
 10
41796.07659848923
 20
12673.69019621382
  0
LWPOLYLINE
  5
FBE53
330
FB763
100
AcDbEntity
  8
0
100
AcDbPolyline
 90
        4
 70
     1
 43
0.0
 10
41796.07659848923
 20
11818.69019621382
 10
42796.07659848923
 20
11818.69019621382
 10
42796.07659848923
 20
11853.69019621382
 10
41796.07659848923
 20
11853.69019621382
  0
LWPOLYLINE
  5
FBE54
330
FB763
100
AcDbEntity
  8
0
100
AcDbPolyline
 90
        4
 70
     1
 43
0.0
 10
42831.07659848923
 20
12673.69019621382
 10
42796.07659848923
 20
12673.69019621382
 10
42796.07659848923
 20
11786.69019621382
 10
42831.07659848923
 20
11786.69019621382
  0
LWPOLYLINE
  5
FBE55
330
FB763
100
AcDbEntity
  8
0
100
AcDbPolyline
 90
        4
 70
     1
 43
0.0
 10
41761.07659848923
 20
12673.69019621382
 10
41796.07659848923
 20
12673.69019621382
 10
41796.07659848923
 20
11786.69019621382
 10
41761.07659848923
 20
11786.69019621382
  0
LWPOLYLINE
  5
FBE56
330
FB763
100
AcDbEntity
  8
0
100
AcDbPolyline
 90
        5
 70
     0
 43
0.0
 10
41763.57659848923
 20
11786.69019621382
 10
41793.57659848923
 20
11786.69019621382
 10
41793.57659848923
 20
11783.69019621382
 10
41763.57659848923
 20
11783.69019621382
 10
41763.57659848923
 20
11786.69019621382
  0
LWPOLYLINE
  5
FBE57
330
FB763
100
AcDbEntity
  8
0
100
AcDbPolyline
 90
        5
 70
     0
 43
0.0
 10
42828.57659848923
 20
11786.69019621382
 10
42798.57659848923
 20
11786.69019621382
 10
42798.57659848923
 20
11783.69019621382
 10
42828.57659848923
 20
11783.69019621382
 10
42828.57659848923
 20
11786.69019621382
  0
LWPOLYLINE
  5
FBE58
330
FB763
100
AcDbEntity
  8
0
100
AcDbPolyline
 90
        2
 70
     0
 43
0.0
 10
42831.07659848923
 20
12673.69019621382
 10
42831.07659848923
 20
11786.69019621382
  0
LWPOLYLINE
  5
FBE59
330
FB763
100
AcDbEntity
  8
0
100
AcDbPolyline
 90
        5
 70
     0
 43
0.0
 10
42796.07659848923
 20
12263.69019621383
 10
41796.07659848923
 20
12263.69019621383
 10
41796.07659848923
 20
12228.69019621382
 10
42796.07659848923
 20
12228.69019621382
 10
42796.07659848923
 20
12263.69019621383
  0
LWPOLYLINE
  5
FBE5A
330
FB763
100
AcDbEntity
  8
0
100
AcDbPolyline
 90
        5
 70
     0
 43
0.0
 10
40721.07659848923
 20
12263.69019621383
 10
40221.07659848923
 20
12263.69019621383
 10
40221.07659848923
 20
12228.69019621382
 10
40721.07659848923
 20
12228.69019621382
 10
40721.07659848923
 20
12263.69019621383
  0
LWPOLYLINE
  5
FBE5B
330
FB763
100
AcDbEntity
  8
0
100
AcDbPolyline
 90
        2
 70
     0
 43
0.0
 10
40756.07659848923
 20
12673.69019621382
 10
40756.07659848923
 20
11786.69019621382
  0
LWPOLYLINE
  5
FBE5C
330
FB763
100
AcDbEntity
  8
0
100
AcDbPolyline
 90
        5
 70
     0
 43
0.0
 10
40753.57659848923
 20
11786.69019621382
 10
40723.57659848923
 20
11786.69019621382
 10
40723.57659848923
 20
11783.69019621382
 10
40753.57659848923
 20
11783.69019621382
 10
40753.57659848923
 20
11786.69019621382
  0
LWPOLYLINE
  5
FBE5D
330
FB763
100
AcDbEntity
  8
0
100
AcDbPolyline
 90
        5
 70
     0
 43
0.0
 10
40188.57659848923
 20
11786.69019621382
 10
40218.57659848923
 20
11786.69019621382
 10
40218.57659848923
 20
11783.69019621382
 10
40188.57659848923
 20
11783.69019621382
 10
40188.57659848923
 20
11786.69019621382
  0
LWPOLYLINE
  5
FBE5E
330
FB763
100
AcDbEntity
  8
0
100
AcDbPolyline
 90
        4
 70
     1
 43
0.0
 10
40186.07659848923
 20
12673.69019621382
 10
40221.07659848923
 20
12673.69019621382
 10
40221.07659848923
 20
11786.69019621382
 10
40186.07659848923
 20
11786.69019621382
  0
LWPOLYLINE
  5
FBE5F
330
FB763
100
AcDbEntity
  8
0
100
AcDbPolyline
 90
        4
 70
     1
 43
0.0
 10
40756.07659848923
 20
12673.69019621382
 10
40721.07659848923
 20
12673.69019621382
 10
40721.07659848923
 20
11786.69019621382
 10
40756.07659848923
 20
11786.69019621382
  0
LWPOLYLINE
  5
FBE60
330
FB763
100
AcDbEntity
  8
0
100
AcDbPolyline
 90
        4
 70
     1
 43
0.0
 10
40221.07659848923
 20
11818.69019621382
 10
40721.07659848923
 20
11818.69019621382
 10
40721.07659848923
 20
11853.69019621382
 10
40221.07659848923
 20
11853.69019621382
  0
LWPOLYLINE
  5
FBE61
330
FB763
100
AcDbEntity
  8
0
100
AcDbPolyline
 90
        4
 70
     1
 43
0.0
 10
40221.07659848923
 20
12638.69019621382
 10
40721.07659848923
 20
12638.69019621382
 10
40721.07659848923
 20
12673.69019621382
 10
40221.07659848923
 20
12673.69019621382
  0
LWPOLYLINE
  5
FBE62
330
FB763
100
AcDbEntity
  8
0
100
AcDbPolyline
 90
        5
 70
     0
 43
0.0
 10
40721.07659848923
 20
7921.448107489012
 10
40221.07659848923
 20
7921.448107489012
 10
40221.07659848923
 20
7886.448107489005
 10
40721.07659848923
 20
7886.448107489005
 10
40721.07659848923
 20
7921.448107489012
  0
LWPOLYLINE
  5
FBE63
330
FB763
100
AcDbEntity
  8
0
100
AcDbPolyline
 90
        2
 70
     0
 43
0.0
 10
40756.07659848923
 20
9151.448107489005
 10
40756.07659848923
 20
7444.448107489005
  0
LWPOLYLINE
  5
FBE64
330
FB763
100
AcDbEntity
  8
0
100
AcDbPolyline
 90
        5
 70
     0
 43
0.0
 10
40753.57659848923
 20
7444.448107489005
 10
40723.57659848923
 20
7444.448107489005
 10
40723.57659848923
 20
7441.448107489005
 10
40753.57659848923
 20
7441.448107489005
 10
40753.57659848923
 20
7444.448107489005
  0
LWPOLYLINE
  5
FBE65
330
FB763
100
AcDbEntity
  8
0
100
AcDbPolyline
 90
        5
 70
     0
 43
0.0
 10
40188.57659848923
 20
7444.448107489005
 10
40218.57659848923
 20
7444.448107489005
 10
40218.57659848923
 20
7441.448107489005
 10
40188.57659848923
 20
7441.448107489005
 10
40188.57659848923
 20
7444.448107489005
  0
LWPOLYLINE
  5
FBE66
330
FB763
100
AcDbEntity
  8
0
100
AcDbPolyline
 90
        4
 70
     1
 43
0.0
 10
40186.07659848923
 20
9151.448107489005
 10
40221.07659848923
 20
9151.448107489005
 10
40221.07659848923
 20
7444.448107489005
 10
40186.07659848923
 20
7444.448107489005
  0
LWPOLYLINE
  5
FBE67
330
FB763
100
AcDbEntity
  8
0
100
AcDbPolyline
 90
        4
 70
     1
 43
0.0
 10
40756.07659848923
 20
9151.448107489005
 10
40721.07659848923
 20
9151.448107489005
 10
40721.07659848923
 20
7444.448107489005
 10
40756.07659848923
 20
7444.448107489005
  0
LWPOLYLINE
  5
FBE68
330
FB763
100
AcDbEntity
  8
0
100
AcDbPolyline
 90
        4
 70
     1
 43
0.0
 10
40221.07659848923
 20
7476.448107489005
 10
40721.07659848923
 20
7476.448107489005
 10
40721.07659848923
 20
7511.448107489005
 10
40221.07659848923
 20
7511.448107489005
  0
LWPOLYLINE
  5
FBE69
330
FB763
100
AcDbEntity
  8
0
100
AcDbPolyline
 90
        4
 70
     1
 43
0.0
 10
40221.07659848923
 20
9116.448107489005
 10
40721.07659848923
 20
9116.448107489005
 10
40721.07659848923
 20
9151.448107489005
 10
40221.07659848923
 20
9151.448107489005
  0
LWPOLYLINE
  5
FBE6A
330
FB763
100
AcDbEntity
  8
0
100
AcDbPolyline
 90
        4
 70
     1
 43
0.0
 10
40221.07659848923
 20
8296.448107489005
 10
40721.07659848923
 20
8296.448107489005
 10
40721.07659848923
 20
8331.448107489005
 10
40221.07659848923
 20
8331.448107489005
  0
LWPOLYLINE
  5
FBE6B
330
FB763
100
AcDbEntity
  8
0
100
AcDbPolyline
 90
        4
 70
     1
 43
0.0
 10
41796.07659848923
 20
8296.448107488997
 10
42796.07659848923
 20
8296.448107488997
 10
42796.07659848923
 20
8331.448107488997
 10
41796.07659848923
 20
8331.448107488997
  0
LWPOLYLINE
  5
FBE6C
330
FB763
100
AcDbEntity
  8
0
100
AcDbPolyline
 90
        4
 70
     1
 43
0.0
 10
41796.07659848923
 20
9116.448107489005
 10
42796.07659848923
 20
9116.448107489005
 10
42796.07659848923
 20
9151.448107489005
 10
41796.07659848923
 20
9151.448107489005
  0
LWPOLYLINE
  5
FBE6D
330
FB763
100
AcDbEntity
  8
0
100
AcDbPolyline
 90
        4
 70
     1
 43
0.0
 10
41796.07659848923
 20
7476.448107489005
 10
42796.07659848923
 20
7476.448107489005
 10
42796.07659848923
 20
7511.448107488997
 10
41796.07659848923
 20
7511.448107488997
  0
LWPOLYLINE
  5
FBE6E
330
FB763
100
AcDbEntity
  8
0
100
AcDbPolyline
 90
        4
 70
     1
 43
0.0
 10
42831.07659848923
 20
9151.448107489005
 10
42796.07659848923
 20
9151.448107489005
 10
42796.07659848923
 20
7444.448107489005
 10
42831.07659848923
 20
7444.448107489005
  0
LWPOLYLINE
  5
FBE6F
330
FB763
100
AcDbEntity
  8
0
100
AcDbPolyline
 90
        4
 70
     1
 43
0.0
 10
41761.07659848923
 20
9151.448107489005
 10
41796.07659848923
 20
9151.448107489005
 10
41796.07659848923
 20
7444.448107489005
 10
41761.07659848923
 20
7444.448107489005
  0
LWPOLYLINE
  5
FBE70
330
FB763
100
AcDbEntity
  8
0
100
AcDbPolyline
 90
        5
 70
     0
 43
0.0
 10
41763.57659848923
 20
7444.448107489005
 10
41793.57659848923
 20
7444.448107489005
 10
41793.57659848923
 20
7441.448107489005
 10
41763.57659848923
 20
7441.448107489005
 10
41763.57659848923
 20
7444.448107489005
  0
LWPOLYLINE
  5
FBE71
330
FB763
100
AcDbEntity
  8
0
100
AcDbPolyline
 90
        5
 70
     0
 43
0.0
 10
42828.57659848923
 20
7444.448107489005
 10
42798.57659848923
 20
7444.448107489005
 10
42798.57659848923
 20
7441.448107489005
 10
42828.57659848923
 20
7441.448107489005
 10
42828.57659848923
 20
7444.448107489005
  0
LWPOLYLINE
  5
FBE72
330
FB763
100
AcDbEntity
  8
0
100
AcDbPolyline
 90
        2
 70
     0
 43
0.0
 10
42831.07659848923
 20
9151.448107489005
 10
42831.07659848923
 20
7444.448107489005
  0
LWPOLYLINE
  5
FBE73
330
FB763
100
AcDbEntity
  8
0
100
AcDbPolyline
 90
        5
 70
     0
 43
0.0
 10
42796.07659848923
 20
7921.448107489012
 10
41796.07659848923
 20
7921.448107489012
 10
41796.07659848923
 20
7886.448107488997
 10
42796.07659848923
 20
7886.448107488997
 10
42796.07659848923
 20
7921.448107489012
  0
LWPOLYLINE
  5
FBE74
330
FB763
100
AcDbEntity
  8
0
100
AcDbPolyline
 90
        4
 70
     1
 43
0.0
 10
43866.07659848923
 20
8296.448107488997
 10
45366.07659848923
 20
8296.448107488997
 10
45366.07659848923
 20
8331.448107488997
 10
43866.07659848923
 20
8331.448107488997
  0
LWPOLYLINE
  5
FBE75
330
FB763
100
AcDbEntity
  8
0
100
AcDbPolyline
 90
        4
 70
     1
 43
0.0
 10
43866.07659848923
 20
9116.448107489005
 10
45366.07659848923
 20
9116.448107489005
 10
45366.07659848923
 20
9151.448107489005
 10
43866.07659848923
 20
9151.448107489005
  0
LWPOLYLINE
  5
FBE76
330
FB763
100
AcDbEntity
  8
0
100
AcDbPolyline
 90
        4
 70
     1
 43
0.0
 10
43866.07659848923
 20
7476.448107489005
 10
45366.07659848923
 20
7476.448107489005
 10
45366.07659848923
 20
7511.448107488997
 10
43866.07659848923
 20
7511.448107488997
  0
LWPOLYLINE
  5
FBE77
330
FB763
100
AcDbEntity
  8
0
100
AcDbPolyline
 90
        4
 70
     1
 43
0.0
 10
45401.07659848923
 20
9151.448107489005
 10
45366.07659848923
 20
9151.448107489005
 10
45366.07659848923
 20
7444.448107489005
 10
45401.07659848923
 20
7444.448107489005
  0
LWPOLYLINE
  5
FBE78
330
FB763
100
AcDbEntity
  8
0
100
AcDbPolyline
 90
        4
 70
     1
 43
0.0
 10
43831.07659848923
 20
9151.448107489005
 10
43866.07659848923
 20
9151.448107489005
 10
43866.07659848923
 20
7444.448107489005
 10
43831.07659848923
 20
7444.448107489005
  0
LWPOLYLINE
  5
FBE79
330
FB763
100
AcDbEntity
  8
0
100
AcDbPolyline
 90
        5
 70
     0
 43
0.0
 10
43833.57659848923
 20
7444.448107489005
 10
43863.57659848923
 20
7444.448107489005
 10
43863.57659848923
 20
7441.448107489005
 10
43833.57659848923
 20
7441.448107489005
 10
43833.57659848923
 20
7444.448107489005
  0
LWPOLYLINE
  5
FBE7A
330
FB763
100
AcDbEntity
  8
0
100
AcDbPolyline
 90
        5
 70
     0
 43
0.0
 10
45398.57659848923
 20
7444.448107489005
 10
45368.57659848923
 20
7444.448107489005
 10
45368.57659848923
 20
7441.448107489005
 10
45398.57659848923
 20
7441.448107489005
 10
45398.57659848923
 20
7444.448107489005
  0
LWPOLYLINE
  5
FBE7B
330
FB763
100
AcDbEntity
  8
0
100
AcDbPolyline
 90
        2
 70
     0
 43
0.0
 10
45401.07659848923
 20
9151.448107489005
 10
45401.07659848923
 20
7444.448107489005
  0
LWPOLYLINE
  5
FBE7C
330
FB763
100
AcDbEntity
  8
0
100
AcDbPolyline
 90
        5
 70
     0
 43
0.0
 10
45366.07659848923
 20
7921.448107489012
 10
43866.07659848923
 20
7921.448107489012
 10
43866.07659848923
 20
7886.448107488997
 10
45366.07659848923
 20
7886.448107488997
 10
45366.07659848923
 20
7921.448107489012
  0
LWPOLYLINE
  5
FBE7D
330
FB763
100
AcDbEntity
  8
0
100
AcDbPolyline
 90
        4
 70
     1
 43
0.0
 10
43866.07659848923
 20
8706.44810748899
 10
45366.07659848923
 20
8706.44810748899
 10
45366.07659848923
 20
8741.44810748899
 10
43866.07659848923
 20
8741.44810748899
  0
LWPOLYLINE
  5
FBE7E
330
FB763
100
AcDbEntity
  8
0
100
AcDbPolyline
 90
        4
 70
     1
 43
0.0
 10
41796.07659848923
 20
8706.44810748899
 10
42796.07659848923
 20
8706.44810748899
 10
42796.07659848923
 20
8741.44810748899
 10
41796.07659848923
 20
8741.44810748899
  0
LWPOLYLINE
  5
FBE7F
330
FB763
100
AcDbEntity
  8
0
100
AcDbPolyline
 90
        4
 70
     1
 43
0.0
 10
40221.07659848923
 20
8706.448107488997
 10
40721.07659848923
 20
8706.448107488997
 10
40721.07659848923
 20
8741.448107488997
 10
40221.07659848923
 20
8741.448107488997
  0
LWPOLYLINE
  5
FBE80
330
FB763
100
AcDbEntity
  8
0
100
AcDbPolyline
 90
        4
 70
     1
 43
0.0
 10
43866.07659848923
 20
3333.393384610694
 10
45366.07659848923
 20
3333.393384610694
 10
45366.07659848923
 20
3368.393384610694
 10
43866.07659848923
 20
3368.393384610694
  0
LWPOLYLINE
  5
FBE81
330
FB763
100
AcDbEntity
  8
0
100
AcDbPolyline
 90
        5
 70
     0
 43
0.0
 10
45366.07659848923
 20
3778.393384610701
 10
43866.07659848923
 20
3778.393384610701
 10
43866.07659848923
 20
3743.393384610694
 10
45366.07659848923
 20
3743.393384610694
 10
45366.07659848923
 20
3778.393384610701
  0
LWPOLYLINE
  5
FBE82
330
FB763
100
AcDbEntity
  8
0
100
AcDbPolyline
 90
        5
 70
     0
 43
0.0
 10
45366.07659848923
 20
2548.393384610701
 10
43866.07659848923
 20
2548.393384610701
 10
43866.07659848923
 20
2513.393384610694
 10
45366.07659848923
 20
2513.393384610694
 10
45366.07659848923
 20
2548.393384610701
  0
LWPOLYLINE
  5
FBE83
330
FB763
100
AcDbEntity
  8
0
100
AcDbPolyline
 90
        2
 70
     0
 43
0.0
 10
45401.07659848923
 20
4598.393384610694
 10
45401.07659848923
 20
2071.393384610694
  0
LWPOLYLINE
  5
FBE84
330
FB763
100
AcDbEntity
  8
0
100
AcDbPolyline
 90
        5
 70
     0
 43
0.0
 10
45398.57659848923
 20
2071.393384610694
 10
45368.57659848923
 20
2071.393384610694
 10
45368.57659848923
 20
2068.393384610694
 10
45398.57659848923
 20
2068.393384610694
 10
45398.57659848923
 20
2071.393384610694
  0
LWPOLYLINE
  5
FBE85
330
FB763
100
AcDbEntity
  8
0
100
AcDbPolyline
 90
        5
 70
     0
 43
0.0
 10
43833.57659848923
 20
2071.393384610694
 10
43863.57659848923
 20
2071.393384610694
 10
43863.57659848923
 20
2068.393384610694
 10
43833.57659848923
 20
2068.393384610694
 10
43833.57659848923
 20
2071.393384610694
  0
LWPOLYLINE
  5
FBE86
330
FB763
100
AcDbEntity
  8
0
100
AcDbPolyline
 90
        4
 70
     1
 43
0.0
 10
43831.07659848923
 20
4598.393384610694
 10
43866.07659848923
 20
4598.393384610694
 10
43866.07659848923
 20
2071.393384610694
 10
43831.07659848923
 20
2071.393384610694
  0
LWPOLYLINE
  5
FBE87
330
FB763
100
AcDbEntity
  8
0
100
AcDbPolyline
 90
        4
 70
     1
 43
0.0
 10
45401.07659848923
 20
4598.393384610694
 10
45366.07659848923
 20
4598.393384610694
 10
45366.07659848923
 20
2071.393384610694
 10
45401.07659848923
 20
2071.393384610694
  0
LWPOLYLINE
  5
FBE88
330
FB763
100
AcDbEntity
  8
0
100
AcDbPolyline
 90
        4
 70
     1
 43
0.0
 10
43866.07659848923
 20
2103.393384610694
 10
45366.07659848923
 20
2103.393384610694
 10
45366.07659848923
 20
2138.393384610694
 10
43866.07659848923
 20
2138.393384610694
  0
LWPOLYLINE
  5
FBE89
330
FB763
100
AcDbEntity
  8
0
100
AcDbPolyline
 90
        4
 70
     1
 43
0.0
 10
43866.07659848923
 20
4563.393384610694
 10
45366.07659848923
 20
4563.393384610694
 10
45366.07659848923
 20
4598.393384610694
 10
43866.07659848923
 20
4598.393384610694
  0
LWPOLYLINE
  5
FBE8A
330
FB763
100
AcDbEntity
  8
0
100
AcDbPolyline
 90
        4
 70
     1
 43
0.0
 10
43866.07659848923
 20
2923.393384610694
 10
45366.07659848923
 20
2923.393384610694
 10
45366.07659848923
 20
2958.393384610694
 10
43866.07659848923
 20
2958.393384610694
  0
LWPOLYLINE
  5
FBE8B
330
FB763
100
AcDbEntity
  8
0
100
AcDbPolyline
 90
        4
 70
     1
 43
0.0
 10
43866.07659848923
 20
4153.393384610694
 10
45366.07659848923
 20
4153.393384610694
 10
45366.07659848923
 20
4188.393384610694
 10
43866.07659848923
 20
4188.393384610694
  0
LWPOLYLINE
  5
FBE8C
330
FB763
100
AcDbEntity
  8
0
100
AcDbPolyline
 90
        4
 70
     1
 43
0.0
 10
41796.07659848923
 20
3333.393384610694
 10
42796.07659848923
 20
3333.393384610694
 10
42796.07659848923
 20
3368.393384610694
 10
41796.07659848923
 20
3368.393384610694
  0
LWPOLYLINE
  5
FBE8D
330
FB763
100
AcDbEntity
  8
0
100
AcDbPolyline
 90
        5
 70
     0
 43
0.0
 10
42796.07659848923
 20
3778.393384610701
 10
41796.07659848923
 20
3778.393384610701
 10
41796.07659848923
 20
3743.393384610694
 10
42796.07659848923
 20
3743.393384610694
 10
42796.07659848923
 20
3778.393384610701
  0
LWPOLYLINE
  5
FBE8E
330
FB763
100
AcDbEntity
  8
0
100
AcDbPolyline
 90
        5
 70
     0
 43
0.0
 10
42796.07659848923
 20
2548.393384610701
 10
41796.07659848923
 20
2548.393384610701
 10
41796.07659848923
 20
2513.393384610694
 10
42796.07659848923
 20
2513.393384610694
 10
42796.07659848923
 20
2548.393384610701
  0
LWPOLYLINE
  5
FBE8F
330
FB763
100
AcDbEntity
  8
0
100
AcDbPolyline
 90
        2
 70
     0
 43
0.0
 10
42831.07659848923
 20
4598.393384610694
 10
42831.07659848923
 20
2071.393384610694
  0
LWPOLYLINE
  5
FBE90
330
FB763
100
AcDbEntity
  8
0
100
AcDbPolyline
 90
        5
 70
     0
 43
0.0
 10
42828.57659848923
 20
2071.393384610694
 10
42798.57659848923
 20
2071.393384610694
 10
42798.57659848923
 20
2068.393384610694
 10
42828.57659848923
 20
2068.393384610694
 10
42828.57659848923
 20
2071.393384610694
  0
LWPOLYLINE
  5
FBE91
330
FB763
100
AcDbEntity
  8
0
100
AcDbPolyline
 90
        5
 70
     0
 43
0.0
 10
41763.57659848923
 20
2071.393384610694
 10
41793.57659848923
 20
2071.393384610694
 10
41793.57659848923
 20
2068.393384610694
 10
41763.57659848923
 20
2068.393384610694
 10
41763.57659848923
 20
2071.393384610694
  0
LWPOLYLINE
  5
FBE92
330
FB763
100
AcDbEntity
  8
0
100
AcDbPolyline
 90
        4
 70
     1
 43
0.0
 10
41761.07659848923
 20
4598.393384610694
 10
41796.07659848923
 20
4598.393384610694
 10
41796.07659848923
 20
2071.393384610694
 10
41761.07659848923
 20
2071.393384610694
  0
LWPOLYLINE
  5
FBE93
330
FB763
100
AcDbEntity
  8
0
100
AcDbPolyline
 90
        4
 70
     1
 43
0.0
 10
42831.07659848923
 20
4598.393384610694
 10
42796.07659848923
 20
4598.393384610694
 10
42796.07659848923
 20
2071.393384610694
 10
42831.07659848923
 20
2071.393384610694
  0
LWPOLYLINE
  5
FBE94
330
FB763
100
AcDbEntity
  8
0
100
AcDbPolyline
 90
        4
 70
     1
 43
0.0
 10
41796.07659848923
 20
2103.393384610694
 10
42796.07659848923
 20
2103.393384610694
 10
42796.07659848923
 20
2138.393384610694
 10
41796.07659848923
 20
2138.393384610694
  0
LWPOLYLINE
  5
FBE95
330
FB763
100
AcDbEntity
  8
0
100
AcDbPolyline
 90
        4
 70
     1
 43
0.0
 10
41796.07659848923
 20
4563.393384610694
 10
42796.07659848923
 20
4563.393384610694
 10
42796.07659848923
 20
4598.393384610694
 10
41796.07659848923
 20
4598.393384610694
  0
LWPOLYLINE
  5
FBE96
330
FB763
100
AcDbEntity
  8
0
100
AcDbPolyline
 90
        4
 70
     1
 43
0.0
 10
41796.07659848923
 20
2923.393384610694
 10
42796.07659848923
 20
2923.393384610694
 10
42796.07659848923
 20
2958.393384610694
 10
41796.07659848923
 20
2958.393384610694
  0
LWPOLYLINE
  5
FBE97
330
FB763
100
AcDbEntity
  8
0
100
AcDbPolyline
 90
        4
 70
     1
 43
0.0
 10
41796.07659848923
 20
4153.393384610694
 10
42796.07659848923
 20
4153.393384610694
 10
42796.07659848923
 20
4188.393384610694
 10
41796.07659848923
 20
4188.393384610694
  0
LWPOLYLINE
  5
FBE98
330
FB763
100
AcDbEntity
  8
0
100
AcDbPolyline
 90
        4
 70
     1
 43
0.0
 10
40221.07659848921
 20
4153.393384610694
 10
40721.07659848923
 20
4153.393384610694
 10
40721.07659848923
 20
4188.393384610694
 10
40221.07659848921
 20
4188.393384610694
  0
LWPOLYLINE
  5
FBE99
330
FB763
100
AcDbEntity
  8
0
100
AcDbPolyline
 90
        4
 70
     1
 43
0.0
 10
40221.07659848921
 20
2923.393384610694
 10
40721.07659848923
 20
2923.393384610694
 10
40721.07659848923
 20
2958.393384610694
 10
40221.07659848921
 20
2958.393384610694
  0
LWPOLYLINE
  5
FBE9A
330
FB763
100
AcDbEntity
  8
0
100
AcDbPolyline
 90
        4
 70
     1
 43
0.0
 10
40221.07659848921
 20
4563.393384610694
 10
40721.07659848923
 20
4563.393384610694
 10
40721.07659848923
 20
4598.393384610694
 10
40221.07659848921
 20
4598.393384610694
  0
LWPOLYLINE
  5
FBE9B
330
FB763
100
AcDbEntity
  8
0
100
AcDbPolyline
 90
        4
 70
     1
 43
0.0
 10
40221.07659848921
 20
2103.393384610694
 10
40721.07659848923
 20
2103.393384610694
 10
40721.07659848923
 20
2138.393384610694
 10
40221.07659848921
 20
2138.393384610694
  0
LWPOLYLINE
  5
FBE9C
330
FB763
100
AcDbEntity
  8
0
100
AcDbPolyline
 90
        4
 70
     1
 43
0.0
 10
40756.07659848923
 20
4598.393384610694
 10
40721.07659848923
 20
4598.393384610694
 10
40721.07659848923
 20
2071.393384610694
 10
40756.07659848923
 20
2071.393384610694
  0
LWPOLYLINE
  5
FBE9D
330
FB763
100
AcDbEntity
  8
0
100
AcDbPolyline
 90
        4
 70
     1
 43
0.0
 10
40186.07659848923
 20
4598.393384610694
 10
40221.07659848921
 20
4598.393384610694
 10
40221.07659848921
 20
2071.393384610694
 10
40186.07659848923
 20
2071.393384610694
  0
LWPOLYLINE
  5
FBE9E
330
FB763
100
AcDbEntity
  8
0
100
AcDbPolyline
 90
        5
 70
     0
 43
0.0
 10
40188.57659848923
 20
2071.393384610694
 10
40218.57659848923
 20
2071.393384610694
 10
40218.57659848923
 20
2068.393384610694
 10
40188.57659848923
 20
2068.393384610694
 10
40188.57659848923
 20
2071.393384610694
  0
LWPOLYLINE
  5
FBE9F
330
FB763
100
AcDbEntity
  8
0
100
AcDbPolyline
 90
        5
 70
     0
 43
0.0
 10
40753.57659848923
 20
2071.393384610694
 10
40723.57659848923
 20
2071.393384610694
 10
40723.57659848923
 20
2068.393384610694
 10
40753.57659848923
 20
2068.393384610694
 10
40753.57659848923
 20
2071.393384610694
  0
LWPOLYLINE
  5
FBEA0
330
FB763
100
AcDbEntity
  8
0
100
AcDbPolyline
 90
        2
 70
     0
 43
0.0
 10
40756.07659848923
 20
4598.393384610694
 10
40756.07659848923
 20
2071.393384610694
  0
LWPOLYLINE
  5
FBEA1
330
FB763
100
AcDbEntity
  8
0
100
AcDbPolyline
 90
        5
 70
     0
 43
0.0
 10
40721.07659848923
 20
2548.393384610708
 10
40221.07659848921
 20
2548.393384610708
 10
40221.07659848921
 20
2513.393384610694
 10
40721.07659848923
 20
2513.393384610694
 10
40721.07659848923
 20
2548.393384610708
  0
LWPOLYLINE
  5
FBEA2
330
FB763
100
AcDbEntity
  8
0
100
AcDbPolyline
 90
        5
 70
     0
 43
0.0
 10
40721.07659848923
 20
3778.393384610708
 10
40221.07659848921
 20
3778.393384610708
 10
40221.07659848921
 20
3743.393384610694
 10
40721.07659848923
 20
3743.393384610694
 10
40721.07659848923
 20
3778.393384610708
  0
LWPOLYLINE
  5
FBEA3
330
FB763
100
AcDbEntity
  8
0
100
AcDbPolyline
 90
        4
 70
     1
 43
0.0
 10
40221.07659848921
 20
3333.393384610694
 10
40721.07659848923
 20
3333.393384610694
 10
40721.07659848923
 20
3368.393384610694
 10
40221.07659848921
 20
3368.393384610694
  0
LWPOLYLINE
  5
FBEA4
330
FB763
100
AcDbEntity
  8
0
100
AcDbPolyline
 90
        4
 70
     1
 43
0.0
 10
21795.38428084032
 20
9098.14445531709
 10
29820.75622907878
 20
9098.14445531709
 10
29820.75622907878
 20
14792.18109737554
 10
21795.38428084032
 20
14792.18109737553
  0
TEXT
  5
FBEA5
330
FB763
100
AcDbEntity
  8
0
100
AcDbText
 10
18379.3904589584
 20
9802.089782487381
 30
0.0
 40
100.0
  1
L 150
  7
STILE1
100
AcDbText
  0
LWPOLYLINE
  5
FBEA6
330
FB763
100
AcDbEntity
  8
0
100
AcDbPolyline
 90
        4
 70
     1
 43
0.0
 10
17869.53186069668
 20
10658.95708803507
 10
19369.53186069668
 20
10658.95708803507
 10
19369.53186069668
 20
10283.95708803507
 10
17869.53186069668
 20
10283.95708803507
  0
LWPOLYLINE
  5
FBEA7
330
FB763
100
AcDbEntity
  8
0
100
AcDbPolyline
 90
        4
 70
     1
 43
0.0
 10
16239.53186069668
 20
10658.95708803507
 10
17239.53186069668
 20
10658.95708803507
 10
17239.53186069668
 20
10283.95708803507
 10
16239.53186069668
 20
10283.95708803507
  0
LWPOLYLINE
  5
FBEA8
330
FB763
100
AcDbEntity
  8
0
100
AcDbPolyline
 90
        4
 70
     1
 43
0.0
 10
15059.53186069668
 20
10658.95708803507
 10
15059.53186069668
 20
10283.95708803507
 10
15559.53186069668
 20
10283.95708803507
 10
15559.53186069668
 20
10658.95708803507
  0
TEXT
  5
FBEA9
330
FB763
100
AcDbEntity
  8
0
100
AcDbText
 10
16499.3904589584
 20
9802.089782487381
 30
0.0
 40
100.0
  1
L 100
  7
STILE1
100
AcDbText
  0
TEXT
  5
FBEAA
330
FB763
100
AcDbEntity
  8
0
100
AcDbText
 10
14116.04075895826
 20
10419.17644425061
 30
0.0
 40
100.0
  1
P 37,5
  7
STILE1
100
AcDbText
  0
TEXT
  5
FBEAB
330
FB763
100
AcDbEntity
  8
0
100
AcDbText
 10
15069.3904589584
 20
9802.089782487381
 30
0.0
 40
100.0
  1
L 50
  7
STILE1
100
AcDbText
  0
TEXT
  5
FBEAC
330
FB763
100
AcDbEntity
  8
0
100
AcDbText
 10
14116.04075895826
 20
11212.95584368342
 30
0.0
 40
100.0
  1
Filled back panels / Schiene tamponate / Bündige Rückwände
  7
STILE1
100
AcDbText
  0
TEXT
  5
FBEAD
330
FB763
100
AcDbEntity
  8
0
100
AcDbText
 10
20026.89045895837
 20
9802.089782487381
 30
0.0
 40
100.0
  1
H 35 
  7
STILE1
100
AcDbText
  0
LWPOLYLINE
  5
FBEAE
330
FB763
100
AcDbEntity
  8
0
100
AcDbPolyline
 90
        4
 70
     1
 43
0.0
 10
20268.53186069668
 20
10658.95708803508
 10
20268.53186069668
 20
10283.95708803508
 10
20284.53186069668
 20
10283.95708803507
 10
20284.53186069668
 20
10658.95708803507
  0
LWPOLYLINE
  5
FBEAF
330
FB763
100
AcDbEntity
  8
0
100
AcDbPolyline
 90
        4
 70
     1
 43
0.0
 10
20249.53186069668
 20
10658.95708803508
 10
20249.53186069668
 20
10283.95708803508
 10
20265.53186069668
 20
10283.95708803507
 10
20265.53186069668
 20
10658.95708803507
  0
LINE
  5
FBEB0
330
FB763
100
AcDbEntity
  8
0
100
AcDbLine
 10
20268.53186069668
 20
10658.95708803508
 30
0.0
 11
20265.53186069668
 21
10658.95708803507
 31
0.0
  0
LINE
  5
FBEB1
330
FB763
100
AcDbEntity
  8
0
100
AcDbLine
 10
20265.53186069668
 20
10658.95708803507
 30
0.0
 11
20265.53186069668
 21
10283.95708803508
 31
0.0
  0
LINE
  5
FBEB2
330
FB763
100
AcDbEntity
  8
0
100
AcDbLine
 10
20268.53186069668
 20
10283.95708803508
 30
0.0
 11
20265.53186069668
 21
10283.95708803508
 31
0.0
  0
VIEWPORT
  5
DAB74
330
FB761
100
AcDbEntity
 67
     1
  8
0
100
AcDbViewport
 10
0.0
 20
0.0
 30
0.0
 40
10.87270777479893
 41
8.16
 68
     1
 69
     1
 12
6.065999999999998
 22
3.851238605898123
 13
0.0
 23
0.0
 14
0.5
 24
0.5
 15
0.0
 25
0.0
 16
0.0
 26
0.0
 36
1.0
 17
0.0
 27
0.0
 37
0.0
 42
50.0
 43
0.0
 44
0.0
 45
8.16
 50
0.0
 51
0.0
 72
   100
 90
   557296
  1

281
     0
 71
     0
 74
     0
110
0.0
120
0.0
130
0.0
111
1.0
121
0.0
131
0.0
112
0.0
122
1.0
132
0.0
 79
     0
146
0.0
170
     0
 61
     5
348
FB7C8
292
     1
282
     1
141
0.0
142
0.0
 63
   256
  0
VIEWPORT
  5
DAB75
330
FB761
100
AcDbEntity
 67
     1
  8
0
100
AcDbViewport
 10
5.25
 20
4.0
 30
0.0
 40
8.4
 41
6.4
 68
     2
 69
     2
 12
-238.8342129778575
 22
5240.682605436173
 13
0.0
 23
0.0
 14
0.5
 24
0.5
 15
0.0
 25
0.0
 16
0.0
 26
0.0
 36
1.0
 17
0.0
 27
0.0
 37
0.0
 42
50.0
 43
0.0
 44
0.0
 45
12730.99251508979
 50
0.0
 51
0.0
 72
   100
 90
   557280
  1

281
     0
 71
     0
 74
     0
110
0.0
120
0.0
130
0.0
111
1.0
121
0.0
131
0.0
112
0.0
122
1.0
132
0.0
 79
     0
146
0.0
170
     0
 61
     5
348
FB7C8
292
     1
282
     1
141
0.0
142
0.0
 63
   256
  0
ENDSEC
  0
SECTION
  2
OBJECTS
  0
DICTIONARY
  5
FB753
330
0
100
AcDbDictionary
281
     1
  3
ACAD_COLOR
350
FB895
  3
ACAD_DETAILVIEWSTYLE
350
FB832
  3
ACAD_GROUP
350
FB754
  3
ACAD_LAYOUT
350
FB760
  3
ACAD_MATERIAL
350
FB769
  3
ACAD_MLEADERSTYLE
350
FB7DE
  3
ACAD_MLINESTYLE
350
FB75D
  3
ACAD_PLOTSETTINGS
350
FB75F
  3
ACAD_PLOTSTYLENAME
350
FB755
  3
ACAD_SCALELIST
350
FB7A1
  3
ACAD_SECTIONVIEWSTYLE
350
FB833
  3
ACAD_TABLESTYLE
350
FB7DC
  3
ACAD_VISUALSTYLE
350
FB7C3
  3
ACDB_RECOMPOSE_DATA
350
FBEBA
  3
AcDbVariableDictionary
350
FB82D
  3
APPDATA
350
FB7E0
  3
PRINTCONFIG
350
FBAD3
  0
SUN
  5
FB836
330
FB766
100
AcDbSun
 90
        1
290
     0
 63
     7
421
 16777215
 40
1.0
291
     1
 91
  2455826
 92
 54000000
292
     0
 70
     2
 71
   256
280
     1
  0
DICTIONARY
  5
FB8FF
330
FB74A
100
AcDbDictionary
280
     1
281
     1
  3
ACAD_LAYERSTATES
360
FB900
  0
DICTIONARY
  5
FB834
330
FB763
100
AcDbDictionary
280
     1
281
     1
  3
ACAD_SORTENTS
360
FB839
  3
DIM_BOUNDING_BOXES_V1
360
FB835
  0
DICTIONARY
  5
FB895
102
{ACAD_REACTORS
330
FB753
102
}
330
FB753
100
AcDbDictionary
281
     1
  0
DICTIONARY
  5
FB832
102
{ACAD_REACTORS
330
FB753
102
}
330
FB753
100
AcDbDictionary
281
     1
  0
DICTIONARY
  5
FB754
102
{ACAD_REACTORS
330
FB753
102
}
330
FB753
100
AcDbDictionary
281
     1
  0
DICTIONARY
  5
FB760
102
{ACAD_REACTORS
330
FB753
102
}
330
FB753
100
AcDbDictionary
281
     1
  3
Foglio1
350
FB762
  3
Model
350
FB764
  0
DICTIONARY
  5
FB769
102
{ACAD_REACTORS
330
FB753
102
}
330
FB753
100
AcDbDictionary
281
     1
  3
ByBlock
350
FB76B
  3
ByLayer
350
FB76A
  3
Global
350
FB76C
  0
DICTIONARY
  5
FB7DE
102
{ACAD_REACTORS
330
FB753
102
}
330
FB753
100
AcDbDictionary
281
     1
  3
Standard
350
FB7DF
  0
DICTIONARY
  5
FB75D
102
{ACAD_REACTORS
330
FB753
102
}
330
FB753
100
AcDbDictionary
281
     1
  3
Standard
350
FB75E
  0
DICTIONARY
  5
FB75F
102
{ACAD_REACTORS
330
FB753
102
}
330
FB753
100
AcDbDictionary
281
     1
  0
ACDBDICTIONARYWDFLT
  5
FB755
102
{ACAD_REACTORS
330
FB753
102
}
330
FB753
100
AcDbDictionary
281
     1
  3
Normal
350
FB756
100
AcDbDictionaryWithDefault
340
FB756
  0
DICTIONARY
  5
FB7A1
102
{ACAD_REACTORS
330
FB753
102
}
330
FB753
100
AcDbDictionary
281
     1
  3
A0
350
FB7A2
  3
A1
350
FB7A3
  3
A2
350
FB7A4
  3
A3
350
FB7A5
  3
A4
350
FB7A6
  3
A5
350
FB7A7
  3
A6
350
FB7A8
  3
A7
350
FB7A9
  3
A8
350
FB7AA
  3
A9
350
FB7AB
  3
B0
350
FB7AC
  3
B1
350
FB7AD
  3
B2
350
FB7AE
  3
B3
350
FB7AF
  3
B4
350
FB7B0
  3
B5
350
FB7B1
  3
B6
350
FB7B2
  3
B7
350
FB7B3
  3
B8
350
FB7B4
  3
B9
350
FB7B5
  3
C0
350
FB7B6
  3
C1
350
FB7B7
  3
C2
350
FB7B8
  3
C3
350
FB7B9
  3
C4
350
FB7BA
  3
C5
350
FB7BB
  3
C6
350
FB7BC
  3
C7
350
FB7BD
  3
C8
350
FB7BE
  3
C9
350
FB7BF
  3
D0
350
FB7C0
  3
D1
350
FB7C1
  3
D2
350
FB7C2
  0
DICTIONARY
  5
FB833
102
{ACAD_REACTORS
330
FB753
102
}
330
FB753
100
AcDbDictionary
281
     1
  0
DICTIONARY
  5
FB7DC
102
{ACAD_REACTORS
330
FB753
102
}
330
FB753
100
AcDbDictionary
281
     1
  3
Standard
350
FB7DD
  0
DICTIONARY
  5
FB7C3
102
{ACAD_REACTORS
330
FB753
102
}
330
FB753
100
AcDbDictionary
281
     1
  3
2dWireframe
350
FB7C8
  3
Basic
350
FB7CB
  3
Brighten
350
FB7CF
  3
ColorChange
350
FB7D3
  3
Conceptual
350
FB7CD
  3
Dim
350
FB7CE
  3
EdgeColorOff
350
FB7D6
  3
Facepattern
350
FB7D2
  3
Flat
350
FB7C4
  3
FlatWithEdges
350
FB7C5
  3
Gouraud
350
FB7C6
  3
GouraudWithEdges
350
FB7C7
  3
Hidden
350
FB7CA
  3
JitterOff
350
FB7D4
  3
Linepattern
350
FB7D1
  3
OverhangOff
350
FB7D5
  3
Realistic
350
FB7CC
  3
Shaded
350
FB7DB
  3
Shaded with edges
350
FB7DA
  3
Shades of Gray
350
FB7D7
  3
Sketchy
350
FB7D8
  3
Thicken
350
FB7D0
  3
Wireframe
350
FB7C9
  3
X-Ray
350
FB7D9
  0
XRECORD
  5
FBEBA
102
{ACAD_REACTORS
330
FB753
102
}
330
FB753
100
AcDbXrecord
280
     1
 90
        1
330
FB7DD
  0
DICTIONARY
  5
FB82D
102
{ACAD_REACTORS
330
FB753
102
}
330
FB753
100
AcDbDictionary
281
     1
  3
CANNOSCALE
350
FB82E
  3
CMLEADERSTYLE
350
FB830
  3
CTABLESTYLE
350
FB82F
  3
MSLTSCALE
350
FB831
  0
DICTIONARY
  5
FB7E0
102
{ACAD_REACTORS
330
FB753
102
}
330
FB753
100
AcDbDictionary
281
     1
  0
DICTIONARYVAR
  5
FBAD3
102
{ACAD_REACTORS
330
FB753
102
}
330
FB753
100
DictionaryVariables
280
     0
  1
0
  0
DICTIONARY
  5
FB900
102
{ACAD_REACTORS
330
FB8FF
102
}
330
FB8FF
100
AcDbDictionary
281
     1
  0
SORTENTSTABLE
  5
FB839
102
{ACAD_REACTORS
330
FB834
102
}
330
FB834
100
AcDbSortentsTable
330
FB763
331
0
  5
EEA1C
331
0
  5
EEA1E
331
0
  5
EEA20
331
0
  5
EEA22
331
0
  5
EEA24
331
0
  5
EEA26
331
0
  5
EEA28
331
0
  5
EEA2A
331
0
  5
EEA2C
331
0
  5
EEA2E
331
0
  5
EEA30
331
0
  5
EEA32
331
0
  5
EEA33
331
0
  5
EEA34
331
0
  5
EEA35
331
0
  5
EEA36
331
0
  5
EEA37
331
0
  5
EEA38
331
0
  5
EEA39
331
0
  5
EEA45
331
0
  5
EEA46
331
0
  5
EEA49
331
0
  5
EEA4B
331
0
  5
EEA55
331
0
  5
EEA56
331
0
  5
EEA57
331
0
  5
EEA58
331
0
  5
EF2CC
331
0
  5
EF2CD
331
0
  5
EF2CE
331
0
  5
EF2D0
331
0
  5
EF691
331
0
  5
EF693
331
0
  5
EF694
331
0
  5
EF695
331
0
  5
EF696
331
0
  5
EF697
331
0
  5
EF698
331
0
  5
EF699
331
0
  5
EF69A
331
0
  5
EF69B
331
0
  5
EF69C
331
0
  5
EF69D
331
0
  5
EF69E
331
0
  5
EF69F
331
0
  5
EF6A0
331
0
  5
EF6A1
331
0
  5
EF6A2
331
0
  5
EF6A3
331
0
  5
EF6A4
331
0
  5
EF6A5
331
0
  5
EF6A6
331
0
  5
EF6A7
331
0
  5
EF6A8
331
0
  5
EF6A9
331
0
  5
EF6AA
331
0
  5
EF6AB
331
0
  5
EF6AC
331
0
  5
EF6AD
331
0
  5
EF6AE
331
0
  5
EF6AF
331
0
  5
EF6B0
331
0
  5
EF6B1
331
0
  5
EF6B2
331
0
  5
EF6B3
331
0
  5
EF6B4
331
0
  5
EF6B5
331
0
  5
EF6B6
331
0
  5
EF6B7
331
0
  5
EF6B8
331
0
  5
EF6B9
331
0
  5
EF6BA
331
0
  5
EF6BB
331
0
  5
EF6BC
331
0
  5
EF6BD
331
0
  5
EF6BE
331
0
  5
EF6BF
331
0
  5
EF6C0
331
0
  5
EF6C1
331
0
  5
EF6C2
331
0
  5
EF6C3
331
0
  5
EF6C4
331
0
  5
EF6C5
331
0
  5
EF6C6
331
0
  5
EF6C7
331
0
  5
EF6C8
331
0
  5
EF6C9
331
0
  5
EF6CA
331
0
  5
EF6CB
331
0
  5
EF6CC
331
0
  5
EF6CD
331
0
  5
EF6CE
331
0
  5
EF6CF
331
0
  5
EF6D0
331
0
  5
EF6D1
331
0
  5
EF6D2
331
0
  5
EF6D3
331
0
  5
EF6D4
331
0
  5
EF6D5
331
0
  5
EF6D6
331
0
  5
EF6D7
331
0
  5
EF6D8
331
0
  5
EF6D9
331
0
  5
EF6DA
331
0
  5
EF6DB
331
0
  5
EF6DC
331
0
  5
EF6DD
331
0
  5
EF6DE
331
0
  5
EF6DF
331
0
  5
EF6E0
331
0
  5
EF6E1
331
0
  5
EF6E2
331
0
  5
EF6E3
331
0
  5
EF6E4
331
0
  5
EF6E5
331
0
  5
EF6E6
331
0
  5
EF6E7
331
0
  5
EF6E8
331
0
  5
EF6E9
331
0
  5
EF6EA
331
0
  5
EF6EB
331
0
  5
EF6EC
331
0
  5
EF6ED
331
0
  5
EF6EE
331
0
  5
EF6EF
331
0
  5
EF6F0
331
0
  5
EF6F1
331
0
  5
EF6F2
331
0
  5
EF6F3
331
0
  5
EF6F4
331
0
  5
EF6F5
331
0
  5
EF6F6
331
0
  5
EF6F7
331
0
  5
EF6F8
331
0
  5
EF6F9
331
0
  5
EF6FA
331
0
  5
EF6FB
331
0
  5
EF6FC
331
0
  5
EF6FD
331
0
  5
EF6FE
331
0
  5
EF6FF
331
0
  5
EF700
331
0
  5
EF701
331
0
  5
EF702
331
0
  5
EF703
331
0
  5
EF704
331
0
  5
EF705
331
0
  5
EF706
331
0
  5
EF707
331
0
  5
EF708
331
0
  5
EF709
331
0
  5
EF70A
331
0
  5
EF70B
331
0
  5
EF70C
331
0
  5
EF70D
331
0
  5
EF70E
331
0
  5
EF70F
331
0
  5
EF710
331
0
  5
EF711
331
0
  5
EF712
331
0
  5
EF713
331
0
  5
EF714
331
0
  5
EF715
331
0
  5
EF716
331
0
  5
EF717
331
0
  5
EF718
331
0
  5
EF719
331
0
  5
EF71A
331
0
  5
EF71B
331
0
  5
EF71C
331
0
  5
EF71D
331
0
  5
EF71E
331
0
  5
EF71F
331
0
  5
EF720
331
0
  5
EF721
331
0
  5
EF722
331
0
  5
EF723
331
0
  5
EF724
331
0
  5
EF725
331
0
  5
EF726
331
0
  5
EF727
331
0
  5
EF728
331
0
  5
EF729
331
0
  5
EF72A
331
0
  5
EF72B
331
0
  5
EF72C
331
0
  5
EF72D
331
0
  5
EF72E
331
0
  5
EF72F
331
0
  5
EF730
331
0
  5
EF731
331
0
  5
EF732
331
0
  5
EF733
331
0
  5
EF734
331
0
  5
EF735
331
0
  5
EF736
331
0
  5
EF737
331
0
  5
EF738
331
0
  5
EF739
331
0
  5
EF73A
331
0
  5
EF73B
331
0
  5
EF73C
331
0
  5
EF73D
331
0
  5
EF73E
331
0
  5
EF73F
331
0
  5
EF740
331
0
  5
EF741
331
0
  5
EF742
331
0
  5
EF743
331
0
  5
EF744
331
0
  5
EF745
331
0
  5
EF746
331
0
  5
EF747
331
0
  5
EF748
331
0
  5
EF749
331
0
  5
EF74A
331
0
  5
EF74B
331
0
  5
EF74C
331
0
  5
EF74D
331
0
  5
EF74E
331
0
  5
EF74F
331
0
  5
EF750
331
0
  5
EF751
331
0
  5
EF753
331
0
  5
EF754
331
0
  5
EF755
331
0
  5
EF756
331
0
  5
EF757
331
0
  5
EF758
331
0
  5
EF759
331
0
  5
EF75A
331
0
  5
EF75B
331
0
  5
EF75C
331
0
  5
EF75D
331
0
  5
EF75E
331
0
  5
EF75F
331
0
  5
EF760
331
0
  5
EF761
331
0
  5
EF762
331
0
  5
EF763
331
0
  5
EF764
331
0
  5
EF765
331
0
  5
EF766
331
0
  5
EF767
331
0
  5
EF768
331
0
  5
EF769
331
0
  5
EF76A
331
0
  5
EF76B
331
0
  5
EF76C
331
0
  5
EF76D
331
0
  5
EF76E
331
0
  5
EF76F
331
0
  5
EF770
331
0
  5
EF771
331
0
  5
EF772
331
0
  5
EF773
331
0
  5
EF774
331
0
  5
EF775
331
0
  5
EF776
331
0
  5
EF777
331
0
  5
EF778
331
0
  5
EF779
331
0
  5
EF77A
331
0
  5
EF77B
331
0
  5
EF77C
331
0
  5
EF77D
331
0
  5
EF77E
331
0
  5
EF77F
331
0
  5
EF780
331
0
  5
EF781
331
0
  5
EF782
331
0
  5
EF783
331
0
  5
EF784
331
0
  5
EF785
331
0
  5
EF786
331
0
  5
EF787
331
0
  5
EF788
331
0
  5
EF789
331
0
  5
EF78A
331
0
  5
EF78B
331
0
  5
EF78C
331
0
  5
EF78D
331
0
  5
EF78E
331
0
  5
EF78F
331
0
  5
EF790
331
0
  5
EF791
331
0
  5
EF792
331
0
  5
EF793
331
0
  5
EF794
331
0
  5
EF795
331
0
  5
EF796
331
0
  5
EF797
331
0
  5
EF798
331
0
  5
EF799
331
0
  5
EF79A
331
0
  5
EF79B
331
0
  5
EF79C
331
0
  5
EF79D
331
0
  5
EF79E
331
0
  5
EF79F
331
0
  5
EF7A0
331
0
  5
EF7A1
331
0
  5
EF7A2
331
0
  5
EF7A3
331
0
  5
EF7A4
331
0
  5
EF7A5
331
0
  5
EF7A6
331
0
  5
EF7A7
331
0
  5
EF7A8
331
0
  5
EF7A9
331
0
  5
EF7AA
331
0
  5
EF7AB
331
0
  5
EF7AC
331
0
  5
EF7AD
331
0
  5
EF7AE
331
0
  5
EF7AF
331
0
  5
EF7B0
331
0
  5
EF7B1
331
0
  5
EF7B2
331
0
  5
EF7B3
331
0
  5
EF7B4
331
0
  5
EF7B5
331
0
  5
EF7B6
331
0
  5
EF7B7
331
0
  5
EF7B8
331
0
  5
EF7B9
331
0
  5
EF7BA
331
0
  5
EF7BB
331
0
  5
EF7BC
331
0
  5
EF7BD
331
0
  5
EF7BE
331
0
  5
EF7BF
331
0
  5
EF7C0
331
0
  5
EF7C1
331
0
  5
EF7C2
331
0
  5
EF7C3
331
0
  5
EF7C4
331
0
  5
EF7C5
331
0
  5
EF7C6
331
0
  5
EF7C7
331
0
  5
EF7C8
331
0
  5
EF7C9
331
0
  5
EF7CA
331
0
  5
EF7CB
331
0
  5
EF7CC
331
0
  5
EF7CD
331
0
  5
EF7CE
331
0
  5
EF7CF
331
0
  5
EF7D0
331
0
  5
EF7D1
331
0
  5
EF7D2
331
0
  5
EF7D3
331
0
  5
EF7D4
331
0
  5
EF7D5
331
0
  5
EF7D6
331
0
  5
EF7D7
331
0
  5
EF7D8
331
0
  5
EF7D9
331
0
  5
EF7DA
331
0
  5
EF7DB
331
0
  5
EF7DC
331
0
  5
EF7DD
331
0
  5
EF7DE
331
0
  5
EF7DF
331
0
  5
EF7E0
331
0
  5
EF7E1
331
0
  5
EF7E2
331
0
  5
EF7E3
331
0
  5
EF7E4
331
0
  5
EF7E5
331
0
  5
EF7E6
331
0
  5
EF7E7
331
0
  5
EF7E8
331
0
  5
EF7E9
331
0
  5
EF7EA
331
0
  5
EF7EB
331
0
  5
EF7EC
331
0
  5
EF7ED
331
0
  5
EF7EE
331
0
  5
EF7EF
331
0
  5
EF7F0
331
0
  5
EF7F1
331
0
  5
EF7F2
331
0
  5
EF7F3
331
0
  5
EF7F4
331
0
  5
EF7F5
331
0
  5
EF7F6
331
0
  5
EF7F7
331
0
  5
EF7F8
331
0
  5
EF7F9
331
0
  5
EF7FA
331
0
  5
EF7FB
331
0
  5
EF7FC
331
0
  5
EF7FD
331
0
  5
EF7FE
331
0
  5
EF7FF
331
0
  5
EF800
331
0
  5
EF801
331
0
  5
EF802
331
0
  5
EF803
331
0
  5
EF804
331
0
  5
EF805
331
0
  5
EF806
331
0
  5
EF807
331
0
  5
EF808
331
0
  5
EF809
331
0
  5
EF80A
331
0
  5
EF80B
331
0
  5
EF80C
331
0
  5
EF80D
331
0
  5
EF80E
331
0
  5
EF80F
331
0
  5
EF810
331
0
  5
EF811
331
0
  5
EF812
331
0
  5
EF813
331
0
  5
EF814
331
0
  5
EF815
331
0
  5
EF816
331
0
  5
EF817
331
0
  5
EF818
331
0
  5
EF819
331
0
  5
EF81A
331
0
  5
EF81B
331
0
  5
EF81C
331
0
  5
EF81D
331
0
  5
EF81E
331
0
  5
EF81F
331
0
  5
EF820
331
0
  5
EF821
331
0
  5
EF822
331
0
  5
EF823
331
0
  5
EF824
331
0
  5
EF825
331
0
  5
EF826
331
0
  5
EF827
331
0
  5
EF828
331
0
  5
EF829
331
0
  5
EF82A
331
0
  5
EF82B
331
0
  5
EF82C
331
0
  5
EF82D
331
0
  5
EF82E
331
0
  5
EF82F
331
0
  5
EF830
331
0
  5
EF831
331
0
  5
EF832
331
0
  5
EF833
331
0
  5
EF834
331
0
  5
EF835
331
0
  5
EF836
331
0
  5
EF837
331
0
  5
EF838
331
0
  5
EF839
331
0
  5
EF83A
331
0
  5
EF83B
331
0
  5
EF83C
331
0
  5
EF83D
331
0
  5
EF83E
331
0
  5
EF83F
331
0
  5
EF840
331
0
  5
EF841
331
0
  5
EF842
331
0
  5
EF843
331
0
  5
EF844
331
0
  5
EF845
331
0
  5
EF846
331
0
  5
EF847
331
0
  5
EF848
331
0
  5
EF849
331
0
  5
EF84A
331
0
  5
EF84B
331
0
  5
EF84C
331
0
  5
EF84D
331
0
  5
EF84E
331
0
  5
EF84F
331
0
  5
EF850
331
0
  5
EF851
331
0
  5
EF852
331
0
  5
EF853
331
0
  5
EF854
331
0
  5
EF855
331
0
  5
EF856
331
0
  5
EF857
331
0
  5
EF858
331
0
  5
EF859
331
0
  5
EF85A
331
0
  5
EF85B
331
0
  5
EF85C
331
0
  5
EF85D
331
0
  5
EF85E
331
0
  5
EF85F
331
0
  5
EF860
331
0
  5
EF861
331
0
  5
EF862
331
0
  5
EF863
331
0
  5
EF864
331
0
  5
EF865
331
0
  5
EF866
331
0
  5
EF867
331
0
  5
EF868
331
0
  5
EF869
331
0
  5
EF86A
331
0
  5
EF86B
331
0
  5
EF86C
331
0
  5
EF86D
331
0
  5
EF86E
331
0
  5
EF86F
331
0
  5
EF870
331
0
  5
EF871
331
0
  5
EF872
331
0
  5
EF873
331
0
  5
EF874
331
0
  5
EF875
331
0
  5
EF876
331
0
  5
EF877
331
0
  5
EF878
331
0
  5
EF879
331
0
  5
EF87A
331
0
  5
EF87B
331
0
  5
EF87C
331
0
  5
EF87D
331
0
  5
EF87E
331
0
  5
EF87F
331
0
  5
EF880
331
0
  5
EF881
331
0
  5
EF882
331
0
  5
EF883
331
0
  5
EF884
331
0
  5
EF885
331
0
  5
EF88B
331
0
  5
EF88C
331
0
  5
EF88D
331
0
  5
EF88E
331
0
  5
EF88F
331
0
  5
EF890
331
0
  5
EF891
331
0
  5
EF892
331
0
  5
EF893
331
0
  5
F2468
331
0
  5
F2469
331
0
  5
F246D
331
0
  5
F246E
331
0
  5
F246F
331
0
  5
F2470
331
0
  5
F2471
331
0
  5
F2472
331
0
  5
F2473
331
0
  5
F2474
331
0
  5
F7DD0
331
0
  5
F7DD1
331
0
  5
F7DD2
331
0
  5
F7DD3
331
0
  5
F7DD4
331
0
  5
F7DD5
331
0
  5
F7DD6
331
0
  5
F7DD8
331
0
  5
F7DE6
331
0
  5
F7DE7
331
0
  5
F7DE8
331
0
  5
F7DE9
331
0
  5
F7DEA
331
0
  5
F7DEB
331
0
  5
F7DEC
331
0
  5
F7DED
331
0
  5
F7DEE
331
0
  5
F7DEF
331
0
  5
F7DF0
331
0
  5
F7DF1
331
0
  5
F7DF2
331
0
  5
F7DF3
331
0
  5
F7DF4
331
0
  5
F7DF5
331
0
  5
F7DF6
331
0
  5
F7DF7
331
0
  5
F7DF8
331
0
  5
F7DF9
331
0
  5
F7DFA
331
0
  5
F7DFB
331
0
  5
F7DFC
331
0
  5
F7DFD
331
0
  5
F7DFE
331
0
  5
F7E04
331
0
  5
F7E05
331
0
  5
F7E06
331
0
  5
F7E07
331
0
  5
F7E08
331
0
  5
F7E0A
331
0
  5
F7E0C
331
0
  5
F7E0E
331
0
  5
F7E0F
331
0
  5
F7E10
331
0
  5
F7E11
331
0
  5
F7E12
331
0
  5
F7E13
331
0
  5
F7E14
331
0
  5
F7E15
331
0
  5
F7E16
331
0
  5
F7E17
331
0
  5
F7E18
331
0
  5
F7E19
331
0
  5
F7E22
331
0
  5
F7E23
331
0
  5
F7E24
331
0
  5
F7E25
331
0
  5
F7E26
331
0
  5
F7E27
331
0
  5
F8B6F
331
0
  5
F8B70
331
0
  5
F8B71
331
0
  5
F8B72
331
0
  5
F8B73
331
0
  5
F8B74
331
0
  5
F8B75
331
0
  5
F8B76
331
0
  5
F8B77
331
0
  5
F8B78
331
0
  5
F8B79
331
0
  5
F8B7B
331
0
  5
F8B7D
331
0
  5
F8B7E
331
0
  5
F8B84
331
0
  5
F8B85
331
0
  5
F8B86
331
0
  5
F8B87
331
0
  5
F8B89
331
0
  5
F8B8A
331
0
  5
F8B8B
331
0
  5
F8B8E
331
0
  5
F8B8F
331
0
  5
F8B90
331
0
  5
F8B91
331
0
  5
F8B92
331
0
  5
F8B93
331
0
  5
F8B94
331
0
  5
F8B95
331
0
  5
F8B96
331
0
  5
F8B97
331
0
  5
F8B98
331
0
  5
F8B99
331
0
  5
F8B9A
331
0
  5
F8B9B
331
0
  5
F8B9C
331
0
  5
F8B9D
331
0
  5
F8BA2
331
0
  5
F8BA3
331
0
  5
F8BA4
331
0
  5
F8BA5
331
0
  5
F8BA6
331
0
  5
F8BA7
331
0
  5
F8BA8
331
0
  5
F8BB5
331
0
  5
F8BB7
331
0
  5
F8BB8
331
0
  5
F8BB9
331
0
  5
F8BBA
331
0
  5
F8BBB
331
0
  5
FB838
331
0
  5
FB83A
331
0
  5
FB83B
331
0
  5
FB83C
331
0
  5
FB83D
331
0
  5
FB83E
331
0
  5
FB83F
331
0
  5
FB840
331
0
  5
FB841
331
0
  5
FB842
331
0
  5
FB843
331
0
  5
FB844
331
0
  5
FB845
331
0
  5
FB846
331
0
  5
FB847
331
0
  5
FB848
331
0
  5
FB849
331
0
  5
FB84A
331
0
  5
FB84B
331
0
  5
FB84C
331
0
  5
FB84D
331
0
  5
FB84E
331
0
  5
FB84F
331
0
  5
FB850
331
0
  5
FB851
331
0
  5
FB852
331
0
  5
FB853
331
0
  5
FB854
331
0
  5
FB855
331
0
  5
FB856
331
0
  5
FB857
331
0
  5
FB858
331
0
  5
FB859
331
0
  5
FB85A
331
0
  5
FB85B
331
0
  5
FB85C
331
0
  5
FB85D
331
0
  5
FB85E
331
0
  5
FB85F
331
0
  5
FB860
331
0
  5
EF692
331
0
  5
EEA31
331
0
  5
EF2C6
331
0
  5
EEA29
331
0
  5
EF2C9
331
0
  5
EF2C7
331
0
  5
EEA2F
331
0
  5
F7DFF
331
0
  5
F7E0D
331
0
  5
F7E03
331
0
  5
F7E0B
331
0
  5
F7E00
331
0
  5
F7E02
331
0
  5
F7E09
331
0
  5
F7E01
331
0
  5
EEA4C
331
0
  5
EEA23
331
0
  5
EEA54
331
0
  5
EEA4D
331
0
  5
EEA21
331
0
  5
EEA52
331
0
  5
EEA27
331
0
  5
EEA4E
331
0
  5
EEA51
331
0
  5
EEA2D
331
0
  5
EEA4F
331
0
  5
EEA1B
331
0
  5
EEA3A
331
0
  5
EEA43
331
0
  5
EEA1D
331
0
  5
EEA3B
331
0
  5
EEA42
331
0
  5
EEA1F
331
0
  5
EEA3C
331
0
  5
EEA41
331
0
  5
EEA25
331
0
  5
EEA3D
331
0
  5
EEA3F
331
0
  5
EEA2B
331
0
  5
EEA3E
  0
DICTIONARY
  5
FB835
102
{ACAD_REACTORS
330
FB834
102
}
330
FB834
100
AcDbDictionary
281
     1
  0
LAYOUT
  5
FB762
102
{ACAD_REACTORS
330
FB760
102
}
330
FB760
100
AcDbPlotSettings
  1

  2
none_device
  4

  6

 40
0.0
 41
0.0
 42
0.0
 43
0.0
 44
0.0
 45
0.0
 46
0.0
 47
0.0
 48
0.0
 49
0.0
140
0.0
141
0.0
142
1.0
143
1.0
 70
   688
 72
     0
 73
     0
 74
     5
  7

 75
    16
 76
     0
 77
     2
 78
   300
147
1.0
148
0.0
149
0.0
100
AcDbLayout
  1
Foglio1
 70
     1
 71
     1
 10
0.0
 20
0.0
 11
0.0
 21
0.0
 12
0.0
 22
0.0
 32
0.0
 14
0.0
 24
0.0
 34
0.0
 15
0.0
 25
0.0
 35
0.0
146
0.0
 13
0.0
 23
0.0
 33
0.0
 16
1.0
 26
0.0
 36
0.0
 17
0.0
 27
1.0
 37
0.0
 76
     0
330
FB761
331
DAB74
  0
LAYOUT
  5
FB764
102
{ACAD_REACTORS
330
FB760
102
}
330
FB760
100
AcDbPlotSettings
  1

  2
none_device
  4
Letter_(8.50_x_11.00_Inches)
  6

 40
6.35
 41
6.35
 42
6.35
 43
6.35
 44
215.9
 45
279.4
 46
0.0
 47
0.0
 48
0.0
 49
0.0
140
0.0
141
0.0
142
1.0
143
1.0
 70
  1712
 72
     0
 73
     0
 74
     0
  7

 75
     0
 76
     0
 77
     2
 78
   300
147
1.0
148
0.0
149
0.0
100
AcDbLayout
  1
Model
 70
     1
 71
     0
 10
0.0
 20
0.0
 11
12.0
 21
9.0
 12
0.0
 22
0.0
 32
0.0
 14
-4012.685974119231
 24
-987.6576470269356
 34
0.0
 15
47134.08970799963
 25
14792.18109737554
 35
0.0
146
0.0
 13
0.0
 23
0.0
 33
0.0
 16
1.0
 26
0.0
 36
0.0
 17
0.0
 27
1.0
 37
0.0
 76
     0
330
FB763
331
FB766
  0
MATERIAL
  5
FB76B
102
{ACAD_REACTORS
330
FB769
102
}
330
FB769
100
AcDbMaterial
  1
ByBlock
 72
     1
 94
      127
  0
MATERIAL
  5
FB76A
102
{ACAD_REACTORS
330
FB769
102
}
330
FB769
100
AcDbMaterial
  1
ByLayer
 72
     1
 94
      127
  0
MATERIAL
  5
FB76C
102
{ACAD_REACTORS
330
FB769
102
}
330
FB769
100
AcDbMaterial
  1
Global
 72
     1
 94
      127
  0
MLEADERSTYLE
  5
FB7DF
102
{ACAD_REACTORS
330
FB7DE
102
}
330
FB7DE
100
AcDbMLeaderStyle
179
     2
170
     2
171
     1
172
     0
 90
        2
 40
0.0
 41
0.0
173
     1
 91
-1056964608
340
FB75A
 92
       -2
290
     1
 42
0.09
291
     1
 43
0.36
  3
Standard
341
0
 44
0.18
300

342
FB758
174
     1
178
     1
175
     1
176
     0
 93
-1056964608
 45
0.18
292
     0
297
     0
 46
0.18
343
0
 94
-1056964608
 47
1.0
 49
1.0
140
1.0
293
     1
141
0.0
294
     1
177
     0
142
1.0
295
     0
296
     0
143
0.125
271
     0
272
     9
273
     9
298
     0
  0
MLINESTYLE
  5
FB75E
102
{ACAD_REACTORS
330
FB75D
102
}
330
FB75D
100
AcDbMlineStyle
  2
Standard
 70
     0
  3

 62
   256
 51
90.0
 52
90.0
 71
     2
 49
0.5
 62
   256
  6
BYLAYER
 49
-0.5
 62
   256
  6
BYLAYER
  0
ACDBPLACEHOLDER
  5
FB756
102
{ACAD_REACTORS
330
FB755
102
}
330
FB755
  0
SCALE
  5
FB7A2
102
{ACAD_REACTORS
330
FB7A1
102
}
330
FB7A1
100
AcDbScale
 70
     0
300
1:1
140
1.0
141
1.0
290
     1
  0
SCALE
  5
FB7A3
102
{ACAD_REACTORS
330
FB7A1
102
}
330
FB7A1
100
AcDbScale
 70
     0
300
1:2
140
1.0
141
2.0
290
     0
  0
SCALE
  5
FB7A4
102
{ACAD_REACTORS
330
FB7A1
102
}
330
FB7A1
100
AcDbScale
 70
     0
300
1:4
140
1.0
141
4.0
290
     0
  0
SCALE
  5
FB7A5
102
{ACAD_REACTORS
330
FB7A1
102
}
330
FB7A1
100
AcDbScale
 70
     0
300
1:5
140
1.0
141
5.0
290
     0
  0
SCALE
  5
FB7A6
102
{ACAD_REACTORS
330
FB7A1
102
}
330
FB7A1
100
AcDbScale
 70
     0
300
1:8
140
1.0
141
8.0
290
     0
  0
SCALE
  5
FB7A7
102
{ACAD_REACTORS
330
FB7A1
102
}
330
FB7A1
100
AcDbScale
 70
     0
300
1:10
140
1.0
141
10.0
290
     0
  0
SCALE
  5
FB7A8
102
{ACAD_REACTORS
330
FB7A1
102
}
330
FB7A1
100
AcDbScale
 70
     0
300
1:16
140
1.0
141
16.0
290
     0
  0
SCALE
  5
FB7A9
102
{ACAD_REACTORS
330
FB7A1
102
}
330
FB7A1
100
AcDbScale
 70
     0
300
1:20
140
1.0
141
20.0
290
     0
  0
SCALE
  5
FB7AA
102
{ACAD_REACTORS
330
FB7A1
102
}
330
FB7A1
100
AcDbScale
 70
     0
300
1:30
140
1.0
141
30.0
290
     0
  0
SCALE
  5
FB7AB
102
{ACAD_REACTORS
330
FB7A1
102
}
330
FB7A1
100
AcDbScale
 70
     0
300
1:40
140
1.0
141
40.0
290
     0
  0
SCALE
  5
FB7AC
102
{ACAD_REACTORS
330
FB7A1
102
}
330
FB7A1
100
AcDbScale
 70
     0
300
1:50
140
1.0
141
50.0
290
     0
  0
SCALE
  5
FB7AD
102
{ACAD_REACTORS
330
FB7A1
102
}
330
FB7A1
100
AcDbScale
 70
     0
300
1:100
140
1.0
141
100.0
290
     0
  0
SCALE
  5
FB7AE
102
{ACAD_REACTORS
330
FB7A1
102
}
330
FB7A1
100
AcDbScale
 70
     0
300
2:1
140
2.0
141
1.0
290
     0
  0
SCALE
  5
FB7AF
102
{ACAD_REACTORS
330
FB7A1
102
}
330
FB7A1
100
AcDbScale
 70
     0
300
4:1
140
4.0
141
1.0
290
     0
  0
SCALE
  5
FB7B0
102
{ACAD_REACTORS
330
FB7A1
102
}
330
FB7A1
100
AcDbScale
 70
     0
300
8:1
140
8.0
141
1.0
290
     0
  0
SCALE
  5
FB7B1
102
{ACAD_REACTORS
330
FB7A1
102
}
330
FB7A1
100
AcDbScale
 70
     0
300
10:1
140
10.0
141
1.0
290
     0
  0
SCALE
  5
FB7B2
102
{ACAD_REACTORS
330
FB7A1
102
}
330
FB7A1
100
AcDbScale
 70
     0
300
100:1
140
100.0
141
1.0
290
     0
  0
SCALE
  5
FB7B3
102
{ACAD_REACTORS
330
FB7A1
102
}
330
FB7A1
100
AcDbScale
 70
     0
300
1/128" = 1'-0"
140
0.0078125
141
12.0
290
     0
  0
SCALE
  5
FB7B4
102
{ACAD_REACTORS
330
FB7A1
102
}
330
FB7A1
100
AcDbScale
 70
     0
300
1/64" = 1'-0"
140
0.015625
141
12.0
290
     0
  0
SCALE
  5
FB7B5
102
{ACAD_REACTORS
330
FB7A1
102
}
330
FB7A1
100
AcDbScale
 70
     0
300
1/32" = 1'-0"
140
0.03125
141
12.0
290
     0
  0
SCALE
  5
FB7B6
102
{ACAD_REACTORS
330
FB7A1
102
}
330
FB7A1
100
AcDbScale
 70
     0
300
1/16" = 1'-0"
140
0.0625
141
12.0
290
     0
  0
SCALE
  5
FB7B7
102
{ACAD_REACTORS
330
FB7A1
102
}
330
FB7A1
100
AcDbScale
 70
     0
300
3/32" = 1'-0"
140
0.09375
141
12.0
290
     0
  0
SCALE
  5
FB7B8
102
{ACAD_REACTORS
330
FB7A1
102
}
330
FB7A1
100
AcDbScale
 70
     0
300
1/8" = 1'-0"
140
0.125
141
12.0
290
     0
  0
SCALE
  5
FB7B9
102
{ACAD_REACTORS
330
FB7A1
102
}
330
FB7A1
100
AcDbScale
 70
     0
300
3/16" = 1'-0"
140
0.1875
141
12.0
290
     0
  0
SCALE
  5
FB7BA
102
{ACAD_REACTORS
330
FB7A1
102
}
330
FB7A1
100
AcDbScale
 70
     0
300
1/4" = 1'-0"
140
0.25
141
12.0
290
     0
  0
SCALE
  5
FB7BB
102
{ACAD_REACTORS
330
FB7A1
102
}
330
FB7A1
100
AcDbScale
 70
     0
300
3/8" = 1'-0"
140
0.375
141
12.0
290
     0
  0
SCALE
  5
FB7BC
102
{ACAD_REACTORS
330
FB7A1
102
}
330
FB7A1
100
AcDbScale
 70
     0
300
1/2" = 1'-0"
140
0.5
141
12.0
290
     0
  0
SCALE
  5
FB7BD
102
{ACAD_REACTORS
330
FB7A1
102
}
330
FB7A1
100
AcDbScale
 70
     0
300
3/4" = 1'-0"
140
0.75
141
12.0
290
     0
  0
SCALE
  5
FB7BE
102
{ACAD_REACTORS
330
FB7A1
102
}
330
FB7A1
100
AcDbScale
 70
     0
300
1" = 1'-0"
140
1.0
141
12.0
290
     0
  0
SCALE
  5
FB7BF
102
{ACAD_REACTORS
330
FB7A1
102
}
330
FB7A1
100
AcDbScale
 70
     0
300
1-1/2" = 1'-0"
140
1.5
141
12.0
290
     0
  0
SCALE
  5
FB7C0
102
{ACAD_REACTORS
330
FB7A1
102
}
330
FB7A1
100
AcDbScale
 70
     0
300
3" = 1'-0"
140
3.0
141
12.0
290
     0
  0
SCALE
  5
FB7C1
102
{ACAD_REACTORS
330
FB7A1
102
}
330
FB7A1
100
AcDbScale
 70
     0
300
6" = 1'-0"
140
6.0
141
12.0
290
     0
  0
SCALE
  5
FB7C2
102
{ACAD_REACTORS
330
FB7A1
102
}
330
FB7A1
100
AcDbScale
 70
     0
300
1'-0" = 1'-0"
140
12.0
141
12.0
290
     0
  0
TABLESTYLE
  5
FB7DD
102
{ACAD_REACTORS
330
FB7DC
102
}
102
{ACAD_XDICTIONARY
360
FBEB8
102
}
330
FB7DC
100
AcDbTableStyle
  3
Standard
 70
     0
 71
     0
 40
0.06
 41
0.06
280
     0
281
     0
  7
STANDARD
140
0.18
170
     2
 62
     0
 63
   257
283
     0
 90
        4
 91
        0
  1

274
    -2
284
     1
 64
     0
275
    -2
285
     1
 65
     0
276
    -2
286
     1
 66
     0
277
    -2
287
     1
 67
     0
278
    -2
288
     1
 68
     0
279
    -2
289
     1
 69
     0
  7
STANDARD
140
0.25
170
     5
 62
     0
 63
   257
283
     0
 90
        4
 91
        0
  1

274
    -2
284
     1
 64
     0
275
    -2
285
     1
 65
     0
276
    -2
286
     1
 66
     0
277
    -2
287
     1
 67
     0
278
    -2
288
     1
 68
     0
279
    -2
289
     1
 69
     0
  7
STANDARD
140
0.18
170
     5
 62
     0
 63
   257
283
     0
 90
        4
 91
        0
  1

274
    -2
284
     1
 64
     0
275
    -2
285
     1
 65
     0
276
    -2
286
     1
 66
     0
277
    -2
287
     1
 67
     0
278
    -2
288
     1
 68
     0
279
    -2
289
     1
 69
     0
  0
VISUALSTYLE
  5
FB7C8
102
{ACAD_REACTORS
330
FB7C3
102
}
330
FB7C3
100
AcDbVisualStyle
  2
2dWireframe
 70
     4
177
     3
291
     0
 70
    58
 90
        0
176
     1
 90
        2
176
     1
 90
        0
176
     1
 90
        0
176
     1
 40
0.6
176
     1
 40
30.0
176
     1
 62
     7
420
 16777215
176
     1
 90
        1
176
     1
 90
        4
176
     1
 62
     7
176
     1
 62
   257
176
     1
 90
        1
176
     1
 90
        1
176
     1
 40
1.0
176
     1
 90
        0
176
     1
 62
   257
176
     1
 40
1.0
176
     1
 90
        1
176
     1
 90
        6
176
     1
 90
        2
176
     1
 62
     7
176
     1
 90
        5
176
     1
 90
        0
176
     1
 90
        0
176
     1
290
     0
176
     1
 90
        1
176
     1
 40
0.0
176
     1
 90
        0
176
     1
290
     1
176
     1
290
     1
176
     1
290
     0
176
     1
290
     0
176
     1
290
     0
176
     1
290
     0
176
     1
290
     0
176
     1
290
     0
176
     1
290
     0
176
     1
 90
       50
176
     1
 40
0.0
176
     1
 40
1.0
176
     1
 90
        0
176
     1
 62
    18
420
        0
176
     1
 90
       50
176
     1
 90
        3
176
     1
 62
     5
420
      255
176
     1
290
     0
176
     1
 90
       50
176
     1
 90
       50
176
     1
 90
       50
176
     1
290
     0
176
     1
 90
       50
176
     1
 62
   256
176
     0
 40
1.0
176
     0
 90
        2
176
     1
  1
strokes_ogs.tif
176
     1
290
     0
176
     1
 40
1.0
176
     1
 40
1.0
176
     1
  0
VISUALSTYLE
  5
FB7CB
102
{ACAD_REACTORS
330
FB7C3
102
}
330
FB7C3
100
AcDbVisualStyle
  2
Basic
 70
     7
177
     3
291
     1
 70
    58
 90
        1
176
     1
 90
        0
176
     1
 90
        1
176
     1
 90
        0
176
     1
 40
0.6
176
     1
 40
30.0
176
     1
 62
     7
420
 16777215
176
     1
 90
        0
176
     1
 90
        4
176
     1
 62
     7
176
     1
 62
   257
176
     1
 90
        1
176
     1
 90
        1
176
     1
 40
1.0
176
     1
 90
        8
176
     1
 62
     7
176
     1
 40
1.0
176
     1
 90
        1
176
     1
 90
        6
176
     1
 90
        2
176
     1
 62
     7
176
     1
 90
        5
176
     1
 90
        0
176
     1
 90
        0
176
     1
290
     0
176
     1
 90
        1
176
     1
 40
0.0
176
     1
 90
        0
176
     1
290
     0
176
     1
290
     1
176
     1
290
     1
176
     1
290
     0
176
     1
290
     0
176
     1
290
     0
176
     1
290
     0
176
     1
290
     0
176
     1
290
     0
176
     1
 90
       50
176
     1
 40
0.0
176
     1
 40
1.0
176
     1
 90
        0
176
     1
 62
    18
420
        0
176
     1
 90
       50
176
     1
 90
        3
176
     1
 62
     5
420
      255
176
     1
290
     0
176
     1
 90
       50
176
     1
 90
       50
176
     1
 90
       50
176
     1
290
     0
176
     1
 90
       50
176
     1
 62
   256
176
     0
 40
1.0
176
     0
 90
        2
176
     1
  1
strokes_ogs.tif
176
     1
290
     0
176
     1
 40
1.0
176
     1
 40
1.0
176
     1
  0
VISUALSTYLE
  5
FB7CF
102
{ACAD_REACTORS
330
FB7C3
102
}
330
FB7C3
100
AcDbVisualStyle
  2
Brighten
 70
    12
177
     3
291
     1
 70
    58
 90
        2
176
     1
 90
        2
176
     1
 90
        0
176
     1
 90
        0
176
     1
 40
0.6
176
     1
 40
30.0
176
     1
 62
     7
420
 16777215
176
     1
 90
        1
176
     1
 90
        4
176
     1
 62
     7
176
     1
 62
   257
176
     1
 90
        1
176
     1
 90
        1
176
     1
 40
1.0
176
     1
 90
        8
176
     1
 62
     7
176
     1
 40
1.0
176
     1
 90
        1
176
     1
 90
        6
176
     1
 90
        2
176
     1
 62
     7
176
     1
 90
        5
176
     1
 90
        0
176
     1
 90
        0
176
     1
290
     0
176
     1
 90
        1
176
     1
 40
50.0
176
     1
 90
        0
176
     1
290
     0
176
     1
290
     1
176
     1
290
     1
176
     1
290
     0
176
     1
290
     0
176
     1
290
     0
176
     1
290
     0
176
     1
290
     0
176
     1
290
     0
176
     1
 90
       50
176
     1
 40
0.0
176
     1
 40
1.0
176
     1
 90
        0
176
     1
 62
    18
420
        0
176
     1
 90
       50
176
     1
 90
        3
176
     1
 62
     5
420
      255
176
     1
290
     0
176
     1
 90
       50
176
     1
 90
       50
176
     1
 90
       50
176
     1
290
     0
176
     1
 90
       50
176
     1
 62
   256
176
     0
 40
1.0
176
     0
 90
        2
176
     1
  1
strokes_ogs.tif
176
     1
290
     0
176
     1
 40
1.0
176
     1
 40
1.0
176
     1
  0
VISUALSTYLE
  5
FB7D3
102
{ACAD_REACTORS
330
FB7C3
102
}
330
FB7C3
100
AcDbVisualStyle
  2
ColorChange
 70
    16
177
     3
291
     1
 70
    58
 90
        2
176
     1
 90
        2
176
     1
 90
        3
176
     1
 90
        0
176
     1
 40
0.6
176
     1
 40
30.0
176
     1
 62
     8
420
  8421504
176
     1
 90
        1
176
     1
 90
        4
176
     1
 62
     7
176
     1
 62
   257
176
     1
 90
        1
176
     1
 90
        1
176
     1
 40
1.0
176
     1
 90
        8
176
     1
 62
     8
420
  8421504
176
     1
 40
1.0
176
     1
 90
        1
176
     1
 90
        6
176
     1
 90
        2
176
     1
 62
     7
176
     1
 90
        5
176
     1
 90
        0
176
     1
 90
        0
176
     1
290
     0
176
     1
 90
        1
176
     1
 40
0.0
176
     1
 90
        0
176
     1
290
     0
176
     1
290
     1
176
     1
290
     1
176
     1
290
     0
176
     1
290
     0
176
     1
290
     0
176
     1
290
     0
176
     1
290
     0
176
     1
290
     0
176
     1
 90
       50
176
     1
 40
0.0
176
     1
 40
1.0
176
     1
 90
        0
176
     1
 62
    18
420
        0
176
     1
 90
       50
176
     1
 90
        3
176
     1
 62
     5
420
      255
176
     1
290
     0
176
     1
 90
       50
176
     1
 90
       50
176
     1
 90
       50
176
     1
290
     0
176
     1
 90
       50
176
     1
 62
   256
176
     0
 40
1.0
176
     0
 90
        2
176
     1
  1
strokes_ogs.tif
176
     1
290
     0
176
     1
 40
1.0
176
     1
 40
1.0
176
     1
  0
VISUALSTYLE
  5
FB7CD
102
{ACAD_REACTORS
330
FB7C3
102
}
330
FB7C3
100
AcDbVisualStyle
  2
Conceptual
 70
     9
177
     3
291
     0
 70
    58
 90
        3
176
     1
 90
        2
176
     1
 90
        0
176
     1
 90
        0
176
     1
 40
0.6
176
     1
 40
30.0
176
     1
 62
     7
420
 16777215
176
     1
 90
        2
176
     1
 90
        2
176
     1
 62
     7
176
     1
 62
   257
176
     1
 90
        1
176
     1
 90
        1
176
     1
 40
179.0
176
     1
 90
        8
176
     1
 62
     7
176
     1
 40
1.0
176
     1
 90
        1
176
     1
 90
        6
176
     1
 90
        2
176
     1
 62
     7
176
     1
 90
        3
176
     1
 90
        0
176
     1
 90
        0
176
     1
290
     0
176
     1
 90
        1
176
     1
 40
0.0
176
     1
 90
        0
176
     1
290
     0
176
     1
290
     1
176
     1
290
     1
176
     1
290
     0
176
     1
290
     0
176
     1
290
     0
176
     1
290
     0
176
     1
290
     0
176
     1
290
     0
176
     1
 90
       50
176
     1
 40
0.0
176
     1
 40
1.0
176
     1
 90
        0
176
     1
 62
    18
420
        0
176
     1
 90
       50
176
     1
 90
        3
176
     1
 62
     5
420
      255
176
     1
290
     0
176
     1
 90
       50
176
     1
 90
       50
176
     1
 90
       50
176
     1
290
     0
176
     1
 90
       50
176
     1
 62
   256
176
     0
 40
1.0
176
     0
 90
        2
176
     1
  1
strokes_ogs.tif
176
     1
290
     0
176
     1
 40
1.0
176
     1
 40
1.0
176
     1
  0
VISUALSTYLE
  5
FB7CE
102
{ACAD_REACTORS
330
FB7C3
102
}
330
FB7C3
100
AcDbVisualStyle
  2
Dim
 70
    11
177
     3
291
     1
 70
    58
 90
        2
176
     1
 90
        2
176
     1
 90
        0
176
     1
 90
        0
176
     1
 40
0.6
176
     1
 40
30.0
176
     1
 62
     7
420
 16777215
176
     1
 90
        1
176
     1
 90
        4
176
     1
 62
     7
176
     1
 62
   257
176
     1
 90
        1
176
     1
 90
        1
176
     1
 40
1.0
176
     1
 90
        8
176
     1
 62
     7
176
     1
 40
1.0
176
     1
 90
        1
176
     1
 90
        6
176
     1
 90
        2
176
     1
 62
     7
176
     1
 90
        5
176
     1
 90
        0
176
     1
 90
        0
176
     1
290
     0
176
     1
 90
        1
176
     1
 40
-50.0
176
     1
 90
        0
176
     1
290
     0
176
     1
290
     1
176
     1
290
     1
176
     1
290
     0
176
     1
290
     0
176
     1
290
     0
176
     1
290
     0
176
     1
290
     0
176
     1
290
     0
176
     1
 90
       50
176
     1
 40
0.0
176
     1
 40
1.0
176
     1
 90
        0
176
     1
 62
    18
420
        0
176
     1
 90
       50
176
     1
 90
        3
176
     1
 62
     5
420
      255
176
     1
290
     0
176
     1
 90
       50
176
     1
 90
       50
176
     1
 90
       50
176
     1
290
     0
176
     1
 90
       50
176
     1
 62
   256
176
     0
 40
1.0
176
     0
 90
        2
176
     1
  1
strokes_ogs.tif
176
     1
290
     0
176
     1
 40
1.0
176
     1
 40
1.0
176
     1
  0
VISUALSTYLE
  5
FB7D6
102
{ACAD_REACTORS
330
FB7C3
102
}
330
FB7C3
100
AcDbVisualStyle
  2
EdgeColorOff
 70
    22
177
     3
291
     1
 70
    58
 90
        2
176
     0
 90
        2
176
     0
 90
        0
176
     0
 90
        0
176
     0
 40
0.6
176
     0
 40
30.0
176
     0
 62
     7
420
 16777215
176
     0
 90
        1
176
     0
 90
        4
176
     0
 62
     7
176
     0
 62
   257
176
     0
 90
        1
176
     0
 90
        1
176
     0
 40
1.0
176
     0
 90
        8
176
     2
 62
     7
176
     0
 40
1.0
176
     0
 90
        1
176
     0
 90
        6
176
     0
 90
        2
176
     0
 62
     7
176
     0
 90
        5
176
     0
 90
        0
176
     0
 90
        0
176
     0
290
     0
176
     0
 90
        1
176
     0
 40
0.0
176
     0
 90
        0
176
     0
290
     0
176
     0
290
     1
176
     0
290
     1
176
     0
290
     0
176
     0
290
     0
176
     0
290
     0
176
     0
290
     0
176
     0
290
     0
176
     0
290
     0
176
     0
 90
       50
176
     0
 40
0.0
176
     0
 40
1.0
176
     0
 90
        0
176
     0
 62
    18
420
        0
176
     0
 90
       50
176
     0
 90
        3
176
     0
 62
     5
420
      255
176
     0
290
     0
176
     0
 90
       50
176
     0
 90
       50
176
     0
 90
       50
176
     0
290
     0
176
     0
 90
       50
176
     0
 62
   256
176
     0
 40
1.0
176
     0
 90
        2
176
     0
  1
strokes_ogs.tif
176
     0
290
     0
176
     0
 40
1.0
176
     0
 40
1.0
176
     0
  0
VISUALSTYLE
  5
FB7D2
102
{ACAD_REACTORS
330
FB7C3
102
}
330
FB7C3
100
AcDbVisualStyle
  2
Facepattern
 70
    15
177
     3
291
     1
 70
    58
 90
        2
176
     1
 90
        2
176
     1
 90
        0
176
     1
 90
        0
176
     1
 40
0.6
176
     1
 40
30.0
176
     1
 62
     7
420
 16777215
176
     1
 90
        1
176
     1
 90
        4
176
     1
 62
     7
176
     1
 62
   257
176
     1
 90
        1
176
     1
 90
        1
176
     1
 40
1.0
176
     1
 90
        8
176
     1
 62
     7
176
     1
 40
1.0
176
     1
 90
        1
176
     1
 90
        6
176
     1
 90
        2
176
     1
 62
     7
176
     1
 90
        5
176
     1
 90
        0
176
     1
 90
        0
176
     1
290
     0
176
     1
 90
        1
176
     1
 40
0.0
176
     1
 90
        0
176
     1
290
     0
176
     1
290
     1
176
     1
290
     1
176
     1
290
     0
176
     1
290
     0
176
     1
290
     0
176
     1
290
     0
176
     1
290
     0
176
     1
290
     0
176
     1
 90
       50
176
     1
 40
0.0
176
     1
 40
1.0
176
     1
 90
        0
176
     1
 62
    18
420
        0
176
     1
 90
       50
176
     1
 90
        3
176
     1
 62
     5
420
      255
176
     1
290
     0
176
     1
 90
       50
176
     1
 90
       50
176
     1
 90
       50
176
     1
290
     0
176
     1
 90
       50
176
     1
 62
   256
176
     0
 40
1.0
176
     0
 90
        2
176
     1
  1
strokes_ogs.tif
176
     1
290
     0
176
     1
 40
1.0
176
     1
 40
1.0
176
     1
  0
VISUALSTYLE
  5
FB7C4
102
{ACAD_REACTORS
330
FB7C3
102
}
330
FB7C3
100
AcDbVisualStyle
  2
Flat
 70
     0
177
     3
291
     1
 70
    58
 90
        2
176
     1
 90
        1
176
     1
 90
        1
176
     1
 90
        2
176
     1
 40
0.6
176
     1
 40
30.0
176
     1
 62
     7
420
 16777215
176
     1
 90
        0
176
     1
 90
        0
176
     1
 62
     7
176
     1
 62
   257
176
     1
 90
        1
176
     1
 90
        1
176
     1
 40
1.0
176
     1
 90
        8
176
     1
 62
     7
176
     1
 40
1.0
176
     1
 90
        1
176
     1
 90
        6
176
     1
 90
        2
176
     1
 62
     7
176
     1
 90
        5
176
     1
 90
        0
176
     1
 90
        0
176
     1
290
     0
176
     1
 90
       13
176
     1
 40
0.0
176
     1
 90
        0
176
     1
290
     0
176
     1
290
     1
176
     1
290
     1
176
     1
290
     0
176
     1
290
     0
176
     1
290
     0
176
     1
290
     0
176
     1
290
     0
176
     1
290
     0
176
     1
 90
       50
176
     1
 40
0.0
176
     1
 40
1.0
176
     1
 90
        0
176
     1
 62
    18
420
        0
176
     1
 90
       50
176
     1
 90
        3
176
     1
 62
     5
420
      255
176
     1
290
     0
176
     1
 90
       50
176
     1
 90
       50
176
     1
 90
       50
176
     1
290
     0
176
     1
 90
       50
176
     1
 62
   256
176
     0
 40
1.0
176
     0
 90
        2
176
     1
  1
strokes_ogs.tif
176
     1
290
     0
176
     1
 40
1.0
176
     1
 40
1.0
176
     1
  0
VISUALSTYLE
  5
FB7C5
102
{ACAD_REACTORS
330
FB7C3
102
}
330
FB7C3
100
AcDbVisualStyle
  2
FlatWithEdges
 70
     1
177
     3
291
     1
 70
    58
 90
        2
176
     1
 90
        1
176
     1
 90
        1
176
     1
 90
        2
176
     1
 40
0.6
176
     1
 40
30.0
176
     1
 62
     7
420
 16777215
176
     1
 90
        1
176
     1
 90
        0
176
     1
 62
     7
176
     1
 62
   257
176
     1
 90
        1
176
     1
 90
        1
176
     1
 40
1.0
176
     1
 90
        0
176
     1
 62
   257
176
     1
 40
1.0
176
     1
 90
        1
176
     1
 90
        6
176
     1
 90
        2
176
     1
 62
     7
176
     1
 90
        5
176
     1
 90
        0
176
     1
 90
        0
176
     1
290
     0
176
     1
 90
       13
176
     1
 40
0.0
176
     1
 90
        0
176
     1
290
     0
176
     1
290
     1
176
     1
290
     1
176
     1
290
     0
176
     1
290
     0
176
     1
290
     0
176
     1
290
     0
176
     1
290
     0
176
     1
290
     0
176
     1
 90
       50
176
     1
 40
0.0
176
     1
 40
1.0
176
     1
 90
        0
176
     1
 62
    18
420
        0
176
     1
 90
       50
176
     1
 90
        3
176
     1
 62
     5
420
      255
176
     1
290
     0
176
     1
 90
       50
176
     1
 90
       50
176
     1
 90
       50
176
     1
290
     0
176
     1
 90
       50
176
     1
 62
   256
176
     0
 40
1.0
176
     0
 90
        2
176
     1
  1
strokes_ogs.tif
176
     1
290
     0
176
     1
 40
1.0
176
     1
 40
1.0
176
     1
  0
VISUALSTYLE
  5
FB7C6
102
{ACAD_REACTORS
330
FB7C3
102
}
330
FB7C3
100
AcDbVisualStyle
  2
Gouraud
 70
     2
177
     3
291
     1
 70
    58
 90
        2
176
     1
 90
        2
176
     1
 90
        1
176
     1
 90
        2
176
     1
 40
0.6
176
     1
 40
30.0
176
     1
 62
     7
420
 16777215
176
     1
 90
        0
176
     1
 90
        0
176
     1
 62
     7
176
     1
 62
   257
176
     1
 90
        1
176
     1
 90
        1
176
     1
 40
1.0
176
     1
 90
        0
176
     1
 62
     7
176
     1
 40
1.0
176
     1
 90
        1
176
     1
 90
        6
176
     1
 90
        2
176
     1
 62
     7
176
     1
 90
        5
176
     1
 90
        0
176
     1
 90
        0
176
     1
290
     0
176
     1
 90
       13
176
     1
 40
0.0
176
     1
 90
        0
176
     1
290
     0
176
     1
290
     1
176
     1
290
     1
176
     1
290
     0
176
     1
290
     0
176
     1
290
     0
176
     1
290
     0
176
     1
290
     0
176
     1
290
     0
176
     1
 90
       50
176
     1
 40
0.0
176
     1
 40
1.0
176
     1
 90
        0
176
     1
 62
    18
420
        0
176
     1
 90
       50
176
     1
 90
        3
176
     1
 62
     5
420
      255
176
     1
290
     0
176
     1
 90
       50
176
     1
 90
       50
176
     1
 90
       50
176
     1
290
     0
176
     1
 90
       50
176
     1
 62
   256
176
     0
 40
1.0
176
     0
 90
        2
176
     1
  1
strokes_ogs.tif
176
     1
290
     0
176
     1
 40
1.0
176
     1
 40
1.0
176
     1
  0
VISUALSTYLE
  5
FB7C7
102
{ACAD_REACTORS
330
FB7C3
102
}
330
FB7C3
100
AcDbVisualStyle
  2
GouraudWithEdges
 70
     3
177
     3
291
     1
 70
    58
 90
        2
176
     1
 90
        2
176
     1
 90
        1
176
     1
 90
        2
176
     1
 40
0.6
176
     1
 40
30.0
176
     1
 62
     7
420
 16777215
176
     1
 90
        1
176
     1
 90
        0
176
     1
 62
     7
176
     1
 62
   257
176
     1
 90
        1
176
     1
 90
        1
176
     1
 40
1.0
176
     1
 90
        0
176
     1
 62
   257
176
     1
 40
1.0
176
     1
 90
        1
176
     1
 90
        6
176
     1
 90
        2
176
     1
 62
     7
176
     1
 90
        5
176
     1
 90
        0
176
     1
 90
        0
176
     1
290
     0
176
     1
 90
       13
176
     1
 40
0.0
176
     1
 90
        0
176
     1
290
     0
176
     1
290
     1
176
     1
290
     1
176
     1
290
     0
176
     1
290
     0
176
     1
290
     0
176
     1
290
     0
176
     1
290
     0
176
     1
290
     0
176
     1
 90
       50
176
     1
 40
0.0
176
     1
 40
1.0
176
     1
 90
        0
176
     1
 62
    18
420
        0
176
     1
 90
       50
176
     1
 90
        3
176
     1
 62
     5
420
      255
176
     1
290
     0
176
     1
 90
       50
176
     1
 90
       50
176
     1
 90
       50
176
     1
290
     0
176
     1
 90
       50
176
     1
 62
   256
176
     0
 40
1.0
176
     0
 90
        2
176
     1
  1
strokes_ogs.tif
176
     1
290
     0
176
     1
 40
1.0
176
     1
 40
1.0
176
     1
  0
VISUALSTYLE
  5
FB7CA
102
{ACAD_REACTORS
330
FB7C3
102
}
330
FB7C3
100
AcDbVisualStyle
  2
Hidden
 70
     6
177
     3
291
     0
 70
    58
 90
        1
176
     1
 90
        2
176
     1
 90
        2
176
     1
 90
        0
176
     1
 40
0.6
176
     1
 40
30.0
176
     1
 62
     7
420
 16777215
176
     1
 90
        2
176
     1
 90
        2
176
     1
 62
     7
176
     1
 62
   257
176
     1
 90
        2
176
     1
 90
        1
176
     1
 40
40.0
176
     1
 90
        0
176
     1
 62
   257
176
     1
 40
1.0
176
     1
 90
        1
176
     1
 90
        6
176
     1
 90
        2
176
     1
 62
     7
176
     1
 90
        3
176
     1
 90
        0
176
     1
 90
        0
176
     1
290
     0
176
     1
 90
        1
176
     1
 40
0.0
176
     1
 90
        0
176
     1
290
     0
176
     1
290
     1
176
     1
290
     1
176
     1
290
     0
176
     1
290
     0
176
     1
290
     0
176
     1
290
     0
176
     1
290
     0
176
     1
290
     0
176
     1
 90
       50
176
     1
 40
0.0
176
     1
 40
1.0
176
     1
 90
        0
176
     1
 62
    18
420
        0
176
     1
 90
       50
176
     1
 90
        3
176
     1
 62
     5
420
      255
176
     1
290
     0
176
     1
 90
       50
176
     1
 90
       50
176
     1
 90
       50
176
     1
290
     0
176
     1
 90
       50
176
     1
 62
   256
176
     0
 40
1.0
176
     0
 90
        2
176
     1
  1
strokes_ogs.tif
176
     1
290
     0
176
     1
 40
1.0
176
     1
 40
1.0
176
     1
  0
VISUALSTYLE
  5
FB7D4
102
{ACAD_REACTORS
330
FB7C3
102
}
330
FB7C3
100
AcDbVisualStyle
  2
JitterOff
 70
    20
177
     3
291
     1
 70
    58
 90
        2
176
     0
 90
        2
176
     0
 90
        0
176
     0
 90
        0
176
     0
 40
0.6
176
     0
 40
30.0
176
     0
 62
     7
420
 16777215
176
     0
 90
        1
176
     0
 90
        4
176
     0
 62
     7
176
     0
 62
   257
176
     0
 90
        1
176
     0
 90
        1
176
     0
 40
1.0
176
     0
 90
       10
176
     2
 62
     7
176
     0
 40
1.0
176
     0
 90
        1
176
     0
 90
        6
176
     0
 90
        2
176
     0
 62
     7
176
     0
 90
        5
176
     0
 90
        0
176
     0
 90
        0
176
     0
290
     0
176
     0
 90
        1
176
     0
 40
0.0
176
     0
 90
        0
176
     0
290
     0
176
     0
290
     1
176
     0
290
     1
176
     0
290
     0
176
     0
290
     0
176
     0
290
     0
176
     0
290
     0
176
     0
290
     0
176
     0
290
     0
176
     0
 90
       50
176
     0
 40
0.0
176
     0
 40
1.0
176
     0
 90
        0
176
     0
 62
    18
420
        0
176
     0
 90
       50
176
     0
 90
        3
176
     0
 62
     5
420
      255
176
     0
290
     0
176
     0
 90
       50
176
     0
 90
       50
176
     0
 90
       50
176
     0
290
     0
176
     0
 90
       50
176
     0
 62
   256
176
     0
 40
1.0
176
     0
 90
        2
176
     0
  1
strokes_ogs.tif
176
     0
290
     0
176
     0
 40
1.0
176
     0
 40
1.0
176
     0
  0
VISUALSTYLE
  5
FB7D1
102
{ACAD_REACTORS
330
FB7C3
102
}
330
FB7C3
100
AcDbVisualStyle
  2
Linepattern
 70
    14
177
     3
291
     1
 70
    58
 90
        2
176
     1
 90
        2
176
     1
 90
        0
176
     1
 90
        0
176
     1
 40
0.6
176
     1
 40
30.0
176
     1
 62
     7
420
 16777215
176
     1
 90
        1
176
     1
 90
        4
176
     1
 62
     7
176
     1
 62
   257
176
     1
 90
        7
176
     1
 90
        7
176
     1
 40
1.0
176
     1
 90
        8
176
     1
 62
     7
176
     1
 40
1.0
176
     1
 90
        1
176
     1
 90
        6
176
     1
 90
        2
176
     1
 62
     7
176
     1
 90
        5
176
     1
 90
        0
176
     1
 90
        0
176
     1
290
     0
176
     1
 90
        1
176
     1
 40
0.0
176
     1
 90
        0
176
     1
290
     0
176
     1
290
     1
176
     1
290
     1
176
     1
290
     0
176
     1
290
     0
176
     1
290
     0
176
     1
290
     0
176
     1
290
     0
176
     1
290
     0
176
     1
 90
       50
176
     1
 40
0.0
176
     1
 40
1.0
176
     1
 90
        0
176
     1
 62
    18
420
        0
176
     1
 90
       50
176
     1
 90
        3
176
     1
 62
     5
420
      255
176
     1
290
     0
176
     1
 90
       50
176
     1
 90
       50
176
     1
 90
       50
176
     1
290
     0
176
     1
 90
       50
176
     1
 62
   256
176
     0
 40
1.0
176
     0
 90
        2
176
     1
  1
strokes_ogs.tif
176
     1
290
     0
176
     1
 40
1.0
176
     1
 40
1.0
176
     1
  0
VISUALSTYLE
  5
FB7D5
102
{ACAD_REACTORS
330
FB7C3
102
}
330
FB7C3
100
AcDbVisualStyle
  2
OverhangOff
 70
    21
177
     3
291
     1
 70
    58
 90
        2
176
     0
 90
        2
176
     0
 90
        0
176
     0
 90
        0
176
     0
 40
0.6
176
     0
 40
30.0
176
     0
 62
     7
420
 16777215
176
     0
 90
        1
176
     0
 90
        4
176
     0
 62
     7
176
     0
 62
   257
176
     0
 90
        1
176
     0
 90
        1
176
     0
 40
1.0
176
     0
 90
        9
176
     2
 62
     7
176
     0
 40
1.0
176
     0
 90
        1
176
     0
 90
        6
176
     0
 90
        2
176
     0
 62
     7
176
     0
 90
        5
176
     0
 90
        0
176
     0
 90
        0
176
     0
290
     0
176
     0
 90
        1
176
     0
 40
0.0
176
     0
 90
        0
176
     0
290
     0
176
     0
290
     1
176
     0
290
     1
176
     0
290
     0
176
     0
290
     0
176
     0
290
     0
176
     0
290
     0
176
     0
290
     0
176
     0
290
     0
176
     0
 90
       50
176
     0
 40
0.0
176
     0
 40
1.0
176
     0
 90
        0
176
     0
 62
    18
420
        0
176
     0
 90
       50
176
     0
 90
        3
176
     0
 62
     5
420
      255
176
     0
290
     0
176
     0
 90
       50
176
     0
 90
       50
176
     0
 90
       50
176
     0
290
     0
176
     0
 90
       50
176
     0
 62
   256
176
     0
 40
1.0
176
     0
 90
        2
176
     0
  1
strokes_ogs.tif
176
     0
290
     0
176
     0
 40
1.0
176
     0
 40
1.0
176
     0
  0
VISUALSTYLE
  5
FB7CC
102
{ACAD_REACTORS
330
FB7C3
102
}
330
FB7C3
100
AcDbVisualStyle
  2
Realistic
 70
     8
177
     3
291
     0
 70
    58
 90
        2
176
     1
 90
        3
176
     1
 90
        0
176
     1
 90
        2
176
     1
 40
0.6
176
     1
 40
30.0
176
     1
 62
     7
420
 16777215
176
     1
 90
        0
176
     1
 90
        0
176
     1
 62
     7
176
     1
 62
   257
176
     1
 90
        1
176
     1
 90
        1
176
     1
 40
1.0
176
     1
 90
        8
176
     1
 62
   257
176
     1
 40
1.0
176
     1
 90
        1
176
     1
 90
        6
176
     1
 90
        2
176
     1
 62
     7
176
     1
 90
        3
176
     1
 90
        0
176
     1
 90
        0
176
     1
290
     0
176
     1
 90
       13
176
     1
 40
0.0
176
     1
 90
        0
176
     1
290
     0
176
     1
290
     1
176
     1
290
     1
176
     1
290
     0
176
     1
290
     0
176
     1
290
     0
176
     1
290
     0
176
     1
290
     0
176
     1
290
     0
176
     1
 90
       50
176
     1
 40
0.0
176
     1
 40
1.0
176
     1
 90
        0
176
     1
 62
    18
420
        0
176
     1
 90
       50
176
     1
 90
        3
176
     1
 62
     5
420
      255
176
     1
290
     0
176
     1
 90
       50
176
     1
 90
       50
176
     1
 90
       50
176
     1
290
     0
176
     1
 90
       50
176
     1
 62
   256
176
     0
 40
1.0
176
     0
 90
        2
176
     1
  1
strokes_ogs.tif
176
     1
290
     0
176
     1
 40
1.0
176
     1
 40
1.0
176
     1
  0
VISUALSTYLE
  5
FB7DB
102
{ACAD_REACTORS
330
FB7C3
102
}
330
FB7C3
100
AcDbVisualStyle
  2
Shaded
 70
    27
177
     3
291
     0
 70
    58
 90
        2
176
     1
 90
        2
176
     1
 90
        1
176
     1
 90
        2
176
     1
 40
0.6
176
     1
 40
30.0
176
     1
 62
     7
420
 16777215
176
     1
 90
        0
176
     1
 90
        4
176
     1
 62
     7
176
     1
 62
   257
176
     1
 90
        1
176
     1
 90
        1
176
     1
 40
1.0
176
     1
 90
        8
176
     1
 62
   257
176
     1
 40
1.0
176
     1
 90
        1
176
     1
 90
        6
176
     1
 90
        2
176
     1
 62
     8
420
  7895160
176
     1
 90
        3
176
     1
 90
        0
176
     1
 90
        0
176
     1
290
     0
176
     1
 90
        5
176
     1
 40
0.0
176
     1
 90
        0
176
     1
290
     0
176
     1
290
     1
176
     1
290
     1
176
     1
290
     0
176
     1
290
     0
176
     1
290
     0
176
     1
290
     0
176
     1
290
     0
176
     1
290
     0
176
     1
 90
       50
176
     1
 40
0.0
176
     1
 40
1.0
176
     1
 90
        0
176
     1
 62
    18
420
        0
176
     1
 90
       50
176
     1
 90
        3
176
     1
 62
     5
420
      255
176
     1
290
     0
176
     1
 90
       50
176
     1
 90
       50
176
     1
 90
       50
176
     1
290
     0
176
     1
 90
       50
176
     1
 62
   256
176
     0
 40
1.0
176
     0
 90
        2
176
     1
  1
strokes_ogs.tif
176
     1
290
     0
176
     1
 40
1.0
176
     1
 40
1.0
176
     1
  0
VISUALSTYLE
  5
FB7DA
102
{ACAD_REACTORS
330
FB7C3
102
}
330
FB7C3
100
AcDbVisualStyle
  2
Shaded with edges
 70
    26
177
     3
291
     0
 70
    58
 90
        2
176
     1
 90
        2
176
     1
 90
        1
176
     1
 90
        2
176
     1
 40
0.6
176
     1
 40
30.0
176
     1
 62
     7
420
 16777215
176
     1
 90
        1
176
     1
 90
       10
176
     1
 62
     7
176
     1
 62
   257
176
     1
 90
        2
176
     1
 90
        1
176
     1
 40
1.0
176
     1
 90
        8
176
     1
 62
   257
176
     1
 40
1.0
176
     1
 90
        1
176
     1
 90
        6
176
     1
 90
        2
176
     1
 62
     7
176
     1
 90
        3
176
     1
 90
        0
176
     1
 90
        0
176
     1
290
     0
176
     1
 90
        5
176
     1
 40
0.0
176
     1
 90
        0
176
     1
290
     0
176
     1
290
     1
176
     1
290
     1
176
     1
290
     0
176
     1
290
     0
176
     1
290
     0
176
     1
290
     0
176
     1
290
     0
176
     1
290
     0
176
     1
 90
       50
176
     1
 40
0.0
176
     1
 40
1.0
176
     1
 90
        0
176
     1
 62
    18
420
        0
176
     1
 90
       50
176
     1
 90
        3
176
     1
 62
     5
420
      255
176
     1
290
     0
176
     1
 90
       50
176
     1
 90
       50
176
     1
 90
       50
176
     1
290
     0
176
     1
 90
       50
176
     1
 62
   256
176
     0
 40
1.0
176
     0
 90
        2
176
     1
  1
strokes_ogs.tif
176
     1
290
     0
176
     1
 40
1.0
176
     1
 40
1.0
176
     1
  0
VISUALSTYLE
  5
FB7D7
102
{ACAD_REACTORS
330
FB7C3
102
}
330
FB7C3
100
AcDbVisualStyle
  2
Shades of Gray
 70
    23
177
     3
291
     0
 70
    58
 90
        2
176
     1
 90
        2
176
     1
 90
        3
176
     1
 90
        0
176
     1
 40
0.6
176
     1
 40
30.0
176
     1
 62
     7
420
 16777215
176
     1
 90
        2
176
     1
 90
        2
176
     1
 62
     7
176
     1
 62
     7
176
     1
 90
        1
176
     1
 90
        1
176
     1
 40
40.0
176
     1
 90
        8
176
     1
 62
     7
176
     1
 40
1.0
176
     1
 90
        1
176
     1
 90
        6
176
     1
 90
        2
176
     1
 62
     7
176
     1
 90
        3
176
     1
 90
        0
176
     1
 90
        0
176
     1
290
     0
176
     1
 90
        1
176
     1
 40
0.0
176
     1
 90
        0
176
     1
290
     0
176
     1
290
     1
176
     1
290
     1
176
     1
290
     0
176
     1
290
     0
176
     1
290
     0
176
     1
290
     0
176
     1
290
     0
176
     1
290
     0
176
     1
 90
       50
176
     1
 40
0.0
176
     1
 40
1.0
176
     1
 90
        0
176
     1
 62
    18
420
        0
176
     1
 90
       50
176
     1
 90
        3
176
     1
 62
     5
420
      255
176
     1
290
     0
176
     1
 90
       50
176
     1
 90
       50
176
     1
 90
       50
176
     1
290
     0
176
     1
 90
       50
176
     1
 62
   256
176
     0
 40
1.0
176
     0
 90
        2
176
     1
  1
strokes_ogs.tif
176
     1
290
     0
176
     1
 40
1.0
176
     1
 40
1.0
176
     1
  0
VISUALSTYLE
  5
FB7D8
102
{ACAD_REACTORS
330
FB7C3
102
}
330
FB7C3
100
AcDbVisualStyle
  2
Sketchy
 70
    24
177
     3
291
     0
 70
    58
 90
        1
176
     1
 90
        2
176
     1
 90
        2
176
     1
 90
        0
176
     1
 40
0.6
176
     1
 40
30.0
176
     1
 62
     7
420
 16777215
176
     1
 90
        2
176
     1
 90
        2
176
     1
 62
     7
176
     1
 62
     7
176
     1
 90
        1
176
     1
 90
        1
176
     1
 40
40.0
176
     1
 90
       11
176
     1
 62
     7
176
     1
 40
1.0
176
     1
 90
        1
176
     1
 90
        6
176
     1
 90
        2
176
     1
 62
     7
176
     1
 90
        6
176
     1
 90
        0
176
     1
 90
        0
176
     1
290
     0
176
     1
 90
        1
176
     1
 40
0.0
176
     1
 90
        0
176
     1
290
     0
176
     1
290
     1
176
     1
290
     1
176
     1
290
     0
176
     1
290
     0
176
     1
290
     0
176
     1
290
     0
176
     1
290
     0
176
     1
290
     0
176
     1
 90
       50
176
     1
 40
0.0
176
     1
 40
1.0
176
     1
 90
        0
176
     1
 62
    18
420
        0
176
     1
 90
       50
176
     1
 90
        3
176
     1
 62
     5
420
      255
176
     1
290
     0
176
     1
 90
       50
176
     1
 90
       50
176
     1
 90
       50
176
     1
290
     0
176
     1
 90
       50
176
     1
 62
   256
176
     0
 40
1.0
176
     0
 90
        2
176
     1
  1
strokes_ogs.tif
176
     1
290
     0
176
     1
 40
1.0
176
     1
 40
1.0
176
     1
  0
VISUALSTYLE
  5
FB7D0
102
{ACAD_REACTORS
330
FB7C3
102
}
330
FB7C3
100
AcDbVisualStyle
  2
Thicken
 70
    13
177
     3
291
     1
 70
    58
 90
        2
176
     1
 90
        2
176
     1
 90
        0
176
     1
 90
        0
176
     1
 40
0.6
176
     1
 40
30.0
176
     1
 62
     7
420
 16777215
176
     1
 90
        1
176
     1
 90
        4
176
     1
 62
     7
176
     1
 62
   257
176
     1
 90
        1
176
     1
 90
        1
176
     1
 40
1.0
176
     1
 90
       12
176
     1
 62
     7
176
     1
 40
1.0
176
     1
 90
        1
176
     1
 90
        6
176
     1
 90
        2
176
     1
 62
     7
176
     1
 90
        5
176
     1
 90
        0
176
     1
 90
        0
176
     1
290
     0
176
     1
 90
        1
176
     1
 40
0.0
176
     1
 90
        0
176
     1
290
     0
176
     1
290
     1
176
     1
290
     1
176
     1
290
     0
176
     1
290
     0
176
     1
290
     0
176
     1
290
     0
176
     1
290
     0
176
     1
290
     0
176
     1
 90
       50
176
     1
 40
0.0
176
     1
 40
1.0
176
     1
 90
        0
176
     1
 62
    18
420
        0
176
     1
 90
       50
176
     1
 90
        3
176
     1
 62
     5
420
      255
176
     1
290
     0
176
     1
 90
       50
176
     1
 90
       50
176
     1
 90
       50
176
     1
290
     0
176
     1
 90
       50
176
     1
 62
   256
176
     0
 40
1.0
176
     0
 90
        2
176
     1
  1
strokes_ogs.tif
176
     1
290
     0
176
     1
 40
1.0
176
     1
 40
1.0
176
     1
  0
VISUALSTYLE
  5
FB7C9
102
{ACAD_REACTORS
330
FB7C3
102
}
330
FB7C3
100
AcDbVisualStyle
  2
Wireframe
 70
     5
177
     3
291
     0
 70
    58
 90
        0
176
     1
 90
        2
176
     1
 90
        0
176
     1
 90
        0
176
     1
 40
0.6
176
     1
 40
30.0
176
     1
 62
     7
420
 16777215
176
     1
 90
        1
176
     1
 90
        4
176
     1
 62
     7
176
     1
 62
   257
176
     1
 90
        1
176
     1
 90
        1
176
     1
 40
1.0
176
     1
 90
        0
176
     1
 62
   257
176
     1
 40
1.0
176
     1
 90
        1
176
     1
 90
        6
176
     1
 90
        2
176
     1
 62
     7
176
     1
 90
        3
176
     1
 90
        0
176
     1
 90
        0
176
     1
290
     0
176
     1
 90
        1
176
     1
 40
0.0
176
     1
 90
        0
176
     1
290
     0
176
     1
290
     1
176
     1
290
     1
176
     1
290
     0
176
     1
290
     0
176
     1
290
     0
176
     1
290
     0
176
     1
290
     0
176
     1
290
     0
176
     1
 90
       50
176
     1
 40
0.0
176
     1
 40
1.0
176
     1
 90
        0
176
     1
 62
    18
420
        0
176
     1
 90
       50
176
     1
 90
        3
176
     1
 62
     5
420
      255
176
     1
290
     0
176
     1
 90
       50
176
     1
 90
       50
176
     1
 90
       50
176
     1
290
     0
176
     1
 90
       50
176
     1
 62
   256
176
     0
 40
1.0
176
     0
 90
        2
176
     1
  1
strokes_ogs.tif
176
     1
290
     0
176
     1
 40
1.0
176
     1
 40
1.0
176
     1
  0
VISUALSTYLE
  5
FB7D9
102
{ACAD_REACTORS
330
FB7C3
102
}
330
FB7C3
100
AcDbVisualStyle
  2
X-Ray
 70
    25
177
     3
291
     0
 70
    58
 90
        2
176
     1
 90
        2
176
     1
 90
        1
176
     1
 90
        1
176
     1
 40
0.5
176
     1
 40
30.0
176
     1
 62
     7
420
 16777215
176
     1
 90
        1
176
     1
 90
        0
176
     1
 62
     7
176
     1
 62
   257
176
     1
 90
        1
176
     1
 90
        1
176
     1
 40
1.0
176
     1
 90
        8
176
     1
 62
     7
176
     1
 40
1.0
176
     1
 90
        1
176
     1
 90
        6
176
     1
 90
        2
176
     1
 62
     7
176
     1
 90
        3
176
     1
 90
        0
176
     1
 90
        0
176
     1
290
     0
176
     1
 90
       13
176
     1
 40
0.0
176
     1
 90
        0
176
     1
290
     0
176
     1
290
     1
176
     1
290
     1
176
     1
290
     0
176
     1
290
     0
176
     1
290
     0
176
     1
290
     0
176
     1
290
     0
176
     1
290
     0
176
     1
 90
       50
176
     1
 40
0.0
176
     1
 40
1.0
176
     1
 90
        0
176
     1
 62
    18
420
        0
176
     1
 90
       50
176
     1
 90
        3
176
     1
 62
     5
420
      255
176
     1
290
     0
176
     1
 90
       50
176
     1
 90
       50
176
     1
 90
       50
176
     1
290
     0
176
     1
 90
       50
176
     1
 62
   256
176
     0
 40
1.0
176
     0
 90
        2
176
     1
  1
strokes_ogs.tif
176
     1
290
     0
176
     1
 40
1.0
176
     1
 40
1.0
176
     1
  0
DICTIONARYVAR
  5
FB82E
102
{ACAD_REACTORS
330
FB82D
102
}
330
FB82D
100
DictionaryVariables
280
     0
  1
1:1
  0
DICTIONARYVAR
  5
FB830
102
{ACAD_REACTORS
330
FB82D
102
}
330
FB82D
100
DictionaryVariables
280
     0
  1
Standard
  0
DICTIONARYVAR
  5
FB82F
102
{ACAD_REACTORS
330
FB82D
102
}
330
FB82D
100
DictionaryVariables
280
     0
  1
Standard
  0
DICTIONARYVAR
  5
FB831
102
{ACAD_REACTORS
330
FB82D
102
}
330
FB82D
100
DictionaryVariables
280
     0
  1
0
  0
DICTIONARY
  5
FBEB8
330
FB7DD
100
AcDbDictionary
280
     1
281
     1
  3
ACAD_ROUNDTRIP_2008_TABLESTYLE_CELLSTYLEMAP
360
FBEB9
  0
CELLSTYLEMAP
  5
FBEB9
102
{ACAD_REACTORS
330
FBEB8
102
}
330
FBEB8
100
AcDbCellStyleMap
 90
        3
300
CELLSTYLE
  1
TABLEFORMAT_BEGIN
 90
        5
170
     1
 91
        0
 92
    32768
 62
   257
 93
        1
300
CONTENTFORMAT
  1
CONTENTFORMAT_BEGIN
 90
        0
 91
        0
 92
        4
 93
        0
300

 40
0.0
140
1.0
 94
        5
 62
     0
340
FB758
144
0.25
309
CONTENTFORMAT_END
171
     1
301
MARGIN
  1
CELLMARGIN_BEGIN
 40
0.06
 40
0.06
 40
0.06
 40
0.06
 40
0.06
 40
0.06
309
CELLMARGIN_END
 94
        6
 95
        1
302
GRIDFORMAT
  1
GRIDFORMAT_BEGIN
 90
        0
 91
        1
 62
     0
 92
       -2
340
FB75A
 93
        0
 40
0.045
309
GRIDFORMAT_END
 95
        2
302
GRIDFORMAT
  1
GRIDFORMAT_BEGIN
 90
        0
 91
        1
 62
     0
 92
       -2
340
FB75A
 93
        0
 40
0.045
309
GRIDFORMAT_END
 95
        4
302
GRIDFORMAT
  1
GRIDFORMAT_BEGIN
 90
        0
 91
        1
 62
     0
 92
       -2
340
FB75A
 93
        0
 40
0.045
309
GRIDFORMAT_END
 95
        8
302
GRIDFORMAT
  1
GRIDFORMAT_BEGIN
 90
        0
 91
        1
 62
     0
 92
       -2
340
FB75A
 93
        0
 40
0.045
309
GRIDFORMAT_END
 95
       16
302
GRIDFORMAT
  1
GRIDFORMAT_BEGIN
 90
        0
 91
        1
 62
     0
 92
       -2
340
FB75A
 93
        0
 40
0.045
309
GRIDFORMAT_END
 95
       32
302
GRIDFORMAT
  1
GRIDFORMAT_BEGIN
 90
        0
 91
        1
 62
     0
 92
       -2
340
FB75A
 93
        0
 40
0.045
309
GRIDFORMAT_END
309
TABLEFORMAT_END
  1
CELLSTYLE_BEGIN
 90
        1
 91
        1
300
_TITLE
309
CELLSTYLE_END
300
CELLSTYLE
  1
TABLEFORMAT_BEGIN
 90
        5
170
     1
 91
        0
 92
        0
 62
   257
 93
        1
300
CONTENTFORMAT
  1
CONTENTFORMAT_BEGIN
 90
        0
 91
        0
 92
        4
 93
        0
300

 40
0.0
140
1.0
 94
        5
 62
     0
340
FB758
144
0.18
309
CONTENTFORMAT_END
171
     1
301
MARGIN
  1
CELLMARGIN_BEGIN
 40
0.06
 40
0.06
 40
0.06
 40
0.06
 40
0.06
 40
0.06
309
CELLMARGIN_END
 94
        6
 95
        1
302
GRIDFORMAT
  1
GRIDFORMAT_BEGIN
 90
        0
 91
        1
 62
     0
 92
       -2
340
FB75A
 93
        0
 40
0.045
309
GRIDFORMAT_END
 95
        2
302
GRIDFORMAT
  1
GRIDFORMAT_BEGIN
 90
        0
 91
        1
 62
     0
 92
       -2
340
FB75A
 93
        0
 40
0.045
309
GRIDFORMAT_END
 95
        4
302
GRIDFORMAT
  1
GRIDFORMAT_BEGIN
 90
        0
 91
        1
 62
     0
 92
       -2
340
FB75A
 93
        0
 40
0.045
309
GRIDFORMAT_END
 95
        8
302
GRIDFORMAT
  1
GRIDFORMAT_BEGIN
 90
        0
 91
        1
 62
     0
 92
       -2
340
FB75A
 93
        0
 40
0.045
309
GRIDFORMAT_END
 95
       16
302
GRIDFORMAT
  1
GRIDFORMAT_BEGIN
 90
        0
 91
        1
 62
     0
 92
       -2
340
FB75A
 93
        0
 40
0.045
309
GRIDFORMAT_END
 95
       32
302
GRIDFORMAT
  1
GRIDFORMAT_BEGIN
 90
        0
 91
        1
 62
     0
 92
       -2
340
FB75A
 93
        0
 40
0.045
309
GRIDFORMAT_END
309
TABLEFORMAT_END
  1
CELLSTYLE_BEGIN
 90
        2
 91
        1
300
_HEADER
309
CELLSTYLE_END
300
CELLSTYLE
  1
TABLEFORMAT_BEGIN
 90
        5
170
     1
 91
        0
 92
        0
 62
   257
 93
        1
300
CONTENTFORMAT
  1
CONTENTFORMAT_BEGIN
 90
        0
 91
        0
 92
        4
 93
        0
300

 40
0.0
140
1.0
 94
        2
 62
     0
340
FB758
144
0.18
309
CONTENTFORMAT_END
171
     1
301
MARGIN
  1
CELLMARGIN_BEGIN
 40
0.06
 40
0.06
 40
0.06
 40
0.06
 40
0.06
 40
0.06
309
CELLMARGIN_END
 94
        6
 95
        1
302
GRIDFORMAT
  1
GRIDFORMAT_BEGIN
 90
        0
 91
        1
 62
     0
 92
       -2
340
FB75A
 93
        0
 40
0.045
309
GRIDFORMAT_END
 95
        2
302
GRIDFORMAT
  1
GRIDFORMAT_BEGIN
 90
        0
 91
        1
 62
     0
 92
       -2
340
FB75A
 93
        0
 40
0.045
309
GRIDFORMAT_END
 95
        4
302
GRIDFORMAT
  1
GRIDFORMAT_BEGIN
 90
        0
 91
        1
 62
     0
 92
       -2
340
FB75A
 93
        0
 40
0.045
309
GRIDFORMAT_END
 95
        8
302
GRIDFORMAT
  1
GRIDFORMAT_BEGIN
 90
        0
 91
        1
 62
     0
 92
       -2
340
FB75A
 93
        0
 40
0.045
309
GRIDFORMAT_END
 95
       16
302
GRIDFORMAT
  1
GRIDFORMAT_BEGIN
 90
        0
 91
        1
 62
     0
 92
       -2
340
FB75A
 93
        0
 40
0.045
309
GRIDFORMAT_END
 95
       32
302
GRIDFORMAT
  1
GRIDFORMAT_BEGIN
 90
        0
 91
        1
 62
     0
 92
       -2
340
FB75A
 93
        0
 40
0.045
309
GRIDFORMAT_END
309
TABLEFORMAT_END
  1
CELLSTYLE_BEGIN
 90
        3
 91
        2
300
_DATA
309
CELLSTYLE_END
  0
ENDSEC
  0
EOF
