  0
SECTION
  2
HEADER
  9
$ACADVER
  1
AC1009
  9
$INSBASE
 10
0.0
 20
0.0
 30
0.0
  9
$EXTMIN
 10
-4015.6519383825798
 20
-988.15686300558798
 30
-0.000000000000013
  9
$EXTMAX
 10
46909.948446130547
 20
14792.84821269452
 30
0.0000000000000023
  9
$LIMMIN
 10
0.0
 20
0.0
  9
$LIMMAX
 10
12.0
 20
9.0
  9
$ORTHOMODE
 70
     1
  9
$REGENMODE
 70
     1
  9
$FILLMODE
 70
     1
  9
$QTEXTMODE
 70
     0
  9
$MIRRTEXT
 70
     0
  9
$DRAGMODE
 70
     0
  9
$LTSCALE
 40
5.0
  9
$OSMODE
 70
  2195
  9
$ATTMODE
 70
     1
  9
$TEXTSIZE
 40
19.0
  9
$TRACEWID
 40
0.05
  9
$TEXTSTYLE
  7
STILE1
  9
$CLAYER
  8
0
  9
$CELTYPE
  6
BYLAYER
  9
$CECOLOR
 62
   256
  9
$DIMSCALE
 40
50.0
  9
$DIMASZ
 40
2.5
  9
$DIMEXO
 40
1.0
  9
$DIMDLI
 40
0.0
  9
$DIMRND
 40
0.0
  9
$DIMDLE
 40
0.0
  9
$DIMEXE
 40
1.0
  9
$DIMTP
 40
0.0
  9
$DIMTM
 40
0.0
  9
$DIMTXT
 40
2.5
  9
$DIMCEN
 40
1.0
  9
$DIMTSZ
 40
0.0
  9
$DIMTOL
 70
     0
  9
$DIMLIM
 70
     0
  9
$DIMTIH
 70
     0
  9
$DIMTOH
 70
     0
  9
$DIMSE1
 70
     0
  9
$DIMSE2
 70
     0
  9
$DIMTAD
 70
     1
  9
$DIMZIN
 70
     8
  9
$DIMBLK
  1

  9
$DIMASO
 70
     1
  9
$DIMSHO
 70
     0
  9
$DIMPOST
  1

  9
$DIMAPOST
  1

  9
$DIMALT
 70
     0
  9
$DIMALTD
 70
     2
  9
$DIMALTF
 40
25.399999999999999
  9
$DIMLFAC
 40
1.0
  9
$DIMTOFL
 70
     1
  9
$DIMTVP
 40
0.0
  9
$DIMTIX
 70
     1
  9
$DIMSOXD
 70
     0
  9
$DIMSAH
 70
     0
  9
$DIMBLK1
  1

  9
$DIMBLK2
  1

  9
$DIMSTYLE
  2
STANDARD
  9
$DIMCLRD
 70
     0
  9
$DIMCLRE
 70
     0
  9
$DIMCLRT
 70
     0
  9
$DIMTFAC
 40
1.0
  9
$DIMGAP
 40
1.5
  9
$LUNITS
 70
     2
  9
$LUPREC
 70
     4
  9
$SKETCHINC
 40
0.1
  9
$FILLETRAD
 40
20.0
  9
$AUNITS
 70
     0
  9
$AUPREC
 70
     0
  9
$MENU
  1
acad
  9
$ELEVATION
 40
0.0
  9
$PELEVATION
 40
0.0
  9
$THICKNESS
 40
0.0
  9
$LIMCHECK
 70
     0
  9
$BLIPMODE
 70
     0
  9
$CHAMFERA
 40
1200.0
  9
$CHAMFERB
 40
1200.0
  9
$SKPOLY
 70
     0
  9
$TDCREATE
 40
2450277.5043077548
  9
$TDUPDATE
 40
2458930.6665082411
  9
$TDINDWG
 40
26.4549095486
  9
$TDUSRTIMER
 40
2456547.7972390619
  9
$USRTIMER
 70
     1
  9
$ANGBASE
 50
0.0
  9
$ANGDIR
 70
     0
  9
$PDMODE
 70
     0
  9
$PDSIZE
 40
0.0
  9
$PLINEWID
 40
0.0
  9
$COORDS
 70
     0
  9
$SPLFRAME
 70
     0
  9
$SPLINETYPE
 70
     6
  9
$SPLINESEGS
 70
     8
  9
$ATTDIA
 70
     0
  9
$ATTREQ
 70
     1
  9
$HANDLING
 70
     1
  9
$HANDSEED
  5
FB749
  9
$SURFTAB1
 70
     6
  9
$SURFTAB2
 70
     6
  9
$SURFTYPE
 70
     6
  9
$SURFU
 70
     6
  9
$SURFV
 70
     6
  9
$UCSNAME
  2

  9
$UCSORG
 10
0.0
 20
0.0
 30
0.0
  9
$UCSXDIR
 10
1.0
 20
0.0
 30
0.0
  9
$UCSYDIR
 10
0.0
 20
1.0
 30
0.0
  9
$PUCSNAME
  2

  9
$PUCSORG
 10
0.0
 20
0.0
 30
0.0
  9
$PUCSXDIR
 10
1.0
 20
0.0
 30
0.0
  9
$PUCSYDIR
 10
0.0
 20
1.0
 30
0.0
  9
$USERI1
 70
     0
  9
$USERI2
 70
     0
  9
$USERI3
 70
     0
  9
$USERI4
 70
     0
  9
$USERI5
 70
     0
  9
$USERR1
 40
0.0
  9
$USERR2
 40
0.0
  9
$USERR3
 40
0.0
  9
$USERR4
 40
0.0
  9
$USERR5
 40
0.0
  9
$WORLDVIEW
 70
     0
  9
$SHADEDGE
 70
     3
  9
$SHADEDIF
 70
    70
  9
$TILEMODE
 70
     1
  9
$MAXACTVP
 70
    16
  9
$PLIMCHECK
 70
     0
  9
$PEXTMIN
 10
0.0
 20
0.0
 30
0.0
  9
$PEXTMAX
 10
0.0
 20
0.0
 30
0.0
  9
$PLIMMIN
 10
0.0
 20
0.0
  9
$PLIMMAX
 10
12.0
 20
9.0
  9
$UNITMODE
 70
     0
  9
$VISRETAIN
 70
     0
  9
$PLINEGEN
 70
     0
  9
$PSLTSCALE
 70
     1
  0
ENDSEC
  0
SECTION
  2
TABLES
  0
TABLE
  2
VPORT
 70
     2
  0
VPORT
  2
*ACTIVE
 70
     0
 10
0.0
 20
0.0
 11
1.0
 21
1.0
 12
21447.14825387398
 22
6902.345674844466
 13
0.0
 23
0.0
 14
1.0
 24
1.0
 15
0.0
 25
0.0
 16
0.0
 26
0.0
 36
1.0
 17
0.0
 27
0.0
 37
0.0
 40
23034.060939968029
 41
2.2216216216216211
 42
50.0
 43
0.0
 44
0.0
 50
0.0
 51
0.0
 71
    16
 72
   100
 73
     1
 74
     1
 75
     0
 76
     1
 77
     0
 78
     0
  0
ENDTAB
  0
TABLE
  2
LTYPE
 70
     1
  0
LTYPE
  2
CONTINUOUS
 70
     0
  3
Solid line
 72
    65
 73
     0
 40
0.0
  0
ENDTAB
  0
TABLE
  2
LAYER
 70
     2
  0
LAYER
  2
0
 70
     0
 62
     7
  6
CONTINUOUS
  0
LAYER
  2
DEFPOINTS
 70
     0
 62
     7
  6
CONTINUOUS
  0
ENDTAB
  0
TABLE
  2
STYLE
 70
     2
  0
STYLE
  2
STANDARD
 70
     0
 40
0.0
 41
1.0
 50
0.0
 71
     0
 42
2.5
  3
txt
  4

  0
STYLE
  2
STILE1
 70
     0
 40
0.0
 41
1.0
 50
0.0
 71
     0
 42
19.0
  3
ROMANS.SHX
  4

  0
ENDTAB
  0
TABLE
  2
VIEW
 70
     0
  0
ENDTAB
  0
TABLE
  2
UCS
 70
     0
  0
ENDTAB
  0
TABLE
  2
APPID
 70
    40
  0
APPID
  2
ACAD
 70
     0
  0
APPID
  2
DCO15
 70
     0
  0
APPID
  2
ACAECLAYERSTANDARD
 70
     0
  0
APPID
  2
ACDBDYNAMICBLOCKGUID
 70
     0
  0
APPID
  2
ACDBBLOCKREPETAG
 70
     0
  0
APPID
  2
ACAD_PSEXT
 70
     0
  0
APPID
  2
ACAD_DSTYLE_DIMJAG
 70
     0
  0
APPID
  2
ACAD_DSTYLE_DIMTALN
 70
     0
  0
APPID
  2
ACAD_DSTYLE_DIMRADIAL_EXTE
 70
     0
  0
APPID
  2
RAK
 70
     0
  0
APPID
  2
ACLAYERTOOLS
 70
     0
  0
APPID
  2
REVIT
 70
     0
  0
APPID
  2
ACAD_MLEADERVER
 70
     0
  0
APPID
  2
ACAD_DSTYLE_DIMBREAK
 70
     0
  0
APPID
  2
ACCMTRANSPARENCY
 70
     0
  0
APPID
  2
ACAD_NAV_VCDISPLAY
 70
     0
  0
APPID
  2
GRADIENTCOLOR1ACI
 70
     0
  0
APPID
  2
GRADIENTCOLOR2ACI
 70
     0
  0
APPID
  2
PROGE_PRINT_SETTINGS
 70
     0
  0
APPID
  2
AA_WLPR
 70
     0
  0
APPID
  2
AA_WLENT
 70
     0
  0
APPID
  2
AA_WLTP
 70
     0
  0
APPID
  2
AA_WLBK
 70
     0
  0
APPID
  2
ACAD_DSTYLE_DIMJOGGED_JOGA
 70
     0
  0
APPID
  2
$DDT_AUDIT_GENERATED__2CAF
 70
     0
  0
APPID
  2
ACAD_DSTYLE_DIMEXT_LENGTH
 70
     0
  0
APPID
  2
ACAD_DSTYLE_DIMEXT_ENABLED
 70
     0
  0
APPID
  2
ACAD_DSTYLE_DIMJOGGED_JOG0
 70
     0
  0
APPID
  2
ACAD_DSTYLE_DIMARC_LENGTH_
 70
     0
  0
APPID
  2
C_AND_O
 70
     0
  0
APPID
  2
AVE_FINISH
 70
     0
  0
APPID
  2
AVE_RENDER
 70
     0
  0
APPID
  2
AVE_ENTITY_MATERIAL
 70
     0
  0
APPID
  2
AVE_MATERIAL
 70
     0
  0
APPID
  2
ADDC5$_$SETUP-
 70
     0
  0
APPID
  2
ADDC4$_$SETUP-
 70
     0
  0
APPID
  2
ADDC4$_$ARTSETUP-
 70
     0
  0
APPID
  2
GENIUS_GENODEF_13
 70
     0
  0
APPID
  2
GENIUS_GENOBJ-N-REC_13
 70
     0
  0
APPID
  2
GENIUS_GENREC_14
 70
     0
  0
ENDTAB
  0
TABLE
  2
DIMSTYLE
 70
     1
  0
DIMSTYLE
  2
STANDARD
 70
     0
  3

  4

  5

  6

  7

 40
1.0
 41
0.18
 42
0.0625
 43
0.38
 44
0.18
 45
0.0
 46
0.0
 47
0.0
 48
0.0
140
0.18
141
0.09
142
0.0
143
25.399999999999999
144
1.0
145
0.0
146
1.0
147
0.09
 71
     0
 72
     0
 73
     1
 74
     1
 75
     0
 76
     0
 77
     0
 78
     0
170
     0
171
     2
172
     0
173
     0
174
     0
175
     0
176
     0
177
     0
178
     0
  0
ENDTAB
  0
ENDSEC
  0
SECTION
  2
BLOCKS
  0
BLOCK
  8
0
  2
$MODEL_SPACE
 70
     0
 10
0.0
 20
0.0
 30
0.0
  3
$MODEL_SPACE
  1

  0
ENDBLK
  5
FA869
  8
0
  0
BLOCK
 67
     1
  8
0
  2
$PAPER_SPACE
 70
     0
 10
0.0
 20
0.0
 30
0.0
  3
$PAPER_SPACE
  1

  0
ENDBLK
  5
FA865
 67
     1
  8
0
  0
BLOCK
  8
0
  2
*U7
 70
     1
 10
0.0
 20
0.0
 30
0.0
  3
*U7
  1

  0
TEXT
  5
FB73E
  8
0
 62
     0
 10
2407.3456267891729
 20
8955.1358531961068
 30
0.0
 40
125.0
  1
2530
 50
90.0
  0
ENDBLK
  5
FB740
  8
0
  0
BLOCK
  8
0
  2
*U8
 70
     1
 10
0.0
 20
0.0
 30
0.0
  3
*U8
  1

  0
TEXT
  5
FB742
  8
0
 62
     0
 10
44505.348519153224
 20
2709.3588697169971
 30
0.0
 40
125.0
  1
2530
 50
90.0
  0
ENDBLK
  5
FB744
  8
0
  0
BLOCK
  8
0
  2
*U9
 70
     1
 10
0.0
 20
0.0
 30
0.0
  3
*U9
  1

  0
TEXT
  5
FB746
  8
0
 62
     0
 10
15915.678202991779
 20
2709.3588697169989
 30
0.0
 40
125.0
  1
2530
 50
90.0
  0
ENDBLK
  5
FB748
  8
0
  0
ENDSEC
  0
SECTION
  2
ENTITIES
  0
LINE
  5
DD2BF
  8
0
 10
4012.6859741192311
 20
0.0000000000002274
 30
0.0
 11
4012.6859741192311
 21
-987.65764702693525
 31
0.0
  0
TEXT
  5
DD2C0
  8
0
 10
2240.394546378192
 20
-208.9254166234015
 30
0.0
 40
125.0
  1
2020-03
  7
STILE1
 72
     1
 11
2674.9183559020012
 21
-208.9254166234015
 31
0.0
  0
LINE
  5
DD2C1
  8
0
 10
1337.561991373077
 20
-299.99655490391888
 30
0.0
 11
1337.561991373077
 21
0.0
 31
0.0
  0
LINE
  5
DD2C2
  8
0
 10
-1337.561991373077
 20
0.0
 30
0.0
 11
-1337.561991373077
 21
-987.65764702693525
 31
0.0
  0
POLYLINE
  5
DD2C3
  8
0
 66
     1
 10
0.0
 20
0.0
 30
0.0
 70
     1
  0
VERTEX
  5
FA900
  8
0
 10
-4012.6859741192311
 20
0.0
 30
0.0
  0
VERTEX
  5
FA901
  8
0
 10
4012.6859741192311
 20
0.0
 30
0.0
  0
VERTEX
  5
FA902
  8
0
 10
4012.6859741192311
 20
-987.65764702693525
 30
0.0
  0
VERTEX
  5
FA903
  8
0
 10
-4012.6859741192311
 20
-987.65764702693525
 30
0.0
  0
SEQEND
  5
FA904
  8
0
  0
POLYLINE
  5
DD2C4
  8
0
 66
     1
 10
0.0
 20
0.0
 30
0.0
  0
VERTEX
  5
FA905
  8
0
 10
-1337.561991373077
 20
-299.99655490391888
 30
0.0
  0
VERTEX
  5
FA906
  8
0
 10
4012.6859741192311
 20
-299.99655490391859
 30
0.0
  0
SEQEND
  5
FA907
  8
0
  0
TEXT
  5
DD2C5
  8
0
 10
-527.84523728356453
 20
-817.49385658441815
 30
0.0
 40
125.0
  1
This drawing is property of Fantin S.r.l. 
  7
STILE1
 72
     1
 11
1487.0357150973859
 21
-817.49385658441815
 31
0.0
  0
POLYLINE
  5
DD2C6
  8
0
  6
CONTINUOUS
 66
     1
 10
0.0
 20
0.0
 30
0.0
 70
     1
  0
VERTEX
  5
FA908
  8
0
  6
CONTINUOUS
 10
-3164.9633129499871
 20
-604.03484429232765
 30
0.0
  0
VERTEX
  5
FA909
  8
0
  6
CONTINUOUS
 10
-3164.9633129499871
 20
-604.03484429232765
 30
0.0
  0
VERTEX
  5
FA90A
  8
0
  6
CONTINUOUS
 10
-3140.6020304374401
 20
-687.65764702693548
 30
0.0
  0
VERTEX
  5
FA90B
  8
0
  6
CONTINUOUS
 10
-3014.8853285051882
 20
-687.65764702693548
 30
0.0
  0
VERTEX
  5
FA90C
  8
0
  6
CONTINUOUS
 10
-3132.2941826703031
 20
-334.88331434433348
 30
0.0
 42
0.1089385125692126
  0
VERTEX
  5
FA90D
  8
0
  6
CONTINUOUS
 10
-3145.0360424863179
 20
-307.2121766244527
 30
0.0
 42
0.1589313772246072
  0
VERTEX
  5
FA90E
  8
0
  6
CONTINUOUS
 10
-3157.031867676415
 20
-299.92730466765352
 30
0.0
 42
0.058673645385263
  0
VERTEX
  5
FA90F
  8
0
  6
CONTINUOUS
 10
-3173.277038573287
 20
-298.33601888036361
 30
0.0
  0
VERTEX
  5
FA910
  8
0
  6
CONTINUOUS
 10
-3173.277038573287
 20
-298.33601888036361
 30
0.0
  0
VERTEX
  5
FA911
  8
0
  6
CONTINUOUS
 10
-3268.5253160260618
 20
-298.33601888036361
 30
0.0
 42
0.058673645385263
  0
VERTEX
  5
FA912
  8
0
  6
CONTINUOUS
 10
-3284.770486922936
 20
-299.92730466765352
 30
0.0
 42
0.1589313772246072
  0
VERTEX
  5
FA913
  8
0
  6
CONTINUOUS
 10
-3296.7663121130322
 20
-307.2121766244527
 30
0.0
 42
0.1089385125692126
  0
VERTEX
  5
FA914
  8
0
  6
CONTINUOUS
 10
-3309.5081719290461
 20
-334.88331434433348
 30
0.0
  0
VERTEX
  5
FA915
  8
0
  6
CONTINUOUS
 10
-3426.9170260895048
 20
-687.65764702693548
 30
0.0
  0
VERTEX
  5
FA916
  8
0
  6
CONTINUOUS
 10
-3307.8510809969162
 20
-687.65764702693548
 30
0.0
  0
VERTEX
  5
FA917
  8
0
  6
CONTINUOUS
 10
-3284.038581000641
 20
-604.03484429232765
 30
0.0
  0
SEQEND
  5
FA918
  8
0
  6
CONTINUOUS
  0
POLYLINE
  5
DD2C7
  8
0
  6
CONTINUOUS
 66
     1
 10
0.0
 20
0.0
 30
0.0
  0
VERTEX
  5
FA919
  8
0
  6
CONTINUOUS
 10
-3221.4549763966361
 20
-406.8789198133162
 30
0.0
  0
VERTEX
  5
FA91A
  8
0
  6
CONTINUOUS
 10
-3188.2270304346471
 20
-520.96670193132002
 30
0.0
  0
VERTEX
  5
FA91B
  8
0
  6
CONTINUOUS
 10
-3260.775573728607
 20
-520.96670193132002
 30
0.0
  0
VERTEX
  5
FA91C
  8
0
  6
CONTINUOUS
 10
-3227.5476277619609
 20
-406.8789198133162
 30
0.0
  0
VERTEX
  5
FA91D
  8
0
  6
CONTINUOUS
 10
-3221.4549763966361
 20
-406.8789198133162
 30
0.0
  0
SEQEND
  5
FA91E
  8
0
  6
CONTINUOUS
  0
POLYLINE
  5
DD2C8
  8
0
  6
CONTINUOUS
 66
     1
 10
0.0
 20
0.0
 30
0.0
  0
VERTEX
  5
FA91F
  8
0
  6
CONTINUOUS
 10
-3407.5400865357378
 20
-300.0
 30
0.0
  0
VERTEX
  5
FA920
  8
0
  6
CONTINUOUS
 10
-3407.5400865357378
 20
-389.1607937274967
 30
0.0
  0
VERTEX
  5
FA921
  8
0
  6
CONTINUOUS
 10
-3593.6165839293972
 20
-389.1607937274967
 30
0.0
  0
VERTEX
  5
FA922
  8
0
  6
CONTINUOUS
 10
-3593.6165839293972
 20
-466.13628472201509
 30
0.0
  0
VERTEX
  5
FA923
  8
0
  6
CONTINUOUS
 10
-3463.4729343000799
 20
-466.13628472201509
 30
0.0
  0
VERTEX
  5
FA924
  8
0
  6
CONTINUOUS
 10
-3463.4729343000799
 20
-549.2095947265625
 30
0.0
  0
VERTEX
  5
FA925
  8
0
  6
CONTINUOUS
 10
-3593.6165839293972
 20
-549.2095947265625
 30
0.0
  0
VERTEX
  5
FA926
  8
0
  6
CONTINUOUS
 10
-3593.6165839293972
 20
-687.65764702693548
 30
0.0
  0
VERTEX
  5
FA927
  8
0
  6
CONTINUOUS
 10
-3712.6859741192311
 20
-687.65764702693548
 30
0.0
  0
VERTEX
  5
FA928
  8
0
  6
CONTINUOUS
 10
-3712.6859741192311
 20
-300.0
 30
0.0
  0
VERTEX
  5
FA929
  8
0
  6
CONTINUOUS
 10
-3407.5400865357378
 20
-300.0
 30
0.0
  0
SEQEND
  5
FA92A
  8
0
  6
CONTINUOUS
  0
POLYLINE
  5
DD2C9
  8
0
  6
CONTINUOUS
 66
     1
 10
0.0
 20
0.0
 30
0.0
 70
     1
  0
VERTEX
  5
FA92B
  8
0
  6
CONTINUOUS
 10
-2192.4790242500599
 20
-299.99827745254152
 30
0.0
  0
VERTEX
  5
FA92C
  8
0
  6
CONTINUOUS
 10
-2073.4096340602259
 20
-299.99827745254152
 30
0.0
  0
VERTEX
  5
FA92D
  8
0
  6
CONTINUOUS
 10
-2073.4096340602259
 20
-687.65764702693548
 30
0.0
  0
VERTEX
  5
FA92E
  8
0
  6
CONTINUOUS
 10
-2192.4790242500599
 20
-687.65764702693548
 30
0.0
  0
SEQEND
  5
FA92F
  8
0
  6
CONTINUOUS
  0
POLYLINE
  5
DD2CA
  8
0
  6
CONTINUOUS
 66
     1
 10
0.0
 20
0.0
 30
0.0
  0
VERTEX
  5
FA930
  8
0
  6
CONTINUOUS
 10
-2229.5827026339248
 20
-299.99827745254152
 30
0.0
  0
VERTEX
  5
FA931
  8
0
  6
CONTINUOUS
 10
-2229.5827026339248
 20
-390.82132975221612
 30
0.0
  0
VERTEX
  5
FA932
  8
0
  6
CONTINUOUS
 10
-2345.8787909569219
 20
-390.82132975221612
 30
0.0
  0
VERTEX
  5
FA933
  8
0
  6
CONTINUOUS
 10
-2345.8787909569219
 20
-687.65764702693548
 30
0.0
  0
VERTEX
  5
FA934
  8
0
  6
CONTINUOUS
 10
-2464.9481811467558
 20
-687.65764702693548
 30
0.0
  0
VERTEX
  5
FA935
  8
0
  6
CONTINUOUS
 10
-2464.9481811467558
 20
-390.82132975221612
 30
0.0
  0
VERTEX
  5
FA936
  8
0
  6
CONTINUOUS
 10
-2578.4813028946519
 20
-390.82132975221612
 30
0.0
  0
VERTEX
  5
FA937
  8
0
  6
CONTINUOUS
 10
-2578.4813028946519
 20
-299.99827745254152
 30
0.0
  0
VERTEX
  5
FA938
  8
0
  6
CONTINUOUS
 10
-2229.5827026339248
 20
-299.99827745254152
 30
0.0
  0
SEQEND
  5
FA939
  8
0
  6
CONTINUOUS
  0
POLYLINE
  5
DD2CB
  8
0
  6
CONTINUOUS
 66
     1
 10
0.0
 20
0.0
 30
0.0
  0
VERTEX
  5
FA93A
  8
0
  6
CONTINUOUS
 10
-2982.2068752720952
 20
-687.65764702693548
 30
0.0
  0
VERTEX
  5
FA93B
  8
0
  6
CONTINUOUS
 10
-2982.2068752720952
 20
-299.99655490391888
 30
0.0
  0
VERTEX
  5
FA93C
  8
0
  6
CONTINUOUS
 10
-2880.8573337085559
 20
-299.99655490391888
 30
0.0
 42
-0.316444976687396
  0
VERTEX
  5
FA93D
  8
0
  6
CONTINUOUS
 10
-2829.9095391156152
 20
-328.24117024778388
 30
0.0
  0
VERTEX
  5
FA93E
  8
0
  6
CONTINUOUS
 10
-2729.1163804754619
 20
-498.2600775826719
 30
0.0
  0
VERTEX
  5
FA93F
  8
0
  6
CONTINUOUS
 10
-2726.3482462521652
 20
-498.2600775826719
 30
0.0
  0
VERTEX
  5
FA940
  8
0
  6
CONTINUOUS
 10
-2726.3482462521652
 20
-299.99655490391888
 30
0.0
  0
VERTEX
  5
FA941
  8
0
  6
CONTINUOUS
 10
-2613.9244452584539
 20
-299.99655490391888
 30
0.0
  0
VERTEX
  5
FA942
  8
0
  6
CONTINUOUS
 10
-2613.9244452584539
 20
-687.65764702693548
 30
0.0
  0
VERTEX
  5
FA943
  8
0
  6
CONTINUOUS
 10
-2696.4465399831538
 20
-687.65764702693548
 30
0.0
 42
-0.312959769389874
  0
VERTEX
  5
FA944
  8
0
  6
CONTINUOUS
 10
-2747.3943345807502
 20
-659.41475423169322
 30
0.0
  0
VERTEX
  5
FA945
  8
0
  6
CONTINUOUS
 10
-2867.014940045774
 20
-466.13800726947369
 30
0.0
  0
VERTEX
  5
FA946
  8
0
  6
CONTINUOUS
 10
-2869.779629176483
 20
-466.13800726947369
 30
0.0
  0
VERTEX
  5
FA947
  8
0
  6
CONTINUOUS
 10
-2869.779629176483
 20
-687.65764702693548
 30
0.0
  0
VERTEX
  5
FA948
  8
0
  6
CONTINUOUS
 10
-2982.2068752720952
 20
-687.65764702693548
 30
0.0
  0
SEQEND
  5
FA949
  8
0
  6
CONTINUOUS
  0
POLYLINE
  5
DD2CC
  8
0
  6
CONTINUOUS
 66
     1
 10
0.0
 20
0.0
 30
0.0
  0
VERTEX
  5
FA94A
  8
0
  6
CONTINUOUS
 10
-2005.844421386719
 20
-687.65764702693548
 30
0.0
  0
VERTEX
  5
FA94B
  8
0
  6
CONTINUOUS
 10
-2005.844421386719
 20
-299.99655490391888
 30
0.0
  0
VERTEX
  5
FA94C
  8
0
  6
CONTINUOUS
 10
-1904.4948798231781
 20
-299.99655490391888
 30
0.0
 42
-0.316444976687396
  0
VERTEX
  5
FA94D
  8
0
  6
CONTINUOUS
 10
-1853.547085234894
 20
-328.24117024778388
 30
0.0
  0
VERTEX
  5
FA94E
  8
0
  6
CONTINUOUS
 10
-1752.753926590085
 20
-498.2600775826719
 30
0.0
  0
VERTEX
  5
FA94F
  8
0
  6
CONTINUOUS
 10
-1749.9857923714439
 20
-498.2600775826719
 30
0.0
  0
VERTEX
  5
FA950
  8
0
  6
CONTINUOUS
 10
-1749.9857923714439
 20
-299.99655490391888
 30
0.0
  0
VERTEX
  5
FA951
  8
0
  6
CONTINUOUS
 10
-1637.561991373077
 20
-299.99655490391888
 30
0.0
  0
VERTEX
  5
FA952
  8
0
  6
CONTINUOUS
 10
-1637.561991373077
 20
-687.65764702693548
 30
0.0
  0
VERTEX
  5
FA953
  8
0
  6
CONTINUOUS
 10
-1720.0840860977769
 20
-687.65764702693548
 30
0.0
 42
-0.312959769389874
  0
VERTEX
  5
FA954
  8
0
  6
CONTINUOUS
 10
-1771.031880690716
 20
-659.41475423169322
 30
0.0
  0
VERTEX
  5
FA955
  8
0
  6
CONTINUOUS
 10
-1890.652486160398
 20
-466.13800726947369
 30
0.0
  0
VERTEX
  5
FA956
  8
0
  6
CONTINUOUS
 10
-1893.4171752911061
 20
-466.13800726947369
 30
0.0
  0
VERTEX
  5
FA957
  8
0
  6
CONTINUOUS
 10
-1893.4171752911061
 20
-687.65764702693548
 30
0.0
  0
VERTEX
  5
FA958
  8
0
  6
CONTINUOUS
 10
-2005.844421386719
 20
-687.65764702693548
 30
0.0
  0
SEQEND
  5
FA959
  8
0
  6
CONTINUOUS
  0
TEXT
  5
DD2CD
  8
0
 10
-1185.710477876971
 20
-208.92541662340139
 30
0.0
 40
125.0
  1
Frame Bookcase System
  7
STILE1
 72
     1
 11
7.7419030754081151
 21
-208.92541662340139
 31
0.0
  0
TEXT
  5
DD2CE
  8
0
 10
-838.77913749781919
 20
-555.40965029620349
 30
0.0
 40
125.0
  1
Questo disegno è di proprietà di Fantin S.r.l.   
  7
STILE1
 72
     1
 11
1583.8399101212251
 21
-555.40965029620349
 31
0.0
  0
POLYLINE
  5
EE9D8
  8
0
 66
     1
 10
0.0
 20
0.0
 30
0.0
 70
     1
  0
VERTEX
  5
FA95A
  8
0
 10
11567.115508692479
 20
4313.0497255617147
 30
0.0
  0
VERTEX
  5
FA95B
  8
0
 10
11567.115508692479
 20
3938.0497255617161
 30
0.0
  0
VERTEX
  5
FA95C
  8
0
 10
11602.115508692479
 20
3938.0497255617161
 30
0.0
  0
VERTEX
  5
FA95D
  8
0
 10
11602.115508692479
 20
4313.0497255617147
 30
0.0
  0
SEQEND
  5
FA95E
  8
0
  0
TEXT
  5
EE9D9
  8
0
 10
9696.9741069542033
 20
3456.1824200140231
 30
0.0
 40
100.0
  1
L 150
  7
STILE1
  0
POLYLINE
  5
EE9DA
  8
0
 66
     1
 10
0.0
 20
0.0
 30
0.0
 70
     1
  0
VERTEX
  5
FA95F
  8
0
 10
9187.1155086924846
 20
4313.0497255617147
 30
0.0
  0
VERTEX
  5
FA960
  8
0
 10
10687.115508692479
 20
4313.0497255617147
 30
0.0
  0
VERTEX
  5
FA961
  8
0
 10
10687.115508692479
 20
3938.0497255617161
 30
0.0
  0
VERTEX
  5
FA962
  8
0
 10
9187.1155086924846
 20
3938.0497255617161
 30
0.0
  0
SEQEND
  5
FA963
  8
0
  0
POLYLINE
  5
EE9DB
  8
0
 66
     1
 10
0.0
 20
0.0
 30
0.0
 70
     1
  0
VERTEX
  5
FA964
  8
0
 10
7557.1155086924928
 20
4313.0497255617147
 30
0.0
  0
VERTEX
  5
FA965
  8
0
 10
8557.1155086924919
 20
4313.0497255617147
 30
0.0
  0
VERTEX
  5
FA966
  8
0
 10
8557.1155086924919
 20
3938.0497255617161
 30
0.0
  0
VERTEX
  5
FA967
  8
0
 10
7557.1155086924928
 20
3938.0497255617161
 30
0.0
  0
SEQEND
  5
FA968
  8
0
  0
POLYLINE
  5
EE9DC
  8
0
 66
     1
 10
0.0
 20
0.0
 30
0.0
 70
     1
  0
VERTEX
  5
FA969
  8
0
 10
6377.1155086924964
 20
4313.0497255617147
 30
0.0
  0
VERTEX
  5
FA96A
  8
0
 10
6377.1155086924964
 20
3938.0497255617161
 30
0.0
  0
VERTEX
  5
FA96B
  8
0
 10
6877.1155086924964
 20
3938.0497255617161
 30
0.0
  0
VERTEX
  5
FA96C
  8
0
 10
6877.1155086924964
 20
4313.0497255617147
 30
0.0
  0
SEQEND
  5
FA96D
  8
0
  0
TEXT
  5
EE9DD
  8
0
 10
7816.9741069542106
 20
3456.1824200140231
 30
0.0
 40
100.0
  1
L 100
  7
STILE1
  0
TEXT
  5
EE9DE
  8
0
 10
5433.6244069540808
 20
4073.2690817772468
 30
0.0
 40
100.0
  1
P 37,5
  7
STILE1
  0
TEXT
  5
EE9DF
  8
0
 10
6386.9741069542179
 20
3456.1824200140231
 30
0.0
 40
100.0
  1
L 50
  7
STILE1
  0
TEXT
  5
EE9E1
  8
0
 10
5433.6244069540808
 20
4867.0484812100613
 30
0.0
 40
100.0
  1
Back panels / Schiene / Ruckwande
  7
STILE1
  0
TEXT
  5
EE9F1
  8
0
 10
6309.3711867362817
 20
1537.401047342177
 30
0.0
 40
100.0
  1
L 29
  7
STILE1
  0
TEXT
  5
EE9F2
  8
0
 10
5433.6244069540808
 20
2154.4877091054018
 30
0.0
 40
100.0
  1
P 37,5
  7
STILE1
  0
POLYLINE
  5
EE9F3
  8
0
 66
     1
 10
0.0
 20
0.0
 30
0.0
 70
     1
  0
VERTEX
  5
FA96E
  8
0
 10
6377.1155086924964
 20
2394.2683528898701
 30
0.0
  0
VERTEX
  5
FA96F
  8
0
 10
6377.1155086924964
 20
2019.2683528898699
 30
0.0
  0
VERTEX
  5
FA970
  8
0
 10
6667.1155086924964
 20
2019.2683528898699
 30
0.0
  0
VERTEX
  5
FA971
  8
0
 10
6667.1155086924964
 20
2394.2683528898701
 30
0.0
  0
SEQEND
  5
FA972
  8
0
  0
POLYLINE
  5
EE9F5
  8
0
 66
     1
 10
0.0
 20
0.0
 30
0.0
 70
     1
  0
VERTEX
  5
FA973
  8
0
 10
11567.115508692479
 20
2394.2683528898701
 30
0.0
  0
VERTEX
  5
FA974
  8
0
 10
11567.115508692479
 20
2019.2683528898699
 30
0.0
  0
VERTEX
  5
FA975
  8
0
 10
11602.115508692479
 20
2019.2683528898699
 30
0.0
  0
VERTEX
  5
FA976
  8
0
 10
11602.115508692479
 20
2394.2683528898701
 30
0.0
  0
SEQEND
  5
FA977
  8
0
  0
TEXT
  5
EEA01
  8
0
 10
-3145.7841833428251
 20
4867.0484812100613
 30
0.0
 40
100.0
  1
Vertical opening doors / Ante a rialza / Hebe-Turen
  7
STILE1
  0
TEXT
  5
EEA02
  8
0
 10
-2192.4344833426881
 20
3456.1824200140231
 30
0.0
 40
100.0
  1
L 50
  7
STILE1
  0
TEXT
  5
EEA03
  8
0
 10
-3145.7841833428251
 20
4073.2690817772468
 30
0.0
 40
100.0
  1
H 37,5
  7
STILE1
  0
TEXT
  5
EEA04
  8
0
 10
-762.43448334269453
 20
3456.1824200140231
 30
0.0
 40
100.0
  1
L 100
  7
STILE1
  0
POLYLINE
  5
EEA05
  8
0
 66
     1
 10
0.0
 20
0.0
 30
0.0
 70
     1
  0
VERTEX
  5
FA978
  8
0
 10
-2202.2930816044091
 20
4313.0497255617147
 30
0.0
  0
VERTEX
  5
FA979
  8
0
 10
-2202.2930816044091
 20
3938.0497255617161
 30
0.0
  0
VERTEX
  5
FA97A
  8
0
 10
-1702.2930816044091
 20
3938.0497255617161
 30
0.0
  0
VERTEX
  5
FA97B
  8
0
 10
-1702.2930816044091
 20
4313.0497255617147
 30
0.0
  0
SEQEND
  5
FA97C
  8
0
  0
POLYLINE
  5
EEA06
  8
0
 66
     1
 10
0.0
 20
0.0
 30
0.0
 70
     1
  0
VERTEX
  5
FA97D
  8
0
 10
-1022.2930816044141
 20
4313.0497255617147
 30
0.0
  0
VERTEX
  5
FA97E
  8
0
 10
-22.293081604413601
 20
4313.0497255617147
 30
0.0
  0
VERTEX
  5
FA97F
  8
0
 10
-22.293081604413601
 20
3938.0497255617161
 30
0.0
  0
VERTEX
  5
FA980
  8
0
 10
-1022.2930816044141
 20
3938.0497255617161
 30
0.0
  0
SEQEND
  5
FA981
  8
0
  0
POLYLINE
  5
EEA0C
  8
0
 66
     1
 10
0.0
 20
0.0
 30
0.0
 70
     1
  0
VERTEX
  5
FA982
  8
0
 10
-1022.2930816044141
 20
2394.2683528898701
 30
0.0
  0
VERTEX
  5
FA983
  8
0
 10
-22.293081604413601
 20
2394.2683528898701
 30
0.0
  0
VERTEX
  5
FA984
  8
0
 10
-22.293081604413601
 20
2019.2683528898699
 30
0.0
  0
VERTEX
  5
FA985
  8
0
 10
-1022.2930816044141
 20
2019.2683528898699
 30
0.0
  0
SEQEND
  5
FA986
  8
0
  0
POLYLINE
  5
EEA0D
  8
0
 66
     1
 10
0.0
 20
0.0
 30
0.0
 70
     1
  0
VERTEX
  5
FA987
  8
0
 10
-2202.2930816044091
 20
2394.2683528898701
 30
0.0
  0
VERTEX
  5
FA988
  8
0
 10
-2202.2930816044091
 20
2019.2683528898699
 30
0.0
  0
VERTEX
  5
FA989
  8
0
 10
-1702.2930816044091
 20
2019.2683528898699
 30
0.0
  0
VERTEX
  5
FA98A
  8
0
 10
-1702.2930816044091
 20
2394.2683528898701
 30
0.0
  0
SEQEND
  5
FA98B
  8
0
  0
TEXT
  5
EEA0E
  8
0
 10
-762.43448334269453
 20
1537.401047342177
 30
0.0
 40
100.0
  1
L 100
  7
STILE1
  0
TEXT
  5
EEA0F
  8
0
 10
-3145.7841833428251
 20
2154.4877091054018
 30
0.0
 40
100.0
  1
H 37,5
  7
STILE1
  0
TEXT
  5
EEA10
  8
0
 10
-2192.4344833426881
 20
1537.401047342177
 30
0.0
 40
100.0
  1
L 50
  7
STILE1
  0
POLYLINE
  5
EEA15
  8
0
 66
     1
 10
0.0
 20
0.0
 30
0.0
 70
     1
  0
VERTEX
  5
FA98C
  8
0
 10
11567.115508692479
 20
10438.8858531961
 30
0.0
  0
VERTEX
  5
FA98D
  8
0
 10
11567.115508692479
 20
10078.8858531961
 30
0.0
  0
VERTEX
  5
FA98E
  8
0
 10
11602.115508692479
 20
10078.8858531961
 30
0.0
  0
VERTEX
  5
FA98F
  8
0
 10
11602.115508692479
 20
10438.8858531961
 30
0.0
  0
SEQEND
  5
FA990
  8
0
  0
TEXT
  5
EEA16
  8
0
 10
9696.9741069542033
 20
9597.0185476484148
 30
0.0
 40
100.0
  1
L 150
  7
STILE1
  0
POLYLINE
  5
EEA17
  8
0
 66
     1
 10
0.0
 20
0.0
 30
0.0
 70
     1
  0
VERTEX
  5
FA991
  8
0
 10
9187.1155086924846
 20
10438.8858531961
 30
0.0
  0
VERTEX
  5
FA992
  8
0
 10
10687.115508692479
 20
10438.8858531961
 30
0.0
  0
VERTEX
  5
FA993
  8
0
 10
10687.115508692479
 20
10078.8858531961
 30
0.0
  0
VERTEX
  5
FA994
  8
0
 10
9187.1155086924846
 20
10078.8858531961
 30
0.0
  0
SEQEND
  5
FA995
  8
0
  0
POLYLINE
  5
EEA18
  8
0
 66
     1
 10
0.0
 20
0.0
 30
0.0
 70
     1
  0
VERTEX
  5
FA996
  8
0
 10
7557.1155086924928
 20
10438.8858531961
 30
0.0
  0
VERTEX
  5
FA997
  8
0
 10
8557.1155086924919
 20
10438.8858531961
 30
0.0
  0
VERTEX
  5
FA998
  8
0
 10
8557.1155086924919
 20
10078.8858531961
 30
0.0
  0
VERTEX
  5
FA999
  8
0
 10
7557.1155086924928
 20
10078.8858531961
 30
0.0
  0
SEQEND
  5
FA99A
  8
0
  0
POLYLINE
  5
EEA19
  8
0
 66
     1
 10
0.0
 20
0.0
 30
0.0
 70
     1
  0
VERTEX
  5
FA99B
  8
0
 10
6377.1155086924964
 20
10438.8858531961
 30
0.0
  0
VERTEX
  5
FA99C
  8
0
 10
6377.1155086924964
 20
10078.8858531961
 30
0.0
  0
VERTEX
  5
FA99D
  8
0
 10
6877.1155086924964
 20
10078.8858531961
 30
0.0
  0
VERTEX
  5
FA99E
  8
0
 10
6877.1155086924964
 20
10438.8858531961
 30
0.0
  0
SEQEND
  5
FA99F
  8
0
  0
POLYLINE
  5
EEA1A
  8
0
 66
     1
 10
0.0
 20
0.0
 30
0.0
  0
VERTEX
  5
FA9A0
  8
0
 10
2703.0272283418012
 20
10028.88585319611
 30
0.0
  0
VERTEX
  5
FA9A1
  8
0
 10
2993.0272283418021
 20
10028.88585319611
 30
0.0
  0
VERTEX
  5
FA9A2
  8
0
 10
2993.0272283418021
 20
9993.8858531961087
 30
0.0
  0
VERTEX
  5
FA9A3
  8
0
 10
2703.0272283418012
 20
9993.8858531961087
 30
0.0
  0
VERTEX
  5
FA9A4
  8
0
 10
2703.0272283418012
 20
10028.88585319611
 30
0.0
  0
SEQEND
  5
FA9A5
  8
0
  0
POLYLINE
  5
EEA1B
  8
0
 66
     1
 10
0.0
 20
0.0
 30
0.0
  0
VERTEX
  5
FA9A6
  8
0
 10
2703.0272283418012
 20
9618.8858531961087
 30
0.0
  0
VERTEX
  5
FA9A7
  8
0
 10
2993.0272283418021
 20
9618.8858531961087
 30
0.0
  0
VERTEX
  5
FA9A8
  8
0
 10
2993.0272283418021
 20
9583.8858531961105
 30
0.0
  0
VERTEX
  5
FA9A9
  8
0
 10
2703.0272283418012
 20
9583.8858531961105
 30
0.0
  0
VERTEX
  5
FA9AA
  8
0
 10
2703.0272283418012
 20
9618.8858531961087
 30
0.0
  0
SEQEND
  5
FA9AB
  8
0
  0
POLYLINE
  5
EEA1C
  8
0
 66
     1
 10
0.0
 20
0.0
 30
0.0
  0
VERTEX
  5
FA9AC
  8
0
 10
2703.0272283418012
 20
9208.8858531961105
 30
0.0
  0
VERTEX
  5
FA9AD
  8
0
 10
2993.0272283418021
 20
9208.8858531961105
 30
0.0
  0
VERTEX
  5
FA9AE
  8
0
 10
2993.0272283418021
 20
9173.8858531961087
 30
0.0
  0
VERTEX
  5
FA9AF
  8
0
 10
2703.0272283418012
 20
9173.8858531961087
 30
0.0
  0
VERTEX
  5
FA9B0
  8
0
 10
2703.0272283418012
 20
9208.8858531961105
 30
0.0
  0
SEQEND
  5
FA9B1
  8
0
  0
POLYLINE
  5
EEA1D
  8
0
 66
     1
 10
0.0
 20
0.0
 30
0.0
  0
VERTEX
  5
FA9B2
  8
0
 10
1453.0272283418001
 20
9208.8858531961105
 30
0.0
  0
VERTEX
  5
FA9B3
  8
0
 10
1743.027228341801
 20
9208.8858531961105
 30
0.0
  0
VERTEX
  5
FA9B4
  8
0
 10
1743.027228341801
 20
9173.8858531961087
 30
0.0
  0
VERTEX
  5
FA9B5
  8
0
 10
1453.0272283418001
 20
9173.8858531961087
 30
0.0
  0
VERTEX
  5
FA9B6
  8
0
 10
1453.0272283418001
 20
9208.8858531961105
 30
0.0
  0
SEQEND
  5
FA9B7
  8
0
  0
POLYLINE
  5
EEA1E
  8
0
 66
     1
 10
0.0
 20
0.0
 30
0.0
  0
VERTEX
  5
FA9B8
  8
0
 10
1453.0272283418001
 20
9618.8858531961087
 30
0.0
  0
VERTEX
  5
FA9B9
  8
0
 10
1743.027228341801
 20
9618.8858531961087
 30
0.0
  0
VERTEX
  5
FA9BA
  8
0
 10
1743.027228341801
 20
9583.8858531961105
 30
0.0
  0
VERTEX
  5
FA9BB
  8
0
 10
1453.0272283418001
 20
9583.8858531961105
 30
0.0
  0
VERTEX
  5
FA9BC
  8
0
 10
1453.0272283418001
 20
9618.8858531961087
 30
0.0
  0
SEQEND
  5
FA9BD
  8
0
  0
POLYLINE
  5
EEA1F
  8
0
 66
     1
 10
0.0
 20
0.0
 30
0.0
  0
VERTEX
  5
FA9BE
  8
0
 10
2703.0272283417999
 20
8798.8858531961087
 30
0.0
  0
VERTEX
  5
FA9BF
  8
0
 10
2993.0272283418021
 20
8798.8858531961087
 30
0.0
  0
VERTEX
  5
FA9C0
  8
0
 10
2993.0272283418021
 20
8763.8858531961087
 30
0.0
  0
VERTEX
  5
FA9C1
  8
0
 10
2703.0272283417999
 20
8763.8858531961087
 30
0.0
  0
VERTEX
  5
FA9C2
  8
0
 10
2703.0272283417999
 20
8798.8858531961087
 30
0.0
  0
SEQEND
  5
FA9C3
  8
0
  0
POLYLINE
  5
EEA20
  8
0
 66
     1
 10
0.0
 20
0.0
 30
0.0
  0
VERTEX
  5
FA9C4
  8
0
 10
1453.0272283418001
 20
8798.8858531961087
 30
0.0
  0
VERTEX
  5
FA9C5
  8
0
 10
1743.0272283418001
 20
8798.8858531961087
 30
0.0
  0
VERTEX
  5
FA9C6
  8
0
 10
1743.0272283418001
 20
8763.8858531961087
 30
0.0
  0
VERTEX
  5
FA9C7
  8
0
 10
1453.0272283418001
 20
8763.8858531961087
 30
0.0
  0
VERTEX
  5
FA9C8
  8
0
 10
1453.0272283418001
 20
8798.8858531961087
 30
0.0
  0
SEQEND
  5
FA9C9
  8
0
  0
POLYLINE
  5
EEA21
  8
0
 66
     1
 10
0.0
 20
0.0
 30
0.0
  0
VERTEX
  5
FA9CA
  8
0
 10
-1046.972771658199
 20
8798.8858531961087
 30
0.0
  0
VERTEX
  5
FA9CB
  8
0
 10
-756.97277165819855
 20
8798.8858531961087
 30
0.0
  0
VERTEX
  5
FA9CC
  8
0
 10
-756.97277165819855
 20
8763.8858531961087
 30
0.0
  0
VERTEX
  5
FA9CD
  8
0
 10
-1046.972771658199
 20
8763.8858531961087
 30
0.0
  0
VERTEX
  5
FA9CE
  8
0
 10
-1046.972771658199
 20
8798.8858531961087
 30
0.0
  0
SEQEND
  5
FA9CF
  8
0
  0
POLYLINE
  5
EEA22
  8
0
 66
     1
 10
0.0
 20
0.0
 30
0.0
  0
VERTEX
  5
FA9D0
  8
0
 10
2703.0272283417999
 20
8388.8858531961087
 30
0.0
  0
VERTEX
  5
FA9D1
  8
0
 10
2993.0272283418021
 20
8388.8858531961087
 30
0.0
  0
VERTEX
  5
FA9D2
  8
0
 10
2993.0272283418021
 20
8353.8858531961087
 30
0.0
  0
VERTEX
  5
FA9D3
  8
0
 10
2703.0272283417999
 20
8353.8858531961087
 30
0.0
  0
VERTEX
  5
FA9D4
  8
0
 10
2703.0272283417999
 20
8388.8858531961087
 30
0.0
  0
SEQEND
  5
FA9D5
  8
0
  0
POLYLINE
  5
EEA23
  8
0
 66
     1
 10
0.0
 20
0.0
 30
0.0
  0
VERTEX
  5
FA9D6
  8
0
 10
1453.0272283418001
 20
8388.8858531961087
 30
0.0
  0
VERTEX
  5
FA9D7
  8
0
 10
1743.0272283418001
 20
8388.8858531961087
 30
0.0
  0
VERTEX
  5
FA9D8
  8
0
 10
1743.0272283418001
 20
8353.8858531961087
 30
0.0
  0
VERTEX
  5
FA9D9
  8
0
 10
1453.0272283418001
 20
8353.8858531961087
 30
0.0
  0
VERTEX
  5
FA9DA
  8
0
 10
1453.0272283418001
 20
8388.8858531961087
 30
0.0
  0
SEQEND
  5
FA9DB
  8
0
  0
POLYLINE
  5
EEA24
  8
0
 66
     1
 10
0.0
 20
0.0
 30
0.0
  0
VERTEX
  5
FA9DC
  8
0
 10
-1046.972771658199
 20
8388.8858531961087
 30
0.0
  0
VERTEX
  5
FA9DD
  8
0
 10
-756.97277165819855
 20
8388.8858531961087
 30
0.0
  0
VERTEX
  5
FA9DE
  8
0
 10
-756.97277165819855
 20
8353.8858531961087
 30
0.0
  0
VERTEX
  5
FA9DF
  8
0
 10
-1046.972771658199
 20
8353.8858531961087
 30
0.0
  0
VERTEX
  5
FA9E0
  8
0
 10
-1046.972771658199
 20
8388.8858531961087
 30
0.0
  0
SEQEND
  5
FA9E1
  8
0
  0
POLYLINE
  5
EEA25
  8
0
 66
     1
 10
0.0
 20
0.0
 30
0.0
  0
VERTEX
  5
FA9E2
  8
0
 10
-2296.9727716582001
 20
8388.8858531961087
 30
0.0
  0
VERTEX
  5
FA9E3
  8
0
 10
-2006.9727716581981
 20
8388.8858531961087
 30
0.0
  0
VERTEX
  5
FA9E4
  8
0
 10
-2006.9727716581981
 20
8353.8858531961087
 30
0.0
  0
VERTEX
  5
FA9E5
  8
0
 10
-2296.9727716582001
 20
8353.8858531961087
 30
0.0
  0
VERTEX
  5
FA9E6
  8
0
 10
-2296.9727716582001
 20
8388.8858531961087
 30
0.0
  0
SEQEND
  5
FA9E7
  8
0
  0
TEXT
  5
EEA26
  8
0
 10
3133.2446817362302
 20
10307.26901727561
 30
0.0
 40
100.0
  1
H 2530
  7
STILE1
  0
TEXT
  5
EEA27
  8
0
 10
1883.2446817362279
 20
9897.2690172756174
 30
0.0
 40
100.0
  1
H 2120
  7
STILE1
  0
TEXT
  5
EEA28
  8
0
 10
-616.75531826377164
 20
9077.2690172756193
 30
0.0
 40
100.0
  1
H 1300
  7
STILE1
  0
TEXT
  5
EEA29
  8
0
 10
-1866.755318263771
 20
8667.2690172756193
 30
0.0
 40
100.0
  1
H 890
  7
STILE1
  0
POLYLINE
  5
EEA2A
  8
0
 66
     1
 10
0.0
 20
0.0
 30
0.0
  0
VERTEX
  5
FA9E8
  8
0
 10
2670.5272283417999
 20
7911.8858531961068
 30
0.0
  0
VERTEX
  5
FA9E9
  8
0
 10
2700.5272283417999
 20
7911.8858531961068
 30
0.0
  0
VERTEX
  5
FA9EA
  8
0
 10
2700.5272283418021
 20
7908.8858531961087
 30
0.0
  0
VERTEX
  5
FA9EB
  8
0
 10
2670.5272283417999
 20
7908.8858531961087
 30
0.0
  0
VERTEX
  5
FA9EC
  8
0
 10
2670.5272283417999
 20
7911.8858531961068
 30
0.0
  0
SEQEND
  5
FA9ED
  8
0
  0
POLYLINE
  5
EEA2B
  8
0
 66
     1
 10
0.0
 20
0.0
 30
0.0
  0
VERTEX
  5
FA9EE
  8
0
 10
3025.5272283418012
 20
7911.8858531961068
 30
0.0
  0
VERTEX
  5
FA9EF
  8
0
 10
2995.5272283418012
 20
7911.8858531961068
 30
0.0
  0
VERTEX
  5
FA9F0
  8
0
 10
2995.5272283418012
 20
7908.8858531961087
 30
0.0
  0
VERTEX
  5
FA9F1
  8
0
 10
3025.5272283418012
 20
7908.8858531961087
 30
0.0
  0
VERTEX
  5
FA9F2
  8
0
 10
3025.5272283418012
 20
7911.8858531961068
 30
0.0
  0
SEQEND
  5
FA9F3
  8
0
  0
POLYLINE
  5
EEA2C
  8
0
 66
     1
 10
0.0
 20
0.0
 30
0.0
  0
VERTEX
  5
FA9F4
  8
0
 10
2668.0272283417999
 20
7911.8858531961068
 30
0.0
  0
VERTEX
  5
FA9F5
  8
0
 10
2703.0272283417999
 20
7911.8858531961068
 30
0.0
  0
VERTEX
  5
FA9F6
  8
0
 10
2703.0272283417999
 20
7943.8858531961087
 30
0.0
  0
VERTEX
  5
FA9F7
  8
0
 10
2993.0272283418021
 20
7943.8858531961087
 30
0.0
  0
VERTEX
  5
FA9F8
  8
0
 10
2993.0272283418021
 20
7911.8858531961068
 30
0.0
  0
VERTEX
  5
FA9F9
  8
0
 10
3028.0272283418021
 20
7911.8858531961068
 30
0.0
  0
VERTEX
  5
FA9FA
  8
0
 10
3028.0272283418021
 20
10438.8858531961
 30
0.0
  0
VERTEX
  5
FA9FB
  8
0
 10
2668.0272283417999
 20
10438.8858531961
 30
0.0
  0
VERTEX
  5
FA9FC
  8
0
 10
2668.0272283417999
 20
7911.8858531961068
 30
0.0
  0
SEQEND
  5
FA9FD
  8
0
  0
POLYLINE
  5
EEA2D
  8
0
 66
     1
 10
0.0
 20
0.0
 30
0.0
 70
     1
  0
VERTEX
  5
FA9FE
  8
0
 10
2703.0272283417999
 20
10403.8858531961
 30
0.0
  0
VERTEX
  5
FA9FF
  8
0
 10
2993.0272283418021
 20
10403.8858531961
 30
0.0
  0
VERTEX
  5
FAA00
  8
0
 10
2993.0272283418021
 20
7978.885853196105
 30
0.0
  0
VERTEX
  5
FAA01
  8
0
 10
2703.0272283417999
 20
7978.885853196105
 30
0.0
  0
SEQEND
  5
FAA02
  8
0
  0
POLYLINE
  5
EEA2E
  8
0
 66
     1
 10
0.0
 20
0.0
 30
0.0
  0
VERTEX
  5
FAA03
  8
0
 10
1420.5272283418001
 20
7911.8858531961068
 30
0.0
  0
VERTEX
  5
FAA04
  8
0
 10
1450.5272283417989
 20
7911.8858531961068
 30
0.0
  0
VERTEX
  5
FAA05
  8
0
 10
1450.527228341801
 20
7908.8858531961087
 30
0.0
  0
VERTEX
  5
FAA06
  8
0
 10
1420.5272283418001
 20
7908.8858531961087
 30
0.0
  0
VERTEX
  5
FAA07
  8
0
 10
1420.5272283418001
 20
7911.8858531961068
 30
0.0
  0
SEQEND
  5
FAA08
  8
0
  0
POLYLINE
  5
EEA2F
  8
0
 66
     1
 10
0.0
 20
0.0
 30
0.0
  0
VERTEX
  5
FAA09
  8
0
 10
1775.5272283418001
 20
7911.8858531961068
 30
0.0
  0
VERTEX
  5
FAA0A
  8
0
 10
1745.5272283417989
 20
7911.8858531961068
 30
0.0
  0
VERTEX
  5
FAA0B
  8
0
 10
1745.5272283417989
 20
7908.8858531961087
 30
0.0
  0
VERTEX
  5
FAA0C
  8
0
 10
1775.5272283418001
 20
7908.8858531961087
 30
0.0
  0
VERTEX
  5
FAA0D
  8
0
 10
1775.5272283418001
 20
7911.8858531961068
 30
0.0
  0
SEQEND
  5
FAA0E
  8
0
  0
POLYLINE
  5
EEA30
  8
0
 66
     1
 10
0.0
 20
0.0
 30
0.0
  0
VERTEX
  5
FAA0F
  8
0
 10
1418.0272283418001
 20
7911.8858531961068
 30
0.0
  0
VERTEX
  5
FAA10
  8
0
 10
1453.0272283418001
 20
7911.8858531961068
 30
0.0
  0
VERTEX
  5
FAA11
  8
0
 10
1453.0272283418001
 20
7943.8858531961087
 30
0.0
  0
VERTEX
  5
FAA12
  8
0
 10
1743.0272283418001
 20
7943.8858531961087
 30
0.0
  0
VERTEX
  5
FAA13
  8
0
 10
1743.0272283418001
 20
7911.8858531961068
 30
0.0
  0
VERTEX
  5
FAA14
  8
0
 10
1778.0272283418001
 20
7911.8858531961068
 30
0.0
  0
VERTEX
  5
FAA15
  8
0
 10
1778.0272283418001
 20
10028.88585319611
 30
0.0
  0
VERTEX
  5
FAA16
  8
0
 10
1418.0272283418001
 20
10028.88585319611
 30
0.0
  0
VERTEX
  5
FAA17
  8
0
 10
1418.0272283418001
 20
7911.8858531961068
 30
0.0
  0
SEQEND
  5
FAA18
  8
0
  0
POLYLINE
  5
EEA31
  8
0
 66
     1
 10
0.0
 20
0.0
 30
0.0
 70
     1
  0
VERTEX
  5
FAA19
  8
0
 10
1453.0272283418001
 20
9993.8858531961087
 30
0.0
  0
VERTEX
  5
FAA1A
  8
0
 10
1743.0272283418001
 20
9993.8858531961087
 30
0.0
  0
VERTEX
  5
FAA1B
  8
0
 10
1743.0272283418001
 20
7978.885853196105
 30
0.0
  0
VERTEX
  5
FAA1C
  8
0
 10
1453.0272283418001
 20
7978.885853196105
 30
0.0
  0
SEQEND
  5
FAA1D
  8
0
  0
POLYLINE
  5
EEA32
  8
0
 66
     1
 10
0.0
 20
0.0
 30
0.0
  0
VERTEX
  5
FAA1E
  8
0
 10
-1079.472771658199
 20
7911.8858531961068
 30
0.0
  0
VERTEX
  5
FAA1F
  8
0
 10
-1049.472771658199
 20
7911.8858531961068
 30
0.0
  0
VERTEX
  5
FAA20
  8
0
 10
-1049.4727716581981
 20
7908.8858531961087
 30
0.0
  0
VERTEX
  5
FAA21
  8
0
 10
-1079.472771658199
 20
7908.8858531961087
 30
0.0
  0
VERTEX
  5
FAA22
  8
0
 10
-1079.472771658199
 20
7911.8858531961068
 30
0.0
  0
SEQEND
  5
FAA23
  8
0
  0
POLYLINE
  5
EEA33
  8
0
 66
     1
 10
0.0
 20
0.0
 30
0.0
  0
VERTEX
  5
FAA24
  8
0
 10
-724.47277165819855
 20
7911.8858531961068
 30
0.0
  0
VERTEX
  5
FAA25
  8
0
 10
-754.47277165819855
 20
7911.8858531961068
 30
0.0
  0
VERTEX
  5
FAA26
  8
0
 10
-754.47277165819935
 20
7908.8858531961087
 30
0.0
  0
VERTEX
  5
FAA27
  8
0
 10
-724.47277165819855
 20
7908.8858531961087
 30
0.0
  0
VERTEX
  5
FAA28
  8
0
 10
-724.47277165819855
 20
7911.8858531961068
 30
0.0
  0
SEQEND
  5
FAA29
  8
0
  0
POLYLINE
  5
EEA34
  8
0
 66
     1
 10
0.0
 20
0.0
 30
0.0
  0
VERTEX
  5
FAA2A
  8
0
 10
-1081.972771658199
 20
7911.8858531961068
 30
0.0
  0
VERTEX
  5
FAA2B
  8
0
 10
-1046.972771658199
 20
7911.8858531961068
 30
0.0
  0
VERTEX
  5
FAA2C
  8
0
 10
-1046.972771658199
 20
7943.8858531961087
 30
0.0
  0
VERTEX
  5
FAA2D
  8
0
 10
-756.97277165819855
 20
7943.8858531961087
 30
0.0
  0
VERTEX
  5
FAA2E
  8
0
 10
-756.97277165819855
 20
7911.8858531961068
 30
0.0
  0
VERTEX
  5
FAA2F
  8
0
 10
-721.97277165819855
 20
7911.8858531961068
 30
0.0
  0
VERTEX
  5
FAA30
  8
0
 10
-721.97277165819855
 20
9208.8858531961105
 30
0.0
  0
VERTEX
  5
FAA31
  8
0
 10
-1081.972771658199
 20
9208.8858531961105
 30
0.0
  0
VERTEX
  5
FAA32
  8
0
 10
-1081.972771658199
 20
7911.8858531961068
 30
0.0
  0
SEQEND
  5
FAA33
  8
0
  0
POLYLINE
  5
EEA35
  8
0
 66
     1
 10
0.0
 20
0.0
 30
0.0
 70
     1
  0
VERTEX
  5
FAA34
  8
0
 10
-1046.972771658199
 20
9173.8858531961087
 30
0.0
  0
VERTEX
  5
FAA35
  8
0
 10
-756.97277165819855
 20
9173.8858531961087
 30
0.0
  0
VERTEX
  5
FAA36
  8
0
 10
-756.97277165819855
 20
7978.885853196105
 30
0.0
  0
VERTEX
  5
FAA37
  8
0
 10
-1046.972771658199
 20
7978.885853196105
 30
0.0
  0
SEQEND
  5
FAA38
  8
0
  0
POLYLINE
  5
EEA36
  8
0
 66
     1
 10
0.0
 20
0.0
 30
0.0
  0
VERTEX
  5
FAA39
  8
0
 10
-2296.9727716582001
 20
7911.8858531961068
 30
0.0
  0
VERTEX
  5
FAA3A
  8
0
 10
-2331.9727716582001
 20
7911.8858531961068
 30
0.0
  0
SEQEND
  5
FAA3B
  8
0
  0
POLYLINE
  5
EEA37
  8
0
 66
     1
 10
0.0
 20
0.0
 30
0.0
  0
VERTEX
  5
FAA3C
  8
0
 10
-2329.4727716582001
 20
7911.8858531961068
 30
0.0
  0
VERTEX
  5
FAA3D
  8
0
 10
-2299.4727716582001
 20
7911.8858531961068
 30
0.0
  0
VERTEX
  5
FAA3E
  8
0
 10
-2299.472771658197
 20
7908.8858531961087
 30
0.0
  0
VERTEX
  5
FAA3F
  8
0
 10
-2329.4727716582001
 20
7908.8858531961087
 30
0.0
  0
VERTEX
  5
FAA40
  8
0
 10
-2329.4727716582001
 20
7911.8858531961068
 30
0.0
  0
SEQEND
  5
FAA41
  8
0
  0
POLYLINE
  5
EEA38
  8
0
 66
     1
 10
0.0
 20
0.0
 30
0.0
  0
VERTEX
  5
FAA42
  8
0
 10
-1974.4727716581981
 20
7911.8858531961068
 30
0.0
  0
VERTEX
  5
FAA43
  8
0
 10
-2004.4727716581981
 20
7911.8858531961068
 30
0.0
  0
VERTEX
  5
FAA44
  8
0
 10
-2004.4727716581999
 20
7908.8858531961087
 30
0.0
  0
VERTEX
  5
FAA45
  8
0
 10
-1974.4727716581981
 20
7908.8858531961087
 30
0.0
  0
VERTEX
  5
FAA46
  8
0
 10
-1974.4727716581981
 20
7911.8858531961068
 30
0.0
  0
SEQEND
  5
FAA47
  8
0
  0
POLYLINE
  5
EEA39
  8
0
 66
     1
 10
0.0
 20
0.0
 30
0.0
  0
VERTEX
  5
FAA48
  8
0
 10
-2331.9727716582001
 20
7911.8858531961068
 30
0.0
  0
VERTEX
  5
FAA49
  8
0
 10
-2296.9727716582001
 20
7911.8858531961068
 30
0.0
  0
VERTEX
  5
FAA4A
  8
0
 10
-2296.9727716582001
 20
7943.8858531961087
 30
0.0
  0
VERTEX
  5
FAA4B
  8
0
 10
-2006.9727716581981
 20
7943.8858531961087
 30
0.0
  0
VERTEX
  5
FAA4C
  8
0
 10
-2006.9727716581981
 20
7911.8858531961068
 30
0.0
  0
VERTEX
  5
FAA4D
  8
0
 10
-1971.9727716581981
 20
7911.8858531961068
 30
0.0
  0
VERTEX
  5
FAA4E
  8
0
 10
-1971.9727716581981
 20
8798.8858531961087
 30
0.0
  0
VERTEX
  5
FAA4F
  8
0
 10
-2331.9727716582001
 20
8798.8858531961087
 30
0.0
  0
VERTEX
  5
FAA50
  8
0
 10
-2331.9727716582001
 20
7911.8858531961068
 30
0.0
  0
SEQEND
  5
FAA51
  8
0
  0
POLYLINE
  5
EEA3A
  8
0
 66
     1
 10
0.0
 20
0.0
 30
0.0
 70
     1
  0
VERTEX
  5
FAA52
  8
0
 10
-2296.9727716582001
 20
8763.8858531961087
 30
0.0
  0
VERTEX
  5
FAA53
  8
0
 10
-2006.9727716581981
 20
8763.8858531961087
 30
0.0
  0
VERTEX
  5
FAA54
  8
0
 10
-2006.9727716581981
 20
7978.885853196105
 30
0.0
  0
VERTEX
  5
FAA55
  8
0
 10
-2296.9727716582001
 20
7978.885853196105
 30
0.0
  0
SEQEND
  5
FAA56
  8
0
  0
POLYLINE
  5
EEA3B
  8
0
 66
     1
 10
0.0
 20
0.0
 30
0.0
 70
     1
  0
VERTEX
  5
FAA57
  8
0
 10
-3546.9727716581988
 20
8353.8858531961087
 30
0.0
  0
VERTEX
  5
FAA58
  8
0
 10
-3256.9727716582001
 20
8353.8858531961087
 30
0.0
  0
VERTEX
  5
FAA59
  8
0
 10
-3256.9727716582001
 20
7978.885853196105
 30
0.0
  0
VERTEX
  5
FAA5A
  8
0
 10
-3546.9727716581988
 20
7978.885853196105
 30
0.0
  0
SEQEND
  5
FAA5B
  8
0
  0
POLYLINE
  5
EEA3C
  8
0
 66
     1
 10
0.0
 20
0.0
 30
0.0
  0
VERTEX
  5
FAA5C
  8
0
 10
-3581.9727716581988
 20
7911.8858531961068
 30
0.0
  0
VERTEX
  5
FAA5D
  8
0
 10
-3546.9727716581988
 20
7911.8858531961068
 30
0.0
  0
VERTEX
  5
FAA5E
  8
0
 10
-3546.9727716581988
 20
7943.8858531961087
 30
0.0
  0
VERTEX
  5
FAA5F
  8
0
 10
-3256.9727716582001
 20
7943.8858531961087
 30
0.0
  0
VERTEX
  5
FAA60
  8
0
 10
-3256.9727716582001
 20
7911.8858531961068
 30
0.0
  0
VERTEX
  5
FAA61
  8
0
 10
-3221.972771658197
 20
7911.8858531961068
 30
0.0
  0
VERTEX
  5
FAA62
  8
0
 10
-3221.972771658197
 20
8388.8858531961087
 30
0.0
  0
VERTEX
  5
FAA63
  8
0
 10
-3581.9727716581988
 20
8388.8858531961087
 30
0.0
  0
VERTEX
  5
FAA64
  8
0
 10
-3581.9727716581988
 20
7911.8858531961068
 30
0.0
  0
SEQEND
  5
FAA65
  8
0
  0
POLYLINE
  5
EEA3D
  8
0
 66
     1
 10
0.0
 20
0.0
 30
0.0
  0
VERTEX
  5
FAA66
  8
0
 10
-3224.4727716581988
 20
7911.8858531961068
 30
0.0
  0
VERTEX
  5
FAA67
  8
0
 10
-3254.4727716581979
 20
7911.8858531961068
 30
0.0
  0
VERTEX
  5
FAA68
  8
0
 10
-3254.4727716582001
 20
7908.8858531961087
 30
0.0
  0
VERTEX
  5
FAA69
  8
0
 10
-3224.4727716581988
 20
7908.8858531961087
 30
0.0
  0
VERTEX
  5
FAA6A
  8
0
 10
-3224.4727716581988
 20
7911.8858531961068
 30
0.0
  0
SEQEND
  5
FAA6B
  8
0
  0
POLYLINE
  5
EEA3E
  8
0
 66
     1
 10
0.0
 20
0.0
 30
0.0
  0
VERTEX
  5
FAA6C
  8
0
 10
-3579.4727716581988
 20
7911.8858531961068
 30
0.0
  0
VERTEX
  5
FAA6D
  8
0
 10
-3549.4727716581988
 20
7911.8858531961068
 30
0.0
  0
VERTEX
  5
FAA6E
  8
0
 10
-3549.4727716581988
 20
7908.8858531961087
 30
0.0
  0
VERTEX
  5
FAA6F
  8
0
 10
-3579.4727716581988
 20
7908.8858531961087
 30
0.0
  0
VERTEX
  5
FAA70
  8
0
 10
-3579.4727716581988
 20
7911.8858531961068
 30
0.0
  0
SEQEND
  5
FAA71
  8
0
  0
TEXT
  5
EEA3F
  8
0
 10
-3116.7553182637712
 20
8257.2690172756193
 30
0.0
 40
100.0
  1
H 480
  7
STILE1
  0
TEXT
  5
EEA41
  8
0
 10
7816.9741069542106
 20
9597.0185476484148
 30
0.0
 40
100.0
  1
L 100
  7
STILE1
  0
TEXT
  5
EEA42
  8
0
 10
5433.6244069540808
 20
10214.10520941164
 30
0.0
 40
100.0
  1
P 36
  7
STILE1
  0
TEXT
  5
EEA43
  8
0
 10
6386.9741069542179
 20
9597.0185476484148
 30
0.0
 40
100.0
  1
L 50
  7
STILE1
  0
POLYLINE
  5
EEA45
  8
0
 66
     1
 10
0.0
 20
0.0
 30
0.0
 70
     1
  0
VERTEX
  5
FAA72
  8
0
 10
3022.7069183955718
 20
3938.0497255617161
 30
0.0
  0
VERTEX
  5
FAA73
  8
0
 10
2662.7069183955718
 20
3938.0497255617161
 30
0.0
  0
VERTEX
  5
FAA74
  8
0
 10
2662.7069183955718
 20
4313.0497255617147
 30
0.0
  0
VERTEX
  5
FAA75
  8
0
 10
3022.7069183955718
 20
4313.0497255617147
 30
0.0
  0
SEQEND
  5
FAA76
  8
0
  0
POLYLINE
  5
EEA46
  8
0
 66
     1
 10
0.0
 20
0.0
 30
0.0
 70
     1
  0
VERTEX
  5
FAA77
  8
0
 10
3022.7069183955718
 20
2019.2683528898699
 30
0.0
  0
VERTEX
  5
FAA78
  8
0
 10
2662.7069183955718
 20
2019.2683528898699
 30
0.0
  0
VERTEX
  5
FAA79
  8
0
 10
2662.7069183955718
 20
2394.2683528898701
 30
0.0
  0
VERTEX
  5
FAA7A
  8
0
 10
3022.7069183955718
 20
2394.2683528898701
 30
0.0
  0
SEQEND
  5
FAA7B
  8
0
  0
POLYLINE
  5
EEA49
  8
0
 66
     1
 10
0.0
 20
0.0
 30
0.0
 70
     1
  0
VERTEX
  5
FAA7C
  8
0
 10
3022.7069183955718
 20
4298.0497255617156
 30
0.0
  0
VERTEX
  5
FAA7D
  8
0
 10
3397.7069183955718
 20
4298.0497255617156
 30
0.0
  0
VERTEX
  5
FAA7E
  8
0
 10
3397.7069183955718
 20
4313.0497255617147
 30
0.0
  0
VERTEX
  5
FAA7F
  8
0
 10
3022.7069183955718
 20
4313.0497255617147
 30
0.0
  0
SEQEND
  5
FAA80
  8
0
  0
ARC
  5
EEA4B
  8
0
 10
3022.4857541806318
 20
4313.5926049522786
 30
0.0
 40
375.54294451442479
 50
270.03374255065359
 51
357.62797879353161
  0
ARC
  5
EEA4C
  8
0
 10
3022.4857541806318
 20
2018.725473499308
 30
0.0
 40
375.54294451442479
 50
2.372021206468371
 51
89.966257449346514
  0
POLYLINE
  5
EEA4D
  8
0
 66
     1
 10
0.0
 20
0.0
 30
0.0
 70
     1
  0
VERTEX
  5
FAA81
  8
0
 10
3022.7069183955718
 20
2034.268352889871
 30
0.0
  0
VERTEX
  5
FAA82
  8
0
 10
3397.7069183955718
 20
2034.268352889871
 30
0.0
  0
VERTEX
  5
FAA83
  8
0
 10
3397.7069183955718
 20
2019.2683528898699
 30
0.0
  0
VERTEX
  5
FAA84
  8
0
 10
3022.7069183955718
 20
2019.2683528898699
 30
0.0
  0
SEQEND
  5
FAA85
  8
0
  0
POLYLINE
  5
EEA4E
  8
0
 66
     1
 10
0.0
 20
0.0
 30
0.0
  0
VERTEX
  5
FAA86
  8
0
 10
3022.7069183955718
 20
4125.5497255617147
 30
0.0
  0
VERTEX
  5
FAA87
  8
0
 10
3210.2069183955718
 20
4298.0497255617156
 30
0.0
  0
SEQEND
  5
FAA88
  8
0
  0
POLYLINE
  5
EEA4F
  8
0
 66
     1
 10
0.0
 20
0.0
 30
0.0
  0
VERTEX
  5
FAA89
  8
0
 10
3022.7069183955718
 20
4139.1379557628861
 30
0.0
  0
VERTEX
  5
FAA8A
  8
0
 10
3195.4371029595168
 20
4298.0497255617156
 30
0.0
  0
SEQEND
  5
FAA8B
  8
0
  0
POLYLINE
  5
EEA51
  8
0
 66
     1
 10
0.0
 20
0.0
 30
0.0
  0
VERTEX
  5
FAA8C
  8
0
 10
3022.7069183955718
 20
2193.1801226887001
 30
0.0
  0
VERTEX
  5
FAA8D
  8
0
 10
3195.4371029595168
 20
2034.268352889871
 30
0.0
  0
SEQEND
  5
FAA8E
  8
0
  0
POLYLINE
  5
EEA52
  8
0
 66
     1
 10
0.0
 20
0.0
 30
0.0
  0
VERTEX
  5
FAA8F
  8
0
 10
3022.7069183955718
 20
2206.7683528898701
 30
0.0
  0
VERTEX
  5
FAA90
  8
0
 10
3210.2069183955718
 20
2034.268352889871
 30
0.0
  0
SEQEND
  5
FAA91
  8
0
  0
TEXT
  5
EEA54
  8
0
 10
2602.565516657291
 20
3456.1824200140231
 30
0.0
 40
100.0
  1
P 360
  7
STILE1
  0
TEXT
  5
EEA55
  8
0
 10
2602.565516657291
 20
1537.401047342177
 30
0.0
 40
100.0
  1
P 360
  7
STILE1
  0
TEXT
  5
EEA56
  8
0
 10
11344.474106954191
 20
9597.0185476484148
 30
0.0
 40
100.0
  1
H 35
  7
STILE1
  0
TEXT
  5
EEA57
  8
0
 10
11344.474106954191
 20
3456.1824200140231
 30
0.0
 40
100.0
  1
H 35 
  7
STILE1
  0
TEXT
  5
EEA58
  8
0
 10
11344.474106954191
 20
1537.401047342177
 30
0.0
 40
100.0
  1
H 35 
  7
STILE1
  0
TEXT
  5
EF2C6
  8
0
 10
-3145.7841833428251
 20
2914.1545461154301
 30
0.0
 40
100.0
  1
Tilt & turn doors / Ante a ribalta / Dreh-Kipp-Turen
  7
STILE1
  0
TEXT
  5
EF2C7
  8
0
 10
5433.6244069540808
 20
2914.1545461154301
 30
0.0
 40
100.0
  1
Sides / Fianchi / Seitenteile
  7
STILE1
  0
POLYLINE
  5
EF2C9
  8
0
 66
     1
 10
0.0
 20
0.0
 30
0.0
 70
     1
  0
VERTEX
  5
FAA92
  8
0
 10
-4012.6859741192311
 20
554.03664205844325
 30
0.0
  0
VERTEX
  5
FAA93
  8
0
 10
4012.6859741192311
 20
554.03664205844325
 30
0.0
  0
VERTEX
  5
FAA94
  8
0
 10
4012.6859741192311
 20
6248.0732841168883
 30
0.0
  0
VERTEX
  5
FAA95
  8
0
 10
-4012.6859741192302
 20
6248.0732841168847
 30
0.0
  0
SEQEND
  5
FAA96
  8
0
  0
POLYLINE
  5
EF2CC
  8
0
 66
     1
 10
0.0
 20
0.0
 30
0.0
 70
     1
  0
VERTEX
  5
FAA97
  8
0
 10
-4012.6859741192311
 20
12496.146568233769
 30
0.0
  0
VERTEX
  5
FAA98
  8
0
 10
4012.6859741192311
 20
12496.146568233769
 30
0.0
  0
VERTEX
  5
FAA99
  8
0
 10
4012.6859741192311
 20
6802.1099261753316
 30
0.0
  0
VERTEX
  5
FAA9A
  8
0
 10
-4012.6859741192302
 20
6802.1099261753334
 30
0.0
  0
SEQEND
  5
FAA9B
  8
0
  0
POLYLINE
  5
EF2CD
  8
0
 66
     1
 10
0.0
 20
0.0
 30
0.0
 70
     1
  0
VERTEX
  5
FAA9C
  8
0
 10
4566.7226161776744
 20
12496.146568233769
 30
0.0
  0
VERTEX
  5
FAA9D
  8
0
 10
12592.09456441612
 20
12496.146568233769
 30
0.0
  0
VERTEX
  5
FAA9E
  8
0
 10
12592.09456441612
 20
6802.1099261753316
 30
0.0
  0
VERTEX
  5
FAA9F
  8
0
 10
4566.7226161776753
 20
6802.1099261753334
 30
0.0
  0
SEQEND
  5
FAAA0
  8
0
  0
POLYLINE
  5
EF2CE
  8
0
 66
     1
 10
0.0
 20
0.0
 30
0.0
 70
     1
  0
VERTEX
  5
FAAA1
  8
0
 10
4566.7226161776744
 20
554.03664205844325
 30
0.0
  0
VERTEX
  5
FAAA2
  8
0
 10
12592.09456441612
 20
554.03664205844325
 30
0.0
  0
VERTEX
  5
FAAA3
  8
0
 10
12592.09456441612
 20
6248.0732841168883
 30
0.0
  0
VERTEX
  5
FAAA4
  8
0
 10
4566.7226161776753
 20
6248.0732841168847
 30
0.0
  0
SEQEND
  5
FAAA5
  8
0
  0
POLYLINE
  5
EF2D0
  8
0
 66
     1
 10
0.0
 20
0.0
 30
0.0
 70
     1
  0
VERTEX
  5
FAAA6
  8
0
 10
13146.13120647458
 20
554.03664205844689
 30
0.0
  0
VERTEX
  5
FAAA7
  8
0
 10
29750.911745009951
 20
554.03664205844689
 30
0.0
  0
VERTEX
  5
FAAA8
  8
0
 10
29750.911745009951
 20
14792.18109737552
 30
0.0
  0
VERTEX
  5
FAAA9
  8
0
 10
13146.13120647458
 20
14792.18109737552
 30
0.0
  0
SEQEND
  5
FAAAA
  8
0
  0
POLYLINE
  5
EF691
  8
0
 66
     1
 10
0.0
 20
0.0
 30
0.0
 70
     1
  0
VERTEX
  5
FAAAB
  8
0
 10
39540.027447699998
 20
2928.1088697169962
 30
0.0
  0
VERTEX
  5
FAAAC
  8
0
 10
40040.027447699998
 20
2928.1088697169962
 30
0.0
  0
VERTEX
  5
FAAAD
  8
0
 10
40040.027447699998
 20
2963.1088697169962
 30
0.0
  0
VERTEX
  5
FAAAE
  8
0
 10
39540.027447699998
 20
2963.1088697169962
 30
0.0
  0
SEQEND
  5
FAAAF
  8
0
  0
POLYLINE
  5
EF692
  8
0
 66
     1
 10
0.0
 20
0.0
 30
0.0
  0
VERTEX
  5
FAAB0
  8
0
 10
40040.027447699998
 20
3373.1088697170071
 30
0.0
  0
VERTEX
  5
FAAB1
  8
0
 10
39540.027447699998
 20
3373.1088697170071
 30
0.0
  0
VERTEX
  5
FAAB2
  8
0
 10
39540.027447699998
 20
3338.1088697169962
 30
0.0
  0
VERTEX
  5
FAAB3
  8
0
 10
40040.027447699998
 20
3338.1088697169962
 30
0.0
  0
VERTEX
  5
FAAB4
  8
0
 10
40040.027447699998
 20
3373.1088697170071
 30
0.0
  0
SEQEND
  5
FAAB5
  8
0
  0
POLYLINE
  5
EF693
  8
0
 66
     1
 10
0.0
 20
0.0
 30
0.0
  0
VERTEX
  5
FAAB6
  8
0
 10
40040.027447699998
 20
2143.1088697170071
 30
0.0
  0
VERTEX
  5
FAAB7
  8
0
 10
39540.027447699998
 20
2143.1088697170071
 30
0.0
  0
VERTEX
  5
FAAB8
  8
0
 10
39540.027447699998
 20
2108.1088697169962
 30
0.0
  0
VERTEX
  5
FAAB9
  8
0
 10
40040.027447699998
 20
2108.1088697169962
 30
0.0
  0
VERTEX
  5
FAABA
  8
0
 10
40040.027447699998
 20
2143.1088697170071
 30
0.0
  0
SEQEND
  5
FAABB
  8
0
  0
POLYLINE
  5
EF694
  8
0
 66
     1
 10
0.0
 20
0.0
 30
0.0
  0
VERTEX
  5
FAABC
  8
0
 10
40075.027447699998
 20
4193.1088697169862
 30
0.0
  0
VERTEX
  5
FAABD
  8
0
 10
40075.027447699998
 20
1666.108869716996
 30
0.0
  0
SEQEND
  5
FAABE
  8
0
  0
POLYLINE
  5
EF695
  8
0
 66
     1
 10
0.0
 20
0.0
 30
0.0
  0
VERTEX
  5
FAABF
  8
0
 10
40072.527447699991
 20
1666.108869716996
 30
0.0
  0
VERTEX
  5
FAAC0
  8
0
 10
40042.527447699991
 20
1666.108869716996
 30
0.0
  0
VERTEX
  5
FAAC1
  8
0
 10
40042.527447699991
 20
1663.108869716996
 30
0.0
  0
VERTEX
  5
FAAC2
  8
0
 10
40072.527447699991
 20
1663.108869716996
 30
0.0
  0
VERTEX
  5
FAAC3
  8
0
 10
40072.527447699991
 20
1666.108869716996
 30
0.0
  0
SEQEND
  5
FAAC4
  8
0
  0
POLYLINE
  5
EF696
  8
0
 66
     1
 10
0.0
 20
0.0
 30
0.0
  0
VERTEX
  5
FAAC5
  8
0
 10
39507.527447699998
 20
1666.108869716996
 30
0.0
  0
VERTEX
  5
FAAC6
  8
0
 10
39537.527447699998
 20
1666.108869716996
 30
0.0
  0
VERTEX
  5
FAAC7
  8
0
 10
39537.527447699998
 20
1663.108869716996
 30
0.0
  0
VERTEX
  5
FAAC8
  8
0
 10
39507.527447699998
 20
1663.108869716996
 30
0.0
  0
VERTEX
  5
FAAC9
  8
0
 10
39507.527447699998
 20
1666.108869716996
 30
0.0
  0
SEQEND
  5
FAACA
  8
0
  0
POLYLINE
  5
EF697
  8
0
 66
     1
 10
0.0
 20
0.0
 30
0.0
 70
     1
  0
VERTEX
  5
FAACB
  8
0
 10
39505.027447699998
 20
4193.1088697169862
 30
0.0
  0
VERTEX
  5
FAACC
  8
0
 10
39540.027447699998
 20
4193.1088697169862
 30
0.0
  0
VERTEX
  5
FAACD
  8
0
 10
39540.027447699998
 20
1666.108869716996
 30
0.0
  0
VERTEX
  5
FAACE
  8
0
 10
39505.027447699998
 20
1666.108869716996
 30
0.0
  0
SEQEND
  5
FAACF
  8
0
  0
POLYLINE
  5
EF698
  8
0
 66
     1
 10
0.0
 20
0.0
 30
0.0
 70
     1
  0
VERTEX
  5
FAAD0
  8
0
 10
40075.027447699998
 20
4193.1088697169862
 30
0.0
  0
VERTEX
  5
FAAD1
  8
0
 10
40040.027447699998
 20
4193.1088697169862
 30
0.0
  0
VERTEX
  5
FAAD2
  8
0
 10
40040.027447699998
 20
1666.108869716996
 30
0.0
  0
VERTEX
  5
FAAD3
  8
0
 10
40075.027447699998
 20
1666.108869716996
 30
0.0
  0
SEQEND
  5
FAAD4
  8
0
  0
POLYLINE
  5
EF699
  8
0
 66
     1
 10
0.0
 20
0.0
 30
0.0
 70
     1
  0
VERTEX
  5
FAAD5
  8
0
 10
39540.027447699998
 20
1698.108869716996
 30
0.0
  0
VERTEX
  5
FAAD6
  8
0
 10
40040.027447699998
 20
1698.108869716996
 30
0.0
  0
VERTEX
  5
FAAD7
  8
0
 10
40040.027447699998
 20
1733.108869716996
 30
0.0
  0
VERTEX
  5
FAAD8
  8
0
 10
39540.027447699998
 20
1733.108869716996
 30
0.0
  0
SEQEND
  5
FAAD9
  8
0
  0
POLYLINE
  5
EF69A
  8
0
 66
     1
 10
0.0
 20
0.0
 30
0.0
 70
     1
  0
VERTEX
  5
FAADA
  8
0
 10
39540.027447699998
 20
4158.1088697169853
 30
0.0
  0
VERTEX
  5
FAADB
  8
0
 10
40040.027447699998
 20
4158.1088697169853
 30
0.0
  0
VERTEX
  5
FAADC
  8
0
 10
40040.027447699998
 20
4193.1088697169862
 30
0.0
  0
VERTEX
  5
FAADD
  8
0
 10
39540.027447699998
 20
4193.1088697169862
 30
0.0
  0
SEQEND
  5
FAADE
  8
0
  0
POLYLINE
  5
EF69B
  8
0
 66
     1
 10
0.0
 20
0.0
 30
0.0
 70
     1
  0
VERTEX
  5
FAADF
  8
0
 10
39540.027447699998
 20
2518.1088697169962
 30
0.0
  0
VERTEX
  5
FAAE0
  8
0
 10
40040.027447699998
 20
2518.1088697169962
 30
0.0
  0
VERTEX
  5
FAAE1
  8
0
 10
40040.027447699998
 20
2553.1088697169962
 30
0.0
  0
VERTEX
  5
FAAE2
  8
0
 10
39540.027447699998
 20
2553.1088697169962
 30
0.0
  0
SEQEND
  5
FAAE3
  8
0
  0
POLYLINE
  5
EF69C
  8
0
 66
     1
 10
0.0
 20
0.0
 30
0.0
 70
     1
  0
VERTEX
  5
FAAE4
  8
0
 10
39540.027447699998
 20
3748.1088697169962
 30
0.0
  0
VERTEX
  5
FAAE5
  8
0
 10
40040.027447699998
 20
3748.1088697169962
 30
0.0
  0
VERTEX
  5
FAAE6
  8
0
 10
40040.027447699998
 20
3783.1088697169962
 30
0.0
  0
VERTEX
  5
FAAE7
  8
0
 10
39540.027447699998
 20
3783.1088697169962
 30
0.0
  0
SEQEND
  5
FAAE8
  8
0
  0
POLYLINE
  5
EF69D
  8
0
 66
     1
 10
0.0
 20
0.0
 30
0.0
 70
     1
  0
VERTEX
  5
FAAE9
  8
0
 10
43145.027447699998
 20
3748.1088697169962
 30
0.0
  0
VERTEX
  5
FAAEA
  8
0
 10
41645.027447699998
 20
3748.1088697169962
 30
0.0
  0
VERTEX
  5
FAAEB
  8
0
 10
41645.027447699998
 20
3783.1088697169962
 30
0.0
  0
VERTEX
  5
FAAEC
  8
0
 10
43145.027447699998
 20
3783.1088697169962
 30
0.0
  0
SEQEND
  5
FAAED
  8
0
  0
POLYLINE
  5
EF69E
  8
0
 66
     1
 10
0.0
 20
0.0
 30
0.0
 70
     1
  0
VERTEX
  5
FAAEE
  8
0
 10
43145.027447699998
 20
2518.1088697169948
 30
0.0
  0
VERTEX
  5
FAAEF
  8
0
 10
41645.027447699998
 20
2518.1088697169948
 30
0.0
  0
VERTEX
  5
FAAF0
  8
0
 10
41645.027447699998
 20
2553.1088697169948
 30
0.0
  0
VERTEX
  5
FAAF1
  8
0
 10
43145.027447699998
 20
2553.1088697169948
 30
0.0
  0
SEQEND
  5
FAAF2
  8
0
  0
POLYLINE
  5
EF69F
  8
0
 66
     1
 10
0.0
 20
0.0
 30
0.0
  0
VERTEX
  5
FAAF3
  8
0
 10
43177.527447699991
 20
1666.1088697169951
 30
0.0
  0
VERTEX
  5
FAAF4
  8
0
 10
43147.527447699977
 20
1666.1088697169951
 30
0.0
  0
VERTEX
  5
FAAF5
  8
0
 10
43147.527447699977
 20
1663.1088697169951
 30
0.0
  0
VERTEX
  5
FAAF6
  8
0
 10
43177.527447699991
 20
1663.1088697169951
 30
0.0
  0
VERTEX
  5
FAAF7
  8
0
 10
43177.527447699991
 20
1666.1088697169951
 30
0.0
  0
SEQEND
  5
FAAF8
  8
0
  0
POLYLINE
  5
EF6A0
  8
0
 66
     1
 10
0.0
 20
0.0
 30
0.0
 70
     1
  0
VERTEX
  5
FAAF9
  8
0
 10
43180.027447699998
 20
4193.1088697169862
 30
0.0
  0
VERTEX
  5
FAAFA
  8
0
 10
43145.027447699998
 20
4193.1088697169862
 30
0.0
  0
VERTEX
  5
FAAFB
  8
0
 10
43145.027447699998
 20
1666.1088697169951
 30
0.0
  0
VERTEX
  5
FAAFC
  8
0
 10
43180.027447699998
 20
1666.1088697169951
 30
0.0
  0
SEQEND
  5
FAAFD
  8
0
  0
POLYLINE
  5
EF6A1
  8
0
 66
     1
 10
0.0
 20
0.0
 30
0.0
 70
     1
  0
VERTEX
  5
FAAFE
  8
0
 10
43145.027447699998
 20
1698.108869716996
 30
0.0
  0
VERTEX
  5
FAAFF
  8
0
 10
41645.027447699998
 20
1698.108869716996
 30
0.0
  0
VERTEX
  5
FAB00
  8
0
 10
41645.027447699998
 20
1733.108869716996
 30
0.0
  0
VERTEX
  5
FAB01
  8
0
 10
43145.027447699998
 20
1733.108869716996
 30
0.0
  0
SEQEND
  5
FAB02
  8
0
  0
POLYLINE
  5
EF6A2
  8
0
 66
     1
 10
0.0
 20
0.0
 30
0.0
 70
     1
  0
VERTEX
  5
FAB03
  8
0
 10
43145.027447699998
 20
4158.1088697169853
 30
0.0
  0
VERTEX
  5
FAB04
  8
0
 10
41645.027447699998
 20
4158.1088697169853
 30
0.0
  0
VERTEX
  5
FAB05
  8
0
 10
41645.027447699998
 20
4193.1088697169862
 30
0.0
  0
VERTEX
  5
FAB06
  8
0
 10
43145.027447699998
 20
4193.1088697169862
 30
0.0
  0
SEQEND
  5
FAB07
  8
0
  0
POLYLINE
  5
EF6A3
  8
0
 66
     1
 10
0.0
 20
0.0
 30
0.0
  0
VERTEX
  5
FAB08
  8
0
 10
43145.027447699998
 20
2143.1088697170071
 30
0.0
  0
VERTEX
  5
FAB09
  8
0
 10
41645.027447699998
 20
2143.1088697170071
 30
0.0
  0
VERTEX
  5
FAB0A
  8
0
 10
41645.027447699998
 20
2108.1088697169962
 30
0.0
  0
VERTEX
  5
FAB0B
  8
0
 10
43145.027447699998
 20
2108.1088697169962
 30
0.0
  0
VERTEX
  5
FAB0C
  8
0
 10
43145.027447699998
 20
2143.1088697170071
 30
0.0
  0
SEQEND
  5
FAB0D
  8
0
  0
POLYLINE
  5
EF6A4
  8
0
 66
     1
 10
0.0
 20
0.0
 30
0.0
 70
     1
  0
VERTEX
  5
FAB0E
  8
0
 10
41610.027447699998
 20
2928.1088697169962
 30
0.0
  0
VERTEX
  5
FAB0F
  8
0
 10
41110.027447699998
 20
2928.1088697169962
 30
0.0
  0
VERTEX
  5
FAB10
  8
0
 10
41110.027447699998
 20
2963.1088697169962
 30
0.0
  0
VERTEX
  5
FAB11
  8
0
 10
41610.027447699998
 20
2963.1088697169962
 30
0.0
  0
SEQEND
  5
FAB12
  8
0
  0
POLYLINE
  5
EF6A5
  8
0
 66
     1
 10
0.0
 20
0.0
 30
0.0
  0
VERTEX
  5
FAB13
  8
0
 10
41610.027447699998
 20
3373.1088697170071
 30
0.0
  0
VERTEX
  5
FAB14
  8
0
 10
41110.027447699998
 20
3373.1088697170071
 30
0.0
  0
VERTEX
  5
FAB15
  8
0
 10
41110.027447699998
 20
3338.1088697169962
 30
0.0
  0
VERTEX
  5
FAB16
  8
0
 10
41610.027447699998
 20
3338.1088697169962
 30
0.0
  0
VERTEX
  5
FAB17
  8
0
 10
41610.027447699998
 20
3373.1088697170071
 30
0.0
  0
SEQEND
  5
FAB18
  8
0
  0
POLYLINE
  5
EF6A6
  8
0
 66
     1
 10
0.0
 20
0.0
 30
0.0
  0
VERTEX
  5
FAB19
  8
0
 10
41610.027447699998
 20
2143.1088697170071
 30
0.0
  0
VERTEX
  5
FAB1A
  8
0
 10
41110.027447699998
 20
2143.1088697170071
 30
0.0
  0
VERTEX
  5
FAB1B
  8
0
 10
41110.027447699998
 20
2108.1088697169962
 30
0.0
  0
VERTEX
  5
FAB1C
  8
0
 10
41610.027447699998
 20
2108.1088697169962
 30
0.0
  0
VERTEX
  5
FAB1D
  8
0
 10
41610.027447699998
 20
2143.1088697170071
 30
0.0
  0
SEQEND
  5
FAB1E
  8
0
  0
POLYLINE
  5
EF6A7
  8
0
 66
     1
 10
0.0
 20
0.0
 30
0.0
 70
     1
  0
VERTEX
  5
FAB1F
  8
0
 10
41610.027447699998
 20
4158.1088697169853
 30
0.0
  0
VERTEX
  5
FAB20
  8
0
 10
41110.027447699998
 20
4158.1088697169853
 30
0.0
  0
VERTEX
  5
FAB21
  8
0
 10
41110.027447699998
 20
4193.1088697169862
 30
0.0
  0
VERTEX
  5
FAB22
  8
0
 10
41610.027447699998
 20
4193.1088697169862
 30
0.0
  0
SEQEND
  5
FAB23
  8
0
  0
POLYLINE
  5
EF6A8
  8
0
 66
     1
 10
0.0
 20
0.0
 30
0.0
 70
     1
  0
VERTEX
  5
FAB24
  8
0
 10
41610.027447699998
 20
1698.108869716996
 30
0.0
  0
VERTEX
  5
FAB25
  8
0
 10
41110.027447699998
 20
1698.108869716996
 30
0.0
  0
VERTEX
  5
FAB26
  8
0
 10
41110.027447699998
 20
1733.108869716996
 30
0.0
  0
VERTEX
  5
FAB27
  8
0
 10
41610.027447699998
 20
1733.108869716996
 30
0.0
  0
SEQEND
  5
FAB28
  8
0
  0
POLYLINE
  5
EF6A9
  8
0
 66
     1
 10
0.0
 20
0.0
 30
0.0
 70
     1
  0
VERTEX
  5
FAB29
  8
0
 10
41645.027447699998
 20
4193.1088697169862
 30
0.0
  0
VERTEX
  5
FAB2A
  8
0
 10
41610.027447699998
 20
4193.1088697169862
 30
0.0
  0
VERTEX
  5
FAB2B
  8
0
 10
41610.027447699998
 20
1666.108869716996
 30
0.0
  0
VERTEX
  5
FAB2C
  8
0
 10
41645.027447699998
 20
1666.108869716996
 30
0.0
  0
SEQEND
  5
FAB2D
  8
0
  0
POLYLINE
  5
EF6AA
  8
0
 66
     1
 10
0.0
 20
0.0
 30
0.0
  0
VERTEX
  5
FAB2E
  8
0
 10
41642.527447699991
 20
1666.108869716996
 30
0.0
  0
VERTEX
  5
FAB2F
  8
0
 10
41612.527447699991
 20
1666.108869716996
 30
0.0
  0
VERTEX
  5
FAB30
  8
0
 10
41612.527447699991
 20
1663.108869716996
 30
0.0
  0
VERTEX
  5
FAB31
  8
0
 10
41642.527447699991
 20
1663.108869716996
 30
0.0
  0
VERTEX
  5
FAB32
  8
0
 10
41642.527447699991
 20
1666.108869716996
 30
0.0
  0
SEQEND
  5
FAB33
  8
0
  0
POLYLINE
  5
EF6AB
  8
0
 66
     1
 10
0.0
 20
0.0
 30
0.0
 70
     1
  0
VERTEX
  5
FAB34
  8
0
 10
41610.027447699998
 20
2518.1088697169962
 30
0.0
  0
VERTEX
  5
FAB35
  8
0
 10
41110.027447699998
 20
2518.1088697169962
 30
0.0
  0
VERTEX
  5
FAB36
  8
0
 10
41110.027447699998
 20
2553.1088697169962
 30
0.0
  0
VERTEX
  5
FAB37
  8
0
 10
41610.027447699998
 20
2553.1088697169962
 30
0.0
  0
SEQEND
  5
FAB38
  8
0
  0
POLYLINE
  5
EF6AC
  8
0
 66
     1
 10
0.0
 20
0.0
 30
0.0
 70
     1
  0
VERTEX
  5
FAB39
  8
0
 10
41610.027447699998
 20
3748.1088697169962
 30
0.0
  0
VERTEX
  5
FAB3A
  8
0
 10
41110.027447699998
 20
3748.1088697169962
 30
0.0
  0
VERTEX
  5
FAB3B
  8
0
 10
41110.027447699998
 20
3783.1088697169962
 30
0.0
  0
VERTEX
  5
FAB3C
  8
0
 10
41610.027447699998
 20
3783.1088697169962
 30
0.0
  0
SEQEND
  5
FAB3D
  8
0
  0
POLYLINE
  5
EF6AD
  8
0
 66
     1
 10
0.0
 20
0.0
 30
0.0
 70
     1
  0
VERTEX
  5
FAB3E
  8
0
 10
40075.027447699998
 20
3748.1088697169962
 30
0.0
  0
VERTEX
  5
FAB3F
  8
0
 10
41075.027447699991
 20
3748.1088697169962
 30
0.0
  0
VERTEX
  5
FAB40
  8
0
 10
41075.027447699991
 20
3783.1088697169962
 30
0.0
  0
VERTEX
  5
FAB41
  8
0
 10
40075.027447699998
 20
3783.1088697169962
 30
0.0
  0
SEQEND
  5
FAB42
  8
0
  0
POLYLINE
  5
EF6AE
  8
0
 66
     1
 10
0.0
 20
0.0
 30
0.0
 70
     1
  0
VERTEX
  5
FAB43
  8
0
 10
40075.027447699998
 20
2518.1088697169962
 30
0.0
  0
VERTEX
  5
FAB44
  8
0
 10
41075.027447699991
 20
2518.1088697169962
 30
0.0
  0
VERTEX
  5
FAB45
  8
0
 10
41075.027447699991
 20
2553.1088697169962
 30
0.0
  0
VERTEX
  5
FAB46
  8
0
 10
40075.027447699998
 20
2553.1088697169962
 30
0.0
  0
SEQEND
  5
FAB47
  8
0
  0
POLYLINE
  5
EF6AF
  8
0
 66
     1
 10
0.0
 20
0.0
 30
0.0
 70
     1
  0
VERTEX
  5
FAB48
  8
0
 10
40075.027447699998
 20
4158.1088697169853
 30
0.0
  0
VERTEX
  5
FAB49
  8
0
 10
41075.027447699991
 20
4158.1088697169853
 30
0.0
  0
VERTEX
  5
FAB4A
  8
0
 10
41075.027447699991
 20
4193.1088697169862
 30
0.0
  0
VERTEX
  5
FAB4B
  8
0
 10
40075.027447699998
 20
4193.1088697169862
 30
0.0
  0
SEQEND
  5
FAB4C
  8
0
  0
POLYLINE
  5
EF6B0
  8
0
 66
     1
 10
0.0
 20
0.0
 30
0.0
 70
     1
  0
VERTEX
  5
FAB4D
  8
0
 10
40075.027447699998
 20
1698.108869716996
 30
0.0
  0
VERTEX
  5
FAB4E
  8
0
 10
41075.027447699991
 20
1698.108869716996
 30
0.0
  0
VERTEX
  5
FAB4F
  8
0
 10
41075.027447699991
 20
1733.108869716996
 30
0.0
  0
VERTEX
  5
FAB50
  8
0
 10
40075.027447699998
 20
1733.108869716996
 30
0.0
  0
SEQEND
  5
FAB51
  8
0
  0
POLYLINE
  5
EF6B1
  8
0
 66
     1
 10
0.0
 20
0.0
 30
0.0
 70
     1
  0
VERTEX
  5
FAB52
  8
0
 10
41110.027447699998
 20
4193.1088697169862
 30
0.0
  0
VERTEX
  5
FAB53
  8
0
 10
41075.027447699991
 20
4193.1088697169862
 30
0.0
  0
VERTEX
  5
FAB54
  8
0
 10
41075.027447699991
 20
1666.108869716996
 30
0.0
  0
VERTEX
  5
FAB55
  8
0
 10
41110.027447699998
 20
1666.108869716996
 30
0.0
  0
SEQEND
  5
FAB56
  8
0
  0
POLYLINE
  5
EF6B2
  8
0
 66
     1
 10
0.0
 20
0.0
 30
0.0
  0
VERTEX
  5
FAB57
  8
0
 10
40042.527447699991
 20
1666.108869716996
 30
0.0
  0
VERTEX
  5
FAB58
  8
0
 10
40072.527447699991
 20
1666.108869716996
 30
0.0
  0
VERTEX
  5
FAB59
  8
0
 10
40072.527447699991
 20
1663.108869716996
 30
0.0
  0
VERTEX
  5
FAB5A
  8
0
 10
40042.527447699991
 20
1663.108869716996
 30
0.0
  0
VERTEX
  5
FAB5B
  8
0
 10
40042.527447699991
 20
1666.108869716996
 30
0.0
  0
SEQEND
  5
FAB5C
  8
0
  0
POLYLINE
  5
EF6B3
  8
0
 66
     1
 10
0.0
 20
0.0
 30
0.0
  0
VERTEX
  5
FAB5D
  8
0
 10
41107.527447699998
 20
1666.108869716996
 30
0.0
  0
VERTEX
  5
FAB5E
  8
0
 10
41077.527447699991
 20
1666.108869716996
 30
0.0
  0
VERTEX
  5
FAB5F
  8
0
 10
41077.527447699991
 20
1663.108869716996
 30
0.0
  0
VERTEX
  5
FAB60
  8
0
 10
41107.527447699998
 20
1663.108869716996
 30
0.0
  0
VERTEX
  5
FAB61
  8
0
 10
41107.527447699998
 20
1666.108869716996
 30
0.0
  0
SEQEND
  5
FAB62
  8
0
  0
POLYLINE
  5
EF6B4
  8
0
 66
     1
 10
0.0
 20
0.0
 30
0.0
  0
VERTEX
  5
FAB63
  8
0
 10
41110.027447699998
 20
4193.1088697169862
 30
0.0
  0
VERTEX
  5
FAB64
  8
0
 10
41110.027447699998
 20
1666.108869716996
 30
0.0
  0
SEQEND
  5
FAB65
  8
0
  0
POLYLINE
  5
EF6B5
  8
0
 66
     1
 10
0.0
 20
0.0
 30
0.0
  0
VERTEX
  5
FAB66
  8
0
 10
41075.027447699991
 20
2143.1088697170071
 30
0.0
  0
VERTEX
  5
FAB67
  8
0
 10
40075.027447699998
 20
2143.1088697170071
 30
0.0
  0
VERTEX
  5
FAB68
  8
0
 10
40075.027447699998
 20
2108.1088697169962
 30
0.0
  0
VERTEX
  5
FAB69
  8
0
 10
41075.027447699991
 20
2108.1088697169962
 30
0.0
  0
VERTEX
  5
FAB6A
  8
0
 10
41075.027447699991
 20
2143.1088697170071
 30
0.0
  0
SEQEND
  5
FAB6B
  8
0
  0
POLYLINE
  5
EF6B6
  8
0
 66
     1
 10
0.0
 20
0.0
 30
0.0
  0
VERTEX
  5
FAB6C
  8
0
 10
41075.027447699991
 20
3373.1088697170071
 30
0.0
  0
VERTEX
  5
FAB6D
  8
0
 10
40075.027447699998
 20
3373.1088697170071
 30
0.0
  0
VERTEX
  5
FAB6E
  8
0
 10
40075.027447699998
 20
3338.1088697169962
 30
0.0
  0
VERTEX
  5
FAB6F
  8
0
 10
41075.027447699991
 20
3338.1088697169962
 30
0.0
  0
VERTEX
  5
FAB70
  8
0
 10
41075.027447699991
 20
3373.1088697170071
 30
0.0
  0
SEQEND
  5
FAB71
  8
0
  0
POLYLINE
  5
EF6B7
  8
0
 66
     1
 10
0.0
 20
0.0
 30
0.0
 70
     1
  0
VERTEX
  5
FAB72
  8
0
 10
40075.027447699998
 20
2928.1088697169962
 30
0.0
  0
VERTEX
  5
FAB73
  8
0
 10
41075.027447699991
 20
2928.1088697169962
 30
0.0
  0
VERTEX
  5
FAB74
  8
0
 10
41075.027447699991
 20
2963.1088697169962
 30
0.0
  0
VERTEX
  5
FAB75
  8
0
 10
40075.027447699998
 20
2963.1088697169962
 30
0.0
  0
SEQEND
  5
FAB76
  8
0
  0
POLYLINE
  5
EF6B8
  8
0
 66
     1
 10
0.0
 20
0.0
 30
0.0
 70
     1
  0
VERTEX
  5
FAB77
  8
0
 10
34497.411666715961
 20
2928.1088697169962
 30
0.0
  0
VERTEX
  5
FAB78
  8
0
 10
35997.411666715961
 20
2928.1088697169962
 30
0.0
  0
VERTEX
  5
FAB79
  8
0
 10
35997.411666715961
 20
2963.1088697169962
 30
0.0
  0
VERTEX
  5
FAB7A
  8
0
 10
34497.411666715961
 20
2963.1088697169962
 30
0.0
  0
SEQEND
  5
FAB7B
  8
0
  0
POLYLINE
  5
EF6B9
  8
0
 66
     1
 10
0.0
 20
0.0
 30
0.0
  0
VERTEX
  5
FAB7C
  8
0
 10
35997.411666715961
 20
3373.1088697170071
 30
0.0
  0
VERTEX
  5
FAB7D
  8
0
 10
34497.411666715961
 20
3373.1088697170071
 30
0.0
  0
VERTEX
  5
FAB7E
  8
0
 10
34497.411666715961
 20
3338.1088697169962
 30
0.0
  0
VERTEX
  5
FAB7F
  8
0
 10
35997.411666715961
 20
3338.1088697169962
 30
0.0
  0
VERTEX
  5
FAB80
  8
0
 10
35997.411666715961
 20
3373.1088697170071
 30
0.0
  0
SEQEND
  5
FAB81
  8
0
  0
POLYLINE
  5
EF6BA
  8
0
 66
     1
 10
0.0
 20
0.0
 30
0.0
  0
VERTEX
  5
FAB82
  8
0
 10
35997.411666715961
 20
2143.1088697170071
 30
0.0
  0
VERTEX
  5
FAB83
  8
0
 10
34497.411666715961
 20
2143.1088697170071
 30
0.0
  0
VERTEX
  5
FAB84
  8
0
 10
34497.411666715961
 20
2108.1088697169962
 30
0.0
  0
VERTEX
  5
FAB85
  8
0
 10
35997.411666715961
 20
2108.1088697169962
 30
0.0
  0
VERTEX
  5
FAB86
  8
0
 10
35997.411666715961
 20
2143.1088697170071
 30
0.0
  0
SEQEND
  5
FAB87
  8
0
  0
POLYLINE
  5
EF6BB
  8
0
 66
     1
 10
0.0
 20
0.0
 30
0.0
  0
VERTEX
  5
FAB88
  8
0
 10
36032.411666715961
 20
4193.1088697169862
 30
0.0
  0
VERTEX
  5
FAB89
  8
0
 10
36032.411666715961
 20
1666.108869716996
 30
0.0
  0
SEQEND
  5
FAB8A
  8
0
  0
POLYLINE
  5
EF6BC
  8
0
 66
     1
 10
0.0
 20
0.0
 30
0.0
  0
VERTEX
  5
FAB8B
  8
0
 10
36029.911666715961
 20
1666.108869716996
 30
0.0
  0
VERTEX
  5
FAB8C
  8
0
 10
35999.911666715961
 20
1666.108869716996
 30
0.0
  0
VERTEX
  5
FAB8D
  8
0
 10
35999.911666715961
 20
1663.108869716996
 30
0.0
  0
VERTEX
  5
FAB8E
  8
0
 10
36029.911666715961
 20
1663.108869716996
 30
0.0
  0
VERTEX
  5
FAB8F
  8
0
 10
36029.911666715961
 20
1666.108869716996
 30
0.0
  0
SEQEND
  5
FAB90
  8
0
  0
POLYLINE
  5
EF6BD
  8
0
 66
     1
 10
0.0
 20
0.0
 30
0.0
 70
     1
  0
VERTEX
  5
FAB91
  8
0
 10
36032.411666715961
 20
4193.1088697169862
 30
0.0
  0
VERTEX
  5
FAB92
  8
0
 10
35997.411666715961
 20
4193.1088697169862
 30
0.0
  0
VERTEX
  5
FAB93
  8
0
 10
35997.411666715961
 20
1666.108869716996
 30
0.0
  0
VERTEX
  5
FAB94
  8
0
 10
36032.411666715961
 20
1666.108869716996
 30
0.0
  0
SEQEND
  5
FAB95
  8
0
  0
POLYLINE
  5
EF6BE
  8
0
 66
     1
 10
0.0
 20
0.0
 30
0.0
 70
     1
  0
VERTEX
  5
FAB96
  8
0
 10
34497.411666715961
 20
1698.108869716996
 30
0.0
  0
VERTEX
  5
FAB97
  8
0
 10
35997.411666715961
 20
1698.108869716996
 30
0.0
  0
VERTEX
  5
FAB98
  8
0
 10
35997.411666715961
 20
1733.108869716996
 30
0.0
  0
VERTEX
  5
FAB99
  8
0
 10
34497.411666715961
 20
1733.108869716996
 30
0.0
  0
SEQEND
  5
FAB9A
  8
0
  0
POLYLINE
  5
EF6BF
  8
0
 66
     1
 10
0.0
 20
0.0
 30
0.0
 70
     1
  0
VERTEX
  5
FAB9B
  8
0
 10
34497.411666715961
 20
4158.1088697169853
 30
0.0
  0
VERTEX
  5
FAB9C
  8
0
 10
35997.411666715961
 20
4158.1088697169853
 30
0.0
  0
VERTEX
  5
FAB9D
  8
0
 10
35997.411666715961
 20
4193.1088697169862
 30
0.0
  0
VERTEX
  5
FAB9E
  8
0
 10
34497.411666715961
 20
4193.1088697169862
 30
0.0
  0
SEQEND
  5
FAB9F
  8
0
  0
POLYLINE
  5
EF6C0
  8
0
 66
     1
 10
0.0
 20
0.0
 30
0.0
 70
     1
  0
VERTEX
  5
FABA0
  8
0
 10
34497.411666715961
 20
2518.1088697169962
 30
0.0
  0
VERTEX
  5
FABA1
  8
0
 10
35997.411666715961
 20
2518.1088697169962
 30
0.0
  0
VERTEX
  5
FABA2
  8
0
 10
35997.411666715961
 20
2553.1088697169962
 30
0.0
  0
VERTEX
  5
FABA3
  8
0
 10
34497.411666715961
 20
2553.1088697169962
 30
0.0
  0
SEQEND
  5
FABA4
  8
0
  0
POLYLINE
  5
EF6C1
  8
0
 66
     1
 10
0.0
 20
0.0
 30
0.0
 70
     1
  0
VERTEX
  5
FABA5
  8
0
 10
34497.411666715961
 20
3748.1088697169962
 30
0.0
  0
VERTEX
  5
FABA6
  8
0
 10
35997.411666715961
 20
3748.1088697169962
 30
0.0
  0
VERTEX
  5
FABA7
  8
0
 10
35997.411666715961
 20
3783.1088697169962
 30
0.0
  0
VERTEX
  5
FABA8
  8
0
 10
34497.411666715961
 20
3783.1088697169962
 30
0.0
  0
SEQEND
  5
FABA9
  8
0
  0
POLYLINE
  5
EF6C2
  8
0
 66
     1
 10
0.0
 20
0.0
 30
0.0
 70
     1
  0
VERTEX
  5
FABAA
  8
0
 10
32962.411666715961
 20
3748.1088697169962
 30
0.0
  0
VERTEX
  5
FABAB
  8
0
 10
34462.411666715961
 20
3748.1088697169962
 30
0.0
  0
VERTEX
  5
FABAC
  8
0
 10
34462.411666715961
 20
3783.1088697169962
 30
0.0
  0
VERTEX
  5
FABAD
  8
0
 10
32962.411666715961
 20
3783.1088697169962
 30
0.0
  0
SEQEND
  5
FABAE
  8
0
  0
POLYLINE
  5
EF6C3
  8
0
 66
     1
 10
0.0
 20
0.0
 30
0.0
 70
     1
  0
VERTEX
  5
FABAF
  8
0
 10
32962.411666715961
 20
2518.1088697169962
 30
0.0
  0
VERTEX
  5
FABB0
  8
0
 10
34462.411666715961
 20
2518.1088697169962
 30
0.0
  0
VERTEX
  5
FABB1
  8
0
 10
34462.411666715961
 20
2553.1088697169962
 30
0.0
  0
VERTEX
  5
FABB2
  8
0
 10
32962.411666715961
 20
2553.1088697169962
 30
0.0
  0
SEQEND
  5
FABB3
  8
0
  0
POLYLINE
  5
EF6C4
  8
0
 66
     1
 10
0.0
 20
0.0
 30
0.0
 70
     1
  0
VERTEX
  5
FABB4
  8
0
 10
32962.411666715961
 20
4158.1088697169853
 30
0.0
  0
VERTEX
  5
FABB5
  8
0
 10
34462.411666715961
 20
4158.1088697169853
 30
0.0
  0
VERTEX
  5
FABB6
  8
0
 10
34462.411666715961
 20
4193.1088697169862
 30
0.0
  0
VERTEX
  5
FABB7
  8
0
 10
32962.411666715961
 20
4193.1088697169862
 30
0.0
  0
SEQEND
  5
FABB8
  8
0
  0
POLYLINE
  5
EF6C5
  8
0
 66
     1
 10
0.0
 20
0.0
 30
0.0
 70
     1
  0
VERTEX
  5
FABB9
  8
0
 10
32962.411666715961
 20
1698.108869716996
 30
0.0
  0
VERTEX
  5
FABBA
  8
0
 10
34462.411666715961
 20
1698.108869716996
 30
0.0
  0
VERTEX
  5
FABBB
  8
0
 10
34462.411666715961
 20
1733.108869716996
 30
0.0
  0
VERTEX
  5
FABBC
  8
0
 10
32962.411666715961
 20
1733.108869716996
 30
0.0
  0
SEQEND
  5
FABBD
  8
0
  0
POLYLINE
  5
EF6C6
  8
0
 66
     1
 10
0.0
 20
0.0
 30
0.0
 70
     1
  0
VERTEX
  5
FABBE
  8
0
 10
34497.411666715961
 20
4193.1088697169862
 30
0.0
  0
VERTEX
  5
FABBF
  8
0
 10
34462.411666715961
 20
4193.1088697169862
 30
0.0
  0
VERTEX
  5
FABC0
  8
0
 10
34462.411666715961
 20
1666.108869716996
 30
0.0
  0
VERTEX
  5
FABC1
  8
0
 10
34497.411666715961
 20
1666.108869716996
 30
0.0
  0
SEQEND
  5
FABC2
  8
0
  0
POLYLINE
  5
EF6C7
  8
0
 66
     1
 10
0.0
 20
0.0
 30
0.0
 70
     1
  0
VERTEX
  5
FABC3
  8
0
 10
32927.411666715961
 20
4193.1088697169862
 30
0.0
  0
VERTEX
  5
FABC4
  8
0
 10
32962.411666715961
 20
4193.1088697169862
 30
0.0
  0
VERTEX
  5
FABC5
  8
0
 10
32962.411666715961
 20
1666.108869716996
 30
0.0
  0
VERTEX
  5
FABC6
  8
0
 10
32927.411666715961
 20
1666.108869716996
 30
0.0
  0
SEQEND
  5
FABC7
  8
0
  0
POLYLINE
  5
EF6C8
  8
0
 66
     1
 10
0.0
 20
0.0
 30
0.0
  0
VERTEX
  5
FABC8
  8
0
 10
32929.911666715961
 20
1666.108869716996
 30
0.0
  0
VERTEX
  5
FABC9
  8
0
 10
32959.911666715961
 20
1666.108869716996
 30
0.0
  0
VERTEX
  5
FABCA
  8
0
 10
32959.911666715961
 20
1663.108869716996
 30
0.0
  0
VERTEX
  5
FABCB
  8
0
 10
32929.911666715961
 20
1663.108869716996
 30
0.0
  0
VERTEX
  5
FABCC
  8
0
 10
32929.911666715961
 20
1666.108869716996
 30
0.0
  0
SEQEND
  5
FABCD
  8
0
  0
POLYLINE
  5
EF6C9
  8
0
 66
     1
 10
0.0
 20
0.0
 30
0.0
  0
VERTEX
  5
FABCE
  8
0
 10
34494.911666715961
 20
1666.108869716996
 30
0.0
  0
VERTEX
  5
FABCF
  8
0
 10
34464.911666715961
 20
1666.108869716996
 30
0.0
  0
VERTEX
  5
FABD0
  8
0
 10
34464.911666715961
 20
1663.108869716996
 30
0.0
  0
VERTEX
  5
FABD1
  8
0
 10
34494.911666715961
 20
1663.108869716996
 30
0.0
  0
VERTEX
  5
FABD2
  8
0
 10
34494.911666715961
 20
1666.108869716996
 30
0.0
  0
SEQEND
  5
FABD3
  8
0
  0
POLYLINE
  5
EF6CA
  8
0
 66
     1
 10
0.0
 20
0.0
 30
0.0
  0
VERTEX
  5
FABD4
  8
0
 10
34497.411666715961
 20
4193.1088697169862
 30
0.0
  0
VERTEX
  5
FABD5
  8
0
 10
34497.411666715961
 20
1666.108869716996
 30
0.0
  0
SEQEND
  5
FABD6
  8
0
  0
POLYLINE
  5
EF6CB
  8
0
 66
     1
 10
0.0
 20
0.0
 30
0.0
  0
VERTEX
  5
FABD7
  8
0
 10
34462.411666715961
 20
2143.1088697170071
 30
0.0
  0
VERTEX
  5
FABD8
  8
0
 10
32962.411666715961
 20
2143.1088697170071
 30
0.0
  0
VERTEX
  5
FABD9
  8
0
 10
32962.411666715961
 20
2108.1088697169962
 30
0.0
  0
VERTEX
  5
FABDA
  8
0
 10
34462.411666715961
 20
2108.1088697169962
 30
0.0
  0
VERTEX
  5
FABDB
  8
0
 10
34462.411666715961
 20
2143.1088697170071
 30
0.0
  0
SEQEND
  5
FABDC
  8
0
  0
POLYLINE
  5
EF6CC
  8
0
 66
     1
 10
0.0
 20
0.0
 30
0.0
  0
VERTEX
  5
FABDD
  8
0
 10
34462.411666715961
 20
3373.1088697170071
 30
0.0
  0
VERTEX
  5
FABDE
  8
0
 10
32962.411666715961
 20
3373.1088697170071
 30
0.0
  0
VERTEX
  5
FABDF
  8
0
 10
32962.411666715961
 20
3338.1088697169962
 30
0.0
  0
VERTEX
  5
FABE0
  8
0
 10
34462.411666715961
 20
3338.1088697169962
 30
0.0
  0
VERTEX
  5
FABE1
  8
0
 10
34462.411666715961
 20
3373.1088697170071
 30
0.0
  0
SEQEND
  5
FABE2
  8
0
  0
POLYLINE
  5
EF6CD
  8
0
 66
     1
 10
0.0
 20
0.0
 30
0.0
 70
     1
  0
VERTEX
  5
FABE3
  8
0
 10
32962.411666715961
 20
2928.1088697169962
 30
0.0
  0
VERTEX
  5
FABE4
  8
0
 10
34462.411666715961
 20
2928.1088697169962
 30
0.0
  0
VERTEX
  5
FABE5
  8
0
 10
34462.411666715961
 20
2963.1088697169962
 30
0.0
  0
VERTEX
  5
FABE6
  8
0
 10
32962.411666715961
 20
2963.1088697169962
 30
0.0
  0
SEQEND
  5
FABE7
  8
0
  0
POLYLINE
  5
EF6CE
  8
0
 66
     1
 10
0.0
 20
0.0
 30
0.0
 70
     1
  0
VERTEX
  5
FABE8
  8
0
 10
42645.027447699991
 20
5618.1088697169853
 30
0.0
  0
VERTEX
  5
FABE9
  8
0
 10
43645.027447699998
 20
5618.1088697169853
 30
0.0
  0
VERTEX
  5
FABEA
  8
0
 10
43645.027447699998
 20
5653.1088697169862
 30
0.0
  0
VERTEX
  5
FABEB
  8
0
 10
42645.027447699991
 20
5653.1088697169862
 30
0.0
  0
SEQEND
  5
FABEC
  8
0
  0
POLYLINE
  5
EF6CF
  8
0
 66
     1
 10
0.0
 20
0.0
 30
0.0
 70
     1
  0
VERTEX
  5
FABED
  8
0
 10
42645.027447699991
 20
6848.1088697169853
 30
0.0
  0
VERTEX
  5
FABEE
  8
0
 10
43645.027447699998
 20
6848.1088697169853
 30
0.0
  0
VERTEX
  5
FABEF
  8
0
 10
43645.027447699998
 20
6883.1088697169862
 30
0.0
  0
VERTEX
  5
FABF0
  8
0
 10
42645.027447699991
 20
6883.1088697169862
 30
0.0
  0
SEQEND
  5
FABF1
  8
0
  0
POLYLINE
  5
EF6D0
  8
0
 66
     1
 10
0.0
 20
0.0
 30
0.0
 70
     1
  0
VERTEX
  5
FABF2
  8
0
 10
42645.027447699991
 20
4798.1088697169853
 30
0.0
  0
VERTEX
  5
FABF3
  8
0
 10
43645.027447699998
 20
4798.1088697169853
 30
0.0
  0
VERTEX
  5
FABF4
  8
0
 10
43645.027447699998
 20
4833.1088697169853
 30
0.0
  0
VERTEX
  5
FABF5
  8
0
 10
42645.027447699991
 20
4833.1088697169853
 30
0.0
  0
SEQEND
  5
FABF6
  8
0
  0
POLYLINE
  5
EF6D1
  8
0
 66
     1
 10
0.0
 20
0.0
 30
0.0
 70
     1
  0
VERTEX
  5
FABF7
  8
0
 10
43680.027447699998
 20
6883.1088697169862
 30
0.0
  0
VERTEX
  5
FABF8
  8
0
 10
43645.027447699998
 20
6883.1088697169862
 30
0.0
  0
VERTEX
  5
FABF9
  8
0
 10
43645.027447699998
 20
4766.1088697169853
 30
0.0
  0
VERTEX
  5
FABFA
  8
0
 10
43680.027447699998
 20
4766.1088697169853
 30
0.0
  0
SEQEND
  5
FABFB
  8
0
  0
POLYLINE
  5
EF6D2
  8
0
 66
     1
 10
0.0
 20
0.0
 30
0.0
  0
VERTEX
  5
FABFC
  8
0
 10
43677.527447699991
 20
4766.1088697169853
 30
0.0
  0
VERTEX
  5
FABFD
  8
0
 10
43647.527447699991
 20
4766.1088697169853
 30
0.0
  0
VERTEX
  5
FABFE
  8
0
 10
43647.527447699991
 20
4763.1088697169853
 30
0.0
  0
VERTEX
  5
FABFF
  8
0
 10
43677.527447699991
 20
4763.1088697169853
 30
0.0
  0
VERTEX
  5
FAC00
  8
0
 10
43677.527447699991
 20
4766.1088697169853
 30
0.0
  0
SEQEND
  5
FAC01
  8
0
  0
POLYLINE
  5
EF6D3
  8
0
 66
     1
 10
0.0
 20
0.0
 30
0.0
  0
VERTEX
  5
FAC02
  8
0
 10
43680.027447699998
 20
6883.1088697169862
 30
0.0
  0
VERTEX
  5
FAC03
  8
0
 10
43680.027447699998
 20
4766.1088697169853
 30
0.0
  0
SEQEND
  5
FAC04
  8
0
  0
POLYLINE
  5
EF6D4
  8
0
 66
     1
 10
0.0
 20
0.0
 30
0.0
  0
VERTEX
  5
FAC05
  8
0
 10
43645.027447699998
 20
5243.1088697169962
 30
0.0
  0
VERTEX
  5
FAC06
  8
0
 10
42645.027447699991
 20
5243.1088697169962
 30
0.0
  0
VERTEX
  5
FAC07
  8
0
 10
42645.027447699991
 20
5208.1088697169853
 30
0.0
  0
VERTEX
  5
FAC08
  8
0
 10
43645.027447699998
 20
5208.1088697169853
 30
0.0
  0
VERTEX
  5
FAC09
  8
0
 10
43645.027447699998
 20
5243.1088697169962
 30
0.0
  0
SEQEND
  5
FAC0A
  8
0
  0
POLYLINE
  5
EF6D5
  8
0
 66
     1
 10
0.0
 20
0.0
 30
0.0
  0
VERTEX
  5
FAC0B
  8
0
 10
43645.027447699998
 20
6473.1088697169962
 30
0.0
  0
VERTEX
  5
FAC0C
  8
0
 10
42645.027447699991
 20
6473.1088697169962
 30
0.0
  0
VERTEX
  5
FAC0D
  8
0
 10
42645.027447699991
 20
6438.1088697169862
 30
0.0
  0
VERTEX
  5
FAC0E
  8
0
 10
43645.027447699998
 20
6438.1088697169862
 30
0.0
  0
VERTEX
  5
FAC0F
  8
0
 10
43645.027447699998
 20
6473.1088697169962
 30
0.0
  0
SEQEND
  5
FAC10
  8
0
  0
POLYLINE
  5
EF6D6
  8
0
 66
     1
 10
0.0
 20
0.0
 30
0.0
 70
     1
  0
VERTEX
  5
FAC11
  8
0
 10
42645.027447699991
 20
6028.1088697169862
 30
0.0
  0
VERTEX
  5
FAC12
  8
0
 10
43645.027447699998
 20
6028.1088697169862
 30
0.0
  0
VERTEX
  5
FAC13
  8
0
 10
43645.027447699998
 20
6063.1088697169853
 30
0.0
  0
VERTEX
  5
FAC14
  8
0
 10
42645.027447699991
 20
6063.1088697169853
 30
0.0
  0
SEQEND
  5
FAC15
  8
0
  0
POLYLINE
  5
EF6D7
  8
0
 66
     1
 10
0.0
 20
0.0
 30
0.0
 70
     1
  0
VERTEX
  5
FAC16
  8
0
 10
41610.027447699998
 20
6028.1088697169862
 30
0.0
  0
VERTEX
  5
FAC17
  8
0
 10
42610.027447699977
 20
6028.1088697169862
 30
0.0
  0
VERTEX
  5
FAC18
  8
0
 10
42610.027447699977
 20
6063.1088697169853
 30
0.0
  0
VERTEX
  5
FAC19
  8
0
 10
41610.027447699998
 20
6063.1088697169853
 30
0.0
  0
SEQEND
  5
FAC1A
  8
0
  0
POLYLINE
  5
EF6D8
  8
0
 66
     1
 10
0.0
 20
0.0
 30
0.0
  0
VERTEX
  5
FAC1B
  8
0
 10
42610.027447699977
 20
6473.1088697169962
 30
0.0
  0
VERTEX
  5
FAC1C
  8
0
 10
41610.027447699998
 20
6473.1088697169962
 30
0.0
  0
VERTEX
  5
FAC1D
  8
0
 10
41610.027447699998
 20
6438.1088697169862
 30
0.0
  0
VERTEX
  5
FAC1E
  8
0
 10
42610.027447699977
 20
6438.1088697169862
 30
0.0
  0
VERTEX
  5
FAC1F
  8
0
 10
42610.027447699977
 20
6473.1088697169962
 30
0.0
  0
SEQEND
  5
FAC20
  8
0
  0
POLYLINE
  5
EF6D9
  8
0
 66
     1
 10
0.0
 20
0.0
 30
0.0
  0
VERTEX
  5
FAC21
  8
0
 10
42610.027447699977
 20
5243.1088697169962
 30
0.0
  0
VERTEX
  5
FAC22
  8
0
 10
41610.027447699998
 20
5243.1088697169962
 30
0.0
  0
VERTEX
  5
FAC23
  8
0
 10
41610.027447699998
 20
5208.1088697169853
 30
0.0
  0
VERTEX
  5
FAC24
  8
0
 10
42610.027447699977
 20
5208.1088697169853
 30
0.0
  0
VERTEX
  5
FAC25
  8
0
 10
42610.027447699977
 20
5243.1088697169962
 30
0.0
  0
SEQEND
  5
FAC26
  8
0
  0
POLYLINE
  5
EF6DA
  8
0
 66
     1
 10
0.0
 20
0.0
 30
0.0
  0
VERTEX
  5
FAC27
  8
0
 10
42645.027447699991
 20
6883.1088697169862
 30
0.0
  0
VERTEX
  5
FAC28
  8
0
 10
42645.027447699991
 20
4766.1088697169853
 30
0.0
  0
SEQEND
  5
FAC29
  8
0
  0
POLYLINE
  5
EF6DB
  8
0
 66
     1
 10
0.0
 20
0.0
 30
0.0
  0
VERTEX
  5
FAC2A
  8
0
 10
42642.527447699998
 20
4766.1088697169853
 30
0.0
  0
VERTEX
  5
FAC2B
  8
0
 10
42612.527447699998
 20
4766.1088697169853
 30
0.0
  0
VERTEX
  5
FAC2C
  8
0
 10
42612.527447699998
 20
4763.1088697169853
 30
0.0
  0
VERTEX
  5
FAC2D
  8
0
 10
42642.527447699998
 20
4763.1088697169853
 30
0.0
  0
VERTEX
  5
FAC2E
  8
0
 10
42642.527447699998
 20
4766.1088697169853
 30
0.0
  0
SEQEND
  5
FAC2F
  8
0
  0
POLYLINE
  5
EF6DC
  8
0
 66
     1
 10
0.0
 20
0.0
 30
0.0
 70
     1
  0
VERTEX
  5
FAC30
  8
0
 10
42645.027447699991
 20
6883.1088697169862
 30
0.0
  0
VERTEX
  5
FAC31
  8
0
 10
42610.027447699977
 20
6883.1088697169862
 30
0.0
  0
VERTEX
  5
FAC32
  8
0
 10
42610.027447699977
 20
4766.1088697169853
 30
0.0
  0
VERTEX
  5
FAC33
  8
0
 10
42645.027447699991
 20
4766.1088697169853
 30
0.0
  0
SEQEND
  5
FAC34
  8
0
  0
POLYLINE
  5
EF6DD
  8
0
 66
     1
 10
0.0
 20
0.0
 30
0.0
 70
     1
  0
VERTEX
  5
FAC35
  8
0
 10
41610.027447699998
 20
4798.1088697169853
 30
0.0
  0
VERTEX
  5
FAC36
  8
0
 10
42610.027447699977
 20
4798.1088697169853
 30
0.0
  0
VERTEX
  5
FAC37
  8
0
 10
42610.027447699977
 20
4833.1088697169853
 30
0.0
  0
VERTEX
  5
FAC38
  8
0
 10
41610.027447699998
 20
4833.1088697169853
 30
0.0
  0
SEQEND
  5
FAC39
  8
0
  0
POLYLINE
  5
EF6DE
  8
0
 66
     1
 10
0.0
 20
0.0
 30
0.0
 70
     1
  0
VERTEX
  5
FAC3A
  8
0
 10
41610.027447699998
 20
6848.1088697169853
 30
0.0
  0
VERTEX
  5
FAC3B
  8
0
 10
42610.027447699977
 20
6848.1088697169853
 30
0.0
  0
VERTEX
  5
FAC3C
  8
0
 10
42610.027447699977
 20
6883.1088697169862
 30
0.0
  0
VERTEX
  5
FAC3D
  8
0
 10
41610.027447699998
 20
6883.1088697169862
 30
0.0
  0
SEQEND
  5
FAC3E
  8
0
  0
POLYLINE
  5
EF6DF
  8
0
 66
     1
 10
0.0
 20
0.0
 30
0.0
 70
     1
  0
VERTEX
  5
FAC3F
  8
0
 10
41610.027447699998
 20
5618.1088697169853
 30
0.0
  0
VERTEX
  5
FAC40
  8
0
 10
42610.027447699977
 20
5618.1088697169853
 30
0.0
  0
VERTEX
  5
FAC41
  8
0
 10
42610.027447699977
 20
5653.1088697169862
 30
0.0
  0
VERTEX
  5
FAC42
  8
0
 10
41610.027447699998
 20
5653.1088697169862
 30
0.0
  0
SEQEND
  5
FAC43
  8
0
  0
POLYLINE
  5
EF6E0
  8
0
 66
     1
 10
0.0
 20
0.0
 30
0.0
 70
     1
  0
VERTEX
  5
FAC44
  8
0
 10
40575.027447699977
 20
5618.1088697169853
 30
0.0
  0
VERTEX
  5
FAC45
  8
0
 10
41575.027447699998
 20
5618.1088697169853
 30
0.0
  0
VERTEX
  5
FAC46
  8
0
 10
41575.027447699998
 20
5653.1088697169862
 30
0.0
  0
VERTEX
  5
FAC47
  8
0
 10
40575.027447699977
 20
5653.1088697169862
 30
0.0
  0
SEQEND
  5
FAC48
  8
0
  0
POLYLINE
  5
EF6E1
  8
0
 66
     1
 10
0.0
 20
0.0
 30
0.0
 70
     1
  0
VERTEX
  5
FAC49
  8
0
 10
40575.027447699977
 20
6848.1088697169853
 30
0.0
  0
VERTEX
  5
FAC4A
  8
0
 10
41575.027447699998
 20
6848.1088697169853
 30
0.0
  0
VERTEX
  5
FAC4B
  8
0
 10
41575.027447699998
 20
6883.1088697169862
 30
0.0
  0
VERTEX
  5
FAC4C
  8
0
 10
40575.027447699977
 20
6883.1088697169862
 30
0.0
  0
SEQEND
  5
FAC4D
  8
0
  0
POLYLINE
  5
EF6E2
  8
0
 66
     1
 10
0.0
 20
0.0
 30
0.0
 70
     1
  0
VERTEX
  5
FAC4E
  8
0
 10
40575.027447699977
 20
4798.1088697169853
 30
0.0
  0
VERTEX
  5
FAC4F
  8
0
 10
41575.027447699998
 20
4798.1088697169853
 30
0.0
  0
VERTEX
  5
FAC50
  8
0
 10
41575.027447699998
 20
4833.1088697169853
 30
0.0
  0
VERTEX
  5
FAC51
  8
0
 10
40575.027447699977
 20
4833.1088697169853
 30
0.0
  0
SEQEND
  5
FAC52
  8
0
  0
POLYLINE
  5
EF6E3
  8
0
 66
     1
 10
0.0
 20
0.0
 30
0.0
 70
     1
  0
VERTEX
  5
FAC53
  8
0
 10
41610.027447699998
 20
6883.1088697169862
 30
0.0
  0
VERTEX
  5
FAC54
  8
0
 10
41575.027447699998
 20
6883.1088697169862
 30
0.0
  0
VERTEX
  5
FAC55
  8
0
 10
41575.027447699998
 20
4766.1088697169853
 30
0.0
  0
VERTEX
  5
FAC56
  8
0
 10
41610.027447699998
 20
4766.1088697169853
 30
0.0
  0
SEQEND
  5
FAC57
  8
0
  0
POLYLINE
  5
EF6E4
  8
0
 66
     1
 10
0.0
 20
0.0
 30
0.0
  0
VERTEX
  5
FAC58
  8
0
 10
41607.527447699991
 20
4766.1088697169853
 30
0.0
  0
VERTEX
  5
FAC59
  8
0
 10
41577.527447699977
 20
4766.1088697169853
 30
0.0
  0
VERTEX
  5
FAC5A
  8
0
 10
41577.527447699977
 20
4763.1088697169853
 30
0.0
  0
VERTEX
  5
FAC5B
  8
0
 10
41607.527447699991
 20
4763.1088697169853
 30
0.0
  0
VERTEX
  5
FAC5C
  8
0
 10
41607.527447699991
 20
4766.1088697169853
 30
0.0
  0
SEQEND
  5
FAC5D
  8
0
  0
POLYLINE
  5
EF6E5
  8
0
 66
     1
 10
0.0
 20
0.0
 30
0.0
  0
VERTEX
  5
FAC5E
  8
0
 10
41610.027447699998
 20
6883.1088697169862
 30
0.0
  0
VERTEX
  5
FAC5F
  8
0
 10
41610.027447699998
 20
4766.1088697169853
 30
0.0
  0
SEQEND
  5
FAC60
  8
0
  0
POLYLINE
  5
EF6E6
  8
0
 66
     1
 10
0.0
 20
0.0
 30
0.0
  0
VERTEX
  5
FAC61
  8
0
 10
41575.027447699998
 20
5243.1088697169962
 30
0.0
  0
VERTEX
  5
FAC62
  8
0
 10
40575.027447699977
 20
5243.1088697169962
 30
0.0
  0
VERTEX
  5
FAC63
  8
0
 10
40575.027447699977
 20
5208.1088697169853
 30
0.0
  0
VERTEX
  5
FAC64
  8
0
 10
41575.027447699998
 20
5208.1088697169853
 30
0.0
  0
VERTEX
  5
FAC65
  8
0
 10
41575.027447699998
 20
5243.1088697169962
 30
0.0
  0
SEQEND
  5
FAC66
  8
0
  0
POLYLINE
  5
EF6E7
  8
0
 66
     1
 10
0.0
 20
0.0
 30
0.0
  0
VERTEX
  5
FAC67
  8
0
 10
41575.027447699998
 20
6473.1088697169962
 30
0.0
  0
VERTEX
  5
FAC68
  8
0
 10
40575.027447699977
 20
6473.1088697169962
 30
0.0
  0
VERTEX
  5
FAC69
  8
0
 10
40575.027447699977
 20
6438.1088697169862
 30
0.0
  0
VERTEX
  5
FAC6A
  8
0
 10
41575.027447699998
 20
6438.1088697169862
 30
0.0
  0
VERTEX
  5
FAC6B
  8
0
 10
41575.027447699998
 20
6473.1088697169962
 30
0.0
  0
SEQEND
  5
FAC6C
  8
0
  0
POLYLINE
  5
EF6E8
  8
0
 66
     1
 10
0.0
 20
0.0
 30
0.0
 70
     1
  0
VERTEX
  5
FAC6D
  8
0
 10
40575.027447699977
 20
6028.1088697169862
 30
0.0
  0
VERTEX
  5
FAC6E
  8
0
 10
41575.027447699998
 20
6028.1088697169862
 30
0.0
  0
VERTEX
  5
FAC6F
  8
0
 10
41575.027447699998
 20
6063.1088697169853
 30
0.0
  0
VERTEX
  5
FAC70
  8
0
 10
40575.027447699977
 20
6063.1088697169853
 30
0.0
  0
SEQEND
  5
FAC71
  8
0
  0
POLYLINE
  5
EF6E9
  8
0
 66
     1
 10
0.0
 20
0.0
 30
0.0
 70
     1
  0
VERTEX
  5
FAC72
  8
0
 10
39540.027447699998
 20
6028.1088697169862
 30
0.0
  0
VERTEX
  5
FAC73
  8
0
 10
40540.027447699991
 20
6028.1088697169862
 30
0.0
  0
VERTEX
  5
FAC74
  8
0
 10
40540.027447699991
 20
6063.1088697169853
 30
0.0
  0
VERTEX
  5
FAC75
  8
0
 10
39540.027447699998
 20
6063.1088697169853
 30
0.0
  0
SEQEND
  5
FAC76
  8
0
  0
POLYLINE
  5
EF6EA
  8
0
 66
     1
 10
0.0
 20
0.0
 30
0.0
  0
VERTEX
  5
FAC77
  8
0
 10
40540.027447699991
 20
6473.1088697169962
 30
0.0
  0
VERTEX
  5
FAC78
  8
0
 10
39540.027447699998
 20
6473.1088697169962
 30
0.0
  0
VERTEX
  5
FAC79
  8
0
 10
39540.027447699998
 20
6438.1088697169862
 30
0.0
  0
VERTEX
  5
FAC7A
  8
0
 10
40540.027447699991
 20
6438.1088697169862
 30
0.0
  0
VERTEX
  5
FAC7B
  8
0
 10
40540.027447699991
 20
6473.1088697169962
 30
0.0
  0
SEQEND
  5
FAC7C
  8
0
  0
POLYLINE
  5
EF6EB
  8
0
 66
     1
 10
0.0
 20
0.0
 30
0.0
  0
VERTEX
  5
FAC7D
  8
0
 10
40540.027447699991
 20
5243.1088697169962
 30
0.0
  0
VERTEX
  5
FAC7E
  8
0
 10
39540.027447699998
 20
5243.1088697169962
 30
0.0
  0
VERTEX
  5
FAC7F
  8
0
 10
39540.027447699998
 20
5208.1088697169853
 30
0.0
  0
VERTEX
  5
FAC80
  8
0
 10
40540.027447699991
 20
5208.1088697169853
 30
0.0
  0
VERTEX
  5
FAC81
  8
0
 10
40540.027447699991
 20
5243.1088697169962
 30
0.0
  0
SEQEND
  5
FAC82
  8
0
  0
POLYLINE
  5
EF6EC
  8
0
 66
     1
 10
0.0
 20
0.0
 30
0.0
  0
VERTEX
  5
FAC83
  8
0
 10
40575.027447699977
 20
6883.1088697169862
 30
0.0
  0
VERTEX
  5
FAC84
  8
0
 10
40575.027447699977
 20
4766.1088697169853
 30
0.0
  0
SEQEND
  5
FAC85
  8
0
  0
POLYLINE
  5
EF6ED
  8
0
 66
     1
 10
0.0
 20
0.0
 30
0.0
  0
VERTEX
  5
FAC86
  8
0
 10
40572.527447699998
 20
4766.1088697169853
 30
0.0
  0
VERTEX
  5
FAC87
  8
0
 10
40542.527447699998
 20
4766.1088697169853
 30
0.0
  0
VERTEX
  5
FAC88
  8
0
 10
40542.527447699998
 20
4763.1088697169853
 30
0.0
  0
VERTEX
  5
FAC89
  8
0
 10
40572.527447699998
 20
4763.1088697169853
 30
0.0
  0
VERTEX
  5
FAC8A
  8
0
 10
40572.527447699998
 20
4766.1088697169853
 30
0.0
  0
SEQEND
  5
FAC8B
  8
0
  0
POLYLINE
  5
EF6EE
  8
0
 66
     1
 10
0.0
 20
0.0
 30
0.0
  0
VERTEX
  5
FAC8C
  8
0
 10
39507.527447699998
 20
4766.1088697169853
 30
0.0
  0
VERTEX
  5
FAC8D
  8
0
 10
39537.527447699998
 20
4766.1088697169853
 30
0.0
  0
VERTEX
  5
FAC8E
  8
0
 10
39537.527447699998
 20
4763.1088697169853
 30
0.0
  0
VERTEX
  5
FAC8F
  8
0
 10
39507.527447699998
 20
4763.1088697169853
 30
0.0
  0
VERTEX
  5
FAC90
  8
0
 10
39507.527447699998
 20
4766.1088697169853
 30
0.0
  0
SEQEND
  5
FAC91
  8
0
  0
POLYLINE
  5
EF6EF
  8
0
 66
     1
 10
0.0
 20
0.0
 30
0.0
 70
     1
  0
VERTEX
  5
FAC92
  8
0
 10
39505.027447699998
 20
6883.1088697169862
 30
0.0
  0
VERTEX
  5
FAC93
  8
0
 10
39540.027447699998
 20
6883.1088697169862
 30
0.0
  0
VERTEX
  5
FAC94
  8
0
 10
39540.027447699998
 20
4766.1088697169853
 30
0.0
  0
VERTEX
  5
FAC95
  8
0
 10
39505.027447699998
 20
4766.1088697169853
 30
0.0
  0
SEQEND
  5
FAC96
  8
0
  0
POLYLINE
  5
EF6F0
  8
0
 66
     1
 10
0.0
 20
0.0
 30
0.0
 70
     1
  0
VERTEX
  5
FAC97
  8
0
 10
40575.027447699977
 20
6883.1088697169862
 30
0.0
  0
VERTEX
  5
FAC98
  8
0
 10
40540.027447699991
 20
6883.1088697169862
 30
0.0
  0
VERTEX
  5
FAC99
  8
0
 10
40540.027447699991
 20
4766.1088697169853
 30
0.0
  0
VERTEX
  5
FAC9A
  8
0
 10
40575.027447699977
 20
4766.1088697169853
 30
0.0
  0
SEQEND
  5
FAC9B
  8
0
  0
POLYLINE
  5
EF6F1
  8
0
 66
     1
 10
0.0
 20
0.0
 30
0.0
 70
     1
  0
VERTEX
  5
FAC9C
  8
0
 10
39540.027447699998
 20
4798.1088697169853
 30
0.0
  0
VERTEX
  5
FAC9D
  8
0
 10
40540.027447699991
 20
4798.1088697169853
 30
0.0
  0
VERTEX
  5
FAC9E
  8
0
 10
40540.027447699991
 20
4833.1088697169853
 30
0.0
  0
VERTEX
  5
FAC9F
  8
0
 10
39540.027447699998
 20
4833.1088697169853
 30
0.0
  0
SEQEND
  5
FACA0
  8
0
  0
POLYLINE
  5
EF6F2
  8
0
 66
     1
 10
0.0
 20
0.0
 30
0.0
 70
     1
  0
VERTEX
  5
FACA1
  8
0
 10
39540.027447699998
 20
6848.1088697169853
 30
0.0
  0
VERTEX
  5
FACA2
  8
0
 10
40540.027447699991
 20
6848.1088697169853
 30
0.0
  0
VERTEX
  5
FACA3
  8
0
 10
40540.027447699991
 20
6883.1088697169862
 30
0.0
  0
VERTEX
  5
FACA4
  8
0
 10
39540.027447699998
 20
6883.1088697169862
 30
0.0
  0
SEQEND
  5
FACA5
  8
0
  0
POLYLINE
  5
EF6F3
  8
0
 66
     1
 10
0.0
 20
0.0
 30
0.0
 70
     1
  0
VERTEX
  5
FACA6
  8
0
 10
39540.027447699998
 20
5618.1088697169853
 30
0.0
  0
VERTEX
  5
FACA7
  8
0
 10
40540.027447699991
 20
5618.1088697169853
 30
0.0
  0
VERTEX
  5
FACA8
  8
0
 10
40540.027447699991
 20
5653.1088697169862
 30
0.0
  0
VERTEX
  5
FACA9
  8
0
 10
39540.027447699998
 20
5653.1088697169862
 30
0.0
  0
SEQEND
  5
FACAA
  8
0
  0
POLYLINE
  5
EF6F4
  8
0
 66
     1
 10
0.0
 20
0.0
 30
0.0
 70
     1
  0
VERTEX
  5
FACAB
  8
0
 10
36032.41166671594
 20
6028.1088697169862
 30
0.0
  0
VERTEX
  5
FACAC
  8
0
 10
34532.411666715961
 20
6028.1088697169862
 30
0.0
  0
VERTEX
  5
FACAD
  8
0
 10
34532.411666715961
 20
6063.1088697169853
 30
0.0
  0
VERTEX
  5
FACAE
  8
0
 10
36032.41166671594
 20
6063.1088697169853
 30
0.0
  0
SEQEND
  5
FACAF
  8
0
  0
POLYLINE
  5
EF6F5
  8
0
 66
     1
 10
0.0
 20
0.0
 30
0.0
  0
VERTEX
  5
FACB0
  8
0
 10
36032.41166671594
 20
6473.1088697169962
 30
0.0
  0
VERTEX
  5
FACB1
  8
0
 10
34532.411666715961
 20
6473.1088697169962
 30
0.0
  0
VERTEX
  5
FACB2
  8
0
 10
34532.411666715961
 20
6438.1088697169862
 30
0.0
  0
VERTEX
  5
FACB3
  8
0
 10
36032.41166671594
 20
6438.1088697169862
 30
0.0
  0
VERTEX
  5
FACB4
  8
0
 10
36032.41166671594
 20
6473.1088697169962
 30
0.0
  0
SEQEND
  5
FACB5
  8
0
  0
POLYLINE
  5
EF6F6
  8
0
 66
     1
 10
0.0
 20
0.0
 30
0.0
  0
VERTEX
  5
FACB6
  8
0
 10
36032.41166671594
 20
5243.1088697169962
 30
0.0
  0
VERTEX
  5
FACB7
  8
0
 10
34532.411666715961
 20
5243.1088697169962
 30
0.0
  0
VERTEX
  5
FACB8
  8
0
 10
34532.411666715961
 20
5208.1088697169853
 30
0.0
  0
VERTEX
  5
FACB9
  8
0
 10
36032.41166671594
 20
5208.1088697169853
 30
0.0
  0
VERTEX
  5
FACBA
  8
0
 10
36032.41166671594
 20
5243.1088697169962
 30
0.0
  0
SEQEND
  5
FACBB
  8
0
  0
POLYLINE
  5
EF6F7
  8
0
 66
     1
 10
0.0
 20
0.0
 30
0.0
 70
     1
  0
VERTEX
  5
FACBC
  8
0
 10
36032.41166671594
 20
6848.1088697169853
 30
0.0
  0
VERTEX
  5
FACBD
  8
0
 10
34532.411666715961
 20
6848.1088697169853
 30
0.0
  0
VERTEX
  5
FACBE
  8
0
 10
34532.411666715961
 20
6883.1088697169862
 30
0.0
  0
VERTEX
  5
FACBF
  8
0
 10
36032.41166671594
 20
6883.1088697169862
 30
0.0
  0
SEQEND
  5
FACC0
  8
0
  0
POLYLINE
  5
EF6F8
  8
0
 66
     1
 10
0.0
 20
0.0
 30
0.0
 70
     1
  0
VERTEX
  5
FACC1
  8
0
 10
36032.41166671594
 20
4798.1088697169853
 30
0.0
  0
VERTEX
  5
FACC2
  8
0
 10
34532.411666715961
 20
4798.1088697169853
 30
0.0
  0
VERTEX
  5
FACC3
  8
0
 10
34532.411666715961
 20
4833.1088697169853
 30
0.0
  0
VERTEX
  5
FACC4
  8
0
 10
36032.41166671594
 20
4833.1088697169853
 30
0.0
  0
SEQEND
  5
FACC5
  8
0
  0
POLYLINE
  5
EF6F9
  8
0
 66
     1
 10
0.0
 20
0.0
 30
0.0
 70
     1
  0
VERTEX
  5
FACC6
  8
0
 10
36067.41166671594
 20
6883.1088697169862
 30
0.0
  0
VERTEX
  5
FACC7
  8
0
 10
36032.41166671594
 20
6883.1088697169862
 30
0.0
  0
VERTEX
  5
FACC8
  8
0
 10
36032.41166671594
 20
4766.1088697169853
 30
0.0
  0
VERTEX
  5
FACC9
  8
0
 10
36067.41166671594
 20
4766.1088697169853
 30
0.0
  0
SEQEND
  5
FACCA
  8
0
  0
POLYLINE
  5
EF6FA
  8
0
 66
     1
 10
0.0
 20
0.0
 30
0.0
  0
VERTEX
  5
FACCB
  8
0
 10
36064.91166671594
 20
4766.1088697169853
 30
0.0
  0
VERTEX
  5
FACCC
  8
0
 10
36034.91166671594
 20
4766.1088697169853
 30
0.0
  0
VERTEX
  5
FACCD
  8
0
 10
36034.91166671594
 20
4763.1088697169853
 30
0.0
  0
VERTEX
  5
FACCE
  8
0
 10
36064.91166671594
 20
4763.1088697169853
 30
0.0
  0
VERTEX
  5
FACCF
  8
0
 10
36064.91166671594
 20
4766.1088697169853
 30
0.0
  0
SEQEND
  5
FACD0
  8
0
  0
POLYLINE
  5
EF6FB
  8
0
 66
     1
 10
0.0
 20
0.0
 30
0.0
 70
     1
  0
VERTEX
  5
FACD1
  8
0
 10
36032.41166671594
 20
5618.1088697169853
 30
0.0
  0
VERTEX
  5
FACD2
  8
0
 10
34532.411666715961
 20
5618.1088697169853
 30
0.0
  0
VERTEX
  5
FACD3
  8
0
 10
34532.411666715961
 20
5653.1088697169862
 30
0.0
  0
VERTEX
  5
FACD4
  8
0
 10
36032.41166671594
 20
5653.1088697169862
 30
0.0
  0
SEQEND
  5
FACD5
  8
0
  0
POLYLINE
  5
EF6FC
  8
0
 66
     1
 10
0.0
 20
0.0
 30
0.0
 70
     1
  0
VERTEX
  5
FACD6
  8
0
 10
34497.411666715961
 20
6028.1088697169862
 30
0.0
  0
VERTEX
  5
FACD7
  8
0
 10
33497.411666715961
 20
6028.1088697169862
 30
0.0
  0
VERTEX
  5
FACD8
  8
0
 10
33497.411666715961
 20
6063.1088697169853
 30
0.0
  0
VERTEX
  5
FACD9
  8
0
 10
34497.411666715961
 20
6063.1088697169853
 30
0.0
  0
SEQEND
  5
FACDA
  8
0
  0
POLYLINE
  5
EF6FD
  8
0
 66
     1
 10
0.0
 20
0.0
 30
0.0
  0
VERTEX
  5
FACDB
  8
0
 10
34497.411666715961
 20
6473.1088697169962
 30
0.0
  0
VERTEX
  5
FACDC
  8
0
 10
33497.411666715961
 20
6473.1088697169962
 30
0.0
  0
VERTEX
  5
FACDD
  8
0
 10
33497.411666715961
 20
6438.1088697169862
 30
0.0
  0
VERTEX
  5
FACDE
  8
0
 10
34497.411666715961
 20
6438.1088697169862
 30
0.0
  0
VERTEX
  5
FACDF
  8
0
 10
34497.411666715961
 20
6473.1088697169962
 30
0.0
  0
SEQEND
  5
FACE0
  8
0
  0
POLYLINE
  5
EF6FE
  8
0
 66
     1
 10
0.0
 20
0.0
 30
0.0
  0
VERTEX
  5
FACE1
  8
0
 10
34497.411666715961
 20
5243.1088697169962
 30
0.0
  0
VERTEX
  5
FACE2
  8
0
 10
33497.411666715961
 20
5243.1088697169962
 30
0.0
  0
VERTEX
  5
FACE3
  8
0
 10
33497.411666715961
 20
5208.1088697169853
 30
0.0
  0
VERTEX
  5
FACE4
  8
0
 10
34497.411666715961
 20
5208.1088697169853
 30
0.0
  0
VERTEX
  5
FACE5
  8
0
 10
34497.411666715961
 20
5243.1088697169962
 30
0.0
  0
SEQEND
  5
FACE6
  8
0
  0
POLYLINE
  5
EF6FF
  8
0
 66
     1
 10
0.0
 20
0.0
 30
0.0
 70
     1
  0
VERTEX
  5
FACE7
  8
0
 10
34497.411666715961
 20
6848.1088697169853
 30
0.0
  0
VERTEX
  5
FACE8
  8
0
 10
33497.411666715961
 20
6848.1088697169853
 30
0.0
  0
VERTEX
  5
FACE9
  8
0
 10
33497.411666715961
 20
6883.1088697169862
 30
0.0
  0
VERTEX
  5
FACEA
  8
0
 10
34497.411666715961
 20
6883.1088697169862
 30
0.0
  0
SEQEND
  5
FACEB
  8
0
  0
POLYLINE
  5
EF700
  8
0
 66
     1
 10
0.0
 20
0.0
 30
0.0
 70
     1
  0
VERTEX
  5
FACEC
  8
0
 10
34497.411666715961
 20
4798.1088697169853
 30
0.0
  0
VERTEX
  5
FACED
  8
0
 10
33497.411666715961
 20
4798.1088697169853
 30
0.0
  0
VERTEX
  5
FACEE
  8
0
 10
33497.411666715961
 20
4833.1088697169853
 30
0.0
  0
VERTEX
  5
FACEF
  8
0
 10
34497.411666715961
 20
4833.1088697169853
 30
0.0
  0
SEQEND
  5
FACF0
  8
0
  0
POLYLINE
  5
EF701
  8
0
 66
     1
 10
0.0
 20
0.0
 30
0.0
 70
     1
  0
VERTEX
  5
FACF1
  8
0
 10
34532.411666715961
 20
6883.1088697169862
 30
0.0
  0
VERTEX
  5
FACF2
  8
0
 10
34497.411666715961
 20
6883.1088697169862
 30
0.0
  0
VERTEX
  5
FACF3
  8
0
 10
34497.411666715961
 20
4766.1088697169853
 30
0.0
  0
VERTEX
  5
FACF4
  8
0
 10
34532.411666715961
 20
4766.1088697169853
 30
0.0
  0
SEQEND
  5
FACF5
  8
0
  0
POLYLINE
  5
EF702
  8
0
 66
     1
 10
0.0
 20
0.0
 30
0.0
  0
VERTEX
  5
FACF6
  8
0
 10
34529.911666715961
 20
4766.1088697169853
 30
0.0
  0
VERTEX
  5
FACF7
  8
0
 10
34499.911666715961
 20
4766.1088697169853
 30
0.0
  0
VERTEX
  5
FACF8
  8
0
 10
34499.911666715961
 20
4763.1088697169853
 30
0.0
  0
VERTEX
  5
FACF9
  8
0
 10
34529.911666715961
 20
4763.1088697169853
 30
0.0
  0
VERTEX
  5
FACFA
  8
0
 10
34529.911666715961
 20
4766.1088697169853
 30
0.0
  0
SEQEND
  5
FACFB
  8
0
  0
POLYLINE
  5
EF703
  8
0
 66
     1
 10
0.0
 20
0.0
 30
0.0
 70
     1
  0
VERTEX
  5
FACFC
  8
0
 10
34497.411666715961
 20
5618.1088697169853
 30
0.0
  0
VERTEX
  5
FACFD
  8
0
 10
33497.411666715961
 20
5618.1088697169853
 30
0.0
  0
VERTEX
  5
FACFE
  8
0
 10
33497.411666715961
 20
5653.1088697169862
 30
0.0
  0
VERTEX
  5
FACFF
  8
0
 10
34497.411666715961
 20
5653.1088697169862
 30
0.0
  0
SEQEND
  5
FAD00
  8
0
  0
POLYLINE
  5
EF704
  8
0
 66
     1
 10
0.0
 20
0.0
 30
0.0
 70
     1
  0
VERTEX
  5
FAD01
  8
0
 10
42645.027447699991
 20
10658.108869716971
 30
0.0
  0
VERTEX
  5
FAD02
  8
0
 10
41145.027447699998
 20
10658.108869716971
 30
0.0
  0
VERTEX
  5
FAD03
  8
0
 10
41145.027447699998
 20
10693.108869716971
 30
0.0
  0
VERTEX
  5
FAD04
  8
0
 10
42645.027447699991
 20
10693.108869716971
 30
0.0
  0
SEQEND
  5
FAD05
  8
0
  0
POLYLINE
  5
EF705
  8
0
 66
     1
 10
0.0
 20
0.0
 30
0.0
  0
VERTEX
  5
FAD06
  8
0
 10
42677.527447699998
 20
9806.1088697169798
 30
0.0
  0
VERTEX
  5
FAD07
  8
0
 10
42647.527447699991
 20
9806.1088697169798
 30
0.0
  0
VERTEX
  5
FAD08
  8
0
 10
42647.527447699991
 20
9803.1088697169816
 30
0.0
  0
VERTEX
  5
FAD09
  8
0
 10
42677.527447699998
 20
9803.1088697169816
 30
0.0
  0
VERTEX
  5
FAD0A
  8
0
 10
42677.527447699998
 20
9806.1088697169798
 30
0.0
  0
SEQEND
  5
FAD0B
  8
0
  0
POLYLINE
  5
EF706
  8
0
 66
     1
 10
0.0
 20
0.0
 30
0.0
 70
     1
  0
VERTEX
  5
FAD0C
  8
0
 10
42680.027447699998
 20
11103.108869716971
 30
0.0
  0
VERTEX
  5
FAD0D
  8
0
 10
42645.027447699991
 20
11103.108869716971
 30
0.0
  0
VERTEX
  5
FAD0E
  8
0
 10
42645.027447699991
 20
9806.1088697169798
 30
0.0
  0
VERTEX
  5
FAD0F
  8
0
 10
42680.027447699998
 20
9806.1088697169798
 30
0.0
  0
SEQEND
  5
FAD10
  8
0
  0
POLYLINE
  5
EF707
  8
0
 66
     1
 10
0.0
 20
0.0
 30
0.0
 70
     1
  0
VERTEX
  5
FAD11
  8
0
 10
42645.027447699991
 20
9838.1088697169816
 30
0.0
  0
VERTEX
  5
FAD12
  8
0
 10
41145.027447699998
 20
9838.1088697169816
 30
0.0
  0
VERTEX
  5
FAD13
  8
0
 10
41145.027447699998
 20
9873.1088697169762
 30
0.0
  0
VERTEX
  5
FAD14
  8
0
 10
42645.027447699991
 20
9873.1088697169762
 30
0.0
  0
SEQEND
  5
FAD15
  8
0
  0
POLYLINE
  5
EF708
  8
0
 66
     1
 10
0.0
 20
0.0
 30
0.0
 70
     1
  0
VERTEX
  5
FAD16
  8
0
 10
42645.027447699991
 20
11068.108869716971
 30
0.0
  0
VERTEX
  5
FAD17
  8
0
 10
41145.027447699998
 20
11068.108869716971
 30
0.0
  0
VERTEX
  5
FAD18
  8
0
 10
41145.027447699998
 20
11103.108869716971
 30
0.0
  0
VERTEX
  5
FAD19
  8
0
 10
42645.027447699991
 20
11103.108869716971
 30
0.0
  0
SEQEND
  5
FAD1A
  8
0
  0
POLYLINE
  5
EF709
  8
0
 66
     1
 10
0.0
 20
0.0
 30
0.0
  0
VERTEX
  5
FAD1B
  8
0
 10
42645.027447699991
 20
10283.108869716991
 30
0.0
  0
VERTEX
  5
FAD1C
  8
0
 10
41145.027447699998
 20
10283.108869716991
 30
0.0
  0
VERTEX
  5
FAD1D
  8
0
 10
41145.027447699998
 20
10248.108869716971
 30
0.0
  0
VERTEX
  5
FAD1E
  8
0
 10
42645.027447699991
 20
10248.108869716971
 30
0.0
  0
VERTEX
  5
FAD1F
  8
0
 10
42645.027447699991
 20
10283.108869716991
 30
0.0
  0
SEQEND
  5
FAD20
  8
0
  0
POLYLINE
  5
EF70A
  8
0
 66
     1
 10
0.0
 20
0.0
 30
0.0
 70
     1
  0
VERTEX
  5
FAD21
  8
0
 10
40610.027447699991
 20
11068.108869716971
 30
0.0
  0
VERTEX
  5
FAD22
  8
0
 10
41110.027447699998
 20
11068.108869716971
 30
0.0
  0
VERTEX
  5
FAD23
  8
0
 10
41110.027447699998
 20
11103.108869716971
 30
0.0
  0
VERTEX
  5
FAD24
  8
0
 10
40610.027447699991
 20
11103.108869716971
 30
0.0
  0
SEQEND
  5
FAD25
  8
0
  0
POLYLINE
  5
EF70B
  8
0
 66
     1
 10
0.0
 20
0.0
 30
0.0
 70
     1
  0
VERTEX
  5
FAD26
  8
0
 10
40610.027447699991
 20
9838.1088697169816
 30
0.0
  0
VERTEX
  5
FAD27
  8
0
 10
41110.027447699998
 20
9838.1088697169816
 30
0.0
  0
VERTEX
  5
FAD28
  8
0
 10
41110.027447699998
 20
9873.1088697169762
 30
0.0
  0
VERTEX
  5
FAD29
  8
0
 10
40610.027447699991
 20
9873.1088697169762
 30
0.0
  0
SEQEND
  5
FAD2A
  8
0
  0
POLYLINE
  5
EF70C
  8
0
 66
     1
 10
0.0
 20
0.0
 30
0.0
 70
     1
  0
VERTEX
  5
FAD2B
  8
0
 10
41145.027447699998
 20
11103.108869716971
 30
0.0
  0
VERTEX
  5
FAD2C
  8
0
 10
41110.027447699998
 20
11103.108869716971
 30
0.0
  0
VERTEX
  5
FAD2D
  8
0
 10
41110.027447699998
 20
9806.1088697169798
 30
0.0
  0
VERTEX
  5
FAD2E
  8
0
 10
41145.027447699998
 20
9806.1088697169798
 30
0.0
  0
SEQEND
  5
FAD2F
  8
0
  0
POLYLINE
  5
EF70D
  8
0
 66
     1
 10
0.0
 20
0.0
 30
0.0
  0
VERTEX
  5
FAD30
  8
0
 10
41142.527447699991
 20
9806.1088697169798
 30
0.0
  0
VERTEX
  5
FAD31
  8
0
 10
41112.527447699977
 20
9806.1088697169798
 30
0.0
  0
VERTEX
  5
FAD32
  8
0
 10
41112.527447699977
 20
9803.1088697169816
 30
0.0
  0
VERTEX
  5
FAD33
  8
0
 10
41142.527447699991
 20
9803.1088697169816
 30
0.0
  0
VERTEX
  5
FAD34
  8
0
 10
41142.527447699991
 20
9806.1088697169798
 30
0.0
  0
SEQEND
  5
FAD35
  8
0
  0
POLYLINE
  5
EF70E
  8
0
 66
     1
 10
0.0
 20
0.0
 30
0.0
  0
VERTEX
  5
FAD36
  8
0
 10
41145.027447699998
 20
11103.108869716971
 30
0.0
  0
VERTEX
  5
FAD37
  8
0
 10
41145.027447699998
 20
9806.1088697169798
 30
0.0
  0
SEQEND
  5
FAD38
  8
0
  0
POLYLINE
  5
EF70F
  8
0
 66
     1
 10
0.0
 20
0.0
 30
0.0
 70
     1
  0
VERTEX
  5
FAD39
  8
0
 10
40075.027447699998
 20
10658.108869716971
 30
0.0
  0
VERTEX
  5
FAD3A
  8
0
 10
40575.027447699977
 20
10658.108869716971
 30
0.0
  0
VERTEX
  5
FAD3B
  8
0
 10
40575.027447699977
 20
10693.108869716971
 30
0.0
  0
VERTEX
  5
FAD3C
  8
0
 10
40075.027447699998
 20
10693.108869716971
 30
0.0
  0
SEQEND
  5
FAD3D
  8
0
  0
POLYLINE
  5
EF710
  8
0
 66
     1
 10
0.0
 20
0.0
 30
0.0
 70
     1
  0
VERTEX
  5
FAD3E
  8
0
 10
40075.027447699998
 20
11068.108869716971
 30
0.0
  0
VERTEX
  5
FAD3F
  8
0
 10
40575.027447699977
 20
11068.108869716971
 30
0.0
  0
VERTEX
  5
FAD40
  8
0
 10
40575.027447699977
 20
11103.108869716971
 30
0.0
  0
VERTEX
  5
FAD41
  8
0
 10
40075.027447699998
 20
11103.108869716971
 30
0.0
  0
SEQEND
  5
FAD42
  8
0
  0
POLYLINE
  5
EF711
  8
0
 66
     1
 10
0.0
 20
0.0
 30
0.0
 70
     1
  0
VERTEX
  5
FAD43
  8
0
 10
40075.027447699998
 20
9838.1088697169816
 30
0.0
  0
VERTEX
  5
FAD44
  8
0
 10
40575.027447699977
 20
9838.1088697169816
 30
0.0
  0
VERTEX
  5
FAD45
  8
0
 10
40575.027447699977
 20
9873.1088697169762
 30
0.0
  0
VERTEX
  5
FAD46
  8
0
 10
40075.027447699998
 20
9873.1088697169762
 30
0.0
  0
SEQEND
  5
FAD47
  8
0
  0
POLYLINE
  5
EF712
  8
0
 66
     1
 10
0.0
 20
0.0
 30
0.0
 70
     1
  0
VERTEX
  5
FAD48
  8
0
 10
40610.027447699991
 20
11103.108869716971
 30
0.0
  0
VERTEX
  5
FAD49
  8
0
 10
40575.027447699977
 20
11103.108869716971
 30
0.0
  0
VERTEX
  5
FAD4A
  8
0
 10
40575.027447699977
 20
9806.1088697169798
 30
0.0
  0
VERTEX
  5
FAD4B
  8
0
 10
40610.027447699991
 20
9806.1088697169798
 30
0.0
  0
SEQEND
  5
FAD4C
  8
0
  0
POLYLINE
  5
EF713
  8
0
 66
     1
 10
0.0
 20
0.0
 30
0.0
  0
VERTEX
  5
FAD4D
  8
0
 10
40607.527447699998
 20
9806.1088697169798
 30
0.0
  0
VERTEX
  5
FAD4E
  8
0
 10
40577.527447699998
 20
9806.1088697169798
 30
0.0
  0
VERTEX
  5
FAD4F
  8
0
 10
40577.527447699998
 20
9803.1088697169816
 30
0.0
  0
VERTEX
  5
FAD50
  8
0
 10
40607.527447699998
 20
9803.1088697169816
 30
0.0
  0
VERTEX
  5
FAD51
  8
0
 10
40607.527447699998
 20
9806.1088697169798
 30
0.0
  0
SEQEND
  5
FAD52
  8
0
  0
POLYLINE
  5
EF714
  8
0
 66
     1
 10
0.0
 20
0.0
 30
0.0
  0
VERTEX
  5
FAD53
  8
0
 10
40610.027447699991
 20
11103.108869716971
 30
0.0
  0
VERTEX
  5
FAD54
  8
0
 10
40610.027447699991
 20
9806.1088697169798
 30
0.0
  0
SEQEND
  5
FAD55
  8
0
  0
POLYLINE
  5
EF715
  8
0
 66
     1
 10
0.0
 20
0.0
 30
0.0
  0
VERTEX
  5
FAD56
  8
0
 10
40575.027447699977
 20
10283.108869716991
 30
0.0
  0
VERTEX
  5
FAD57
  8
0
 10
40075.027447699998
 20
10283.108869716991
 30
0.0
  0
VERTEX
  5
FAD58
  8
0
 10
40075.027447699998
 20
10248.108869716971
 30
0.0
  0
VERTEX
  5
FAD59
  8
0
 10
40575.027447699977
 20
10248.108869716971
 30
0.0
  0
VERTEX
  5
FAD5A
  8
0
 10
40575.027447699977
 20
10283.108869716991
 30
0.0
  0
SEQEND
  5
FAD5B
  8
0
  0
POLYLINE
  5
EF716
  8
0
 66
     1
 10
0.0
 20
0.0
 30
0.0
  0
VERTEX
  5
FAD5C
  8
0
 10
40075.027447699998
 20
11103.108869716971
 30
0.0
  0
VERTEX
  5
FAD5D
  8
0
 10
40075.027447699998
 20
9806.1088697169798
 30
0.0
  0
SEQEND
  5
FAD5E
  8
0
  0
POLYLINE
  5
EF717
  8
0
 66
     1
 10
0.0
 20
0.0
 30
0.0
  0
VERTEX
  5
FAD5F
  8
0
 10
40072.527447699991
 20
9806.1088697169798
 30
0.0
  0
VERTEX
  5
FAD60
  8
0
 10
40042.527447699991
 20
9806.1088697169798
 30
0.0
  0
VERTEX
  5
FAD61
  8
0
 10
40042.527447699991
 20
9803.1088697169816
 30
0.0
  0
VERTEX
  5
FAD62
  8
0
 10
40072.527447699991
 20
9803.1088697169816
 30
0.0
  0
VERTEX
  5
FAD63
  8
0
 10
40072.527447699991
 20
9806.1088697169798
 30
0.0
  0
SEQEND
  5
FAD64
  8
0
  0
POLYLINE
  5
EF718
  8
0
 66
     1
 10
0.0
 20
0.0
 30
0.0
  0
VERTEX
  5
FAD65
  8
0
 10
39507.527447699998
 20
9806.1088697169798
 30
0.0
  0
VERTEX
  5
FAD66
  8
0
 10
39537.527447699998
 20
9806.1088697169798
 30
0.0
  0
VERTEX
  5
FAD67
  8
0
 10
39537.527447699998
 20
9803.1088697169816
 30
0.0
  0
VERTEX
  5
FAD68
  8
0
 10
39507.527447699998
 20
9803.1088697169816
 30
0.0
  0
VERTEX
  5
FAD69
  8
0
 10
39507.527447699998
 20
9806.1088697169798
 30
0.0
  0
SEQEND
  5
FAD6A
  8
0
  0
POLYLINE
  5
EF719
  8
0
 66
     1
 10
0.0
 20
0.0
 30
0.0
 70
     1
  0
VERTEX
  5
FAD6B
  8
0
 10
39505.027447699998
 20
11103.108869716971
 30
0.0
  0
VERTEX
  5
FAD6C
  8
0
 10
39540.027447699998
 20
11103.108869716971
 30
0.0
  0
VERTEX
  5
FAD6D
  8
0
 10
39540.027447699998
 20
9806.1088697169798
 30
0.0
  0
VERTEX
  5
FAD6E
  8
0
 10
39505.027447699998
 20
9806.1088697169798
 30
0.0
  0
SEQEND
  5
FAD6F
  8
0
  0
POLYLINE
  5
EF71A
  8
0
 66
     1
 10
0.0
 20
0.0
 30
0.0
 70
     1
  0
VERTEX
  5
FAD70
  8
0
 10
40075.027447699998
 20
11103.108869716971
 30
0.0
  0
VERTEX
  5
FAD71
  8
0
 10
40040.027447699998
 20
11103.108869716971
 30
0.0
  0
VERTEX
  5
FAD72
  8
0
 10
40040.027447699998
 20
9806.1088697169798
 30
0.0
  0
VERTEX
  5
FAD73
  8
0
 10
40075.027447699998
 20
9806.1088697169798
 30
0.0
  0
SEQEND
  5
FAD74
  8
0
  0
POLYLINE
  5
EF71B
  8
0
 66
     1
 10
0.0
 20
0.0
 30
0.0
 70
     1
  0
VERTEX
  5
FAD75
  8
0
 10
39540.027447699998
 20
9838.1088697169816
 30
0.0
  0
VERTEX
  5
FAD76
  8
0
 10
40040.027447699998
 20
9838.1088697169816
 30
0.0
  0
VERTEX
  5
FAD77
  8
0
 10
40040.027447699998
 20
9873.1088697169762
 30
0.0
  0
VERTEX
  5
FAD78
  8
0
 10
39540.027447699998
 20
9873.1088697169762
 30
0.0
  0
SEQEND
  5
FAD79
  8
0
  0
POLYLINE
  5
EF71C
  8
0
 66
     1
 10
0.0
 20
0.0
 30
0.0
 70
     1
  0
VERTEX
  5
FAD7A
  8
0
 10
39540.027447699998
 20
11068.108869716971
 30
0.0
  0
VERTEX
  5
FAD7B
  8
0
 10
40040.027447699998
 20
11068.108869716971
 30
0.0
  0
VERTEX
  5
FAD7C
  8
0
 10
40040.027447699998
 20
11103.108869716971
 30
0.0
  0
VERTEX
  5
FAD7D
  8
0
 10
39540.027447699998
 20
11103.108869716971
 30
0.0
  0
SEQEND
  5
FAD7E
  8
0
  0
POLYLINE
  5
EF71D
  8
0
 66
     1
 10
0.0
 20
0.0
 30
0.0
  0
VERTEX
  5
FAD7F
  8
0
 10
35067.411666715961
 20
10283.108869716991
 30
0.0
  0
VERTEX
  5
FAD80
  8
0
 10
34567.411666715961
 20
10283.108869716991
 30
0.0
  0
VERTEX
  5
FAD81
  8
0
 10
34567.411666715961
 20
10248.108869716971
 30
0.0
  0
VERTEX
  5
FAD82
  8
0
 10
35067.411666715961
 20
10248.108869716971
 30
0.0
  0
VERTEX
  5
FAD83
  8
0
 10
35067.411666715961
 20
10283.108869716991
 30
0.0
  0
SEQEND
  5
FAD84
  8
0
  0
POLYLINE
  5
EF71E
  8
0
 66
     1
 10
0.0
 20
0.0
 30
0.0
  0
VERTEX
  5
FAD85
  8
0
 10
35102.411666715961
 20
11103.108869716971
 30
0.0
  0
VERTEX
  5
FAD86
  8
0
 10
35102.411666715961
 20
9806.1088697169798
 30
0.0
  0
SEQEND
  5
FAD87
  8
0
  0
POLYLINE
  5
EF71F
  8
0
 66
     1
 10
0.0
 20
0.0
 30
0.0
  0
VERTEX
  5
FAD88
  8
0
 10
35099.911666715961
 20
9806.1088697169798
 30
0.0
  0
VERTEX
  5
FAD89
  8
0
 10
35069.911666715961
 20
9806.1088697169798
 30
0.0
  0
VERTEX
  5
FAD8A
  8
0
 10
35069.911666715961
 20
9803.1088697169816
 30
0.0
  0
VERTEX
  5
FAD8B
  8
0
 10
35099.911666715961
 20
9803.1088697169816
 30
0.0
  0
VERTEX
  5
FAD8C
  8
0
 10
35099.911666715961
 20
9806.1088697169798
 30
0.0
  0
SEQEND
  5
FAD8D
  8
0
  0
POLYLINE
  5
EF720
  8
0
 66
     1
 10
0.0
 20
0.0
 30
0.0
 70
     1
  0
VERTEX
  5
FAD8E
  8
0
 10
35102.411666715961
 20
11103.108869716971
 30
0.0
  0
VERTEX
  5
FAD8F
  8
0
 10
35067.411666715961
 20
11103.108869716971
 30
0.0
  0
VERTEX
  5
FAD90
  8
0
 10
35067.411666715961
 20
9806.1088697169798
 30
0.0
  0
VERTEX
  5
FAD91
  8
0
 10
35102.411666715961
 20
9806.1088697169798
 30
0.0
  0
SEQEND
  5
FAD92
  8
0
  0
POLYLINE
  5
EF721
  8
0
 66
     1
 10
0.0
 20
0.0
 30
0.0
 70
     1
  0
VERTEX
  5
FAD93
  8
0
 10
34567.411666715961
 20
9838.1088697169816
 30
0.0
  0
VERTEX
  5
FAD94
  8
0
 10
35067.411666715961
 20
9838.1088697169816
 30
0.0
  0
VERTEX
  5
FAD95
  8
0
 10
35067.411666715961
 20
9873.1088697169762
 30
0.0
  0
VERTEX
  5
FAD96
  8
0
 10
34567.411666715961
 20
9873.1088697169762
 30
0.0
  0
SEQEND
  5
FAD97
  8
0
  0
POLYLINE
  5
EF722
  8
0
 66
     1
 10
0.0
 20
0.0
 30
0.0
 70
     1
  0
VERTEX
  5
FAD98
  8
0
 10
34567.411666715961
 20
11068.108869716971
 30
0.0
  0
VERTEX
  5
FAD99
  8
0
 10
35067.411666715961
 20
11068.108869716971
 30
0.0
  0
VERTEX
  5
FAD9A
  8
0
 10
35067.411666715961
 20
11103.108869716971
 30
0.0
  0
VERTEX
  5
FAD9B
  8
0
 10
34567.411666715961
 20
11103.108869716971
 30
0.0
  0
SEQEND
  5
FAD9C
  8
0
  0
POLYLINE
  5
EF723
  8
0
 66
     1
 10
0.0
 20
0.0
 30
0.0
 70
     1
  0
VERTEX
  5
FAD9D
  8
0
 10
34567.411666715961
 20
10658.108869716971
 30
0.0
  0
VERTEX
  5
FAD9E
  8
0
 10
35067.411666715961
 20
10658.108869716971
 30
0.0
  0
VERTEX
  5
FAD9F
  8
0
 10
35067.411666715961
 20
10693.108869716971
 30
0.0
  0
VERTEX
  5
FADA0
  8
0
 10
34567.411666715961
 20
10693.108869716971
 30
0.0
  0
SEQEND
  5
FADA1
  8
0
  0
POLYLINE
  5
EF724
  8
0
 66
     1
 10
0.0
 20
0.0
 30
0.0
 70
     1
  0
VERTEX
  5
FADA2
  8
0
 10
35102.411666715961
 20
10658.108869716971
 30
0.0
  0
VERTEX
  5
FADA3
  8
0
 10
35602.411666715961
 20
10658.108869716971
 30
0.0
  0
VERTEX
  5
FADA4
  8
0
 10
35602.411666715961
 20
10693.108869716971
 30
0.0
  0
VERTEX
  5
FADA5
  8
0
 10
35102.411666715961
 20
10693.108869716971
 30
0.0
  0
SEQEND
  5
FADA6
  8
0
  0
POLYLINE
  5
EF725
  8
0
 66
     1
 10
0.0
 20
0.0
 30
0.0
 70
     1
  0
VERTEX
  5
FADA7
  8
0
 10
35102.411666715961
 20
11068.108869716971
 30
0.0
  0
VERTEX
  5
FADA8
  8
0
 10
35602.411666715961
 20
11068.108869716971
 30
0.0
  0
VERTEX
  5
FADA9
  8
0
 10
35602.411666715961
 20
11103.108869716971
 30
0.0
  0
VERTEX
  5
FADAA
  8
0
 10
35102.411666715961
 20
11103.108869716971
 30
0.0
  0
SEQEND
  5
FADAB
  8
0
  0
POLYLINE
  5
EF726
  8
0
 66
     1
 10
0.0
 20
0.0
 30
0.0
 70
     1
  0
VERTEX
  5
FADAC
  8
0
 10
35102.411666715961
 20
9838.1088697169816
 30
0.0
  0
VERTEX
  5
FADAD
  8
0
 10
35602.411666715961
 20
9838.1088697169816
 30
0.0
  0
VERTEX
  5
FADAE
  8
0
 10
35602.411666715961
 20
9873.1088697169762
 30
0.0
  0
VERTEX
  5
FADAF
  8
0
 10
35102.411666715961
 20
9873.1088697169762
 30
0.0
  0
SEQEND
  5
FADB0
  8
0
  0
POLYLINE
  5
EF727
  8
0
 66
     1
 10
0.0
 20
0.0
 30
0.0
 70
     1
  0
VERTEX
  5
FADB1
  8
0
 10
35637.411666715961
 20
11103.108869716971
 30
0.0
  0
VERTEX
  5
FADB2
  8
0
 10
35602.411666715961
 20
11103.108869716971
 30
0.0
  0
VERTEX
  5
FADB3
  8
0
 10
35602.411666715961
 20
9806.1088697169798
 30
0.0
  0
VERTEX
  5
FADB4
  8
0
 10
35637.411666715961
 20
9806.1088697169798
 30
0.0
  0
SEQEND
  5
FADB5
  8
0
  0
POLYLINE
  5
EF728
  8
0
 66
     1
 10
0.0
 20
0.0
 30
0.0
  0
VERTEX
  5
FADB6
  8
0
 10
35634.911666715961
 20
9806.1088697169798
 30
0.0
  0
VERTEX
  5
FADB7
  8
0
 10
35604.911666715961
 20
9806.1088697169798
 30
0.0
  0
VERTEX
  5
FADB8
  8
0
 10
35604.911666715961
 20
9803.1088697169816
 30
0.0
  0
VERTEX
  5
FADB9
  8
0
 10
35634.911666715961
 20
9803.1088697169816
 30
0.0
  0
VERTEX
  5
FADBA
  8
0
 10
35634.911666715961
 20
9806.1088697169798
 30
0.0
  0
SEQEND
  5
FADBB
  8
0
  0
POLYLINE
  5
EF729
  8
0
 66
     1
 10
0.0
 20
0.0
 30
0.0
  0
VERTEX
  5
FADBC
  8
0
 10
35637.411666715961
 20
11103.108869716971
 30
0.0
  0
VERTEX
  5
FADBD
  8
0
 10
35637.411666715961
 20
9806.1088697169798
 30
0.0
  0
SEQEND
  5
FADBE
  8
0
  0
POLYLINE
  5
EF72A
  8
0
 66
     1
 10
0.0
 20
0.0
 30
0.0
  0
VERTEX
  5
FADBF
  8
0
 10
35602.411666715961
 20
10283.108869716991
 30
0.0
  0
VERTEX
  5
FADC0
  8
0
 10
35102.411666715961
 20
10283.108869716991
 30
0.0
  0
VERTEX
  5
FADC1
  8
0
 10
35102.411666715961
 20
10248.108869716971
 30
0.0
  0
VERTEX
  5
FADC2
  8
0
 10
35602.411666715961
 20
10248.108869716971
 30
0.0
  0
VERTEX
  5
FADC3
  8
0
 10
35602.411666715961
 20
10283.108869716991
 30
0.0
  0
SEQEND
  5
FADC4
  8
0
  0
POLYLINE
  5
EF72B
  8
0
 66
     1
 10
0.0
 20
0.0
 30
0.0
  0
VERTEX
  5
FADC5
  8
0
 10
34532.411666715961
 20
10283.108869716991
 30
0.0
  0
VERTEX
  5
FADC6
  8
0
 10
34032.411666715961
 20
10283.108869716991
 30
0.0
  0
VERTEX
  5
FADC7
  8
0
 10
34032.411666715961
 20
10248.108869716971
 30
0.0
  0
VERTEX
  5
FADC8
  8
0
 10
34532.411666715961
 20
10248.108869716971
 30
0.0
  0
VERTEX
  5
FADC9
  8
0
 10
34532.411666715961
 20
10283.108869716991
 30
0.0
  0
SEQEND
  5
FADCA
  8
0
  0
POLYLINE
  5
EF72C
  8
0
 66
     1
 10
0.0
 20
0.0
 30
0.0
  0
VERTEX
  5
FADCB
  8
0
 10
34567.411666715961
 20
11103.108869716971
 30
0.0
  0
VERTEX
  5
FADCC
  8
0
 10
34567.411666715961
 20
9806.1088697169798
 30
0.0
  0
SEQEND
  5
FADCD
  8
0
  0
POLYLINE
  5
EF72D
  8
0
 66
     1
 10
0.0
 20
0.0
 30
0.0
  0
VERTEX
  5
FADCE
  8
0
 10
34564.911666715961
 20
9806.1088697169798
 30
0.0
  0
VERTEX
  5
FADCF
  8
0
 10
34534.911666715961
 20
9806.1088697169798
 30
0.0
  0
VERTEX
  5
FADD0
  8
0
 10
34534.911666715961
 20
9803.1088697169816
 30
0.0
  0
VERTEX
  5
FADD1
  8
0
 10
34564.911666715961
 20
9803.1088697169816
 30
0.0
  0
VERTEX
  5
FADD2
  8
0
 10
34564.911666715961
 20
9806.1088697169798
 30
0.0
  0
SEQEND
  5
FADD3
  8
0
  0
POLYLINE
  5
EF72E
  8
0
 66
     1
 10
0.0
 20
0.0
 30
0.0
 70
     1
  0
VERTEX
  5
FADD4
  8
0
 10
34567.411666715961
 20
11103.108869716971
 30
0.0
  0
VERTEX
  5
FADD5
  8
0
 10
34532.411666715961
 20
11103.108869716971
 30
0.0
  0
VERTEX
  5
FADD6
  8
0
 10
34532.411666715961
 20
9806.1088697169798
 30
0.0
  0
VERTEX
  5
FADD7
  8
0
 10
34567.411666715961
 20
9806.1088697169798
 30
0.0
  0
SEQEND
  5
FADD8
  8
0
  0
POLYLINE
  5
EF72F
  8
0
 66
     1
 10
0.0
 20
0.0
 30
0.0
 70
     1
  0
VERTEX
  5
FADD9
  8
0
 10
34032.411666715961
 20
9838.1088697169816
 30
0.0
  0
VERTEX
  5
FADDA
  8
0
 10
34532.411666715961
 20
9838.1088697169816
 30
0.0
  0
VERTEX
  5
FADDB
  8
0
 10
34532.411666715961
 20
9873.1088697169762
 30
0.0
  0
VERTEX
  5
FADDC
  8
0
 10
34032.411666715961
 20
9873.1088697169762
 30
0.0
  0
SEQEND
  5
FADDD
  8
0
  0
POLYLINE
  5
EF730
  8
0
 66
     1
 10
0.0
 20
0.0
 30
0.0
 70
     1
  0
VERTEX
  5
FADDE
  8
0
 10
34032.411666715961
 20
11068.108869716971
 30
0.0
  0
VERTEX
  5
FADDF
  8
0
 10
34532.411666715961
 20
11068.108869716971
 30
0.0
  0
VERTEX
  5
FADE0
  8
0
 10
34532.411666715961
 20
11103.108869716971
 30
0.0
  0
VERTEX
  5
FADE1
  8
0
 10
34032.411666715961
 20
11103.108869716971
 30
0.0
  0
SEQEND
  5
FADE2
  8
0
  0
POLYLINE
  5
EF731
  8
0
 66
     1
 10
0.0
 20
0.0
 30
0.0
 70
     1
  0
VERTEX
  5
FADE3
  8
0
 10
34032.411666715961
 20
10658.108869716971
 30
0.0
  0
VERTEX
  5
FADE4
  8
0
 10
34532.411666715961
 20
10658.108869716971
 30
0.0
  0
VERTEX
  5
FADE5
  8
0
 10
34532.411666715961
 20
10693.108869716971
 30
0.0
  0
VERTEX
  5
FADE6
  8
0
 10
34032.411666715961
 20
10693.108869716971
 30
0.0
  0
SEQEND
  5
FADE7
  8
0
  0
POLYLINE
  5
EF732
  8
0
 66
     1
 10
0.0
 20
0.0
 30
0.0
 70
     1
  0
VERTEX
  5
FADE8
  8
0
 10
33497.411666715961
 20
10658.108869716971
 30
0.0
  0
VERTEX
  5
FADE9
  8
0
 10
33997.411666715961
 20
10658.108869716971
 30
0.0
  0
VERTEX
  5
FADEA
  8
0
 10
33997.411666715961
 20
10693.108869716971
 30
0.0
  0
VERTEX
  5
FADEB
  8
0
 10
33497.411666715961
 20
10693.108869716971
 30
0.0
  0
SEQEND
  5
FADEC
  8
0
  0
POLYLINE
  5
EF733
  8
0
 66
     1
 10
0.0
 20
0.0
 30
0.0
 70
     1
  0
VERTEX
  5
FADED
  8
0
 10
33497.411666715961
 20
11068.108869716971
 30
0.0
  0
VERTEX
  5
FADEE
  8
0
 10
33997.411666715961
 20
11068.108869716971
 30
0.0
  0
VERTEX
  5
FADEF
  8
0
 10
33997.411666715961
 20
11103.108869716971
 30
0.0
  0
VERTEX
  5
FADF0
  8
0
 10
33497.411666715961
 20
11103.108869716971
 30
0.0
  0
SEQEND
  5
FADF1
  8
0
  0
POLYLINE
  5
EF734
  8
0
 66
     1
 10
0.0
 20
0.0
 30
0.0
 70
     1
  0
VERTEX
  5
FADF2
  8
0
 10
33497.411666715961
 20
9838.1088697169816
 30
0.0
  0
VERTEX
  5
FADF3
  8
0
 10
33997.411666715961
 20
9838.1088697169816
 30
0.0
  0
VERTEX
  5
FADF4
  8
0
 10
33997.411666715961
 20
9873.1088697169762
 30
0.0
  0
VERTEX
  5
FADF5
  8
0
 10
33497.411666715961
 20
9873.1088697169762
 30
0.0
  0
SEQEND
  5
FADF6
  8
0
  0
POLYLINE
  5
EF735
  8
0
 66
     1
 10
0.0
 20
0.0
 30
0.0
 70
     1
  0
VERTEX
  5
FADF7
  8
0
 10
34032.411666715961
 20
11103.108869716971
 30
0.0
  0
VERTEX
  5
FADF8
  8
0
 10
33997.411666715961
 20
11103.108869716971
 30
0.0
  0
VERTEX
  5
FADF9
  8
0
 10
33997.411666715961
 20
9806.1088697169798
 30
0.0
  0
VERTEX
  5
FADFA
  8
0
 10
34032.411666715961
 20
9806.1088697169798
 30
0.0
  0
SEQEND
  5
FADFB
  8
0
  0
POLYLINE
  5
EF736
  8
0
 66
     1
 10
0.0
 20
0.0
 30
0.0
  0
VERTEX
  5
FADFC
  8
0
 10
34029.911666715961
 20
9806.1088697169798
 30
0.0
  0
VERTEX
  5
FADFD
  8
0
 10
33999.911666715961
 20
9806.1088697169798
 30
0.0
  0
VERTEX
  5
FADFE
  8
0
 10
33999.911666715961
 20
9803.1088697169816
 30
0.0
  0
VERTEX
  5
FADFF
  8
0
 10
34029.911666715961
 20
9803.1088697169816
 30
0.0
  0
VERTEX
  5
FAE00
  8
0
 10
34029.911666715961
 20
9806.1088697169798
 30
0.0
  0
SEQEND
  5
FAE01
  8
0
  0
POLYLINE
  5
EF737
  8
0
 66
     1
 10
0.0
 20
0.0
 30
0.0
  0
VERTEX
  5
FAE02
  8
0
 10
34032.411666715961
 20
11103.108869716971
 30
0.0
  0
VERTEX
  5
FAE03
  8
0
 10
34032.411666715961
 20
9806.1088697169798
 30
0.0
  0
SEQEND
  5
FAE04
  8
0
  0
POLYLINE
  5
EF738
  8
0
 66
     1
 10
0.0
 20
0.0
 30
0.0
  0
VERTEX
  5
FAE05
  8
0
 10
33997.411666715961
 20
10283.108869716991
 30
0.0
  0
VERTEX
  5
FAE06
  8
0
 10
33497.411666715961
 20
10283.108869716991
 30
0.0
  0
VERTEX
  5
FAE07
  8
0
 10
33497.411666715961
 20
10248.108869716971
 30
0.0
  0
VERTEX
  5
FAE08
  8
0
 10
33997.411666715961
 20
10248.108869716971
 30
0.0
  0
VERTEX
  5
FAE09
  8
0
 10
33997.411666715961
 20
10283.108869716991
 30
0.0
  0
SEQEND
  5
FAE0A
  8
0
  0
POLYLINE
  5
EF739
  8
0
 66
     1
 10
0.0
 20
0.0
 30
0.0
  0
VERTEX
  5
FAE0B
  8
0
 10
43645.027447699998
 20
12188.10886971698
 30
0.0
  0
VERTEX
  5
FAE0C
  8
0
 10
42645.027447699991
 20
12188.10886971698
 30
0.0
  0
VERTEX
  5
FAE0D
  8
0
 10
42645.027447699991
 20
12153.108869716971
 30
0.0
  0
VERTEX
  5
FAE0E
  8
0
 10
43645.027447699998
 20
12153.108869716971
 30
0.0
  0
VERTEX
  5
FAE0F
  8
0
 10
43645.027447699998
 20
12188.10886971698
 30
0.0
  0
SEQEND
  5
FAE10
  8
0
  0
POLYLINE
  5
EF73A
  8
0
 66
     1
 10
0.0
 20
0.0
 30
0.0
 70
     1
  0
VERTEX
  5
FAE11
  8
0
 10
43645.027447699998
 20
12563.108869716971
 30
0.0
  0
VERTEX
  5
FAE12
  8
0
 10
42645.027447699991
 20
12563.108869716971
 30
0.0
  0
VERTEX
  5
FAE13
  8
0
 10
42645.027447699991
 20
12598.108869716971
 30
0.0
  0
VERTEX
  5
FAE14
  8
0
 10
43645.027447699998
 20
12598.108869716971
 30
0.0
  0
SEQEND
  5
FAE15
  8
0
  0
POLYLINE
  5
EF73B
  8
0
 66
     1
 10
0.0
 20
0.0
 30
0.0
 70
     1
  0
VERTEX
  5
FAE16
  8
0
 10
43645.027447699998
 20
11743.108869716971
 30
0.0
  0
VERTEX
  5
FAE17
  8
0
 10
42645.027447699991
 20
11743.108869716971
 30
0.0
  0
VERTEX
  5
FAE18
  8
0
 10
42645.027447699991
 20
11778.108869716971
 30
0.0
  0
VERTEX
  5
FAE19
  8
0
 10
43645.027447699998
 20
11778.108869716971
 30
0.0
  0
SEQEND
  5
FAE1A
  8
0
  0
POLYLINE
  5
EF73C
  8
0
 66
     1
 10
0.0
 20
0.0
 30
0.0
 70
     1
  0
VERTEX
  5
FAE1B
  8
0
 10
43680.027447699998
 20
12598.108869716971
 30
0.0
  0
VERTEX
  5
FAE1C
  8
0
 10
43645.027447699998
 20
12598.108869716971
 30
0.0
  0
VERTEX
  5
FAE1D
  8
0
 10
43645.027447699998
 20
11711.108869716971
 30
0.0
  0
VERTEX
  5
FAE1E
  8
0
 10
43680.027447699998
 20
11711.108869716971
 30
0.0
  0
SEQEND
  5
FAE1F
  8
0
  0
POLYLINE
  5
EF73D
  8
0
 66
     1
 10
0.0
 20
0.0
 30
0.0
  0
VERTEX
  5
FAE20
  8
0
 10
43677.527447699991
 20
11711.108869716971
 30
0.0
  0
VERTEX
  5
FAE21
  8
0
 10
43647.527447699991
 20
11711.108869716971
 30
0.0
  0
VERTEX
  5
FAE22
  8
0
 10
43647.527447699991
 20
11708.108869716971
 30
0.0
  0
VERTEX
  5
FAE23
  8
0
 10
43677.527447699991
 20
11708.108869716971
 30
0.0
  0
VERTEX
  5
FAE24
  8
0
 10
43677.527447699991
 20
11711.108869716971
 30
0.0
  0
SEQEND
  5
FAE25
  8
0
  0
POLYLINE
  5
EF73E
  8
0
 66
     1
 10
0.0
 20
0.0
 30
0.0
  0
VERTEX
  5
FAE26
  8
0
 10
42642.527447699998
 20
11711.108869716971
 30
0.0
  0
VERTEX
  5
FAE27
  8
0
 10
42612.527447699998
 20
11711.108869716971
 30
0.0
  0
VERTEX
  5
FAE28
  8
0
 10
42612.527447699998
 20
11708.108869716971
 30
0.0
  0
VERTEX
  5
FAE29
  8
0
 10
42642.527447699998
 20
11708.108869716971
 30
0.0
  0
VERTEX
  5
FAE2A
  8
0
 10
42642.527447699998
 20
11711.108869716971
 30
0.0
  0
SEQEND
  5
FAE2B
  8
0
  0
POLYLINE
  5
EF73F
  8
0
 66
     1
 10
0.0
 20
0.0
 30
0.0
 70
     1
  0
VERTEX
  5
FAE2C
  8
0
 10
42645.027447699991
 20
12598.108869716971
 30
0.0
  0
VERTEX
  5
FAE2D
  8
0
 10
42610.027447699977
 20
12598.108869716971
 30
0.0
  0
VERTEX
  5
FAE2E
  8
0
 10
42610.027447699977
 20
11711.108869716971
 30
0.0
  0
VERTEX
  5
FAE2F
  8
0
 10
42645.027447699991
 20
11711.108869716971
 30
0.0
  0
SEQEND
  5
FAE30
  8
0
  0
POLYLINE
  5
EF740
  8
0
 66
     1
 10
0.0
 20
0.0
 30
0.0
 70
     1
  0
VERTEX
  5
FAE31
  8
0
 10
42610.027447699977
 20
11743.108869716971
 30
0.0
  0
VERTEX
  5
FAE32
  8
0
 10
41610.027447699998
 20
11743.108869716971
 30
0.0
  0
VERTEX
  5
FAE33
  8
0
 10
41610.027447699998
 20
11778.108869716971
 30
0.0
  0
VERTEX
  5
FAE34
  8
0
 10
42610.027447699977
 20
11778.108869716971
 30
0.0
  0
SEQEND
  5
FAE35
  8
0
  0
POLYLINE
  5
EF741
  8
0
 66
     1
 10
0.0
 20
0.0
 30
0.0
 70
     1
  0
VERTEX
  5
FAE36
  8
0
 10
42610.027447699977
 20
12563.108869716971
 30
0.0
  0
VERTEX
  5
FAE37
  8
0
 10
41610.027447699998
 20
12563.108869716971
 30
0.0
  0
VERTEX
  5
FAE38
  8
0
 10
41610.027447699998
 20
12598.108869716971
 30
0.0
  0
VERTEX
  5
FAE39
  8
0
 10
42610.027447699977
 20
12598.108869716971
 30
0.0
  0
SEQEND
  5
FAE3A
  8
0
  0
POLYLINE
  5
EF742
  8
0
 66
     1
 10
0.0
 20
0.0
 30
0.0
 70
     1
  0
VERTEX
  5
FAE3B
  8
0
 10
41575.027447699998
 20
12563.108869716971
 30
0.0
  0
VERTEX
  5
FAE3C
  8
0
 10
40575.027447699977
 20
12563.108869716971
 30
0.0
  0
VERTEX
  5
FAE3D
  8
0
 10
40575.027447699977
 20
12598.108869716971
 30
0.0
  0
VERTEX
  5
FAE3E
  8
0
 10
41575.027447699998
 20
12598.108869716971
 30
0.0
  0
SEQEND
  5
FAE3F
  8
0
  0
POLYLINE
  5
EF743
  8
0
 66
     1
 10
0.0
 20
0.0
 30
0.0
 70
     1
  0
VERTEX
  5
FAE40
  8
0
 10
41575.027447699998
 20
11743.108869716971
 30
0.0
  0
VERTEX
  5
FAE41
  8
0
 10
40575.027447699977
 20
11743.108869716971
 30
0.0
  0
VERTEX
  5
FAE42
  8
0
 10
40575.027447699977
 20
11778.108869716971
 30
0.0
  0
VERTEX
  5
FAE43
  8
0
 10
41575.027447699998
 20
11778.108869716971
 30
0.0
  0
SEQEND
  5
FAE44
  8
0
  0
POLYLINE
  5
EF744
  8
0
 66
     1
 10
0.0
 20
0.0
 30
0.0
 70
     1
  0
VERTEX
  5
FAE45
  8
0
 10
41610.027447699998
 20
12598.108869716971
 30
0.0
  0
VERTEX
  5
FAE46
  8
0
 10
41575.027447699998
 20
12598.108869716971
 30
0.0
  0
VERTEX
  5
FAE47
  8
0
 10
41575.027447699998
 20
11711.108869716971
 30
0.0
  0
VERTEX
  5
FAE48
  8
0
 10
41610.027447699998
 20
11711.108869716971
 30
0.0
  0
SEQEND
  5
FAE49
  8
0
  0
POLYLINE
  5
EF745
  8
0
 66
     1
 10
0.0
 20
0.0
 30
0.0
  0
VERTEX
  5
FAE4A
  8
0
 10
41607.527447699991
 20
11711.108869716971
 30
0.0
  0
VERTEX
  5
FAE4B
  8
0
 10
41577.527447699977
 20
11711.108869716971
 30
0.0
  0
VERTEX
  5
FAE4C
  8
0
 10
41577.527447699977
 20
11708.108869716971
 30
0.0
  0
VERTEX
  5
FAE4D
  8
0
 10
41607.527447699991
 20
11708.108869716971
 30
0.0
  0
VERTEX
  5
FAE4E
  8
0
 10
41607.527447699991
 20
11711.108869716971
 30
0.0
  0
SEQEND
  5
FAE4F
  8
0
  0
POLYLINE
  5
EF746
  8
0
 66
     1
 10
0.0
 20
0.0
 30
0.0
 70
     1
  0
VERTEX
  5
FAE50
  8
0
 10
39540.027447699998
 20
12563.108869716971
 30
0.0
  0
VERTEX
  5
FAE51
  8
0
 10
40540.027447699991
 20
12563.108869716971
 30
0.0
  0
VERTEX
  5
FAE52
  8
0
 10
40540.027447699991
 20
12598.108869716971
 30
0.0
  0
VERTEX
  5
FAE53
  8
0
 10
39540.027447699998
 20
12598.108869716971
 30
0.0
  0
SEQEND
  5
FAE54
  8
0
  0
POLYLINE
  5
EF747
  8
0
 66
     1
 10
0.0
 20
0.0
 30
0.0
 70
     1
  0
VERTEX
  5
FAE55
  8
0
 10
39540.027447699998
 20
11743.108869716971
 30
0.0
  0
VERTEX
  5
FAE56
  8
0
 10
40540.027447699991
 20
11743.108869716971
 30
0.0
  0
VERTEX
  5
FAE57
  8
0
 10
40540.027447699991
 20
11778.108869716971
 30
0.0
  0
VERTEX
  5
FAE58
  8
0
 10
39540.027447699998
 20
11778.108869716971
 30
0.0
  0
SEQEND
  5
FAE59
  8
0
  0
POLYLINE
  5
EF748
  8
0
 66
     1
 10
0.0
 20
0.0
 30
0.0
 70
     1
  0
VERTEX
  5
FAE5A
  8
0
 10
40575.027447699977
 20
12598.108869716971
 30
0.0
  0
VERTEX
  5
FAE5B
  8
0
 10
40540.027447699991
 20
12598.108869716971
 30
0.0
  0
VERTEX
  5
FAE5C
  8
0
 10
40540.027447699991
 20
11711.108869716971
 30
0.0
  0
VERTEX
  5
FAE5D
  8
0
 10
40575.027447699977
 20
11711.108869716971
 30
0.0
  0
SEQEND
  5
FAE5E
  8
0
  0
POLYLINE
  5
EF749
  8
0
 66
     1
 10
0.0
 20
0.0
 30
0.0
 70
     1
  0
VERTEX
  5
FAE5F
  8
0
 10
39505.027447699998
 20
12598.108869716971
 30
0.0
  0
VERTEX
  5
FAE60
  8
0
 10
39540.027447699998
 20
12598.108869716971
 30
0.0
  0
VERTEX
  5
FAE61
  8
0
 10
39540.027447699998
 20
11711.108869716971
 30
0.0
  0
VERTEX
  5
FAE62
  8
0
 10
39505.027447699998
 20
11711.108869716971
 30
0.0
  0
SEQEND
  5
FAE63
  8
0
  0
POLYLINE
  5
EF74A
  8
0
 66
     1
 10
0.0
 20
0.0
 30
0.0
  0
VERTEX
  5
FAE64
  8
0
 10
39507.527447699998
 20
11711.108869716971
 30
0.0
  0
VERTEX
  5
FAE65
  8
0
 10
39537.527447699998
 20
11711.108869716971
 30
0.0
  0
VERTEX
  5
FAE66
  8
0
 10
39537.527447699998
 20
11708.108869716971
 30
0.0
  0
VERTEX
  5
FAE67
  8
0
 10
39507.527447699998
 20
11708.108869716971
 30
0.0
  0
VERTEX
  5
FAE68
  8
0
 10
39507.527447699998
 20
11711.108869716971
 30
0.0
  0
SEQEND
  5
FAE69
  8
0
  0
POLYLINE
  5
EF74B
  8
0
 66
     1
 10
0.0
 20
0.0
 30
0.0
  0
VERTEX
  5
FAE6A
  8
0
 10
40572.527447699998
 20
11711.108869716971
 30
0.0
  0
VERTEX
  5
FAE6B
  8
0
 10
40542.527447699998
 20
11711.108869716971
 30
0.0
  0
VERTEX
  5
FAE6C
  8
0
 10
40542.527447699998
 20
11708.108869716971
 30
0.0
  0
VERTEX
  5
FAE6D
  8
0
 10
40572.527447699998
 20
11708.108869716971
 30
0.0
  0
VERTEX
  5
FAE6E
  8
0
 10
40572.527447699998
 20
11711.108869716971
 30
0.0
  0
SEQEND
  5
FAE6F
  8
0
  0
POLYLINE
  5
EF74C
  8
0
 66
     1
 10
0.0
 20
0.0
 30
0.0
  0
VERTEX
  5
FAE70
  8
0
 10
40575.027447699977
 20
12598.108869716971
 30
0.0
  0
VERTEX
  5
FAE71
  8
0
 10
40575.027447699977
 20
11711.108869716971
 30
0.0
  0
SEQEND
  5
FAE72
  8
0
  0
POLYLINE
  5
EF74D
  8
0
 66
     1
 10
0.0
 20
0.0
 30
0.0
  0
VERTEX
  5
FAE73
  8
0
 10
40540.027447699991
 20
12188.10886971698
 30
0.0
  0
VERTEX
  5
FAE74
  8
0
 10
39540.027447699998
 20
12188.10886971698
 30
0.0
  0
VERTEX
  5
FAE75
  8
0
 10
39540.027447699998
 20
12153.108869716971
 30
0.0
  0
VERTEX
  5
FAE76
  8
0
 10
40540.027447699991
 20
12153.108869716971
 30
0.0
  0
VERTEX
  5
FAE77
  8
0
 10
40540.027447699991
 20
12188.10886971698
 30
0.0
  0
SEQEND
  5
FAE78
  8
0
  0
POLYLINE
  5
EF74E
  8
0
 66
     1
 10
0.0
 20
0.0
 30
0.0
  0
VERTEX
  5
FAE79
  8
0
 10
36064.911666715961
 20
11711.108869716971
 30
0.0
  0
VERTEX
  5
FAE7A
  8
0
 10
36034.911666715961
 20
11711.108869716971
 30
0.0
  0
VERTEX
  5
FAE7B
  8
0
 10
36034.911666715961
 20
11708.108869716971
 30
0.0
  0
VERTEX
  5
FAE7C
  8
0
 10
36064.911666715961
 20
11708.108869716971
 30
0.0
  0
VERTEX
  5
FAE7D
  8
0
 10
36064.911666715961
 20
11711.108869716971
 30
0.0
  0
SEQEND
  5
FAE7E
  8
0
  0
POLYLINE
  5
EF74F
  8
0
 66
     1
 10
0.0
 20
0.0
 30
0.0
 70
     1
  0
VERTEX
  5
FAE7F
  8
0
 10
36067.411666715961
 20
12598.108869716971
 30
0.0
  0
VERTEX
  5
FAE80
  8
0
 10
36032.411666715961
 20
12598.108869716971
 30
0.0
  0
VERTEX
  5
FAE81
  8
0
 10
36032.411666715961
 20
11711.108869716971
 30
0.0
  0
VERTEX
  5
FAE82
  8
0
 10
36067.411666715961
 20
11711.108869716971
 30
0.0
  0
SEQEND
  5
FAE83
  8
0
  0
POLYLINE
  5
EF750
  8
0
 66
     1
 10
0.0
 20
0.0
 30
0.0
 70
     1
  0
VERTEX
  5
FAE84
  8
0
 10
36032.411666715961
 20
11743.108869716971
 30
0.0
  0
VERTEX
  5
FAE85
  8
0
 10
35032.411666715961
 20
11743.108869716971
 30
0.0
  0
VERTEX
  5
FAE86
  8
0
 10
35032.411666715961
 20
11778.108869716971
 30
0.0
  0
VERTEX
  5
FAE87
  8
0
 10
36032.411666715961
 20
11778.108869716971
 30
0.0
  0
SEQEND
  5
FAE88
  8
0
  0
POLYLINE
  5
EF751
  8
0
 66
     1
 10
0.0
 20
0.0
 30
0.0
 70
     1
  0
VERTEX
  5
FAE89
  8
0
 10
36032.411666715961
 20
12563.108869716971
 30
0.0
  0
VERTEX
  5
FAE8A
  8
0
 10
35032.411666715961
 20
12563.108869716971
 30
0.0
  0
VERTEX
  5
FAE8B
  8
0
 10
35032.411666715961
 20
12598.108869716971
 30
0.0
  0
VERTEX
  5
FAE8C
  8
0
 10
36032.411666715961
 20
12598.108869716971
 30
0.0
  0
SEQEND
  5
FAE8D
  8
0
  0
POLYLINE
  5
EF753
  8
0
 66
     1
 10
0.0
 20
0.0
 30
0.0
  0
VERTEX
  5
FAE8E
  8
0
 10
34997.411666715961
 20
12188.10886971698
 30
0.0
  0
VERTEX
  5
FAE8F
  8
0
 10
33997.411666715961
 20
12188.10886971698
 30
0.0
  0
VERTEX
  5
FAE90
  8
0
 10
33997.411666715961
 20
12153.108869716971
 30
0.0
  0
VERTEX
  5
FAE91
  8
0
 10
34997.411666715961
 20
12153.108869716971
 30
0.0
  0
VERTEX
  5
FAE92
  8
0
 10
34997.411666715961
 20
12188.10886971698
 30
0.0
  0
SEQEND
  5
FAE93
  8
0
  0
POLYLINE
  5
EF754
  8
0
 66
     1
 10
0.0
 20
0.0
 30
0.0
 70
     1
  0
VERTEX
  5
FAE94
  8
0
 10
34997.411666715961
 20
12563.108869716971
 30
0.0
  0
VERTEX
  5
FAE95
  8
0
 10
33997.411666715961
 20
12563.108869716971
 30
0.0
  0
VERTEX
  5
FAE96
  8
0
 10
33997.411666715961
 20
12598.108869716971
 30
0.0
  0
VERTEX
  5
FAE97
  8
0
 10
34997.411666715961
 20
12598.108869716971
 30
0.0
  0
SEQEND
  5
FAE98
  8
0
  0
POLYLINE
  5
EF755
  8
0
 66
     1
 10
0.0
 20
0.0
 30
0.0
 70
     1
  0
VERTEX
  5
FAE99
  8
0
 10
34997.411666715961
 20
11743.108869716971
 30
0.0
  0
VERTEX
  5
FAE9A
  8
0
 10
33997.411666715961
 20
11743.108869716971
 30
0.0
  0
VERTEX
  5
FAE9B
  8
0
 10
33997.411666715961
 20
11778.108869716971
 30
0.0
  0
VERTEX
  5
FAE9C
  8
0
 10
34997.411666715961
 20
11778.108869716971
 30
0.0
  0
SEQEND
  5
FAE9D
  8
0
  0
POLYLINE
  5
EF756
  8
0
 66
     1
 10
0.0
 20
0.0
 30
0.0
 70
     1
  0
VERTEX
  5
FAE9E
  8
0
 10
35032.411666715961
 20
12598.108869716971
 30
0.0
  0
VERTEX
  5
FAE9F
  8
0
 10
34997.411666715961
 20
12598.108869716971
 30
0.0
  0
VERTEX
  5
FAEA0
  8
0
 10
34997.411666715961
 20
11711.108869716971
 30
0.0
  0
VERTEX
  5
FAEA1
  8
0
 10
35032.411666715961
 20
11711.108869716971
 30
0.0
  0
SEQEND
  5
FAEA2
  8
0
  0
POLYLINE
  5
EF757
  8
0
 66
     1
 10
0.0
 20
0.0
 30
0.0
  0
VERTEX
  5
FAEA3
  8
0
 10
35029.911666715961
 20
11711.108869716971
 30
0.0
  0
VERTEX
  5
FAEA4
  8
0
 10
34999.911666715961
 20
11711.108869716971
 30
0.0
  0
VERTEX
  5
FAEA5
  8
0
 10
34999.911666715961
 20
11708.108869716971
 30
0.0
  0
VERTEX
  5
FAEA6
  8
0
 10
35029.911666715961
 20
11708.108869716971
 30
0.0
  0
VERTEX
  5
FAEA7
  8
0
 10
35029.911666715961
 20
11711.108869716971
 30
0.0
  0
SEQEND
  5
FAEA8
  8
0
  0
POLYLINE
  5
EF758
  8
0
 66
     1
 10
0.0
 20
0.0
 30
0.0
  0
VERTEX
  5
FAEA9
  8
0
 10
33962.411666715961
 20
12188.10886971698
 30
0.0
  0
VERTEX
  5
FAEAA
  8
0
 10
32962.411666715961
 20
12188.10886971698
 30
0.0
  0
VERTEX
  5
FAEAB
  8
0
 10
32962.411666715961
 20
12153.108869716971
 30
0.0
  0
VERTEX
  5
FAEAC
  8
0
 10
33962.411666715961
 20
12153.108869716971
 30
0.0
  0
VERTEX
  5
FAEAD
  8
0
 10
33962.411666715961
 20
12188.10886971698
 30
0.0
  0
SEQEND
  5
FAEAE
  8
0
  0
POLYLINE
  5
EF759
  8
0
 66
     1
 10
0.0
 20
0.0
 30
0.0
  0
VERTEX
  5
FAEAF
  8
0
 10
33997.411666715961
 20
12598.108869716971
 30
0.0
  0
VERTEX
  5
FAEB0
  8
0
 10
33997.411666715961
 20
11711.108869716971
 30
0.0
  0
SEQEND
  5
FAEB1
  8
0
  0
POLYLINE
  5
EF75A
  8
0
 66
     1
 10
0.0
 20
0.0
 30
0.0
  0
VERTEX
  5
FAEB2
  8
0
 10
33994.911666715961
 20
11711.108869716971
 30
0.0
  0
VERTEX
  5
FAEB3
  8
0
 10
33964.911666715961
 20
11711.108869716971
 30
0.0
  0
VERTEX
  5
FAEB4
  8
0
 10
33964.911666715961
 20
11708.108869716971
 30
0.0
  0
VERTEX
  5
FAEB5
  8
0
 10
33994.911666715961
 20
11708.108869716971
 30
0.0
  0
VERTEX
  5
FAEB6
  8
0
 10
33994.911666715961
 20
11711.108869716971
 30
0.0
  0
SEQEND
  5
FAEB7
  8
0
  0
POLYLINE
  5
EF75B
  8
0
 66
     1
 10
0.0
 20
0.0
 30
0.0
  0
VERTEX
  5
FAEB8
  8
0
 10
32929.911666715961
 20
11711.108869716971
 30
0.0
  0
VERTEX
  5
FAEB9
  8
0
 10
32959.911666715961
 20
11711.108869716971
 30
0.0
  0
VERTEX
  5
FAEBA
  8
0
 10
32959.911666715961
 20
11708.108869716971
 30
0.0
  0
VERTEX
  5
FAEBB
  8
0
 10
32929.911666715961
 20
11708.108869716971
 30
0.0
  0
VERTEX
  5
FAEBC
  8
0
 10
32929.911666715961
 20
11711.108869716971
 30
0.0
  0
SEQEND
  5
FAEBD
  8
0
  0
POLYLINE
  5
EF75C
  8
0
 66
     1
 10
0.0
 20
0.0
 30
0.0
 70
     1
  0
VERTEX
  5
FAEBE
  8
0
 10
32927.411666715961
 20
12598.108869716971
 30
0.0
  0
VERTEX
  5
FAEBF
  8
0
 10
32962.411666715961
 20
12598.108869716971
 30
0.0
  0
VERTEX
  5
FAEC0
  8
0
 10
32962.411666715961
 20
11711.108869716971
 30
0.0
  0
VERTEX
  5
FAEC1
  8
0
 10
32927.411666715961
 20
11711.108869716971
 30
0.0
  0
SEQEND
  5
FAEC2
  8
0
  0
POLYLINE
  5
EF75D
  8
0
 66
     1
 10
0.0
 20
0.0
 30
0.0
 70
     1
  0
VERTEX
  5
FAEC3
  8
0
 10
33997.411666715961
 20
12598.108869716971
 30
0.0
  0
VERTEX
  5
FAEC4
  8
0
 10
33962.411666715961
 20
12598.108869716971
 30
0.0
  0
VERTEX
  5
FAEC5
  8
0
 10
33962.411666715961
 20
11711.108869716971
 30
0.0
  0
VERTEX
  5
FAEC6
  8
0
 10
33997.411666715961
 20
11711.108869716971
 30
0.0
  0
SEQEND
  5
FAEC7
  8
0
  0
POLYLINE
  5
EF75E
  8
0
 66
     1
 10
0.0
 20
0.0
 30
0.0
 70
     1
  0
VERTEX
  5
FAEC8
  8
0
 10
32962.411666715961
 20
11743.108869716971
 30
0.0
  0
VERTEX
  5
FAEC9
  8
0
 10
33962.411666715961
 20
11743.108869716971
 30
0.0
  0
VERTEX
  5
FAECA
  8
0
 10
33962.411666715961
 20
11778.108869716971
 30
0.0
  0
VERTEX
  5
FAECB
  8
0
 10
32962.411666715961
 20
11778.108869716971
 30
0.0
  0
SEQEND
  5
FAECC
  8
0
  0
POLYLINE
  5
EF75F
  8
0
 66
     1
 10
0.0
 20
0.0
 30
0.0
 70
     1
  0
VERTEX
  5
FAECD
  8
0
 10
32962.411666715961
 20
12563.108869716971
 30
0.0
  0
VERTEX
  5
FAECE
  8
0
 10
33962.411666715961
 20
12563.108869716971
 30
0.0
  0
VERTEX
  5
FAECF
  8
0
 10
33962.411666715961
 20
12598.108869716971
 30
0.0
  0
VERTEX
  5
FAED0
  8
0
 10
32962.411666715961
 20
12598.108869716971
 30
0.0
  0
SEQEND
  5
FAED1
  8
0
  0
POLYLINE
  5
EF760
  8
0
 66
     1
 10
0.0
 20
0.0
 30
0.0
 70
     1
  0
VERTEX
  5
FAED2
  8
0
 10
33497.411666715961
 20
13648.108869716971
 30
0.0
  0
VERTEX
  5
FAED3
  8
0
 10
33997.411666715961
 20
13648.108869716971
 30
0.0
  0
VERTEX
  5
FAED4
  8
0
 10
33997.411666715961
 20
13683.10886971698
 30
0.0
  0
VERTEX
  5
FAED5
  8
0
 10
33497.411666715961
 20
13683.10886971698
 30
0.0
  0
SEQEND
  5
FAED6
  8
0
  0
POLYLINE
  5
EF761
  8
0
 66
     1
 10
0.0
 20
0.0
 30
0.0
 70
     1
  0
VERTEX
  5
FAED7
  8
0
 10
33497.411666715961
 20
13238.108869716971
 30
0.0
  0
VERTEX
  5
FAED8
  8
0
 10
33997.411666715961
 20
13238.108869716971
 30
0.0
  0
VERTEX
  5
FAED9
  8
0
 10
33997.411666715961
 20
13273.108869716971
 30
0.0
  0
VERTEX
  5
FAEDA
  8
0
 10
33497.411666715961
 20
13273.108869716971
 30
0.0
  0
SEQEND
  5
FAEDB
  8
0
  0
POLYLINE
  5
EF762
  8
0
 66
     1
 10
0.0
 20
0.0
 30
0.0
 70
     1
  0
VERTEX
  5
FAEDC
  8
0
 10
34032.411666715961
 20
13683.10886971698
 30
0.0
  0
VERTEX
  5
FAEDD
  8
0
 10
33997.411666715961
 20
13683.10886971698
 30
0.0
  0
VERTEX
  5
FAEDE
  8
0
 10
33997.411666715961
 20
13206.108869716971
 30
0.0
  0
VERTEX
  5
FAEDF
  8
0
 10
34032.411666715961
 20
13206.108869716971
 30
0.0
  0
SEQEND
  5
FAEE0
  8
0
  0
POLYLINE
  5
EF763
  8
0
 66
     1
 10
0.0
 20
0.0
 30
0.0
  0
VERTEX
  5
FAEE1
  8
0
 10
34029.911666715961
 20
13206.108869716971
 30
0.0
  0
VERTEX
  5
FAEE2
  8
0
 10
33999.911666715961
 20
13206.108869716971
 30
0.0
  0
VERTEX
  5
FAEE3
  8
0
 10
33999.911666715961
 20
13203.108869716971
 30
0.0
  0
VERTEX
  5
FAEE4
  8
0
 10
34029.911666715961
 20
13203.108869716971
 30
0.0
  0
VERTEX
  5
FAEE5
  8
0
 10
34029.911666715961
 20
13206.108869716971
 30
0.0
  0
SEQEND
  5
FAEE6
  8
0
  0
POLYLINE
  5
EF764
  8
0
 66
     1
 10
0.0
 20
0.0
 30
0.0
  0
VERTEX
  5
FAEE7
  8
0
 10
35064.911666715961
 20
13206.108869716971
 30
0.0
  0
VERTEX
  5
FAEE8
  8
0
 10
35034.911666715961
 20
13206.108869716971
 30
0.0
  0
VERTEX
  5
FAEE9
  8
0
 10
35034.911666715961
 20
13203.108869716971
 30
0.0
  0
VERTEX
  5
FAEEA
  8
0
 10
35064.911666715961
 20
13203.108869716971
 30
0.0
  0
VERTEX
  5
FAEEB
  8
0
 10
35064.911666715961
 20
13206.108869716971
 30
0.0
  0
SEQEND
  5
FAEEC
  8
0
  0
POLYLINE
  5
EF765
  8
0
 66
     1
 10
0.0
 20
0.0
 30
0.0
 70
     1
  0
VERTEX
  5
FAEED
  8
0
 10
35067.411666715961
 20
13683.10886971698
 30
0.0
  0
VERTEX
  5
FAEEE
  8
0
 10
35032.411666715961
 20
13683.10886971698
 30
0.0
  0
VERTEX
  5
FAEEF
  8
0
 10
35032.411666715961
 20
13206.108869716971
 30
0.0
  0
VERTEX
  5
FAEF0
  8
0
 10
35067.411666715961
 20
13206.108869716971
 30
0.0
  0
SEQEND
  5
FAEF1
  8
0
  0
POLYLINE
  5
EF766
  8
0
 66
     1
 10
0.0
 20
0.0
 30
0.0
 70
     1
  0
VERTEX
  5
FAEF2
  8
0
 10
35032.411666715961
 20
13238.108869716971
 30
0.0
  0
VERTEX
  5
FAEF3
  8
0
 10
34032.411666715961
 20
13238.108869716971
 30
0.0
  0
VERTEX
  5
FAEF4
  8
0
 10
34032.411666715961
 20
13273.108869716971
 30
0.0
  0
VERTEX
  5
FAEF5
  8
0
 10
35032.411666715961
 20
13273.108869716971
 30
0.0
  0
SEQEND
  5
FAEF6
  8
0
  0
POLYLINE
  5
EF767
  8
0
 66
     1
 10
0.0
 20
0.0
 30
0.0
 70
     1
  0
VERTEX
  5
FAEF7
  8
0
 10
35032.411666715961
 20
13648.108869716971
 30
0.0
  0
VERTEX
  5
FAEF8
  8
0
 10
34032.411666715961
 20
13648.108869716971
 30
0.0
  0
VERTEX
  5
FAEF9
  8
0
 10
34032.411666715961
 20
13683.10886971698
 30
0.0
  0
VERTEX
  5
FAEFA
  8
0
 10
35032.411666715961
 20
13683.10886971698
 30
0.0
  0
SEQEND
  5
FAEFB
  8
0
  0
POLYLINE
  5
EF768
  8
0
 66
     1
 10
0.0
 20
0.0
 30
0.0
  0
VERTEX
  5
FAEFC
  8
0
 10
42607.527447699998
 20
13206.108869716971
 30
0.0
  0
VERTEX
  5
FAEFD
  8
0
 10
42577.527447699998
 20
13206.108869716971
 30
0.0
  0
VERTEX
  5
FAEFE
  8
0
 10
42577.527447699998
 20
13203.108869716971
 30
0.0
  0
VERTEX
  5
FAEFF
  8
0
 10
42607.527447699998
 20
13203.108869716971
 30
0.0
  0
VERTEX
  5
FAF00
  8
0
 10
42607.527447699998
 20
13206.108869716971
 30
0.0
  0
SEQEND
  5
FAF01
  8
0
  0
POLYLINE
  5
EF769
  8
0
 66
     1
 10
0.0
 20
0.0
 30
0.0
 70
     1
  0
VERTEX
  5
FAF02
  8
0
 10
42610.027447699977
 20
13683.10886971698
 30
0.0
  0
VERTEX
  5
FAF03
  8
0
 10
42575.027447699998
 20
13683.10886971698
 30
0.0
  0
VERTEX
  5
FAF04
  8
0
 10
42575.027447699998
 20
13206.108869716971
 30
0.0
  0
VERTEX
  5
FAF05
  8
0
 10
42610.027447699977
 20
13206.108869716971
 30
0.0
  0
SEQEND
  5
FAF06
  8
0
  0
POLYLINE
  5
EF76A
  8
0
 66
     1
 10
0.0
 20
0.0
 30
0.0
 70
     1
  0
VERTEX
  5
FAF07
  8
0
 10
42575.027447699998
 20
13238.108869716971
 30
0.0
  0
VERTEX
  5
FAF08
  8
0
 10
41075.027447699991
 20
13238.108869716971
 30
0.0
  0
VERTEX
  5
FAF09
  8
0
 10
41075.027447699991
 20
13273.108869716971
 30
0.0
  0
VERTEX
  5
FAF0A
  8
0
 10
42575.027447699998
 20
13273.108869716971
 30
0.0
  0
SEQEND
  5
FAF0B
  8
0
  0
POLYLINE
  5
EF76B
  8
0
 66
     1
 10
0.0
 20
0.0
 30
0.0
 70
     1
  0
VERTEX
  5
FAF0C
  8
0
 10
42575.027447699998
 20
13648.108869716971
 30
0.0
  0
VERTEX
  5
FAF0D
  8
0
 10
41075.027447699991
 20
13648.108869716971
 30
0.0
  0
VERTEX
  5
FAF0E
  8
0
 10
41075.027447699991
 20
13683.10886971698
 30
0.0
  0
VERTEX
  5
FAF0F
  8
0
 10
42575.027447699998
 20
13683.10886971698
 30
0.0
  0
SEQEND
  5
FAF10
  8
0
  0
POLYLINE
  5
EF76C
  8
0
 66
     1
 10
0.0
 20
0.0
 30
0.0
 70
     1
  0
VERTEX
  5
FAF11
  8
0
 10
39540.027447699998
 20
13648.108869716971
 30
0.0
  0
VERTEX
  5
FAF12
  8
0
 10
41040.027447699977
 20
13648.108869716971
 30
0.0
  0
VERTEX
  5
FAF13
  8
0
 10
41040.027447699977
 20
13683.10886971698
 30
0.0
  0
VERTEX
  5
FAF14
  8
0
 10
39540.027447699998
 20
13683.10886971698
 30
0.0
  0
SEQEND
  5
FAF15
  8
0
  0
POLYLINE
  5
EF76D
  8
0
 66
     1
 10
0.0
 20
0.0
 30
0.0
 70
     1
  0
VERTEX
  5
FAF16
  8
0
 10
39540.027447699998
 20
13238.108869716971
 30
0.0
  0
VERTEX
  5
FAF17
  8
0
 10
41040.027447699977
 20
13238.108869716971
 30
0.0
  0
VERTEX
  5
FAF18
  8
0
 10
41040.027447699977
 20
13273.108869716971
 30
0.0
  0
VERTEX
  5
FAF19
  8
0
 10
39540.027447699998
 20
13273.108869716971
 30
0.0
  0
SEQEND
  5
FAF1A
  8
0
  0
POLYLINE
  5
EF76E
  8
0
 66
     1
 10
0.0
 20
0.0
 30
0.0
 70
     1
  0
VERTEX
  5
FAF1B
  8
0
 10
41075.027447699991
 20
13683.10886971698
 30
0.0
  0
VERTEX
  5
FAF1C
  8
0
 10
41040.027447699977
 20
13683.10886971698
 30
0.0
  0
VERTEX
  5
FAF1D
  8
0
 10
41040.027447699977
 20
13206.108869716971
 30
0.0
  0
VERTEX
  5
FAF1E
  8
0
 10
41075.027447699991
 20
13206.108869716971
 30
0.0
  0
SEQEND
  5
FAF1F
  8
0
  0
POLYLINE
  5
EF76F
  8
0
 66
     1
 10
0.0
 20
0.0
 30
0.0
 70
     1
  0
VERTEX
  5
FAF20
  8
0
 10
39505.027447699998
 20
13683.10886971698
 30
0.0
  0
VERTEX
  5
FAF21
  8
0
 10
39540.027447699998
 20
13683.10886971698
 30
0.0
  0
VERTEX
  5
FAF22
  8
0
 10
39540.027447699998
 20
13206.108869716971
 30
0.0
  0
VERTEX
  5
FAF23
  8
0
 10
39505.027447699998
 20
13206.108869716971
 30
0.0
  0
SEQEND
  5
FAF24
  8
0
  0
POLYLINE
  5
EF770
  8
0
 66
     1
 10
0.0
 20
0.0
 30
0.0
  0
VERTEX
  5
FAF25
  8
0
 10
39507.527447699998
 20
13206.108869716971
 30
0.0
  0
VERTEX
  5
FAF26
  8
0
 10
39537.527447699998
 20
13206.108869716971
 30
0.0
  0
VERTEX
  5
FAF27
  8
0
 10
39537.527447699998
 20
13203.108869716971
 30
0.0
  0
VERTEX
  5
FAF28
  8
0
 10
39507.527447699998
 20
13203.108869716971
 30
0.0
  0
VERTEX
  5
FAF29
  8
0
 10
39507.527447699998
 20
13206.108869716971
 30
0.0
  0
SEQEND
  5
FAF2A
  8
0
  0
POLYLINE
  5
EF771
  8
0
 66
     1
 10
0.0
 20
0.0
 30
0.0
  0
VERTEX
  5
FAF2B
  8
0
 10
41072.527447699998
 20
13206.108869716971
 30
0.0
  0
VERTEX
  5
FAF2C
  8
0
 10
41042.527447699998
 20
13206.108869716971
 30
0.0
  0
VERTEX
  5
FAF2D
  8
0
 10
41042.527447699998
 20
13203.108869716971
 30
0.0
  0
VERTEX
  5
FAF2E
  8
0
 10
41072.527447699998
 20
13203.108869716971
 30
0.0
  0
VERTEX
  5
FAF2F
  8
0
 10
41072.527447699998
 20
13206.108869716971
 30
0.0
  0
SEQEND
  5
FAF30
  8
0
  0
POLYLINE
  5
EF772
  8
0
 66
     1
 10
0.0
 20
0.0
 30
0.0
  0
VERTEX
  5
FAF31
  8
0
 10
33494.911666715961
 20
13206.108869716971
 30
0.0
  0
VERTEX
  5
FAF32
  8
0
 10
33464.911666715961
 20
13206.108869716971
 30
0.0
  0
VERTEX
  5
FAF33
  8
0
 10
33464.911666715961
 20
13203.108869716971
 30
0.0
  0
VERTEX
  5
FAF34
  8
0
 10
33494.911666715961
 20
13203.108869716971
 30
0.0
  0
VERTEX
  5
FAF35
  8
0
 10
33494.911666715961
 20
13206.108869716971
 30
0.0
  0
SEQEND
  5
FAF36
  8
0
  0
POLYLINE
  5
EF773
  8
0
 66
     1
 10
0.0
 20
0.0
 30
0.0
  0
VERTEX
  5
FAF37
  8
0
 10
32929.911666715961
 20
13206.108869716971
 30
0.0
  0
VERTEX
  5
FAF38
  8
0
 10
32959.911666715961
 20
13206.108869716971
 30
0.0
  0
VERTEX
  5
FAF39
  8
0
 10
32959.911666715961
 20
13203.108869716971
 30
0.0
  0
VERTEX
  5
FAF3A
  8
0
 10
32929.911666715961
 20
13203.108869716971
 30
0.0
  0
VERTEX
  5
FAF3B
  8
0
 10
32929.911666715961
 20
13206.108869716971
 30
0.0
  0
SEQEND
  5
FAF3C
  8
0
  0
POLYLINE
  5
EF774
  8
0
 66
     1
 10
0.0
 20
0.0
 30
0.0
 70
     1
  0
VERTEX
  5
FAF3D
  8
0
 10
32927.411666715961
 20
13683.10886971698
 30
0.0
  0
VERTEX
  5
FAF3E
  8
0
 10
32962.411666715961
 20
13683.10886971698
 30
0.0
  0
VERTEX
  5
FAF3F
  8
0
 10
32962.411666715961
 20
13206.108869716971
 30
0.0
  0
VERTEX
  5
FAF40
  8
0
 10
32927.411666715961
 20
13206.108869716971
 30
0.0
  0
SEQEND
  5
FAF41
  8
0
  0
POLYLINE
  5
EF775
  8
0
 66
     1
 10
0.0
 20
0.0
 30
0.0
 70
     1
  0
VERTEX
  5
FAF42
  8
0
 10
33497.411666715961
 20
13683.10886971698
 30
0.0
  0
VERTEX
  5
FAF43
  8
0
 10
33462.411666715961
 20
13683.10886971698
 30
0.0
  0
VERTEX
  5
FAF44
  8
0
 10
33462.411666715961
 20
13206.108869716971
 30
0.0
  0
VERTEX
  5
FAF45
  8
0
 10
33497.411666715961
 20
13206.108869716971
 30
0.0
  0
SEQEND
  5
FAF46
  8
0
  0
POLYLINE
  5
EF776
  8
0
 66
     1
 10
0.0
 20
0.0
 30
0.0
 70
     1
  0
VERTEX
  5
FAF47
  8
0
 10
32962.411666715961
 20
13238.108869716971
 30
0.0
  0
VERTEX
  5
FAF48
  8
0
 10
33462.411666715961
 20
13238.108869716971
 30
0.0
  0
VERTEX
  5
FAF49
  8
0
 10
33462.411666715961
 20
13273.108869716971
 30
0.0
  0
VERTEX
  5
FAF4A
  8
0
 10
32962.411666715961
 20
13273.108869716971
 30
0.0
  0
SEQEND
  5
FAF4B
  8
0
  0
POLYLINE
  5
EF777
  8
0
 66
     1
 10
0.0
 20
0.0
 30
0.0
 70
     1
  0
VERTEX
  5
FAF4C
  8
0
 10
32962.411666715961
 20
13648.108869716971
 30
0.0
  0
VERTEX
  5
FAF4D
  8
0
 10
33462.411666715961
 20
13648.108869716971
 30
0.0
  0
VERTEX
  5
FAF4E
  8
0
 10
33462.411666715961
 20
13683.10886971698
 30
0.0
  0
VERTEX
  5
FAF4F
  8
0
 10
32962.411666715961
 20
13683.10886971698
 30
0.0
  0
SEQEND
  5
FAF50
  8
0
  0
POLYLINE
  5
EF778
  8
0
 66
     1
 10
0.0
 20
0.0
 30
0.0
  0
VERTEX
  5
FAF51
  8
0
 10
33462.411666715961
 20
10283.108869716991
 30
0.0
  0
VERTEX
  5
FAF52
  8
0
 10
32962.411666715961
 20
10283.108869716991
 30
0.0
  0
VERTEX
  5
FAF53
  8
0
 10
32962.411666715961
 20
10248.108869716971
 30
0.0
  0
VERTEX
  5
FAF54
  8
0
 10
33462.411666715961
 20
10248.108869716971
 30
0.0
  0
VERTEX
  5
FAF55
  8
0
 10
33462.411666715961
 20
10283.108869716991
 30
0.0
  0
SEQEND
  5
FAF56
  8
0
  0
POLYLINE
  5
EF779
  8
0
 66
     1
 10
0.0
 20
0.0
 30
0.0
  0
VERTEX
  5
FAF57
  8
0
 10
33497.411666715961
 20
11103.108869716971
 30
0.0
  0
VERTEX
  5
FAF58
  8
0
 10
33497.411666715961
 20
9806.1088697169798
 30
0.0
  0
SEQEND
  5
FAF59
  8
0
  0
POLYLINE
  5
EF77A
  8
0
 66
     1
 10
0.0
 20
0.0
 30
0.0
  0
VERTEX
  5
FAF5A
  8
0
 10
33494.911666715961
 20
9806.1088697169798
 30
0.0
  0
VERTEX
  5
FAF5B
  8
0
 10
33464.911666715961
 20
9806.1088697169798
 30
0.0
  0
VERTEX
  5
FAF5C
  8
0
 10
33464.911666715961
 20
9803.1088697169816
 30
0.0
  0
VERTEX
  5
FAF5D
  8
0
 10
33494.911666715961
 20
9803.1088697169816
 30
0.0
  0
VERTEX
  5
FAF5E
  8
0
 10
33494.911666715961
 20
9806.1088697169798
 30
0.0
  0
SEQEND
  5
FAF5F
  8
0
  0
POLYLINE
  5
EF77B
  8
0
 66
     1
 10
0.0
 20
0.0
 30
0.0
  0
VERTEX
  5
FAF60
  8
0
 10
32929.911666715961
 20
9806.1088697169798
 30
0.0
  0
VERTEX
  5
FAF61
  8
0
 10
32959.911666715961
 20
9806.1088697169798
 30
0.0
  0
VERTEX
  5
FAF62
  8
0
 10
32959.911666715961
 20
9803.1088697169816
 30
0.0
  0
VERTEX
  5
FAF63
  8
0
 10
32929.911666715961
 20
9803.1088697169816
 30
0.0
  0
VERTEX
  5
FAF64
  8
0
 10
32929.911666715961
 20
9806.1088697169798
 30
0.0
  0
SEQEND
  5
FAF65
  8
0
  0
POLYLINE
  5
EF77C
  8
0
 66
     1
 10
0.0
 20
0.0
 30
0.0
 70
     1
  0
VERTEX
  5
FAF66
  8
0
 10
32927.411666715961
 20
11103.108869716971
 30
0.0
  0
VERTEX
  5
FAF67
  8
0
 10
32962.411666715961
 20
11103.108869716971
 30
0.0
  0
VERTEX
  5
FAF68
  8
0
 10
32962.411666715961
 20
9806.1088697169798
 30
0.0
  0
VERTEX
  5
FAF69
  8
0
 10
32927.411666715961
 20
9806.1088697169798
 30
0.0
  0
SEQEND
  5
FAF6A
  8
0
  0
POLYLINE
  5
EF77D
  8
0
 66
     1
 10
0.0
 20
0.0
 30
0.0
 70
     1
  0
VERTEX
  5
FAF6B
  8
0
 10
33497.411666715961
 20
11103.108869716971
 30
0.0
  0
VERTEX
  5
FAF6C
  8
0
 10
33462.411666715961
 20
11103.108869716971
 30
0.0
  0
VERTEX
  5
FAF6D
  8
0
 10
33462.411666715961
 20
9806.1088697169798
 30
0.0
  0
VERTEX
  5
FAF6E
  8
0
 10
33497.411666715961
 20
9806.1088697169798
 30
0.0
  0
SEQEND
  5
FAF6F
  8
0
  0
POLYLINE
  5
EF77E
  8
0
 66
     1
 10
0.0
 20
0.0
 30
0.0
 70
     1
  0
VERTEX
  5
FAF70
  8
0
 10
32962.411666715961
 20
9838.1088697169816
 30
0.0
  0
VERTEX
  5
FAF71
  8
0
 10
33462.411666715961
 20
9838.1088697169816
 30
0.0
  0
VERTEX
  5
FAF72
  8
0
 10
33462.411666715961
 20
9873.1088697169762
 30
0.0
  0
VERTEX
  5
FAF73
  8
0
 10
32962.411666715961
 20
9873.1088697169762
 30
0.0
  0
SEQEND
  5
FAF74
  8
0
  0
POLYLINE
  5
EF77F
  8
0
 66
     1
 10
0.0
 20
0.0
 30
0.0
 70
     1
  0
VERTEX
  5
FAF75
  8
0
 10
32962.411666715961
 20
11068.108869716971
 30
0.0
  0
VERTEX
  5
FAF76
  8
0
 10
33462.411666715961
 20
11068.108869716971
 30
0.0
  0
VERTEX
  5
FAF77
  8
0
 10
33462.411666715961
 20
11103.108869716971
 30
0.0
  0
VERTEX
  5
FAF78
  8
0
 10
32962.411666715961
 20
11103.108869716971
 30
0.0
  0
SEQEND
  5
FAF79
  8
0
  0
POLYLINE
  5
EF780
  8
0
 66
     1
 10
0.0
 20
0.0
 30
0.0
 70
     1
  0
VERTEX
  5
FAF7A
  8
0
 10
32962.411666715961
 20
10658.108869716971
 30
0.0
  0
VERTEX
  5
FAF7B
  8
0
 10
33462.411666715961
 20
10658.108869716971
 30
0.0
  0
VERTEX
  5
FAF7C
  8
0
 10
33462.411666715961
 20
10693.108869716971
 30
0.0
  0
VERTEX
  5
FAF7D
  8
0
 10
32962.411666715961
 20
10693.108869716971
 30
0.0
  0
SEQEND
  5
FAF7E
  8
0
  0
POLYLINE
  5
EF781
  8
0
 66
     1
 10
0.0
 20
0.0
 30
0.0
 70
     1
  0
VERTEX
  5
FAF7F
  8
0
 10
32962.411666715961
 20
5618.1088697169853
 30
0.0
  0
VERTEX
  5
FAF80
  8
0
 10
33462.411666715961
 20
5618.1088697169853
 30
0.0
  0
VERTEX
  5
FAF81
  8
0
 10
33462.411666715961
 20
5653.1088697169862
 30
0.0
  0
VERTEX
  5
FAF82
  8
0
 10
32962.411666715961
 20
5653.1088697169862
 30
0.0
  0
SEQEND
  5
FAF83
  8
0
  0
POLYLINE
  5
EF782
  8
0
 66
     1
 10
0.0
 20
0.0
 30
0.0
 70
     1
  0
VERTEX
  5
FAF84
  8
0
 10
32962.411666715961
 20
6848.1088697169853
 30
0.0
  0
VERTEX
  5
FAF85
  8
0
 10
33462.411666715961
 20
6848.1088697169853
 30
0.0
  0
VERTEX
  5
FAF86
  8
0
 10
33462.411666715961
 20
6883.1088697169862
 30
0.0
  0
VERTEX
  5
FAF87
  8
0
 10
32962.411666715961
 20
6883.1088697169862
 30
0.0
  0
SEQEND
  5
FAF88
  8
0
  0
POLYLINE
  5
EF783
  8
0
 66
     1
 10
0.0
 20
0.0
 30
0.0
 70
     1
  0
VERTEX
  5
FAF89
  8
0
 10
32962.411666715961
 20
4798.1088697169853
 30
0.0
  0
VERTEX
  5
FAF8A
  8
0
 10
33462.411666715961
 20
4798.1088697169853
 30
0.0
  0
VERTEX
  5
FAF8B
  8
0
 10
33462.411666715961
 20
4833.1088697169853
 30
0.0
  0
VERTEX
  5
FAF8C
  8
0
 10
32962.411666715961
 20
4833.1088697169853
 30
0.0
  0
SEQEND
  5
FAF8D
  8
0
  0
POLYLINE
  5
EF784
  8
0
 66
     1
 10
0.0
 20
0.0
 30
0.0
 70
     1
  0
VERTEX
  5
FAF8E
  8
0
 10
33497.411666715961
 20
6883.1088697169862
 30
0.0
  0
VERTEX
  5
FAF8F
  8
0
 10
33462.411666715961
 20
6883.1088697169862
 30
0.0
  0
VERTEX
  5
FAF90
  8
0
 10
33462.411666715961
 20
4766.1088697169853
 30
0.0
  0
VERTEX
  5
FAF91
  8
0
 10
33497.411666715961
 20
4766.1088697169853
 30
0.0
  0
SEQEND
  5
FAF92
  8
0
  0
POLYLINE
  5
EF785
  8
0
 66
     1
 10
0.0
 20
0.0
 30
0.0
 70
     1
  0
VERTEX
  5
FAF93
  8
0
 10
32927.411666715961
 20
6883.1088697169862
 30
0.0
  0
VERTEX
  5
FAF94
  8
0
 10
32962.411666715961
 20
6883.1088697169862
 30
0.0
  0
VERTEX
  5
FAF95
  8
0
 10
32962.411666715961
 20
4766.1088697169853
 30
0.0
  0
VERTEX
  5
FAF96
  8
0
 10
32927.411666715961
 20
4766.1088697169853
 30
0.0
  0
SEQEND
  5
FAF97
  8
0
  0
POLYLINE
  5
EF786
  8
0
 66
     1
 10
0.0
 20
0.0
 30
0.0
  0
VERTEX
  5
FAF98
  8
0
 10
32929.911666715961
 20
4766.1088697169853
 30
0.0
  0
VERTEX
  5
FAF99
  8
0
 10
32959.911666715961
 20
4766.1088697169853
 30
0.0
  0
VERTEX
  5
FAF9A
  8
0
 10
32959.911666715961
 20
4763.1088697169853
 30
0.0
  0
VERTEX
  5
FAF9B
  8
0
 10
32929.911666715961
 20
4763.1088697169853
 30
0.0
  0
VERTEX
  5
FAF9C
  8
0
 10
32929.911666715961
 20
4766.1088697169853
 30
0.0
  0
SEQEND
  5
FAF9D
  8
0
  0
POLYLINE
  5
EF787
  8
0
 66
     1
 10
0.0
 20
0.0
 30
0.0
  0
VERTEX
  5
FAF9E
  8
0
 10
33494.911666715961
 20
4766.1088697169853
 30
0.0
  0
VERTEX
  5
FAF9F
  8
0
 10
33464.911666715961
 20
4766.1088697169853
 30
0.0
  0
VERTEX
  5
FAFA0
  8
0
 10
33464.911666715961
 20
4763.1088697169853
 30
0.0
  0
VERTEX
  5
FAFA1
  8
0
 10
33494.911666715961
 20
4763.1088697169853
 30
0.0
  0
VERTEX
  5
FAFA2
  8
0
 10
33494.911666715961
 20
4766.1088697169853
 30
0.0
  0
SEQEND
  5
FAFA3
  8
0
  0
POLYLINE
  5
EF788
  8
0
 66
     1
 10
0.0
 20
0.0
 30
0.0
  0
VERTEX
  5
FAFA4
  8
0
 10
33497.411666715961
 20
6883.1088697169862
 30
0.0
  0
VERTEX
  5
FAFA5
  8
0
 10
33497.411666715961
 20
4766.1088697169853
 30
0.0
  0
SEQEND
  5
FAFA6
  8
0
  0
POLYLINE
  5
EF789
  8
0
 66
     1
 10
0.0
 20
0.0
 30
0.0
  0
VERTEX
  5
FAFA7
  8
0
 10
33462.411666715961
 20
5243.1088697169962
 30
0.0
  0
VERTEX
  5
FAFA8
  8
0
 10
32962.411666715961
 20
5243.1088697169962
 30
0.0
  0
VERTEX
  5
FAFA9
  8
0
 10
32962.411666715961
 20
5208.1088697169853
 30
0.0
  0
VERTEX
  5
FAFAA
  8
0
 10
33462.411666715961
 20
5208.1088697169853
 30
0.0
  0
VERTEX
  5
FAFAB
  8
0
 10
33462.411666715961
 20
5243.1088697169962
 30
0.0
  0
SEQEND
  5
FAFAC
  8
0
  0
POLYLINE
  5
EF78A
  8
0
 66
     1
 10
0.0
 20
0.0
 30
0.0
  0
VERTEX
  5
FAFAD
  8
0
 10
33462.411666715961
 20
6473.1088697169962
 30
0.0
  0
VERTEX
  5
FAFAE
  8
0
 10
32962.411666715961
 20
6473.1088697169962
 30
0.0
  0
VERTEX
  5
FAFAF
  8
0
 10
32962.411666715961
 20
6438.1088697169862
 30
0.0
  0
VERTEX
  5
FAFB0
  8
0
 10
33462.411666715961
 20
6438.1088697169862
 30
0.0
  0
VERTEX
  5
FAFB1
  8
0
 10
33462.411666715961
 20
6473.1088697169962
 30
0.0
  0
SEQEND
  5
FAFB2
  8
0
  0
POLYLINE
  5
EF78B
  8
0
 66
     1
 10
0.0
 20
0.0
 30
0.0
 70
     1
  0
VERTEX
  5
FAFB3
  8
0
 10
32962.411666715961
 20
6028.1088697169862
 30
0.0
  0
VERTEX
  5
FAFB4
  8
0
 10
33462.411666715961
 20
6028.1088697169862
 30
0.0
  0
VERTEX
  5
FAFB5
  8
0
 10
33462.411666715961
 20
6063.1088697169853
 30
0.0
  0
VERTEX
  5
FAFB6
  8
0
 10
32962.411666715961
 20
6063.1088697169853
 30
0.0
  0
SEQEND
  5
FAFB7
  8
0
  0
POLYLINE
  5
EF78C
  8
0
 66
     1
 10
0.0
 20
0.0
 30
0.0
  0
VERTEX
  5
FAFB8
  8
0
 10
32333.591194797809
 20
1663.108869716996
 30
0.0
  0
VERTEX
  5
FAFB9
  8
0
 10
36627.019717113602
 20
1663.1088697169951
 30
0.0
  0
SEQEND
  5
FAFBA
  8
0
  0
POLYLINE
  5
EF78D
  8
0
 66
     1
 10
0.0
 20
0.0
 30
0.0
  0
VERTEX
  5
FAFBB
  8
0
 10
32333.591194797809
 20
4763.1088697169853
 30
0.0
  0
VERTEX
  5
FAFBC
  8
0
 10
36627.019717113602
 20
4763.1088697169853
 30
0.0
  0
SEQEND
  5
FAFBD
  8
0
  0
POLYLINE
  5
EF78E
  8
0
 66
     1
 10
0.0
 20
0.0
 30
0.0
  0
VERTEX
  5
FAFBE
  8
0
 10
32333.591194797809
 20
9803.1088697169816
 30
0.0
  0
VERTEX
  5
FAFBF
  8
0
 10
36627.019717113602
 20
9803.1088697169816
 30
0.0
  0
SEQEND
  5
FAFC0
  8
0
  0
POLYLINE
  5
EF78F
  8
0
 66
     1
 10
0.0
 20
0.0
 30
0.0
  0
VERTEX
  5
FAFC1
  8
0
 10
32333.591194797809
 20
11708.108869716971
 30
0.0
  0
VERTEX
  5
FAFC2
  8
0
 10
36627.019717113602
 20
11708.108869716971
 30
0.0
  0
SEQEND
  5
FAFC3
  8
0
  0
POLYLINE
  5
EF790
  8
0
 66
     1
 10
0.0
 20
0.0
 30
0.0
  0
VERTEX
  5
FAFC4
  8
0
 10
32333.591194797809
 20
13203.108869716971
 30
0.0
  0
VERTEX
  5
FAFC5
  8
0
 10
36627.019717113602
 20
13203.108869716971
 30
0.0
  0
SEQEND
  5
FAFC6
  8
0
  0
POLYLINE
  5
EF791
  8
0
 66
     1
 10
0.0
 20
0.0
 30
0.0
  0
VERTEX
  5
FAFC7
  8
0
 10
22139.07816358138
 20
1663.1088697169951
 30
0.0
  0
VERTEX
  5
FAFC8
  8
0
 10
28721.857861658671
 20
1663.1088697169951
 30
0.0
  0
SEQEND
  5
FAFC9
  8
0
  0
POLYLINE
  5
EF792
  8
0
 66
     1
 10
0.0
 20
0.0
 30
0.0
  0
VERTEX
  5
FAFCA
  8
0
 10
22139.07816358138
 20
4763.1088697169844
 30
0.0
  0
VERTEX
  5
FAFCB
  8
0
 10
28721.857861658671
 20
4763.1088697169844
 30
0.0
  0
SEQEND
  5
FAFCC
  8
0
  0
POLYLINE
  5
EF793
  8
0
 66
     1
 10
0.0
 20
0.0
 30
0.0
  0
VERTEX
  5
FAFCD
  8
0
 10
22139.07816358138
 20
9803.1088697169816
 30
0.0
  0
VERTEX
  5
FAFCE
  8
0
 10
28721.857861658671
 20
9803.1088697169816
 30
0.0
  0
SEQEND
  5
FAFCF
  8
0
  0
POLYLINE
  5
EF794
  8
0
 66
     1
 10
0.0
 20
0.0
 30
0.0
  0
VERTEX
  5
FAFD0
  8
0
 10
22139.07816358138
 20
11708.108869716971
 30
0.0
  0
VERTEX
  5
FAFD1
  8
0
 10
28721.857861658671
 20
11708.108869716971
 30
0.0
  0
SEQEND
  5
FAFD2
  8
0
  0
POLYLINE
  5
EF795
  8
0
 66
     1
 10
0.0
 20
0.0
 30
0.0
  0
VERTEX
  5
FAFD3
  8
0
 10
22139.07816358138
 20
13203.108869716971
 30
0.0
  0
VERTEX
  5
FAFD4
  8
0
 10
28721.857861658671
 20
13203.108869716971
 30
0.0
  0
SEQEND
  5
FAFD5
  8
0
  0
POLYLINE
  5
EF796
  8
0
 66
     1
 10
0.0
 20
0.0
 30
0.0
  0
VERTEX
  5
FAFD6
  8
0
 10
14175.18508982586
 20
11708.108869716971
 30
0.0
  0
VERTEX
  5
FAFD7
  8
0
 10
20757.964787903162
 20
11708.108869716971
 30
0.0
  0
SEQEND
  5
FAFD8
  8
0
  0
POLYLINE
  5
EF797
  8
0
 66
     1
 10
0.0
 20
0.0
 30
0.0
  0
VERTEX
  5
FAFD9
  8
0
 10
14175.18508982586
 20
9803.1088697169816
 30
0.0
  0
VERTEX
  5
FAFDA
  8
0
 10
20757.964787903162
 20
9803.1088697169816
 30
0.0
  0
SEQEND
  5
FAFDB
  8
0
  0
POLYLINE
  5
EF798
  8
0
 66
     1
 10
0.0
 20
0.0
 30
0.0
  0
VERTEX
  5
FAFDC
  8
0
 10
19976.505561744008
 20
13206.108869716971
 30
0.0
  0
VERTEX
  5
FAFDD
  8
0
 10
19946.505561744008
 20
13206.108869716971
 30
0.0
  0
VERTEX
  5
FAFDE
  8
0
 10
19946.505561744008
 20
13203.108869716971
 30
0.0
  0
VERTEX
  5
FAFDF
  8
0
 10
19976.505561744008
 20
13203.108869716971
 30
0.0
  0
VERTEX
  5
FAFE0
  8
0
 10
19976.505561744008
 20
13206.108869716971
 30
0.0
  0
SEQEND
  5
FAFE1
  8
0
  0
POLYLINE
  5
EF799
  8
0
 66
     1
 10
0.0
 20
0.0
 30
0.0
  0
VERTEX
  5
FAFE2
  8
0
 10
18411.505561744008
 20
13206.108869716971
 30
0.0
  0
VERTEX
  5
FAFE3
  8
0
 10
18441.505561744008
 20
13206.108869716971
 30
0.0
  0
VERTEX
  5
FAFE4
  8
0
 10
18441.505561744008
 20
13203.108869716971
 30
0.0
  0
VERTEX
  5
FAFE5
  8
0
 10
18411.505561744008
 20
13203.108869716971
 30
0.0
  0
VERTEX
  5
FAFE6
  8
0
 10
18411.505561744008
 20
13206.108869716971
 30
0.0
  0
SEQEND
  5
FAFE7
  8
0
  0
POLYLINE
  5
EF79A
  8
0
 66
     1
 10
0.0
 20
0.0
 30
0.0
 70
     1
  0
VERTEX
  5
FAFE8
  8
0
 10
18409.005561744008
 20
13683.10886971698
 30
0.0
  0
VERTEX
  5
FAFE9
  8
0
 10
18444.005561744008
 20
13683.10886971698
 30
0.0
  0
VERTEX
  5
FAFEA
  8
0
 10
18444.005561744008
 20
13206.108869716971
 30
0.0
  0
VERTEX
  5
FAFEB
  8
0
 10
18409.005561744008
 20
13206.108869716971
 30
0.0
  0
SEQEND
  5
FAFEC
  8
0
  0
POLYLINE
  5
EF79B
  8
0
 66
     1
 10
0.0
 20
0.0
 30
0.0
 70
     1
  0
VERTEX
  5
FAFED
  8
0
 10
19979.005561744008
 20
13683.10886971698
 30
0.0
  0
VERTEX
  5
FAFEE
  8
0
 10
19944.005561744008
 20
13683.10886971698
 30
0.0
  0
VERTEX
  5
FAFEF
  8
0
 10
19944.005561744008
 20
13206.108869716971
 30
0.0
  0
VERTEX
  5
FAFF0
  8
0
 10
19979.005561744008
 20
13206.108869716971
 30
0.0
  0
SEQEND
  5
FAFF1
  8
0
  0
POLYLINE
  5
EF79C
  8
0
 66
     1
 10
0.0
 20
0.0
 30
0.0
 70
     1
  0
VERTEX
  5
FAFF2
  8
0
 10
18444.005561744008
 20
13238.108869716971
 30
0.0
  0
VERTEX
  5
FAFF3
  8
0
 10
19944.005561744008
 20
13238.108869716971
 30
0.0
  0
VERTEX
  5
FAFF4
  8
0
 10
19944.005561744008
 20
13273.108869716971
 30
0.0
  0
VERTEX
  5
FAFF5
  8
0
 10
18444.005561744008
 20
13273.108869716971
 30
0.0
  0
SEQEND
  5
FAFF6
  8
0
  0
POLYLINE
  5
EF79D
  8
0
 66
     1
 10
0.0
 20
0.0
 30
0.0
 70
     1
  0
VERTEX
  5
FAFF7
  8
0
 10
18444.005561744008
 20
13648.108869716971
 30
0.0
  0
VERTEX
  5
FAFF8
  8
0
 10
19944.005561744008
 20
13648.108869716971
 30
0.0
  0
VERTEX
  5
FAFF9
  8
0
 10
19944.005561744008
 20
13683.10886971698
 30
0.0
  0
VERTEX
  5
FAFFA
  8
0
 10
18444.005561744008
 20
13683.10886971698
 30
0.0
  0
SEQEND
  5
FAFFB
  8
0
  0
POLYLINE
  5
EF79E
  8
0
 66
     1
 10
0.0
 20
0.0
 30
0.0
 70
     1
  0
VERTEX
  5
FAFFC
  8
0
 10
27907.898635499521
 20
13648.108869716971
 30
0.0
  0
VERTEX
  5
FAFFD
  8
0
 10
26407.89863549954
 20
13648.108869716971
 30
0.0
  0
VERTEX
  5
FAFFE
  8
0
 10
26407.89863549954
 20
13683.10886971698
 30
0.0
  0
VERTEX
  5
FAFFF
  8
0
 10
27907.898635499521
 20
13683.10886971698
 30
0.0
  0
SEQEND
  5
FB000
  8
0
  0
POLYLINE
  5
EF79F
  8
0
 66
     1
 10
0.0
 20
0.0
 30
0.0
 70
     1
  0
VERTEX
  5
FB001
  8
0
 10
27907.898635499521
 20
13238.108869716971
 30
0.0
  0
VERTEX
  5
FB002
  8
0
 10
26407.89863549954
 20
13238.108869716971
 30
0.0
  0
VERTEX
  5
FB003
  8
0
 10
26407.89863549954
 20
13273.108869716971
 30
0.0
  0
VERTEX
  5
FB004
  8
0
 10
27907.898635499521
 20
13273.108869716971
 30
0.0
  0
SEQEND
  5
FB005
  8
0
  0
POLYLINE
  5
EF7A0
  8
0
 66
     1
 10
0.0
 20
0.0
 30
0.0
 70
     1
  0
VERTEX
  5
FB006
  8
0
 10
27942.898635499521
 20
13683.10886971698
 30
0.0
  0
VERTEX
  5
FB007
  8
0
 10
27907.898635499521
 20
13683.10886971698
 30
0.0
  0
VERTEX
  5
FB008
  8
0
 10
27907.898635499521
 20
13206.108869716971
 30
0.0
  0
VERTEX
  5
FB009
  8
0
 10
27942.898635499521
 20
13206.108869716971
 30
0.0
  0
SEQEND
  5
FB00A
  8
0
  0
POLYLINE
  5
EF7A1
  8
0
 66
     1
 10
0.0
 20
0.0
 30
0.0
  0
VERTEX
  5
FB00B
  8
0
 10
27940.398635499521
 20
13206.108869716971
 30
0.0
  0
VERTEX
  5
FB00C
  8
0
 10
27910.398635499521
 20
13206.108869716971
 30
0.0
  0
VERTEX
  5
FB00D
  8
0
 10
27910.398635499521
 20
13203.108869716971
 30
0.0
  0
VERTEX
  5
FB00E
  8
0
 10
27940.398635499521
 20
13203.108869716971
 30
0.0
  0
VERTEX
  5
FB00F
  8
0
 10
27940.398635499521
 20
13206.108869716971
 30
0.0
  0
SEQEND
  5
FB010
  8
0
  0
POLYLINE
  5
EF7A2
  8
0
 66
     1
 10
0.0
 20
0.0
 30
0.0
  0
VERTEX
  5
FB011
  8
0
 10
27937.898635499521
 20
11711.108869716971
 30
0.0
  0
VERTEX
  5
FB012
  8
0
 10
27907.898635499521
 20
11711.108869716971
 30
0.0
  0
VERTEX
  5
FB013
  8
0
 10
27907.898635499521
 20
11708.108869716971
 30
0.0
  0
VERTEX
  5
FB014
  8
0
 10
27937.898635499521
 20
11708.108869716971
 30
0.0
  0
VERTEX
  5
FB015
  8
0
 10
27937.898635499521
 20
11711.108869716971
 30
0.0
  0
SEQEND
  5
FB016
  8
0
  0
POLYLINE
  5
EF7A3
  8
0
 66
     1
 10
0.0
 20
0.0
 30
0.0
 70
     1
  0
VERTEX
  5
FB017
  8
0
 10
27940.398635499521
 20
12598.108869716971
 30
0.0
  0
VERTEX
  5
FB018
  8
0
 10
27905.398635499521
 20
12598.108869716971
 30
0.0
  0
VERTEX
  5
FB019
  8
0
 10
27905.398635499521
 20
11711.108869716971
 30
0.0
  0
VERTEX
  5
FB01A
  8
0
 10
27940.398635499521
 20
11711.108869716971
 30
0.0
  0
SEQEND
  5
FB01B
  8
0
  0
POLYLINE
  5
EF7A4
  8
0
 66
     1
 10
0.0
 20
0.0
 30
0.0
 70
     1
  0
VERTEX
  5
FB01C
  8
0
 10
27905.398635499521
 20
11743.108869716971
 30
0.0
  0
VERTEX
  5
FB01D
  8
0
 10
26405.39863549954
 20
11743.108869716971
 30
0.0
  0
VERTEX
  5
FB01E
  8
0
 10
26405.39863549954
 20
11778.108869716971
 30
0.0
  0
VERTEX
  5
FB01F
  8
0
 10
27905.398635499521
 20
11778.108869716971
 30
0.0
  0
SEQEND
  5
FB020
  8
0
  0
POLYLINE
  5
EF7A5
  8
0
 66
     1
 10
0.0
 20
0.0
 30
0.0
 70
     1
  0
VERTEX
  5
FB021
  8
0
 10
27905.398635499521
 20
12563.108869716971
 30
0.0
  0
VERTEX
  5
FB022
  8
0
 10
26405.39863549954
 20
12563.108869716971
 30
0.0
  0
VERTEX
  5
FB023
  8
0
 10
26405.39863549954
 20
12598.108869716971
 30
0.0
  0
VERTEX
  5
FB024
  8
0
 10
27905.398635499521
 20
12598.108869716971
 30
0.0
  0
SEQEND
  5
FB025
  8
0
  0
POLYLINE
  5
EF7A6
  8
0
 66
     1
 10
0.0
 20
0.0
 30
0.0
 70
     1
  0
VERTEX
  5
FB026
  8
0
 10
18441.505561744008
 20
12563.108869716971
 30
0.0
  0
VERTEX
  5
FB027
  8
0
 10
19941.505561744008
 20
12563.108869716971
 30
0.0
  0
VERTEX
  5
FB028
  8
0
 10
19941.505561744008
 20
12598.108869716971
 30
0.0
  0
VERTEX
  5
FB029
  8
0
 10
18441.505561744008
 20
12598.108869716971
 30
0.0
  0
SEQEND
  5
FB02A
  8
0
  0
POLYLINE
  5
EF7A7
  8
0
 66
     1
 10
0.0
 20
0.0
 30
0.0
 70
     1
  0
VERTEX
  5
FB02B
  8
0
 10
18441.505561744008
 20
11743.108869716971
 30
0.0
  0
VERTEX
  5
FB02C
  8
0
 10
19941.505561744008
 20
11743.108869716971
 30
0.0
  0
VERTEX
  5
FB02D
  8
0
 10
19941.505561744008
 20
11778.108869716971
 30
0.0
  0
VERTEX
  5
FB02E
  8
0
 10
18441.505561744008
 20
11778.108869716971
 30
0.0
  0
SEQEND
  5
FB02F
  8
0
  0
POLYLINE
  5
EF7A8
  8
0
 66
     1
 10
0.0
 20
0.0
 30
0.0
 70
     1
  0
VERTEX
  5
FB030
  8
0
 10
19976.505561744008
 20
12598.108869716971
 30
0.0
  0
VERTEX
  5
FB031
  8
0
 10
19941.505561744008
 20
12598.108869716971
 30
0.0
  0
VERTEX
  5
FB032
  8
0
 10
19941.505561744008
 20
11711.108869716971
 30
0.0
  0
VERTEX
  5
FB033
  8
0
 10
19976.505561744008
 20
11711.108869716971
 30
0.0
  0
SEQEND
  5
FB034
  8
0
  0
POLYLINE
  5
EF7A9
  8
0
 66
     1
 10
0.0
 20
0.0
 30
0.0
 70
     1
  0
VERTEX
  5
FB035
  8
0
 10
18406.505561744008
 20
12598.108869716971
 30
0.0
  0
VERTEX
  5
FB036
  8
0
 10
18441.505561744008
 20
12598.108869716971
 30
0.0
  0
VERTEX
  5
FB037
  8
0
 10
18441.505561744008
 20
11711.108869716971
 30
0.0
  0
VERTEX
  5
FB038
  8
0
 10
18406.505561744008
 20
11711.108869716971
 30
0.0
  0
SEQEND
  5
FB039
  8
0
  0
POLYLINE
  5
EF7AA
  8
0
 66
     1
 10
0.0
 20
0.0
 30
0.0
  0
VERTEX
  5
FB03A
  8
0
 10
18409.005561744008
 20
11711.108869716971
 30
0.0
  0
VERTEX
  5
FB03B
  8
0
 10
18439.005561744019
 20
11711.108869716971
 30
0.0
  0
VERTEX
  5
FB03C
  8
0
 10
18439.005561744019
 20
11708.108869716971
 30
0.0
  0
VERTEX
  5
FB03D
  8
0
 10
18409.005561744008
 20
11708.108869716971
 30
0.0
  0
VERTEX
  5
FB03E
  8
0
 10
18409.005561744008
 20
11711.108869716971
 30
0.0
  0
SEQEND
  5
FB03F
  8
0
  0
POLYLINE
  5
EF7AB
  8
0
 66
     1
 10
0.0
 20
0.0
 30
0.0
  0
VERTEX
  5
FB040
  8
0
 10
19974.005561744008
 20
11711.108869716971
 30
0.0
  0
VERTEX
  5
FB041
  8
0
 10
19944.005561744008
 20
11711.108869716971
 30
0.0
  0
VERTEX
  5
FB042
  8
0
 10
19944.005561744008
 20
11708.108869716971
 30
0.0
  0
VERTEX
  5
FB043
  8
0
 10
19974.005561744008
 20
11708.108869716971
 30
0.0
  0
VERTEX
  5
FB044
  8
0
 10
19974.005561744008
 20
11711.108869716971
 30
0.0
  0
SEQEND
  5
FB045
  8
0
  0
POLYLINE
  5
EF7AC
  8
0
 66
     1
 10
0.0
 20
0.0
 30
0.0
  0
VERTEX
  5
FB046
  8
0
 10
19976.505561744008
 20
12598.108869716971
 30
0.0
  0
VERTEX
  5
FB047
  8
0
 10
19976.505561744008
 20
11711.108869716971
 30
0.0
  0
SEQEND
  5
FB048
  8
0
  0
POLYLINE
  5
EF7AD
  8
0
 66
     1
 10
0.0
 20
0.0
 30
0.0
  0
VERTEX
  5
FB049
  8
0
 10
19941.505561744008
 20
12188.10886971698
 30
0.0
  0
VERTEX
  5
FB04A
  8
0
 10
18441.505561744008
 20
12188.10886971698
 30
0.0
  0
VERTEX
  5
FB04B
  8
0
 10
18441.505561744008
 20
12153.108869716971
 30
0.0
  0
VERTEX
  5
FB04C
  8
0
 10
19941.505561744008
 20
12153.108869716971
 30
0.0
  0
VERTEX
  5
FB04D
  8
0
 10
19941.505561744008
 20
12188.10886971698
 30
0.0
  0
SEQEND
  5
FB04E
  8
0
  0
POLYLINE
  5
EF7AE
  8
0
 66
     1
 10
0.0
 20
0.0
 30
0.0
  0
VERTEX
  5
FB04F
  8
0
 10
27905.398635499521
 20
12188.10886971698
 30
0.0
  0
VERTEX
  5
FB050
  8
0
 10
26405.39863549954
 20
12188.10886971698
 30
0.0
  0
VERTEX
  5
FB051
  8
0
 10
26405.39863549954
 20
12153.108869716971
 30
0.0
  0
VERTEX
  5
FB052
  8
0
 10
27905.398635499521
 20
12153.108869716971
 30
0.0
  0
VERTEX
  5
FB053
  8
0
 10
27905.398635499521
 20
12188.10886971698
 30
0.0
  0
SEQEND
  5
FB054
  8
0
  0
POLYLINE
  5
EF7AF
  8
0
 66
     1
 10
0.0
 20
0.0
 30
0.0
  0
VERTEX
  5
FB055
  8
0
 10
27902.898635499521
 20
10283.108869716991
 30
0.0
  0
VERTEX
  5
FB056
  8
0
 10
26402.89863549954
 20
10283.108869716991
 30
0.0
  0
VERTEX
  5
FB057
  8
0
 10
26402.89863549954
 20
10248.108869716971
 30
0.0
  0
VERTEX
  5
FB058
  8
0
 10
27902.898635499521
 20
10248.108869716971
 30
0.0
  0
VERTEX
  5
FB059
  8
0
 10
27902.898635499521
 20
10283.108869716991
 30
0.0
  0
SEQEND
  5
FB05A
  8
0
  0
POLYLINE
  5
EF7B0
  8
0
 66
     1
 10
0.0
 20
0.0
 30
0.0
  0
VERTEX
  5
FB05B
  8
0
 10
19939.005561744008
 20
10283.108869716991
 30
0.0
  0
VERTEX
  5
FB05C
  8
0
 10
18439.005561744019
 20
10283.108869716991
 30
0.0
  0
VERTEX
  5
FB05D
  8
0
 10
18439.005561744019
 20
10248.108869716971
 30
0.0
  0
VERTEX
  5
FB05E
  8
0
 10
19939.005561744008
 20
10248.108869716971
 30
0.0
  0
VERTEX
  5
FB05F
  8
0
 10
19939.005561744008
 20
10283.108869716991
 30
0.0
  0
SEQEND
  5
FB060
  8
0
  0
POLYLINE
  5
EF7B1
  8
0
 66
     1
 10
0.0
 20
0.0
 30
0.0
  0
VERTEX
  5
FB061
  8
0
 10
19974.005561744008
 20
11103.108869716971
 30
0.0
  0
VERTEX
  5
FB062
  8
0
 10
19974.005561744008
 20
9806.1088697169798
 30
0.0
  0
SEQEND
  5
FB063
  8
0
  0
POLYLINE
  5
EF7B2
  8
0
 66
     1
 10
0.0
 20
0.0
 30
0.0
  0
VERTEX
  5
FB064
  8
0
 10
19971.505561744008
 20
9806.1088697169798
 30
0.0
  0
VERTEX
  5
FB065
  8
0
 10
19941.505561744008
 20
9806.1088697169798
 30
0.0
  0
VERTEX
  5
FB066
  8
0
 10
19941.505561744008
 20
9803.1088697169816
 30
0.0
  0
VERTEX
  5
FB067
  8
0
 10
19971.505561744008
 20
9803.1088697169816
 30
0.0
  0
VERTEX
  5
FB068
  8
0
 10
19971.505561744008
 20
9806.1088697169798
 30
0.0
  0
SEQEND
  5
FB069
  8
0
  0
POLYLINE
  5
EF7B3
  8
0
 66
     1
 10
0.0
 20
0.0
 30
0.0
  0
VERTEX
  5
FB06A
  8
0
 10
18406.505561744008
 20
9806.1088697169798
 30
0.0
  0
VERTEX
  5
FB06B
  8
0
 10
18436.505561744008
 20
9806.1088697169798
 30
0.0
  0
VERTEX
  5
FB06C
  8
0
 10
18436.505561744008
 20
9803.1088697169816
 30
0.0
  0
VERTEX
  5
FB06D
  8
0
 10
18406.505561744008
 20
9803.1088697169816
 30
0.0
  0
VERTEX
  5
FB06E
  8
0
 10
18406.505561744008
 20
9806.1088697169798
 30
0.0
  0
SEQEND
  5
FB06F
  8
0
  0
POLYLINE
  5
EF7B4
  8
0
 66
     1
 10
0.0
 20
0.0
 30
0.0
 70
     1
  0
VERTEX
  5
FB070
  8
0
 10
18404.005561744008
 20
11103.108869716971
 30
0.0
  0
VERTEX
  5
FB071
  8
0
 10
18439.005561744019
 20
11103.108869716971
 30
0.0
  0
VERTEX
  5
FB072
  8
0
 10
18439.005561744019
 20
9806.1088697169798
 30
0.0
  0
VERTEX
  5
FB073
  8
0
 10
18404.005561744008
 20
9806.1088697169798
 30
0.0
  0
SEQEND
  5
FB074
  8
0
  0
POLYLINE
  5
EF7B5
  8
0
 66
     1
 10
0.0
 20
0.0
 30
0.0
 70
     1
  0
VERTEX
  5
FB075
  8
0
 10
19974.005561744008
 20
11103.108869716971
 30
0.0
  0
VERTEX
  5
FB076
  8
0
 10
19939.005561744008
 20
11103.108869716971
 30
0.0
  0
VERTEX
  5
FB077
  8
0
 10
19939.005561744008
 20
9806.1088697169798
 30
0.0
  0
VERTEX
  5
FB078
  8
0
 10
19974.005561744008
 20
9806.1088697169798
 30
0.0
  0
SEQEND
  5
FB079
  8
0
  0
POLYLINE
  5
EF7B6
  8
0
 66
     1
 10
0.0
 20
0.0
 30
0.0
 70
     1
  0
VERTEX
  5
FB07A
  8
0
 10
18439.005561744019
 20
9838.1088697169816
 30
0.0
  0
VERTEX
  5
FB07B
  8
0
 10
19939.005561744008
 20
9838.1088697169816
 30
0.0
  0
VERTEX
  5
FB07C
  8
0
 10
19939.005561744008
 20
9873.1088697169762
 30
0.0
  0
VERTEX
  5
FB07D
  8
0
 10
18439.005561744019
 20
9873.1088697169762
 30
0.0
  0
SEQEND
  5
FB07E
  8
0
  0
POLYLINE
  5
EF7B7
  8
0
 66
     1
 10
0.0
 20
0.0
 30
0.0
 70
     1
  0
VERTEX
  5
FB07F
  8
0
 10
18439.005561744019
 20
11068.108869716971
 30
0.0
  0
VERTEX
  5
FB080
  8
0
 10
19939.005561744008
 20
11068.108869716971
 30
0.0
  0
VERTEX
  5
FB081
  8
0
 10
19939.005561744008
 20
11103.108869716971
 30
0.0
  0
VERTEX
  5
FB082
  8
0
 10
18439.005561744019
 20
11103.108869716971
 30
0.0
  0
SEQEND
  5
FB083
  8
0
  0
POLYLINE
  5
EF7B8
  8
0
 66
     1
 10
0.0
 20
0.0
 30
0.0
 70
     1
  0
VERTEX
  5
FB084
  8
0
 10
27902.898635499521
 20
11068.108869716971
 30
0.0
  0
VERTEX
  5
FB085
  8
0
 10
26402.89863549954
 20
11068.108869716971
 30
0.0
  0
VERTEX
  5
FB086
  8
0
 10
26402.89863549954
 20
11103.108869716971
 30
0.0
  0
VERTEX
  5
FB087
  8
0
 10
27902.898635499521
 20
11103.108869716971
 30
0.0
  0
SEQEND
  5
FB088
  8
0
  0
POLYLINE
  5
EF7B9
  8
0
 66
     1
 10
0.0
 20
0.0
 30
0.0
 70
     1
  0
VERTEX
  5
FB089
  8
0
 10
27902.898635499521
 20
9838.1088697169816
 30
0.0
  0
VERTEX
  5
FB08A
  8
0
 10
26402.89863549954
 20
9838.1088697169816
 30
0.0
  0
VERTEX
  5
FB08B
  8
0
 10
26402.89863549954
 20
9873.1088697169762
 30
0.0
  0
VERTEX
  5
FB08C
  8
0
 10
27902.898635499521
 20
9873.1088697169762
 30
0.0
  0
SEQEND
  5
FB08D
  8
0
  0
POLYLINE
  5
EF7BA
  8
0
 66
     1
 10
0.0
 20
0.0
 30
0.0
 70
     1
  0
VERTEX
  5
FB08E
  8
0
 10
27937.898635499521
 20
11103.108869716971
 30
0.0
  0
VERTEX
  5
FB08F
  8
0
 10
27902.898635499521
 20
11103.108869716971
 30
0.0
  0
VERTEX
  5
FB090
  8
0
 10
27902.898635499521
 20
9806.1088697169798
 30
0.0
  0
VERTEX
  5
FB091
  8
0
 10
27937.898635499521
 20
9806.1088697169798
 30
0.0
  0
SEQEND
  5
FB092
  8
0
  0
POLYLINE
  5
EF7BB
  8
0
 66
     1
 10
0.0
 20
0.0
 30
0.0
  0
VERTEX
  5
FB093
  8
0
 10
27935.398635499521
 20
9806.1088697169798
 30
0.0
  0
VERTEX
  5
FB094
  8
0
 10
27905.398635499521
 20
9806.1088697169798
 30
0.0
  0
VERTEX
  5
FB095
  8
0
 10
27905.398635499521
 20
9803.1088697169816
 30
0.0
  0
VERTEX
  5
FB096
  8
0
 10
27935.398635499521
 20
9803.1088697169816
 30
0.0
  0
VERTEX
  5
FB097
  8
0
 10
27935.398635499521
 20
9806.1088697169798
 30
0.0
  0
SEQEND
  5
FB098
  8
0
  0
POLYLINE
  5
EF7BC
  8
0
 66
     1
 10
0.0
 20
0.0
 30
0.0
 70
     1
  0
VERTEX
  5
FB099
  8
0
 10
27902.898635499521
 20
10658.108869716971
 30
0.0
  0
VERTEX
  5
FB09A
  8
0
 10
26402.89863549954
 20
10658.108869716971
 30
0.0
  0
VERTEX
  5
FB09B
  8
0
 10
26402.89863549954
 20
10693.108869716971
 30
0.0
  0
VERTEX
  5
FB09C
  8
0
 10
27902.898635499521
 20
10693.108869716971
 30
0.0
  0
SEQEND
  5
FB09D
  8
0
  0
POLYLINE
  5
EF7BD
  8
0
 66
     1
 10
0.0
 20
0.0
 30
0.0
 70
     1
  0
VERTEX
  5
FB09E
  8
0
 10
18439.005561744019
 20
10658.108869716971
 30
0.0
  0
VERTEX
  5
FB09F
  8
0
 10
19939.005561744008
 20
10658.108869716971
 30
0.0
  0
VERTEX
  5
FB0A0
  8
0
 10
19939.005561744008
 20
10693.108869716971
 30
0.0
  0
VERTEX
  5
FB0A1
  8
0
 10
18439.005561744019
 20
10693.108869716971
 30
0.0
  0
SEQEND
  5
FB0A2
  8
0
  0
POLYLINE
  5
EF7BE
  8
0
 66
     1
 10
0.0
 20
0.0
 30
0.0
 70
     1
  0
VERTEX
  5
FB0A3
  8
0
 10
18436.505561744008
 20
5618.1088697169844
 30
0.0
  0
VERTEX
  5
FB0A4
  8
0
 10
19936.505561744008
 20
5618.1088697169844
 30
0.0
  0
VERTEX
  5
FB0A5
  8
0
 10
19936.505561744008
 20
5653.1088697169844
 30
0.0
  0
VERTEX
  5
FB0A6
  8
0
 10
18436.505561744008
 20
5653.1088697169844
 30
0.0
  0
SEQEND
  5
FB0A7
  8
0
  0
POLYLINE
  5
EF7BF
  8
0
 66
     1
 10
0.0
 20
0.0
 30
0.0
 70
     1
  0
VERTEX
  5
FB0A8
  8
0
 10
27900.398635499521
 20
5618.1088697169844
 30
0.0
  0
VERTEX
  5
FB0A9
  8
0
 10
26400.39863549954
 20
5618.1088697169844
 30
0.0
  0
VERTEX
  5
FB0AA
  8
0
 10
26400.39863549954
 20
5653.1088697169844
 30
0.0
  0
VERTEX
  5
FB0AB
  8
0
 10
27900.398635499521
 20
5653.1088697169844
 30
0.0
  0
SEQEND
  5
FB0AC
  8
0
  0
POLYLINE
  5
EF7C0
  8
0
 66
     1
 10
0.0
 20
0.0
 30
0.0
  0
VERTEX
  5
FB0AD
  8
0
 10
27932.898635499521
 20
4766.1088697169844
 30
0.0
  0
VERTEX
  5
FB0AE
  8
0
 10
27902.898635499521
 20
4766.1088697169844
 30
0.0
  0
VERTEX
  5
FB0AF
  8
0
 10
27902.898635499521
 20
4763.1088697169844
 30
0.0
  0
VERTEX
  5
FB0B0
  8
0
 10
27932.898635499521
 20
4763.1088697169844
 30
0.0
  0
VERTEX
  5
FB0B1
  8
0
 10
27932.898635499521
 20
4766.1088697169844
 30
0.0
  0
SEQEND
  5
FB0B2
  8
0
  0
POLYLINE
  5
EF7C1
  8
0
 66
     1
 10
0.0
 20
0.0
 30
0.0
 70
     1
  0
VERTEX
  5
FB0B3
  8
0
 10
27935.398635499521
 20
6883.1088697169826
 30
0.0
  0
VERTEX
  5
FB0B4
  8
0
 10
27900.398635499521
 20
6883.1088697169826
 30
0.0
  0
VERTEX
  5
FB0B5
  8
0
 10
27900.398635499521
 20
4766.1088697169844
 30
0.0
  0
VERTEX
  5
FB0B6
  8
0
 10
27935.398635499521
 20
4766.1088697169844
 30
0.0
  0
SEQEND
  5
FB0B7
  8
0
  0
POLYLINE
  5
EF7C2
  8
0
 66
     1
 10
0.0
 20
0.0
 30
0.0
 70
     1
  0
VERTEX
  5
FB0B8
  8
0
 10
27900.398635499521
 20
4798.1088697169844
 30
0.0
  0
VERTEX
  5
FB0B9
  8
0
 10
26400.39863549954
 20
4798.1088697169844
 30
0.0
  0
VERTEX
  5
FB0BA
  8
0
 10
26400.39863549954
 20
4833.1088697169844
 30
0.0
  0
VERTEX
  5
FB0BB
  8
0
 10
27900.398635499521
 20
4833.1088697169844
 30
0.0
  0
SEQEND
  5
FB0BC
  8
0
  0
POLYLINE
  5
EF7C3
  8
0
 66
     1
 10
0.0
 20
0.0
 30
0.0
 70
     1
  0
VERTEX
  5
FB0BD
  8
0
 10
27900.398635499521
 20
6848.1088697169853
 30
0.0
  0
VERTEX
  5
FB0BE
  8
0
 10
26400.39863549954
 20
6848.1088697169853
 30
0.0
  0
VERTEX
  5
FB0BF
  8
0
 10
26400.39863549954
 20
6883.1088697169826
 30
0.0
  0
VERTEX
  5
FB0C0
  8
0
 10
27900.398635499521
 20
6883.1088697169826
 30
0.0
  0
SEQEND
  5
FB0C1
  8
0
  0
POLYLINE
  5
EF7C4
  8
0
 66
     1
 10
0.0
 20
0.0
 30
0.0
 70
     1
  0
VERTEX
  5
FB0C2
  8
0
 10
18436.505561744008
 20
6848.1088697169853
 30
0.0
  0
VERTEX
  5
FB0C3
  8
0
 10
19936.505561744008
 20
6848.1088697169853
 30
0.0
  0
VERTEX
  5
FB0C4
  8
0
 10
19936.505561744008
 20
6883.1088697169826
 30
0.0
  0
VERTEX
  5
FB0C5
  8
0
 10
18436.505561744008
 20
6883.1088697169826
 30
0.0
  0
SEQEND
  5
FB0C6
  8
0
  0
POLYLINE
  5
EF7C5
  8
0
 66
     1
 10
0.0
 20
0.0
 30
0.0
 70
     1
  0
VERTEX
  5
FB0C7
  8
0
 10
18436.505561744008
 20
4798.1088697169844
 30
0.0
  0
VERTEX
  5
FB0C8
  8
0
 10
19936.505561744008
 20
4798.1088697169844
 30
0.0
  0
VERTEX
  5
FB0C9
  8
0
 10
19936.505561744008
 20
4833.1088697169844
 30
0.0
  0
VERTEX
  5
FB0CA
  8
0
 10
18436.505561744008
 20
4833.1088697169844
 30
0.0
  0
SEQEND
  5
FB0CB
  8
0
  0
POLYLINE
  5
EF7C6
  8
0
 66
     1
 10
0.0
 20
0.0
 30
0.0
 70
     1
  0
VERTEX
  5
FB0CC
  8
0
 10
19971.505561744008
 20
6883.1088697169826
 30
0.0
  0
VERTEX
  5
FB0CD
  8
0
 10
19936.505561744008
 20
6883.1088697169826
 30
0.0
  0
VERTEX
  5
FB0CE
  8
0
 10
19936.505561744008
 20
4766.1088697169844
 30
0.0
  0
VERTEX
  5
FB0CF
  8
0
 10
19971.505561744008
 20
4766.1088697169844
 30
0.0
  0
SEQEND
  5
FB0D0
  8
0
  0
POLYLINE
  5
EF7C7
  8
0
 66
     1
 10
0.0
 20
0.0
 30
0.0
 70
     1
  0
VERTEX
  5
FB0D1
  8
0
 10
18401.505561744008
 20
6883.1088697169826
 30
0.0
  0
VERTEX
  5
FB0D2
  8
0
 10
18436.505561744008
 20
6883.1088697169826
 30
0.0
  0
VERTEX
  5
FB0D3
  8
0
 10
18436.505561744008
 20
4766.1088697169844
 30
0.0
  0
VERTEX
  5
FB0D4
  8
0
 10
18401.505561744008
 20
4766.1088697169844
 30
0.0
  0
SEQEND
  5
FB0D5
  8
0
  0
POLYLINE
  5
EF7C8
  8
0
 66
     1
 10
0.0
 20
0.0
 30
0.0
  0
VERTEX
  5
FB0D6
  8
0
 10
18404.005561744008
 20
4766.1088697169844
 30
0.0
  0
VERTEX
  5
FB0D7
  8
0
 10
18434.005561744008
 20
4766.1088697169844
 30
0.0
  0
VERTEX
  5
FB0D8
  8
0
 10
18434.005561744008
 20
4763.1088697169844
 30
0.0
  0
VERTEX
  5
FB0D9
  8
0
 10
18404.005561744008
 20
4763.1088697169844
 30
0.0
  0
VERTEX
  5
FB0DA
  8
0
 10
18404.005561744008
 20
4766.1088697169844
 30
0.0
  0
SEQEND
  5
FB0DB
  8
0
  0
POLYLINE
  5
EF7C9
  8
0
 66
     1
 10
0.0
 20
0.0
 30
0.0
  0
VERTEX
  5
FB0DC
  8
0
 10
19969.005561744008
 20
4766.1088697169844
 30
0.0
  0
VERTEX
  5
FB0DD
  8
0
 10
19939.005561744008
 20
4766.1088697169844
 30
0.0
  0
VERTEX
  5
FB0DE
  8
0
 10
19939.005561744008
 20
4763.1088697169844
 30
0.0
  0
VERTEX
  5
FB0DF
  8
0
 10
19969.005561744008
 20
4763.1088697169844
 30
0.0
  0
VERTEX
  5
FB0E0
  8
0
 10
19969.005561744008
 20
4766.1088697169844
 30
0.0
  0
SEQEND
  5
FB0E1
  8
0
  0
POLYLINE
  5
EF7CA
  8
0
 66
     1
 10
0.0
 20
0.0
 30
0.0
  0
VERTEX
  5
FB0E2
  8
0
 10
19971.505561744008
 20
6883.1088697169826
 30
0.0
  0
VERTEX
  5
FB0E3
  8
0
 10
19971.505561744008
 20
4766.1088697169844
 30
0.0
  0
SEQEND
  5
FB0E4
  8
0
  0
POLYLINE
  5
EF7CB
  8
0
 66
     1
 10
0.0
 20
0.0
 30
0.0
  0
VERTEX
  5
FB0E5
  8
0
 10
19936.505561744008
 20
5243.1088697169953
 30
0.0
  0
VERTEX
  5
FB0E6
  8
0
 10
18436.505561744008
 20
5243.1088697169953
 30
0.0
  0
VERTEX
  5
FB0E7
  8
0
 10
18436.505561744008
 20
5208.1088697169844
 30
0.0
  0
VERTEX
  5
FB0E8
  8
0
 10
19936.505561744008
 20
5208.1088697169844
 30
0.0
  0
VERTEX
  5
FB0E9
  8
0
 10
19936.505561744008
 20
5243.1088697169953
 30
0.0
  0
SEQEND
  5
FB0EA
  8
0
  0
POLYLINE
  5
EF7CC
  8
0
 66
     1
 10
0.0
 20
0.0
 30
0.0
  0
VERTEX
  5
FB0EB
  8
0
 10
27900.398635499521
 20
5243.1088697169953
 30
0.0
  0
VERTEX
  5
FB0EC
  8
0
 10
26400.39863549954
 20
5243.1088697169953
 30
0.0
  0
VERTEX
  5
FB0ED
  8
0
 10
26400.39863549954
 20
5208.1088697169844
 30
0.0
  0
VERTEX
  5
FB0EE
  8
0
 10
27900.398635499521
 20
5208.1088697169844
 30
0.0
  0
VERTEX
  5
FB0EF
  8
0
 10
27900.398635499521
 20
5243.1088697169953
 30
0.0
  0
SEQEND
  5
FB0F0
  8
0
  0
POLYLINE
  5
EF7CD
  8
0
 66
     1
 10
0.0
 20
0.0
 30
0.0
  0
VERTEX
  5
FB0F1
  8
0
 10
27900.398635499521
 20
6473.1088697169953
 30
0.0
  0
VERTEX
  5
FB0F2
  8
0
 10
26400.39863549954
 20
6473.1088697169953
 30
0.0
  0
VERTEX
  5
FB0F3
  8
0
 10
26400.39863549954
 20
6438.1088697169826
 30
0.0
  0
VERTEX
  5
FB0F4
  8
0
 10
27900.398635499521
 20
6438.1088697169826
 30
0.0
  0
VERTEX
  5
FB0F5
  8
0
 10
27900.398635499521
 20
6473.1088697169953
 30
0.0
  0
SEQEND
  5
FB0F6
  8
0
  0
POLYLINE
  5
EF7CE
  8
0
 66
     1
 10
0.0
 20
0.0
 30
0.0
 70
     1
  0
VERTEX
  5
FB0F7
  8
0
 10
27900.398635499521
 20
6028.1088697169844
 30
0.0
  0
VERTEX
  5
FB0F8
  8
0
 10
26400.39863549954
 20
6028.1088697169844
 30
0.0
  0
VERTEX
  5
FB0F9
  8
0
 10
26400.39863549954
 20
6063.1088697169844
 30
0.0
  0
VERTEX
  5
FB0FA
  8
0
 10
27900.398635499521
 20
6063.1088697169844
 30
0.0
  0
SEQEND
  5
FB0FB
  8
0
  0
POLYLINE
  5
EF7CF
  8
0
 66
     1
 10
0.0
 20
0.0
 30
0.0
  0
VERTEX
  5
FB0FC
  8
0
 10
19936.505561744008
 20
6473.1088697169953
 30
0.0
  0
VERTEX
  5
FB0FD
  8
0
 10
18436.505561744008
 20
6473.1088697169953
 30
0.0
  0
VERTEX
  5
FB0FE
  8
0
 10
18436.505561744008
 20
6438.1088697169826
 30
0.0
  0
VERTEX
  5
FB0FF
  8
0
 10
19936.505561744008
 20
6438.1088697169826
 30
0.0
  0
VERTEX
  5
FB100
  8
0
 10
19936.505561744008
 20
6473.1088697169953
 30
0.0
  0
SEQEND
  5
FB101
  8
0
  0
POLYLINE
  5
EF7D0
  8
0
 66
     1
 10
0.0
 20
0.0
 30
0.0
 70
     1
  0
VERTEX
  5
FB102
  8
0
 10
18436.505561744008
 20
6028.1088697169844
 30
0.0
  0
VERTEX
  5
FB103
  8
0
 10
19936.505561744008
 20
6028.1088697169844
 30
0.0
  0
VERTEX
  5
FB104
  8
0
 10
19936.505561744008
 20
6063.1088697169844
 30
0.0
  0
VERTEX
  5
FB105
  8
0
 10
18436.505561744008
 20
6063.1088697169844
 30
0.0
  0
SEQEND
  5
FB106
  8
0
  0
POLYLINE
  5
EF7D1
  8
0
 66
     1
 10
0.0
 20
0.0
 30
0.0
 70
     1
  0
VERTEX
  5
FB107
  8
0
 10
18434.005561744008
 20
2928.1088697169948
 30
0.0
  0
VERTEX
  5
FB108
  8
0
 10
19934.005561744008
 20
2928.1088697169948
 30
0.0
  0
VERTEX
  5
FB109
  8
0
 10
19934.005561744008
 20
2963.1088697169948
 30
0.0
  0
VERTEX
  5
FB10A
  8
0
 10
18434.005561744008
 20
2963.1088697169948
 30
0.0
  0
SEQEND
  5
FB10B
  8
0
  0
POLYLINE
  5
EF7D2
  8
0
 66
     1
 10
0.0
 20
0.0
 30
0.0
  0
VERTEX
  5
FB10C
  8
0
 10
19934.005561744008
 20
3373.1088697170071
 30
0.0
  0
VERTEX
  5
FB10D
  8
0
 10
18434.005561744008
 20
3373.1088697170071
 30
0.0
  0
VERTEX
  5
FB10E
  8
0
 10
18434.005561744008
 20
3338.1088697169948
 30
0.0
  0
VERTEX
  5
FB10F
  8
0
 10
19934.005561744008
 20
3338.1088697169948
 30
0.0
  0
VERTEX
  5
FB110
  8
0
 10
19934.005561744008
 20
3373.1088697170071
 30
0.0
  0
SEQEND
  5
FB111
  8
0
  0
POLYLINE
  5
EF7D3
  8
0
 66
     1
 10
0.0
 20
0.0
 30
0.0
 70
     1
  0
VERTEX
  5
FB112
  8
0
 10
27897.898635499521
 20
2928.1088697169948
 30
0.0
  0
VERTEX
  5
FB113
  8
0
 10
26397.89863549954
 20
2928.1088697169948
 30
0.0
  0
VERTEX
  5
FB114
  8
0
 10
26397.89863549954
 20
2963.1088697169948
 30
0.0
  0
VERTEX
  5
FB115
  8
0
 10
27897.898635499521
 20
2963.1088697169948
 30
0.0
  0
SEQEND
  5
FB116
  8
0
  0
POLYLINE
  5
EF7D4
  8
0
 66
     1
 10
0.0
 20
0.0
 30
0.0
  0
VERTEX
  5
FB117
  8
0
 10
27897.898635499521
 20
3373.1088697170071
 30
0.0
  0
VERTEX
  5
FB118
  8
0
 10
26397.89863549954
 20
3373.1088697170071
 30
0.0
  0
VERTEX
  5
FB119
  8
0
 10
26397.89863549954
 20
3338.1088697169948
 30
0.0
  0
VERTEX
  5
FB11A
  8
0
 10
27897.898635499521
 20
3338.1088697169948
 30
0.0
  0
VERTEX
  5
FB11B
  8
0
 10
27897.898635499521
 20
3373.1088697170071
 30
0.0
  0
SEQEND
  5
FB11C
  8
0
  0
POLYLINE
  5
EF7D5
  8
0
 66
     1
 10
0.0
 20
0.0
 30
0.0
  0
VERTEX
  5
FB11D
  8
0
 10
27897.898635499521
 20
2143.1088697170071
 30
0.0
  0
VERTEX
  5
FB11E
  8
0
 10
26397.89863549954
 20
2143.1088697170071
 30
0.0
  0
VERTEX
  5
FB11F
  8
0
 10
26397.89863549954
 20
2108.1088697169948
 30
0.0
  0
VERTEX
  5
FB120
  8
0
 10
27897.898635499521
 20
2108.1088697169948
 30
0.0
  0
VERTEX
  5
FB121
  8
0
 10
27897.898635499521
 20
2143.1088697170071
 30
0.0
  0
SEQEND
  5
FB122
  8
0
  0
POLYLINE
  5
EF7D6
  8
0
 66
     1
 10
0.0
 20
0.0
 30
0.0
  0
VERTEX
  5
FB123
  8
0
 10
19934.005561744008
 20
2143.1088697170071
 30
0.0
  0
VERTEX
  5
FB124
  8
0
 10
18434.005561744008
 20
2143.1088697170071
 30
0.0
  0
VERTEX
  5
FB125
  8
0
 10
18434.005561744008
 20
2108.1088697169948
 30
0.0
  0
VERTEX
  5
FB126
  8
0
 10
19934.005561744008
 20
2108.1088697169948
 30
0.0
  0
VERTEX
  5
FB127
  8
0
 10
19934.005561744008
 20
2143.1088697170071
 30
0.0
  0
SEQEND
  5
FB128
  8
0
  0
POLYLINE
  5
EF7D7
  8
0
 66
     1
 10
0.0
 20
0.0
 30
0.0
  0
VERTEX
  5
FB129
  8
0
 10
19969.005561744008
 20
4193.1088697169962
 30
0.0
  0
VERTEX
  5
FB12A
  8
0
 10
19969.005561744008
 20
1666.1088697169951
 30
0.0
  0
SEQEND
  5
FB12B
  8
0
  0
POLYLINE
  5
EF7D8
  8
0
 66
     1
 10
0.0
 20
0.0
 30
0.0
  0
VERTEX
  5
FB12C
  8
0
 10
19966.505561744008
 20
1666.1088697169951
 30
0.0
  0
VERTEX
  5
FB12D
  8
0
 10
19936.505561744008
 20
1666.1088697169951
 30
0.0
  0
VERTEX
  5
FB12E
  8
0
 10
19936.505561744008
 20
1663.1088697169951
 30
0.0
  0
VERTEX
  5
FB12F
  8
0
 10
19966.505561744008
 20
1663.1088697169951
 30
0.0
  0
VERTEX
  5
FB130
  8
0
 10
19966.505561744008
 20
1666.1088697169951
 30
0.0
  0
SEQEND
  5
FB131
  8
0
  0
POLYLINE
  5
EF7D9
  8
0
 66
     1
 10
0.0
 20
0.0
 30
0.0
  0
VERTEX
  5
FB132
  8
0
 10
18401.505561744008
 20
1666.1088697169951
 30
0.0
  0
VERTEX
  5
FB133
  8
0
 10
18431.505561744008
 20
1666.1088697169951
 30
0.0
  0
VERTEX
  5
FB134
  8
0
 10
18431.505561744008
 20
1663.1088697169951
 30
0.0
  0
VERTEX
  5
FB135
  8
0
 10
18401.505561744008
 20
1663.1088697169951
 30
0.0
  0
VERTEX
  5
FB136
  8
0
 10
18401.505561744008
 20
1666.1088697169951
 30
0.0
  0
SEQEND
  5
FB137
  8
0
  0
POLYLINE
  5
EF7DA
  8
0
 66
     1
 10
0.0
 20
0.0
 30
0.0
 70
     1
  0
VERTEX
  5
FB138
  8
0
 10
18399.005561744008
 20
4193.1088697169962
 30
0.0
  0
VERTEX
  5
FB139
  8
0
 10
18434.005561744008
 20
4193.1088697169962
 30
0.0
  0
VERTEX
  5
FB13A
  8
0
 10
18434.005561744008
 20
1666.1088697169951
 30
0.0
  0
VERTEX
  5
FB13B
  8
0
 10
18399.005561744008
 20
1666.1088697169951
 30
0.0
  0
SEQEND
  5
FB13C
  8
0
  0
POLYLINE
  5
EF7DB
  8
0
 66
     1
 10
0.0
 20
0.0
 30
0.0
 70
     1
  0
VERTEX
  5
FB13D
  8
0
 10
19969.005561744008
 20
4193.1088697169962
 30
0.0
  0
VERTEX
  5
FB13E
  8
0
 10
19934.005561744008
 20
4193.1088697169962
 30
0.0
  0
VERTEX
  5
FB13F
  8
0
 10
19934.005561744008
 20
1666.1088697169951
 30
0.0
  0
VERTEX
  5
FB140
  8
0
 10
19969.005561744008
 20
1666.1088697169951
 30
0.0
  0
SEQEND
  5
FB141
  8
0
  0
POLYLINE
  5
EF7DC
  8
0
 66
     1
 10
0.0
 20
0.0
 30
0.0
 70
     1
  0
VERTEX
  5
FB142
  8
0
 10
18434.005561744008
 20
1698.1088697169951
 30
0.0
  0
VERTEX
  5
FB143
  8
0
 10
19934.005561744008
 20
1698.1088697169951
 30
0.0
  0
VERTEX
  5
FB144
  8
0
 10
19934.005561744008
 20
1733.1088697169951
 30
0.0
  0
VERTEX
  5
FB145
  8
0
 10
18434.005561744008
 20
1733.1088697169951
 30
0.0
  0
SEQEND
  5
FB146
  8
0
  0
POLYLINE
  5
EF7DD
  8
0
 66
     1
 10
0.0
 20
0.0
 30
0.0
 70
     1
  0
VERTEX
  5
FB147
  8
0
 10
18434.005561744008
 20
4158.1088697169953
 30
0.0
  0
VERTEX
  5
FB148
  8
0
 10
19934.005561744008
 20
4158.1088697169953
 30
0.0
  0
VERTEX
  5
FB149
  8
0
 10
19934.005561744008
 20
4193.1088697169962
 30
0.0
  0
VERTEX
  5
FB14A
  8
0
 10
18434.005561744008
 20
4193.1088697169962
 30
0.0
  0
SEQEND
  5
FB14B
  8
0
  0
POLYLINE
  5
EF7DE
  8
0
 66
     1
 10
0.0
 20
0.0
 30
0.0
 70
     1
  0
VERTEX
  5
FB14C
  8
0
 10
27897.898635499521
 20
4158.1088697169953
 30
0.0
  0
VERTEX
  5
FB14D
  8
0
 10
26397.89863549954
 20
4158.1088697169953
 30
0.0
  0
VERTEX
  5
FB14E
  8
0
 10
26397.89863549954
 20
4193.1088697169962
 30
0.0
  0
VERTEX
  5
FB14F
  8
0
 10
27897.898635499521
 20
4193.1088697169962
 30
0.0
  0
SEQEND
  5
FB150
  8
0
  0
POLYLINE
  5
EF7DF
  8
0
 66
     1
 10
0.0
 20
0.0
 30
0.0
 70
     1
  0
VERTEX
  5
FB151
  8
0
 10
27897.898635499521
 20
1698.1088697169951
 30
0.0
  0
VERTEX
  5
FB152
  8
0
 10
26397.89863549954
 20
1698.1088697169951
 30
0.0
  0
VERTEX
  5
FB153
  8
0
 10
26397.89863549954
 20
1733.1088697169951
 30
0.0
  0
VERTEX
  5
FB154
  8
0
 10
27897.898635499521
 20
1733.1088697169951
 30
0.0
  0
SEQEND
  5
FB155
  8
0
  0
POLYLINE
  5
EF7E0
  8
0
 66
     1
 10
0.0
 20
0.0
 30
0.0
 70
     1
  0
VERTEX
  5
FB156
  8
0
 10
27932.898635499521
 20
4193.1088697169962
 30
0.0
  0
VERTEX
  5
FB157
  8
0
 10
27897.898635499521
 20
4193.1088697169962
 30
0.0
  0
VERTEX
  5
FB158
  8
0
 10
27897.898635499521
 20
1666.1088697169951
 30
0.0
  0
VERTEX
  5
FB159
  8
0
 10
27932.898635499521
 20
1666.1088697169951
 30
0.0
  0
SEQEND
  5
FB15A
  8
0
  0
POLYLINE
  5
EF7E1
  8
0
 66
     1
 10
0.0
 20
0.0
 30
0.0
  0
VERTEX
  5
FB15B
  8
0
 10
27930.398635499521
 20
1666.1088697169951
 30
0.0
  0
VERTEX
  5
FB15C
  8
0
 10
27900.398635499521
 20
1666.1088697169951
 30
0.0
  0
VERTEX
  5
FB15D
  8
0
 10
27900.398635499521
 20
1663.1088697169951
 30
0.0
  0
VERTEX
  5
FB15E
  8
0
 10
27930.398635499521
 20
1663.1088697169951
 30
0.0
  0
VERTEX
  5
FB15F
  8
0
 10
27930.398635499521
 20
1666.1088697169951
 30
0.0
  0
SEQEND
  5
FB160
  8
0
  0
POLYLINE
  5
EF7E2
  8
0
 66
     1
 10
0.0
 20
0.0
 30
0.0
 70
     1
  0
VERTEX
  5
FB161
  8
0
 10
27897.898635499521
 20
2518.1088697169948
 30
0.0
  0
VERTEX
  5
FB162
  8
0
 10
26397.89863549954
 20
2518.1088697169948
 30
0.0
  0
VERTEX
  5
FB163
  8
0
 10
26397.89863549954
 20
2553.1088697169948
 30
0.0
  0
VERTEX
  5
FB164
  8
0
 10
27897.898635499521
 20
2553.1088697169948
 30
0.0
  0
SEQEND
  5
FB165
  8
0
  0
POLYLINE
  5
EF7E3
  8
0
 66
     1
 10
0.0
 20
0.0
 30
0.0
 70
     1
  0
VERTEX
  5
FB166
  8
0
 10
18434.005561744008
 20
2518.1088697169948
 30
0.0
  0
VERTEX
  5
FB167
  8
0
 10
19934.005561744008
 20
2518.1088697169948
 30
0.0
  0
VERTEX
  5
FB168
  8
0
 10
19934.005561744008
 20
2553.1088697169948
 30
0.0
  0
VERTEX
  5
FB169
  8
0
 10
18434.005561744008
 20
2553.1088697169948
 30
0.0
  0
SEQEND
  5
FB16A
  8
0
  0
POLYLINE
  5
EF7E4
  8
0
 66
     1
 10
0.0
 20
0.0
 30
0.0
 70
     1
  0
VERTEX
  5
FB16B
  8
0
 10
27897.898635499521
 20
3748.1088697169962
 30
0.0
  0
VERTEX
  5
FB16C
  8
0
 10
26397.89863549954
 20
3748.1088697169962
 30
0.0
  0
VERTEX
  5
FB16D
  8
0
 10
26397.89863549954
 20
3783.1088697169962
 30
0.0
  0
VERTEX
  5
FB16E
  8
0
 10
27897.898635499521
 20
3783.1088697169962
 30
0.0
  0
SEQEND
  5
FB16F
  8
0
  0
POLYLINE
  5
EF7E5
  8
0
 66
     1
 10
0.0
 20
0.0
 30
0.0
 70
     1
  0
VERTEX
  5
FB170
  8
0
 10
18434.005561744008
 20
3748.1088697169962
 30
0.0
  0
VERTEX
  5
FB171
  8
0
 10
19934.005561744008
 20
3748.1088697169962
 30
0.0
  0
VERTEX
  5
FB172
  8
0
 10
19934.005561744008
 20
3783.1088697169962
 30
0.0
  0
VERTEX
  5
FB173
  8
0
 10
18434.005561744008
 20
3783.1088697169962
 30
0.0
  0
SEQEND
  5
FB174
  8
0
  0
POLYLINE
  5
EF7E6
  8
0
 66
     1
 10
0.0
 20
0.0
 30
0.0
  0
VERTEX
  5
FB175
  8
0
 10
17406.505561744008
 20
13206.108869716971
 30
0.0
  0
VERTEX
  5
FB176
  8
0
 10
17376.505561744008
 20
13206.108869716971
 30
0.0
  0
VERTEX
  5
FB177
  8
0
 10
17376.505561744008
 20
13203.108869716971
 30
0.0
  0
VERTEX
  5
FB178
  8
0
 10
17406.505561744008
 20
13203.108869716971
 30
0.0
  0
VERTEX
  5
FB179
  8
0
 10
17406.505561744008
 20
13206.108869716971
 30
0.0
  0
SEQEND
  5
FB17A
  8
0
  0
POLYLINE
  5
EF7E7
  8
0
 66
     1
 10
0.0
 20
0.0
 30
0.0
  0
VERTEX
  5
FB17B
  8
0
 10
16341.50556174401
 20
13206.108869716971
 30
0.0
  0
VERTEX
  5
FB17C
  8
0
 10
16371.50556174401
 20
13206.108869716971
 30
0.0
  0
VERTEX
  5
FB17D
  8
0
 10
16371.50556174401
 20
13203.108869716971
 30
0.0
  0
VERTEX
  5
FB17E
  8
0
 10
16341.50556174401
 20
13203.108869716971
 30
0.0
  0
VERTEX
  5
FB17F
  8
0
 10
16341.50556174401
 20
13206.108869716971
 30
0.0
  0
SEQEND
  5
FB180
  8
0
  0
POLYLINE
  5
EF7E8
  8
0
 66
     1
 10
0.0
 20
0.0
 30
0.0
 70
     1
  0
VERTEX
  5
FB181
  8
0
 10
16339.00556174401
 20
13683.10886971698
 30
0.0
  0
VERTEX
  5
FB182
  8
0
 10
16374.00556174401
 20
13683.10886971698
 30
0.0
  0
VERTEX
  5
FB183
  8
0
 10
16374.00556174401
 20
13206.108869716971
 30
0.0
  0
VERTEX
  5
FB184
  8
0
 10
16339.00556174401
 20
13206.108869716971
 30
0.0
  0
SEQEND
  5
FB185
  8
0
  0
POLYLINE
  5
EF7E9
  8
0
 66
     1
 10
0.0
 20
0.0
 30
0.0
 70
     1
  0
VERTEX
  5
FB186
  8
0
 10
17409.005561744008
 20
13683.10886971698
 30
0.0
  0
VERTEX
  5
FB187
  8
0
 10
17374.005561744008
 20
13683.10886971698
 30
0.0
  0
VERTEX
  5
FB188
  8
0
 10
17374.005561744008
 20
13206.108869716971
 30
0.0
  0
VERTEX
  5
FB189
  8
0
 10
17409.005561744008
 20
13206.108869716971
 30
0.0
  0
SEQEND
  5
FB18A
  8
0
  0
POLYLINE
  5
EF7EA
  8
0
 66
     1
 10
0.0
 20
0.0
 30
0.0
 70
     1
  0
VERTEX
  5
FB18B
  8
0
 10
16374.00556174401
 20
13238.108869716971
 30
0.0
  0
VERTEX
  5
FB18C
  8
0
 10
17374.005561744008
 20
13238.108869716971
 30
0.0
  0
VERTEX
  5
FB18D
  8
0
 10
17374.005561744008
 20
13273.108869716971
 30
0.0
  0
VERTEX
  5
FB18E
  8
0
 10
16374.00556174401
 20
13273.108869716971
 30
0.0
  0
SEQEND
  5
FB18F
  8
0
  0
POLYLINE
  5
EF7EB
  8
0
 66
     1
 10
0.0
 20
0.0
 30
0.0
 70
     1
  0
VERTEX
  5
FB190
  8
0
 10
16374.00556174401
 20
13648.108869716971
 30
0.0
  0
VERTEX
  5
FB191
  8
0
 10
17374.005561744008
 20
13648.108869716971
 30
0.0
  0
VERTEX
  5
FB192
  8
0
 10
17374.005561744008
 20
13683.10886971698
 30
0.0
  0
VERTEX
  5
FB193
  8
0
 10
16374.00556174401
 20
13683.10886971698
 30
0.0
  0
SEQEND
  5
FB194
  8
0
  0
POLYLINE
  5
EF7EC
  8
0
 66
     1
 10
0.0
 20
0.0
 30
0.0
 70
     1
  0
VERTEX
  5
FB195
  8
0
 10
25372.89863549954
 20
13648.108869716971
 30
0.0
  0
VERTEX
  5
FB196
  8
0
 10
24372.89863549954
 20
13648.108869716971
 30
0.0
  0
VERTEX
  5
FB197
  8
0
 10
24372.89863549954
 20
13683.10886971698
 30
0.0
  0
VERTEX
  5
FB198
  8
0
 10
25372.89863549954
 20
13683.10886971698
 30
0.0
  0
SEQEND
  5
FB199
  8
0
  0
POLYLINE
  5
EF7ED
  8
0
 66
     1
 10
0.0
 20
0.0
 30
0.0
 70
     1
  0
VERTEX
  5
FB19A
  8
0
 10
25372.89863549954
 20
13238.108869716971
 30
0.0
  0
VERTEX
  5
FB19B
  8
0
 10
24372.89863549954
 20
13238.108869716971
 30
0.0
  0
VERTEX
  5
FB19C
  8
0
 10
24372.89863549954
 20
13273.108869716971
 30
0.0
  0
VERTEX
  5
FB19D
  8
0
 10
25372.89863549954
 20
13273.108869716971
 30
0.0
  0
SEQEND
  5
FB19E
  8
0
  0
POLYLINE
  5
EF7EE
  8
0
 66
     1
 10
0.0
 20
0.0
 30
0.0
 70
     1
  0
VERTEX
  5
FB19F
  8
0
 10
25407.898635499529
 20
13683.10886971698
 30
0.0
  0
VERTEX
  5
FB1A0
  8
0
 10
25372.89863549954
 20
13683.10886971698
 30
0.0
  0
VERTEX
  5
FB1A1
  8
0
 10
25372.89863549954
 20
13206.108869716971
 30
0.0
  0
VERTEX
  5
FB1A2
  8
0
 10
25407.898635499529
 20
13206.108869716971
 30
0.0
  0
SEQEND
  5
FB1A3
  8
0
  0
POLYLINE
  5
EF7EF
  8
0
 66
     1
 10
0.0
 20
0.0
 30
0.0
  0
VERTEX
  5
FB1A4
  8
0
 10
25405.39863549954
 20
13206.108869716971
 30
0.0
  0
VERTEX
  5
FB1A5
  8
0
 10
25375.398635499529
 20
13206.108869716971
 30
0.0
  0
VERTEX
  5
FB1A6
  8
0
 10
25375.398635499529
 20
13203.108869716971
 30
0.0
  0
VERTEX
  5
FB1A7
  8
0
 10
25405.39863549954
 20
13203.108869716971
 30
0.0
  0
VERTEX
  5
FB1A8
  8
0
 10
25405.39863549954
 20
13206.108869716971
 30
0.0
  0
SEQEND
  5
FB1A9
  8
0
  0
POLYLINE
  5
EF7F0
  8
0
 66
     1
 10
0.0
 20
0.0
 30
0.0
  0
VERTEX
  5
FB1AA
  8
0
 10
25402.89863549954
 20
11711.108869716971
 30
0.0
  0
VERTEX
  5
FB1AB
  8
0
 10
25372.89863549954
 20
11711.108869716971
 30
0.0
  0
VERTEX
  5
FB1AC
  8
0
 10
25372.89863549954
 20
11708.108869716971
 30
0.0
  0
VERTEX
  5
FB1AD
  8
0
 10
25402.89863549954
 20
11708.108869716971
 30
0.0
  0
VERTEX
  5
FB1AE
  8
0
 10
25402.89863549954
 20
11711.108869716971
 30
0.0
  0
SEQEND
  5
FB1AF
  8
0
  0
POLYLINE
  5
EF7F1
  8
0
 66
     1
 10
0.0
 20
0.0
 30
0.0
 70
     1
  0
VERTEX
  5
FB1B0
  8
0
 10
25405.39863549954
 20
12598.108869716971
 30
0.0
  0
VERTEX
  5
FB1B1
  8
0
 10
25370.39863549954
 20
12598.108869716971
 30
0.0
  0
VERTEX
  5
FB1B2
  8
0
 10
25370.39863549954
 20
11711.108869716971
 30
0.0
  0
VERTEX
  5
FB1B3
  8
0
 10
25405.39863549954
 20
11711.108869716971
 30
0.0
  0
SEQEND
  5
FB1B4
  8
0
  0
POLYLINE
  5
EF7F2
  8
0
 66
     1
 10
0.0
 20
0.0
 30
0.0
 70
     1
  0
VERTEX
  5
FB1B5
  8
0
 10
25370.39863549954
 20
11743.108869716971
 30
0.0
  0
VERTEX
  5
FB1B6
  8
0
 10
24370.39863549954
 20
11743.108869716971
 30
0.0
  0
VERTEX
  5
FB1B7
  8
0
 10
24370.39863549954
 20
11778.108869716971
 30
0.0
  0
VERTEX
  5
FB1B8
  8
0
 10
25370.39863549954
 20
11778.108869716971
 30
0.0
  0
SEQEND
  5
FB1B9
  8
0
  0
POLYLINE
  5
EF7F3
  8
0
 66
     1
 10
0.0
 20
0.0
 30
0.0
 70
     1
  0
VERTEX
  5
FB1BA
  8
0
 10
25370.39863549954
 20
12563.108869716971
 30
0.0
  0
VERTEX
  5
FB1BB
  8
0
 10
24370.39863549954
 20
12563.108869716971
 30
0.0
  0
VERTEX
  5
FB1BC
  8
0
 10
24370.39863549954
 20
12598.108869716971
 30
0.0
  0
VERTEX
  5
FB1BD
  8
0
 10
25370.39863549954
 20
12598.108869716971
 30
0.0
  0
SEQEND
  5
FB1BE
  8
0
  0
POLYLINE
  5
EF7F4
  8
0
 66
     1
 10
0.0
 20
0.0
 30
0.0
 70
     1
  0
VERTEX
  5
FB1BF
  8
0
 10
16371.50556174401
 20
12563.108869716971
 30
0.0
  0
VERTEX
  5
FB1C0
  8
0
 10
17371.505561744008
 20
12563.108869716971
 30
0.0
  0
VERTEX
  5
FB1C1
  8
0
 10
17371.505561744008
 20
12598.108869716971
 30
0.0
  0
VERTEX
  5
FB1C2
  8
0
 10
16371.50556174401
 20
12598.108869716971
 30
0.0
  0
SEQEND
  5
FB1C3
  8
0
  0
POLYLINE
  5
EF7F5
  8
0
 66
     1
 10
0.0
 20
0.0
 30
0.0
 70
     1
  0
VERTEX
  5
FB1C4
  8
0
 10
16371.50556174401
 20
11743.108869716971
 30
0.0
  0
VERTEX
  5
FB1C5
  8
0
 10
17371.505561744008
 20
11743.108869716971
 30
0.0
  0
VERTEX
  5
FB1C6
  8
0
 10
17371.505561744008
 20
11778.108869716971
 30
0.0
  0
VERTEX
  5
FB1C7
  8
0
 10
16371.50556174401
 20
11778.108869716971
 30
0.0
  0
SEQEND
  5
FB1C8
  8
0
  0
POLYLINE
  5
EF7F6
  8
0
 66
     1
 10
0.0
 20
0.0
 30
0.0
 70
     1
  0
VERTEX
  5
FB1C9
  8
0
 10
17406.505561744008
 20
12598.108869716971
 30
0.0
  0
VERTEX
  5
FB1CA
  8
0
 10
17371.505561744008
 20
12598.108869716971
 30
0.0
  0
VERTEX
  5
FB1CB
  8
0
 10
17371.505561744008
 20
11711.108869716971
 30
0.0
  0
VERTEX
  5
FB1CC
  8
0
 10
17406.505561744008
 20
11711.108869716971
 30
0.0
  0
SEQEND
  5
FB1CD
  8
0
  0
POLYLINE
  5
EF7F7
  8
0
 66
     1
 10
0.0
 20
0.0
 30
0.0
 70
     1
  0
VERTEX
  5
FB1CE
  8
0
 10
16336.50556174401
 20
12598.108869716971
 30
0.0
  0
VERTEX
  5
FB1CF
  8
0
 10
16371.50556174401
 20
12598.108869716971
 30
0.0
  0
VERTEX
  5
FB1D0
  8
0
 10
16371.50556174401
 20
11711.108869716971
 30
0.0
  0
VERTEX
  5
FB1D1
  8
0
 10
16336.50556174401
 20
11711.108869716971
 30
0.0
  0
SEQEND
  5
FB1D2
  8
0
  0
POLYLINE
  5
EF7F8
  8
0
 66
     1
 10
0.0
 20
0.0
 30
0.0
  0
VERTEX
  5
FB1D3
  8
0
 10
16339.00556174401
 20
11711.108869716971
 30
0.0
  0
VERTEX
  5
FB1D4
  8
0
 10
16369.00556174401
 20
11711.108869716971
 30
0.0
  0
VERTEX
  5
FB1D5
  8
0
 10
16369.00556174401
 20
11708.108869716971
 30
0.0
  0
VERTEX
  5
FB1D6
  8
0
 10
16339.00556174401
 20
11708.108869716971
 30
0.0
  0
VERTEX
  5
FB1D7
  8
0
 10
16339.00556174401
 20
11711.108869716971
 30
0.0
  0
SEQEND
  5
FB1D8
  8
0
  0
POLYLINE
  5
EF7F9
  8
0
 66
     1
 10
0.0
 20
0.0
 30
0.0
  0
VERTEX
  5
FB1D9
  8
0
 10
17404.005561744008
 20
11711.108869716971
 30
0.0
  0
VERTEX
  5
FB1DA
  8
0
 10
17374.005561744008
 20
11711.108869716971
 30
0.0
  0
VERTEX
  5
FB1DB
  8
0
 10
17374.005561744008
 20
11708.108869716971
 30
0.0
  0
VERTEX
  5
FB1DC
  8
0
 10
17404.005561744008
 20
11708.108869716971
 30
0.0
  0
VERTEX
  5
FB1DD
  8
0
 10
17404.005561744008
 20
11711.108869716971
 30
0.0
  0
SEQEND
  5
FB1DE
  8
0
  0
POLYLINE
  5
EF7FA
  8
0
 66
     1
 10
0.0
 20
0.0
 30
0.0
  0
VERTEX
  5
FB1DF
  8
0
 10
17406.505561744008
 20
12598.108869716971
 30
0.0
  0
VERTEX
  5
FB1E0
  8
0
 10
17406.505561744008
 20
11711.108869716971
 30
0.0
  0
SEQEND
  5
FB1E1
  8
0
  0
POLYLINE
  5
EF7FB
  8
0
 66
     1
 10
0.0
 20
0.0
 30
0.0
  0
VERTEX
  5
FB1E2
  8
0
 10
17371.505561744008
 20
12188.10886971698
 30
0.0
  0
VERTEX
  5
FB1E3
  8
0
 10
16371.50556174401
 20
12188.10886971698
 30
0.0
  0
VERTEX
  5
FB1E4
  8
0
 10
16371.50556174401
 20
12153.108869716971
 30
0.0
  0
VERTEX
  5
FB1E5
  8
0
 10
17371.505561744008
 20
12153.108869716971
 30
0.0
  0
VERTEX
  5
FB1E6
  8
0
 10
17371.505561744008
 20
12188.10886971698
 30
0.0
  0
SEQEND
  5
FB1E7
  8
0
  0
POLYLINE
  5
EF7FC
  8
0
 66
     1
 10
0.0
 20
0.0
 30
0.0
  0
VERTEX
  5
FB1E8
  8
0
 10
25370.39863549954
 20
12188.10886971698
 30
0.0
  0
VERTEX
  5
FB1E9
  8
0
 10
24370.39863549954
 20
12188.10886971698
 30
0.0
  0
VERTEX
  5
FB1EA
  8
0
 10
24370.39863549954
 20
12153.108869716971
 30
0.0
  0
VERTEX
  5
FB1EB
  8
0
 10
25370.39863549954
 20
12153.108869716971
 30
0.0
  0
VERTEX
  5
FB1EC
  8
0
 10
25370.39863549954
 20
12188.10886971698
 30
0.0
  0
SEQEND
  5
FB1ED
  8
0
  0
POLYLINE
  5
EF7FD
  8
0
 66
     1
 10
0.0
 20
0.0
 30
0.0
  0
VERTEX
  5
FB1EE
  8
0
 10
25367.898635499529
 20
10283.108869716991
 30
0.0
  0
VERTEX
  5
FB1EF
  8
0
 10
24367.89863549954
 20
10283.108869716991
 30
0.0
  0
VERTEX
  5
FB1F0
  8
0
 10
24367.89863549954
 20
10248.108869716971
 30
0.0
  0
VERTEX
  5
FB1F1
  8
0
 10
25367.898635499529
 20
10248.108869716971
 30
0.0
  0
VERTEX
  5
FB1F2
  8
0
 10
25367.898635499529
 20
10283.108869716991
 30
0.0
  0
SEQEND
  5
FB1F3
  8
0
  0
POLYLINE
  5
EF7FE
  8
0
 66
     1
 10
0.0
 20
0.0
 30
0.0
  0
VERTEX
  5
FB1F4
  8
0
 10
17369.005561744008
 20
10283.108869716991
 30
0.0
  0
VERTEX
  5
FB1F5
  8
0
 10
16369.00556174401
 20
10283.108869716991
 30
0.0
  0
VERTEX
  5
FB1F6
  8
0
 10
16369.00556174401
 20
10248.108869716971
 30
0.0
  0
VERTEX
  5
FB1F7
  8
0
 10
17369.005561744008
 20
10248.108869716971
 30
0.0
  0
VERTEX
  5
FB1F8
  8
0
 10
17369.005561744008
 20
10283.108869716991
 30
0.0
  0
SEQEND
  5
FB1F9
  8
0
  0
POLYLINE
  5
EF7FF
  8
0
 66
     1
 10
0.0
 20
0.0
 30
0.0
  0
VERTEX
  5
FB1FA
  8
0
 10
17404.005561744008
 20
11103.108869716971
 30
0.0
  0
VERTEX
  5
FB1FB
  8
0
 10
17404.005561744008
 20
9806.1088697169798
 30
0.0
  0
SEQEND
  5
FB1FC
  8
0
  0
POLYLINE
  5
EF800
  8
0
 66
     1
 10
0.0
 20
0.0
 30
0.0
  0
VERTEX
  5
FB1FD
  8
0
 10
17401.505561744008
 20
9806.1088697169798
 30
0.0
  0
VERTEX
  5
FB1FE
  8
0
 10
17371.505561744008
 20
9806.1088697169798
 30
0.0
  0
VERTEX
  5
FB1FF
  8
0
 10
17371.505561744008
 20
9803.1088697169816
 30
0.0
  0
VERTEX
  5
FB200
  8
0
 10
17401.505561744008
 20
9803.1088697169816
 30
0.0
  0
VERTEX
  5
FB201
  8
0
 10
17401.505561744008
 20
9806.1088697169798
 30
0.0
  0
SEQEND
  5
FB202
  8
0
  0
POLYLINE
  5
EF801
  8
0
 66
     1
 10
0.0
 20
0.0
 30
0.0
  0
VERTEX
  5
FB203
  8
0
 10
16336.50556174401
 20
9806.1088697169798
 30
0.0
  0
VERTEX
  5
FB204
  8
0
 10
16366.50556174401
 20
9806.1088697169798
 30
0.0
  0
VERTEX
  5
FB205
  8
0
 10
16366.50556174401
 20
9803.1088697169816
 30
0.0
  0
VERTEX
  5
FB206
  8
0
 10
16336.50556174401
 20
9803.1088697169816
 30
0.0
  0
VERTEX
  5
FB207
  8
0
 10
16336.50556174401
 20
9806.1088697169798
 30
0.0
  0
SEQEND
  5
FB208
  8
0
  0
POLYLINE
  5
EF802
  8
0
 66
     1
 10
0.0
 20
0.0
 30
0.0
 70
     1
  0
VERTEX
  5
FB209
  8
0
 10
16334.00556174401
 20
11103.108869716971
 30
0.0
  0
VERTEX
  5
FB20A
  8
0
 10
16369.00556174401
 20
11103.108869716971
 30
0.0
  0
VERTEX
  5
FB20B
  8
0
 10
16369.00556174401
 20
9806.1088697169798
 30
0.0
  0
VERTEX
  5
FB20C
  8
0
 10
16334.00556174401
 20
9806.1088697169798
 30
0.0
  0
SEQEND
  5
FB20D
  8
0
  0
POLYLINE
  5
EF803
  8
0
 66
     1
 10
0.0
 20
0.0
 30
0.0
 70
     1
  0
VERTEX
  5
FB20E
  8
0
 10
17404.005561744008
 20
11103.108869716971
 30
0.0
  0
VERTEX
  5
FB20F
  8
0
 10
17369.005561744008
 20
11103.108869716971
 30
0.0
  0
VERTEX
  5
FB210
  8
0
 10
17369.005561744008
 20
9806.1088697169798
 30
0.0
  0
VERTEX
  5
FB211
  8
0
 10
17404.005561744008
 20
9806.1088697169798
 30
0.0
  0
SEQEND
  5
FB212
  8
0
  0
POLYLINE
  5
EF804
  8
0
 66
     1
 10
0.0
 20
0.0
 30
0.0
 70
     1
  0
VERTEX
  5
FB213
  8
0
 10
16369.00556174401
 20
9838.1088697169816
 30
0.0
  0
VERTEX
  5
FB214
  8
0
 10
17369.005561744008
 20
9838.1088697169816
 30
0.0
  0
VERTEX
  5
FB215
  8
0
 10
17369.005561744008
 20
9873.1088697169762
 30
0.0
  0
VERTEX
  5
FB216
  8
0
 10
16369.00556174401
 20
9873.1088697169762
 30
0.0
  0
SEQEND
  5
FB217
  8
0
  0
POLYLINE
  5
EF805
  8
0
 66
     1
 10
0.0
 20
0.0
 30
0.0
 70
     1
  0
VERTEX
  5
FB218
  8
0
 10
16369.00556174401
 20
11068.108869716971
 30
0.0
  0
VERTEX
  5
FB219
  8
0
 10
17369.005561744008
 20
11068.108869716971
 30
0.0
  0
VERTEX
  5
FB21A
  8
0
 10
17369.005561744008
 20
11103.108869716971
 30
0.0
  0
VERTEX
  5
FB21B
  8
0
 10
16369.00556174401
 20
11103.108869716971
 30
0.0
  0
SEQEND
  5
FB21C
  8
0
  0
POLYLINE
  5
EF806
  8
0
 66
     1
 10
0.0
 20
0.0
 30
0.0
 70
     1
  0
VERTEX
  5
FB21D
  8
0
 10
25367.898635499529
 20
11068.108869716971
 30
0.0
  0
VERTEX
  5
FB21E
  8
0
 10
24367.89863549954
 20
11068.108869716971
 30
0.0
  0
VERTEX
  5
FB21F
  8
0
 10
24367.89863549954
 20
11103.108869716971
 30
0.0
  0
VERTEX
  5
FB220
  8
0
 10
25367.898635499529
 20
11103.108869716971
 30
0.0
  0
SEQEND
  5
FB221
  8
0
  0
POLYLINE
  5
EF807
  8
0
 66
     1
 10
0.0
 20
0.0
 30
0.0
 70
     1
  0
VERTEX
  5
FB222
  8
0
 10
25367.898635499529
 20
9838.1088697169816
 30
0.0
  0
VERTEX
  5
FB223
  8
0
 10
24367.89863549954
 20
9838.1088697169816
 30
0.0
  0
VERTEX
  5
FB224
  8
0
 10
24367.89863549954
 20
9873.1088697169762
 30
0.0
  0
VERTEX
  5
FB225
  8
0
 10
25367.898635499529
 20
9873.1088697169762
 30
0.0
  0
SEQEND
  5
FB226
  8
0
  0
POLYLINE
  5
EF808
  8
0
 66
     1
 10
0.0
 20
0.0
 30
0.0
 70
     1
  0
VERTEX
  5
FB227
  8
0
 10
25402.89863549954
 20
11103.108869716971
 30
0.0
  0
VERTEX
  5
FB228
  8
0
 10
25367.898635499529
 20
11103.108869716971
 30
0.0
  0
VERTEX
  5
FB229
  8
0
 10
25367.898635499529
 20
9806.1088697169798
 30
0.0
  0
VERTEX
  5
FB22A
  8
0
 10
25402.89863549954
 20
9806.1088697169798
 30
0.0
  0
SEQEND
  5
FB22B
  8
0
  0
POLYLINE
  5
EF809
  8
0
 66
     1
 10
0.0
 20
0.0
 30
0.0
  0
VERTEX
  5
FB22C
  8
0
 10
25400.39863549954
 20
9806.1088697169798
 30
0.0
  0
VERTEX
  5
FB22D
  8
0
 10
25370.39863549954
 20
9806.1088697169798
 30
0.0
  0
VERTEX
  5
FB22E
  8
0
 10
25370.39863549954
 20
9803.1088697169816
 30
0.0
  0
VERTEX
  5
FB22F
  8
0
 10
25400.39863549954
 20
9803.1088697169816
 30
0.0
  0
VERTEX
  5
FB230
  8
0
 10
25400.39863549954
 20
9806.1088697169798
 30
0.0
  0
SEQEND
  5
FB231
  8
0
  0
POLYLINE
  5
EF80A
  8
0
 66
     1
 10
0.0
 20
0.0
 30
0.0
 70
     1
  0
VERTEX
  5
FB232
  8
0
 10
25367.898635499529
 20
10658.108869716971
 30
0.0
  0
VERTEX
  5
FB233
  8
0
 10
24367.89863549954
 20
10658.108869716971
 30
0.0
  0
VERTEX
  5
FB234
  8
0
 10
24367.89863549954
 20
10693.108869716971
 30
0.0
  0
VERTEX
  5
FB235
  8
0
 10
25367.898635499529
 20
10693.108869716971
 30
0.0
  0
SEQEND
  5
FB236
  8
0
  0
POLYLINE
  5
EF80B
  8
0
 66
     1
 10
0.0
 20
0.0
 30
0.0
 70
     1
  0
VERTEX
  5
FB237
  8
0
 10
16369.00556174401
 20
10658.108869716971
 30
0.0
  0
VERTEX
  5
FB238
  8
0
 10
17369.005561744008
 20
10658.108869716971
 30
0.0
  0
VERTEX
  5
FB239
  8
0
 10
17369.005561744008
 20
10693.108869716971
 30
0.0
  0
VERTEX
  5
FB23A
  8
0
 10
16369.00556174401
 20
10693.108869716971
 30
0.0
  0
SEQEND
  5
FB23B
  8
0
  0
POLYLINE
  5
EF80C
  8
0
 66
     1
 10
0.0
 20
0.0
 30
0.0
 70
     1
  0
VERTEX
  5
FB23C
  8
0
 10
16366.50556174401
 20
5618.1088697169844
 30
0.0
  0
VERTEX
  5
FB23D
  8
0
 10
17366.505561744008
 20
5618.1088697169844
 30
0.0
  0
VERTEX
  5
FB23E
  8
0
 10
17366.505561744008
 20
5653.1088697169844
 30
0.0
  0
VERTEX
  5
FB23F
  8
0
 10
16366.50556174401
 20
5653.1088697169844
 30
0.0
  0
SEQEND
  5
FB240
  8
0
  0
POLYLINE
  5
EF80D
  8
0
 66
     1
 10
0.0
 20
0.0
 30
0.0
 70
     1
  0
VERTEX
  5
FB241
  8
0
 10
25365.39863549954
 20
5618.1088697169844
 30
0.0
  0
VERTEX
  5
FB242
  8
0
 10
24365.398635499529
 20
5618.1088697169844
 30
0.0
  0
VERTEX
  5
FB243
  8
0
 10
24365.398635499529
 20
5653.1088697169844
 30
0.0
  0
VERTEX
  5
FB244
  8
0
 10
25365.39863549954
 20
5653.1088697169844
 30
0.0
  0
SEQEND
  5
FB245
  8
0
  0
POLYLINE
  5
EF80E
  8
0
 66
     1
 10
0.0
 20
0.0
 30
0.0
  0
VERTEX
  5
FB246
  8
0
 10
25397.89863549954
 20
4766.1088697169844
 30
0.0
  0
VERTEX
  5
FB247
  8
0
 10
25367.898635499529
 20
4766.1088697169844
 30
0.0
  0
VERTEX
  5
FB248
  8
0
 10
25367.898635499529
 20
4763.1088697169844
 30
0.0
  0
VERTEX
  5
FB249
  8
0
 10
25397.89863549954
 20
4763.1088697169844
 30
0.0
  0
VERTEX
  5
FB24A
  8
0
 10
25397.89863549954
 20
4766.1088697169844
 30
0.0
  0
SEQEND
  5
FB24B
  8
0
  0
POLYLINE
  5
EF80F
  8
0
 66
     1
 10
0.0
 20
0.0
 30
0.0
 70
     1
  0
VERTEX
  5
FB24C
  8
0
 10
25400.39863549954
 20
6883.1088697169826
 30
0.0
  0
VERTEX
  5
FB24D
  8
0
 10
25365.39863549954
 20
6883.1088697169826
 30
0.0
  0
VERTEX
  5
FB24E
  8
0
 10
25365.39863549954
 20
4766.1088697169844
 30
0.0
  0
VERTEX
  5
FB24F
  8
0
 10
25400.39863549954
 20
4766.1088697169844
 30
0.0
  0
SEQEND
  5
FB250
  8
0
  0
POLYLINE
  5
EF810
  8
0
 66
     1
 10
0.0
 20
0.0
 30
0.0
 70
     1
  0
VERTEX
  5
FB251
  8
0
 10
25365.39863549954
 20
4798.1088697169844
 30
0.0
  0
VERTEX
  5
FB252
  8
0
 10
24365.398635499529
 20
4798.1088697169844
 30
0.0
  0
VERTEX
  5
FB253
  8
0
 10
24365.398635499529
 20
4833.1088697169844
 30
0.0
  0
VERTEX
  5
FB254
  8
0
 10
25365.39863549954
 20
4833.1088697169844
 30
0.0
  0
SEQEND
  5
FB255
  8
0
  0
POLYLINE
  5
EF811
  8
0
 66
     1
 10
0.0
 20
0.0
 30
0.0
 70
     1
  0
VERTEX
  5
FB256
  8
0
 10
25365.39863549954
 20
6848.1088697169853
 30
0.0
  0
VERTEX
  5
FB257
  8
0
 10
24365.398635499529
 20
6848.1088697169853
 30
0.0
  0
VERTEX
  5
FB258
  8
0
 10
24365.398635499529
 20
6883.1088697169826
 30
0.0
  0
VERTEX
  5
FB259
  8
0
 10
25365.39863549954
 20
6883.1088697169826
 30
0.0
  0
SEQEND
  5
FB25A
  8
0
  0
POLYLINE
  5
EF812
  8
0
 66
     1
 10
0.0
 20
0.0
 30
0.0
 70
     1
  0
VERTEX
  5
FB25B
  8
0
 10
16366.50556174401
 20
6848.1088697169853
 30
0.0
  0
VERTEX
  5
FB25C
  8
0
 10
17366.505561744008
 20
6848.1088697169853
 30
0.0
  0
VERTEX
  5
FB25D
  8
0
 10
17366.505561744008
 20
6883.1088697169826
 30
0.0
  0
VERTEX
  5
FB25E
  8
0
 10
16366.50556174401
 20
6883.1088697169826
 30
0.0
  0
SEQEND
  5
FB25F
  8
0
  0
POLYLINE
  5
EF813
  8
0
 66
     1
 10
0.0
 20
0.0
 30
0.0
 70
     1
  0
VERTEX
  5
FB260
  8
0
 10
16366.50556174401
 20
4798.1088697169844
 30
0.0
  0
VERTEX
  5
FB261
  8
0
 10
17366.505561744008
 20
4798.1088697169844
 30
0.0
  0
VERTEX
  5
FB262
  8
0
 10
17366.505561744008
 20
4833.1088697169844
 30
0.0
  0
VERTEX
  5
FB263
  8
0
 10
16366.50556174401
 20
4833.1088697169844
 30
0.0
  0
SEQEND
  5
FB264
  8
0
  0
POLYLINE
  5
EF814
  8
0
 66
     1
 10
0.0
 20
0.0
 30
0.0
 70
     1
  0
VERTEX
  5
FB265
  8
0
 10
17401.505561744008
 20
6883.1088697169826
 30
0.0
  0
VERTEX
  5
FB266
  8
0
 10
17366.505561744008
 20
6883.1088697169826
 30
0.0
  0
VERTEX
  5
FB267
  8
0
 10
17366.505561744008
 20
4766.1088697169844
 30
0.0
  0
VERTEX
  5
FB268
  8
0
 10
17401.505561744008
 20
4766.1088697169844
 30
0.0
  0
SEQEND
  5
FB269
  8
0
  0
POLYLINE
  5
EF815
  8
0
 66
     1
 10
0.0
 20
0.0
 30
0.0
 70
     1
  0
VERTEX
  5
FB26A
  8
0
 10
16331.505561744019
 20
6883.1088697169826
 30
0.0
  0
VERTEX
  5
FB26B
  8
0
 10
16366.50556174401
 20
6883.1088697169826
 30
0.0
  0
VERTEX
  5
FB26C
  8
0
 10
16366.50556174401
 20
4766.1088697169844
 30
0.0
  0
VERTEX
  5
FB26D
  8
0
 10
16331.505561744019
 20
4766.1088697169844
 30
0.0
  0
SEQEND
  5
FB26E
  8
0
  0
POLYLINE
  5
EF816
  8
0
 66
     1
 10
0.0
 20
0.0
 30
0.0
  0
VERTEX
  5
FB26F
  8
0
 10
16334.00556174401
 20
4766.1088697169844
 30
0.0
  0
VERTEX
  5
FB270
  8
0
 10
16364.00556174401
 20
4766.1088697169844
 30
0.0
  0
VERTEX
  5
FB271
  8
0
 10
16364.00556174401
 20
4763.1088697169844
 30
0.0
  0
VERTEX
  5
FB272
  8
0
 10
16334.00556174401
 20
4763.1088697169844
 30
0.0
  0
VERTEX
  5
FB273
  8
0
 10
16334.00556174401
 20
4766.1088697169844
 30
0.0
  0
SEQEND
  5
FB274
  8
0
  0
POLYLINE
  5
EF817
  8
0
 66
     1
 10
0.0
 20
0.0
 30
0.0
  0
VERTEX
  5
FB275
  8
0
 10
17399.005561744008
 20
4766.1088697169844
 30
0.0
  0
VERTEX
  5
FB276
  8
0
 10
17369.005561744008
 20
4766.1088697169844
 30
0.0
  0
VERTEX
  5
FB277
  8
0
 10
17369.005561744008
 20
4763.1088697169844
 30
0.0
  0
VERTEX
  5
FB278
  8
0
 10
17399.005561744008
 20
4763.1088697169844
 30
0.0
  0
VERTEX
  5
FB279
  8
0
 10
17399.005561744008
 20
4766.1088697169844
 30
0.0
  0
SEQEND
  5
FB27A
  8
0
  0
POLYLINE
  5
EF818
  8
0
 66
     1
 10
0.0
 20
0.0
 30
0.0
  0
VERTEX
  5
FB27B
  8
0
 10
17401.505561744008
 20
6883.1088697169826
 30
0.0
  0
VERTEX
  5
FB27C
  8
0
 10
17401.505561744008
 20
4766.1088697169844
 30
0.0
  0
SEQEND
  5
FB27D
  8
0
  0
POLYLINE
  5
EF819
  8
0
 66
     1
 10
0.0
 20
0.0
 30
0.0
  0
VERTEX
  5
FB27E
  8
0
 10
17366.505561744008
 20
5243.1088697169953
 30
0.0
  0
VERTEX
  5
FB27F
  8
0
 10
16366.50556174401
 20
5243.1088697169953
 30
0.0
  0
VERTEX
  5
FB280
  8
0
 10
16366.50556174401
 20
5208.1088697169844
 30
0.0
  0
VERTEX
  5
FB281
  8
0
 10
17366.505561744008
 20
5208.1088697169844
 30
0.0
  0
VERTEX
  5
FB282
  8
0
 10
17366.505561744008
 20
5243.1088697169953
 30
0.0
  0
SEQEND
  5
FB283
  8
0
  0
POLYLINE
  5
EF81A
  8
0
 66
     1
 10
0.0
 20
0.0
 30
0.0
  0
VERTEX
  5
FB284
  8
0
 10
25365.39863549954
 20
5243.1088697169953
 30
0.0
  0
VERTEX
  5
FB285
  8
0
 10
24365.398635499529
 20
5243.1088697169953
 30
0.0
  0
VERTEX
  5
FB286
  8
0
 10
24365.398635499529
 20
5208.1088697169844
 30
0.0
  0
VERTEX
  5
FB287
  8
0
 10
25365.39863549954
 20
5208.1088697169844
 30
0.0
  0
VERTEX
  5
FB288
  8
0
 10
25365.39863549954
 20
5243.1088697169953
 30
0.0
  0
SEQEND
  5
FB289
  8
0
  0
POLYLINE
  5
EF81B
  8
0
 66
     1
 10
0.0
 20
0.0
 30
0.0
  0
VERTEX
  5
FB28A
  8
0
 10
25365.39863549954
 20
6473.1088697169953
 30
0.0
  0
VERTEX
  5
FB28B
  8
0
 10
24365.398635499529
 20
6473.1088697169953
 30
0.0
  0
VERTEX
  5
FB28C
  8
0
 10
24365.398635499529
 20
6438.1088697169826
 30
0.0
  0
VERTEX
  5
FB28D
  8
0
 10
25365.39863549954
 20
6438.1088697169826
 30
0.0
  0
VERTEX
  5
FB28E
  8
0
 10
25365.39863549954
 20
6473.1088697169953
 30
0.0
  0
SEQEND
  5
FB28F
  8
0
  0
POLYLINE
  5
EF81C
  8
0
 66
     1
 10
0.0
 20
0.0
 30
0.0
 70
     1
  0
VERTEX
  5
FB290
  8
0
 10
25365.39863549954
 20
6028.1088697169844
 30
0.0
  0
VERTEX
  5
FB291
  8
0
 10
24365.398635499529
 20
6028.1088697169844
 30
0.0
  0
VERTEX
  5
FB292
  8
0
 10
24365.398635499529
 20
6063.1088697169844
 30
0.0
  0
VERTEX
  5
FB293
  8
0
 10
25365.39863549954
 20
6063.1088697169844
 30
0.0
  0
SEQEND
  5
FB294
  8
0
  0
POLYLINE
  5
EF81D
  8
0
 66
     1
 10
0.0
 20
0.0
 30
0.0
  0
VERTEX
  5
FB295
  8
0
 10
17366.505561744008
 20
6473.1088697169953
 30
0.0
  0
VERTEX
  5
FB296
  8
0
 10
16366.50556174401
 20
6473.1088697169953
 30
0.0
  0
VERTEX
  5
FB297
  8
0
 10
16366.50556174401
 20
6438.1088697169826
 30
0.0
  0
VERTEX
  5
FB298
  8
0
 10
17366.505561744008
 20
6438.1088697169826
 30
0.0
  0
VERTEX
  5
FB299
  8
0
 10
17366.505561744008
 20
6473.1088697169953
 30
0.0
  0
SEQEND
  5
FB29A
  8
0
  0
POLYLINE
  5
EF81E
  8
0
 66
     1
 10
0.0
 20
0.0
 30
0.0
 70
     1
  0
VERTEX
  5
FB29B
  8
0
 10
16366.50556174401
 20
6028.1088697169844
 30
0.0
  0
VERTEX
  5
FB29C
  8
0
 10
17366.505561744008
 20
6028.1088697169844
 30
0.0
  0
VERTEX
  5
FB29D
  8
0
 10
17366.505561744008
 20
6063.1088697169844
 30
0.0
  0
VERTEX
  5
FB29E
  8
0
 10
16366.50556174401
 20
6063.1088697169844
 30
0.0
  0
SEQEND
  5
FB29F
  8
0
  0
POLYLINE
  5
EF81F
  8
0
 66
     1
 10
0.0
 20
0.0
 30
0.0
 70
     1
  0
VERTEX
  5
FB2A0
  8
0
 10
16364.00556174401
 20
2928.1088697169948
 30
0.0
  0
VERTEX
  5
FB2A1
  8
0
 10
17364.005561744008
 20
2928.1088697169948
 30
0.0
  0
VERTEX
  5
FB2A2
  8
0
 10
17364.005561744008
 20
2963.1088697169948
 30
0.0
  0
VERTEX
  5
FB2A3
  8
0
 10
16364.00556174401
 20
2963.1088697169948
 30
0.0
  0
SEQEND
  5
FB2A4
  8
0
  0
POLYLINE
  5
EF820
  8
0
 66
     1
 10
0.0
 20
0.0
 30
0.0
  0
VERTEX
  5
FB2A5
  8
0
 10
17364.005561744008
 20
3373.1088697170071
 30
0.0
  0
VERTEX
  5
FB2A6
  8
0
 10
16364.00556174401
 20
3373.1088697170071
 30
0.0
  0
VERTEX
  5
FB2A7
  8
0
 10
16364.00556174401
 20
3338.1088697169948
 30
0.0
  0
VERTEX
  5
FB2A8
  8
0
 10
17364.005561744008
 20
3338.1088697169948
 30
0.0
  0
VERTEX
  5
FB2A9
  8
0
 10
17364.005561744008
 20
3373.1088697170071
 30
0.0
  0
SEQEND
  5
FB2AA
  8
0
  0
POLYLINE
  5
EF821
  8
0
 66
     1
 10
0.0
 20
0.0
 30
0.0
 70
     1
  0
VERTEX
  5
FB2AB
  8
0
 10
25362.89863549954
 20
2928.1088697169948
 30
0.0
  0
VERTEX
  5
FB2AC
  8
0
 10
24362.89863549954
 20
2928.1088697169948
 30
0.0
  0
VERTEX
  5
FB2AD
  8
0
 10
24362.89863549954
 20
2963.1088697169948
 30
0.0
  0
VERTEX
  5
FB2AE
  8
0
 10
25362.89863549954
 20
2963.1088697169948
 30
0.0
  0
SEQEND
  5
FB2AF
  8
0
  0
POLYLINE
  5
EF822
  8
0
 66
     1
 10
0.0
 20
0.0
 30
0.0
  0
VERTEX
  5
FB2B0
  8
0
 10
25362.89863549954
 20
3373.1088697170071
 30
0.0
  0
VERTEX
  5
FB2B1
  8
0
 10
24362.89863549954
 20
3373.1088697170071
 30
0.0
  0
VERTEX
  5
FB2B2
  8
0
 10
24362.89863549954
 20
3338.1088697169948
 30
0.0
  0
VERTEX
  5
FB2B3
  8
0
 10
25362.89863549954
 20
3338.1088697169948
 30
0.0
  0
VERTEX
  5
FB2B4
  8
0
 10
25362.89863549954
 20
3373.1088697170071
 30
0.0
  0
SEQEND
  5
FB2B5
  8
0
  0
POLYLINE
  5
EF823
  8
0
 66
     1
 10
0.0
 20
0.0
 30
0.0
  0
VERTEX
  5
FB2B6
  8
0
 10
25362.89863549954
 20
2143.1088697170071
 30
0.0
  0
VERTEX
  5
FB2B7
  8
0
 10
24362.89863549954
 20
2143.1088697170071
 30
0.0
  0
VERTEX
  5
FB2B8
  8
0
 10
24362.89863549954
 20
2108.1088697169948
 30
0.0
  0
VERTEX
  5
FB2B9
  8
0
 10
25362.89863549954
 20
2108.1088697169948
 30
0.0
  0
VERTEX
  5
FB2BA
  8
0
 10
25362.89863549954
 20
2143.1088697170071
 30
0.0
  0
SEQEND
  5
FB2BB
  8
0
  0
POLYLINE
  5
EF824
  8
0
 66
     1
 10
0.0
 20
0.0
 30
0.0
  0
VERTEX
  5
FB2BC
  8
0
 10
17364.005561744008
 20
2143.1088697170071
 30
0.0
  0
VERTEX
  5
FB2BD
  8
0
 10
16364.00556174401
 20
2143.1088697170071
 30
0.0
  0
VERTEX
  5
FB2BE
  8
0
 10
16364.00556174401
 20
2108.1088697169948
 30
0.0
  0
VERTEX
  5
FB2BF
  8
0
 10
17364.005561744008
 20
2108.1088697169948
 30
0.0
  0
VERTEX
  5
FB2C0
  8
0
 10
17364.005561744008
 20
2143.1088697170071
 30
0.0
  0
SEQEND
  5
FB2C1
  8
0
  0
POLYLINE
  5
EF825
  8
0
 66
     1
 10
0.0
 20
0.0
 30
0.0
  0
VERTEX
  5
FB2C2
  8
0
 10
17399.005561744008
 20
4193.1088697169962
 30
0.0
  0
VERTEX
  5
FB2C3
  8
0
 10
17399.005561744008
 20
1666.1088697169951
 30
0.0
  0
SEQEND
  5
FB2C4
  8
0
  0
POLYLINE
  5
EF826
  8
0
 66
     1
 10
0.0
 20
0.0
 30
0.0
  0
VERTEX
  5
FB2C5
  8
0
 10
17396.505561744008
 20
1666.1088697169951
 30
0.0
  0
VERTEX
  5
FB2C6
  8
0
 10
17366.505561744008
 20
1666.1088697169951
 30
0.0
  0
VERTEX
  5
FB2C7
  8
0
 10
17366.505561744008
 20
1663.1088697169951
 30
0.0
  0
VERTEX
  5
FB2C8
  8
0
 10
17396.505561744008
 20
1663.1088697169951
 30
0.0
  0
VERTEX
  5
FB2C9
  8
0
 10
17396.505561744008
 20
1666.1088697169951
 30
0.0
  0
SEQEND
  5
FB2CA
  8
0
  0
POLYLINE
  5
EF827
  8
0
 66
     1
 10
0.0
 20
0.0
 30
0.0
  0
VERTEX
  5
FB2CB
  8
0
 10
16331.505561744019
 20
1666.1088697169951
 30
0.0
  0
VERTEX
  5
FB2CC
  8
0
 10
16361.50556174401
 20
1666.1088697169951
 30
0.0
  0
VERTEX
  5
FB2CD
  8
0
 10
16361.50556174401
 20
1663.1088697169951
 30
0.0
  0
VERTEX
  5
FB2CE
  8
0
 10
16331.505561744019
 20
1663.1088697169951
 30
0.0
  0
VERTEX
  5
FB2CF
  8
0
 10
16331.505561744019
 20
1666.1088697169951
 30
0.0
  0
SEQEND
  5
FB2D0
  8
0
  0
POLYLINE
  5
EF828
  8
0
 66
     1
 10
0.0
 20
0.0
 30
0.0
 70
     1
  0
VERTEX
  5
FB2D1
  8
0
 10
16329.00556174401
 20
4193.1088697169962
 30
0.0
  0
VERTEX
  5
FB2D2
  8
0
 10
16364.00556174401
 20
4193.1088697169962
 30
0.0
  0
VERTEX
  5
FB2D3
  8
0
 10
16364.00556174401
 20
1666.1088697169951
 30
0.0
  0
VERTEX
  5
FB2D4
  8
0
 10
16329.00556174401
 20
1666.1088697169951
 30
0.0
  0
SEQEND
  5
FB2D5
  8
0
  0
POLYLINE
  5
EF829
  8
0
 66
     1
 10
0.0
 20
0.0
 30
0.0
 70
     1
  0
VERTEX
  5
FB2D6
  8
0
 10
17399.005561744008
 20
4193.1088697169962
 30
0.0
  0
VERTEX
  5
FB2D7
  8
0
 10
17364.005561744008
 20
4193.1088697169962
 30
0.0
  0
VERTEX
  5
FB2D8
  8
0
 10
17364.005561744008
 20
1666.1088697169951
 30
0.0
  0
VERTEX
  5
FB2D9
  8
0
 10
17399.005561744008
 20
1666.1088697169951
 30
0.0
  0
SEQEND
  5
FB2DA
  8
0
  0
POLYLINE
  5
EF82A
  8
0
 66
     1
 10
0.0
 20
0.0
 30
0.0
 70
     1
  0
VERTEX
  5
FB2DB
  8
0
 10
16364.00556174401
 20
1698.1088697169951
 30
0.0
  0
VERTEX
  5
FB2DC
  8
0
 10
17364.005561744008
 20
1698.1088697169951
 30
0.0
  0
VERTEX
  5
FB2DD
  8
0
 10
17364.005561744008
 20
1733.1088697169951
 30
0.0
  0
VERTEX
  5
FB2DE
  8
0
 10
16364.00556174401
 20
1733.1088697169951
 30
0.0
  0
SEQEND
  5
FB2DF
  8
0
  0
POLYLINE
  5
EF82B
  8
0
 66
     1
 10
0.0
 20
0.0
 30
0.0
 70
     1
  0
VERTEX
  5
FB2E0
  8
0
 10
16364.00556174401
 20
4158.1088697169953
 30
0.0
  0
VERTEX
  5
FB2E1
  8
0
 10
17364.005561744008
 20
4158.1088697169953
 30
0.0
  0
VERTEX
  5
FB2E2
  8
0
 10
17364.005561744008
 20
4193.1088697169962
 30
0.0
  0
VERTEX
  5
FB2E3
  8
0
 10
16364.00556174401
 20
4193.1088697169962
 30
0.0
  0
SEQEND
  5
FB2E4
  8
0
  0
POLYLINE
  5
EF82C
  8
0
 66
     1
 10
0.0
 20
0.0
 30
0.0
 70
     1
  0
VERTEX
  5
FB2E5
  8
0
 10
25362.89863549954
 20
4158.1088697169953
 30
0.0
  0
VERTEX
  5
FB2E6
  8
0
 10
24362.89863549954
 20
4158.1088697169953
 30
0.0
  0
VERTEX
  5
FB2E7
  8
0
 10
24362.89863549954
 20
4193.1088697169962
 30
0.0
  0
VERTEX
  5
FB2E8
  8
0
 10
25362.89863549954
 20
4193.1088697169962
 30
0.0
  0
SEQEND
  5
FB2E9
  8
0
  0
POLYLINE
  5
EF82D
  8
0
 66
     1
 10
0.0
 20
0.0
 30
0.0
 70
     1
  0
VERTEX
  5
FB2EA
  8
0
 10
25362.89863549954
 20
1698.1088697169951
 30
0.0
  0
VERTEX
  5
FB2EB
  8
0
 10
24362.89863549954
 20
1698.1088697169951
 30
0.0
  0
VERTEX
  5
FB2EC
  8
0
 10
24362.89863549954
 20
1733.1088697169951
 30
0.0
  0
VERTEX
  5
FB2ED
  8
0
 10
25362.89863549954
 20
1733.1088697169951
 30
0.0
  0
SEQEND
  5
FB2EE
  8
0
  0
POLYLINE
  5
EF82E
  8
0
 66
     1
 10
0.0
 20
0.0
 30
0.0
 70
     1
  0
VERTEX
  5
FB2EF
  8
0
 10
25397.89863549954
 20
4193.1088697169962
 30
0.0
  0
VERTEX
  5
FB2F0
  8
0
 10
25362.89863549954
 20
4193.1088697169962
 30
0.0
  0
VERTEX
  5
FB2F1
  8
0
 10
25362.89863549954
 20
1666.1088697169951
 30
0.0
  0
VERTEX
  5
FB2F2
  8
0
 10
25397.89863549954
 20
1666.1088697169951
 30
0.0
  0
SEQEND
  5
FB2F3
  8
0
  0
POLYLINE
  5
EF82F
  8
0
 66
     1
 10
0.0
 20
0.0
 30
0.0
  0
VERTEX
  5
FB2F4
  8
0
 10
25395.39863549954
 20
1666.1088697169951
 30
0.0
  0
VERTEX
  5
FB2F5
  8
0
 10
25365.39863549954
 20
1666.1088697169951
 30
0.0
  0
VERTEX
  5
FB2F6
  8
0
 10
25365.39863549954
 20
1663.1088697169951
 30
0.0
  0
VERTEX
  5
FB2F7
  8
0
 10
25395.39863549954
 20
1663.1088697169951
 30
0.0
  0
VERTEX
  5
FB2F8
  8
0
 10
25395.39863549954
 20
1666.1088697169951
 30
0.0
  0
SEQEND
  5
FB2F9
  8
0
  0
POLYLINE
  5
EF830
  8
0
 66
     1
 10
0.0
 20
0.0
 30
0.0
 70
     1
  0
VERTEX
  5
FB2FA
  8
0
 10
25362.89863549954
 20
2518.1088697169948
 30
0.0
  0
VERTEX
  5
FB2FB
  8
0
 10
24362.89863549954
 20
2518.1088697169948
 30
0.0
  0
VERTEX
  5
FB2FC
  8
0
 10
24362.89863549954
 20
2553.1088697169948
 30
0.0
  0
VERTEX
  5
FB2FD
  8
0
 10
25362.89863549954
 20
2553.1088697169948
 30
0.0
  0
SEQEND
  5
FB2FE
  8
0
  0
POLYLINE
  5
EF831
  8
0
 66
     1
 10
0.0
 20
0.0
 30
0.0
 70
     1
  0
VERTEX
  5
FB2FF
  8
0
 10
16364.00556174401
 20
2518.1088697169948
 30
0.0
  0
VERTEX
  5
FB300
  8
0
 10
17364.005561744008
 20
2518.1088697169948
 30
0.0
  0
VERTEX
  5
FB301
  8
0
 10
17364.005561744008
 20
2553.1088697169948
 30
0.0
  0
VERTEX
  5
FB302
  8
0
 10
16364.00556174401
 20
2553.1088697169948
 30
0.0
  0
SEQEND
  5
FB303
  8
0
  0
POLYLINE
  5
EF832
  8
0
 66
     1
 10
0.0
 20
0.0
 30
0.0
 70
     1
  0
VERTEX
  5
FB304
  8
0
 10
25362.89863549954
 20
3748.1088697169962
 30
0.0
  0
VERTEX
  5
FB305
  8
0
 10
24362.89863549954
 20
3748.1088697169962
 30
0.0
  0
VERTEX
  5
FB306
  8
0
 10
24362.89863549954
 20
3783.1088697169962
 30
0.0
  0
VERTEX
  5
FB307
  8
0
 10
25362.89863549954
 20
3783.1088697169962
 30
0.0
  0
SEQEND
  5
FB308
  8
0
  0
POLYLINE
  5
EF833
  8
0
 66
     1
 10
0.0
 20
0.0
 30
0.0
 70
     1
  0
VERTEX
  5
FB309
  8
0
 10
16364.00556174401
 20
3748.1088697169962
 30
0.0
  0
VERTEX
  5
FB30A
  8
0
 10
17364.005561744008
 20
3748.1088697169962
 30
0.0
  0
VERTEX
  5
FB30B
  8
0
 10
17364.005561744008
 20
3783.1088697169962
 30
0.0
  0
VERTEX
  5
FB30C
  8
0
 10
16364.00556174401
 20
3783.1088697169962
 30
0.0
  0
SEQEND
  5
FB30D
  8
0
  0
POLYLINE
  5
EF834
  8
0
 66
     1
 10
0.0
 20
0.0
 30
0.0
 70
     1
  0
VERTEX
  5
FB30E
  8
0
 10
14794.005561743999
 20
3748.1088697169962
 30
0.0
  0
VERTEX
  5
FB30F
  8
0
 10
15294.00556174401
 20
3748.1088697169962
 30
0.0
  0
VERTEX
  5
FB310
  8
0
 10
15294.00556174401
 20
3783.1088697169962
 30
0.0
  0
VERTEX
  5
FB311
  8
0
 10
14794.005561743999
 20
3783.1088697169962
 30
0.0
  0
SEQEND
  5
FB312
  8
0
  0
POLYLINE
  5
EF835
  8
0
 66
     1
 10
0.0
 20
0.0
 30
0.0
 70
     1
  0
VERTEX
  5
FB313
  8
0
 10
23327.89863549954
 20
3748.1088697169962
 30
0.0
  0
VERTEX
  5
FB314
  8
0
 10
22827.898635499529
 20
3748.1088697169962
 30
0.0
  0
VERTEX
  5
FB315
  8
0
 10
22827.898635499529
 20
3783.1088697169962
 30
0.0
  0
VERTEX
  5
FB316
  8
0
 10
23327.89863549954
 20
3783.1088697169962
 30
0.0
  0
SEQEND
  5
FB317
  8
0
  0
POLYLINE
  5
EF836
  8
0
 66
     1
 10
0.0
 20
0.0
 30
0.0
 70
     1
  0
VERTEX
  5
FB318
  8
0
 10
14794.005561743999
 20
2518.1088697169948
 30
0.0
  0
VERTEX
  5
FB319
  8
0
 10
15294.00556174401
 20
2518.1088697169948
 30
0.0
  0
VERTEX
  5
FB31A
  8
0
 10
15294.00556174401
 20
2553.1088697169948
 30
0.0
  0
VERTEX
  5
FB31B
  8
0
 10
14794.005561743999
 20
2553.1088697169948
 30
0.0
  0
SEQEND
  5
FB31C
  8
0
  0
POLYLINE
  5
EF837
  8
0
 66
     1
 10
0.0
 20
0.0
 30
0.0
 70
     1
  0
VERTEX
  5
FB31D
  8
0
 10
23327.89863549954
 20
2518.1088697169948
 30
0.0
  0
VERTEX
  5
FB31E
  8
0
 10
22827.898635499529
 20
2518.1088697169948
 30
0.0
  0
VERTEX
  5
FB31F
  8
0
 10
22827.898635499529
 20
2553.1088697169948
 30
0.0
  0
VERTEX
  5
FB320
  8
0
 10
23327.89863549954
 20
2553.1088697169948
 30
0.0
  0
SEQEND
  5
FB321
  8
0
  0
POLYLINE
  5
EF838
  8
0
 66
     1
 10
0.0
 20
0.0
 30
0.0
  0
VERTEX
  5
FB322
  8
0
 10
23360.39863549954
 20
1666.1088697169951
 30
0.0
  0
VERTEX
  5
FB323
  8
0
 10
23330.39863549954
 20
1666.1088697169951
 30
0.0
  0
VERTEX
  5
FB324
  8
0
 10
23330.39863549954
 20
1663.1088697169951
 30
0.0
  0
VERTEX
  5
FB325
  8
0
 10
23360.39863549954
 20
1663.1088697169951
 30
0.0
  0
VERTEX
  5
FB326
  8
0
 10
23360.39863549954
 20
1666.1088697169951
 30
0.0
  0
SEQEND
  5
FB327
  8
0
  0
POLYLINE
  5
EF839
  8
0
 66
     1
 10
0.0
 20
0.0
 30
0.0
 70
     1
  0
VERTEX
  5
FB328
  8
0
 10
23362.89863549954
 20
4193.1088697169962
 30
0.0
  0
VERTEX
  5
FB329
  8
0
 10
23327.89863549954
 20
4193.1088697169962
 30
0.0
  0
VERTEX
  5
FB32A
  8
0
 10
23327.89863549954
 20
1666.1088697169951
 30
0.0
  0
VERTEX
  5
FB32B
  8
0
 10
23362.89863549954
 20
1666.1088697169951
 30
0.0
  0
SEQEND
  5
FB32C
  8
0
  0
POLYLINE
  5
EF83A
  8
0
 66
     1
 10
0.0
 20
0.0
 30
0.0
 70
     1
  0
VERTEX
  5
FB32D
  8
0
 10
23327.89863549954
 20
1698.1088697169951
 30
0.0
  0
VERTEX
  5
FB32E
  8
0
 10
22827.898635499529
 20
1698.1088697169951
 30
0.0
  0
VERTEX
  5
FB32F
  8
0
 10
22827.898635499529
 20
1733.1088697169951
 30
0.0
  0
VERTEX
  5
FB330
  8
0
 10
23327.89863549954
 20
1733.1088697169951
 30
0.0
  0
SEQEND
  5
FB331
  8
0
  0
POLYLINE
  5
EF83B
  8
0
 66
     1
 10
0.0
 20
0.0
 30
0.0
 70
     1
  0
VERTEX
  5
FB332
  8
0
 10
23327.89863549954
 20
4158.1088697169953
 30
0.0
  0
VERTEX
  5
FB333
  8
0
 10
22827.898635499529
 20
4158.1088697169953
 30
0.0
  0
VERTEX
  5
FB334
  8
0
 10
22827.898635499529
 20
4193.1088697169962
 30
0.0
  0
VERTEX
  5
FB335
  8
0
 10
23327.89863549954
 20
4193.1088697169962
 30
0.0
  0
SEQEND
  5
FB336
  8
0
  0
POLYLINE
  5
EF83C
  8
0
 66
     1
 10
0.0
 20
0.0
 30
0.0
 70
     1
  0
VERTEX
  5
FB337
  8
0
 10
14794.005561743999
 20
4158.1088697169953
 30
0.0
  0
VERTEX
  5
FB338
  8
0
 10
15294.00556174401
 20
4158.1088697169953
 30
0.0
  0
VERTEX
  5
FB339
  8
0
 10
15294.00556174401
 20
4193.1088697169962
 30
0.0
  0
VERTEX
  5
FB33A
  8
0
 10
14794.005561743999
 20
4193.1088697169962
 30
0.0
  0
SEQEND
  5
FB33B
  8
0
  0
POLYLINE
  5
EF83D
  8
0
 66
     1
 10
0.0
 20
0.0
 30
0.0
 70
     1
  0
VERTEX
  5
FB33C
  8
0
 10
14794.005561743999
 20
1698.1088697169951
 30
0.0
  0
VERTEX
  5
FB33D
  8
0
 10
15294.00556174401
 20
1698.1088697169951
 30
0.0
  0
VERTEX
  5
FB33E
  8
0
 10
15294.00556174401
 20
1733.1088697169951
 30
0.0
  0
VERTEX
  5
FB33F
  8
0
 10
14794.005561743999
 20
1733.1088697169951
 30
0.0
  0
SEQEND
  5
FB340
  8
0
  0
POLYLINE
  5
EF83E
  8
0
 66
     1
 10
0.0
 20
0.0
 30
0.0
 70
     1
  0
VERTEX
  5
FB341
  8
0
 10
15329.00556174401
 20
4193.1088697169962
 30
0.0
  0
VERTEX
  5
FB342
  8
0
 10
15294.00556174401
 20
4193.1088697169962
 30
0.0
  0
VERTEX
  5
FB343
  8
0
 10
15294.00556174401
 20
1666.1088697169951
 30
0.0
  0
VERTEX
  5
FB344
  8
0
 10
15329.00556174401
 20
1666.1088697169951
 30
0.0
  0
SEQEND
  5
FB345
  8
0
  0
POLYLINE
  5
EF83F
  8
0
 66
     1
 10
0.0
 20
0.0
 30
0.0
 70
     1
  0
VERTEX
  5
FB346
  8
0
 10
14759.00556174401
 20
4193.1088697169962
 30
0.0
  0
VERTEX
  5
FB347
  8
0
 10
14794.005561743999
 20
4193.1088697169962
 30
0.0
  0
VERTEX
  5
FB348
  8
0
 10
14794.005561743999
 20
1666.1088697169951
 30
0.0
  0
VERTEX
  5
FB349
  8
0
 10
14759.00556174401
 20
1666.1088697169951
 30
0.0
  0
SEQEND
  5
FB34A
  8
0
  0
POLYLINE
  5
EF840
  8
0
 66
     1
 10
0.0
 20
0.0
 30
0.0
  0
VERTEX
  5
FB34B
  8
0
 10
14761.50556174401
 20
1666.1088697169951
 30
0.0
  0
VERTEX
  5
FB34C
  8
0
 10
14791.50556174401
 20
1666.1088697169951
 30
0.0
  0
VERTEX
  5
FB34D
  8
0
 10
14791.50556174401
 20
1663.1088697169951
 30
0.0
  0
VERTEX
  5
FB34E
  8
0
 10
14761.50556174401
 20
1663.1088697169951
 30
0.0
  0
VERTEX
  5
FB34F
  8
0
 10
14761.50556174401
 20
1666.1088697169951
 30
0.0
  0
SEQEND
  5
FB350
  8
0
  0
POLYLINE
  5
EF841
  8
0
 66
     1
 10
0.0
 20
0.0
 30
0.0
  0
VERTEX
  5
FB351
  8
0
 10
15326.50556174401
 20
1666.1088697169951
 30
0.0
  0
VERTEX
  5
FB352
  8
0
 10
15296.50556174401
 20
1666.1088697169951
 30
0.0
  0
VERTEX
  5
FB353
  8
0
 10
15296.50556174401
 20
1663.1088697169951
 30
0.0
  0
VERTEX
  5
FB354
  8
0
 10
15326.50556174401
 20
1663.1088697169951
 30
0.0
  0
VERTEX
  5
FB355
  8
0
 10
15326.50556174401
 20
1666.1088697169951
 30
0.0
  0
SEQEND
  5
FB356
  8
0
  0
POLYLINE
  5
EF842
  8
0
 66
     1
 10
0.0
 20
0.0
 30
0.0
  0
VERTEX
  5
FB357
  8
0
 10
15329.00556174401
 20
4193.1088697169962
 30
0.0
  0
VERTEX
  5
FB358
  8
0
 10
15329.00556174401
 20
1666.1088697169951
 30
0.0
  0
SEQEND
  5
FB359
  8
0
  0
POLYLINE
  5
EF843
  8
0
 66
     1
 10
0.0
 20
0.0
 30
0.0
  0
VERTEX
  5
FB35A
  8
0
 10
15294.00556174401
 20
2143.1088697170071
 30
0.0
  0
VERTEX
  5
FB35B
  8
0
 10
14794.005561743999
 20
2143.1088697170071
 30
0.0
  0
VERTEX
  5
FB35C
  8
0
 10
14794.005561743999
 20
2108.1088697169948
 30
0.0
  0
VERTEX
  5
FB35D
  8
0
 10
15294.00556174401
 20
2108.1088697169948
 30
0.0
  0
VERTEX
  5
FB35E
  8
0
 10
15294.00556174401
 20
2143.1088697170071
 30
0.0
  0
SEQEND
  5
FB35F
  8
0
  0
POLYLINE
  5
EF844
  8
0
 66
     1
 10
0.0
 20
0.0
 30
0.0
  0
VERTEX
  5
FB360
  8
0
 10
23327.89863549954
 20
2143.1088697170071
 30
0.0
  0
VERTEX
  5
FB361
  8
0
 10
22827.898635499529
 20
2143.1088697170071
 30
0.0
  0
VERTEX
  5
FB362
  8
0
 10
22827.898635499529
 20
2108.1088697169948
 30
0.0
  0
VERTEX
  5
FB363
  8
0
 10
23327.89863549954
 20
2108.1088697169948
 30
0.0
  0
VERTEX
  5
FB364
  8
0
 10
23327.89863549954
 20
2143.1088697170071
 30
0.0
  0
SEQEND
  5
FB365
  8
0
  0
POLYLINE
  5
EF845
  8
0
 66
     1
 10
0.0
 20
0.0
 30
0.0
  0
VERTEX
  5
FB366
  8
0
 10
23327.89863549954
 20
3373.1088697170071
 30
0.0
  0
VERTEX
  5
FB367
  8
0
 10
22827.898635499529
 20
3373.1088697170071
 30
0.0
  0
VERTEX
  5
FB368
  8
0
 10
22827.898635499529
 20
3338.1088697169948
 30
0.0
  0
VERTEX
  5
FB369
  8
0
 10
23327.89863549954
 20
3338.1088697169948
 30
0.0
  0
VERTEX
  5
FB36A
  8
0
 10
23327.89863549954
 20
3373.1088697170071
 30
0.0
  0
SEQEND
  5
FB36B
  8
0
  0
POLYLINE
  5
EF846
  8
0
 66
     1
 10
0.0
 20
0.0
 30
0.0
 70
     1
  0
VERTEX
  5
FB36C
  8
0
 10
23327.89863549954
 20
2928.1088697169948
 30
0.0
  0
VERTEX
  5
FB36D
  8
0
 10
22827.898635499529
 20
2928.1088697169948
 30
0.0
  0
VERTEX
  5
FB36E
  8
0
 10
22827.898635499529
 20
2963.1088697169948
 30
0.0
  0
VERTEX
  5
FB36F
  8
0
 10
23327.89863549954
 20
2963.1088697169948
 30
0.0
  0
SEQEND
  5
FB370
  8
0
  0
POLYLINE
  5
EF847
  8
0
 66
     1
 10
0.0
 20
0.0
 30
0.0
  0
VERTEX
  5
FB371
  8
0
 10
15294.00556174401
 20
3373.1088697170071
 30
0.0
  0
VERTEX
  5
FB372
  8
0
 10
14794.005561743999
 20
3373.1088697170071
 30
0.0
  0
VERTEX
  5
FB373
  8
0
 10
14794.005561743999
 20
3338.1088697169948
 30
0.0
  0
VERTEX
  5
FB374
  8
0
 10
15294.00556174401
 20
3338.1088697169948
 30
0.0
  0
VERTEX
  5
FB375
  8
0
 10
15294.00556174401
 20
3373.1088697170071
 30
0.0
  0
SEQEND
  5
FB376
  8
0
  0
POLYLINE
  5
EF848
  8
0
 66
     1
 10
0.0
 20
0.0
 30
0.0
 70
     1
  0
VERTEX
  5
FB377
  8
0
 10
14794.005561743999
 20
2928.1088697169948
 30
0.0
  0
VERTEX
  5
FB378
  8
0
 10
15294.00556174401
 20
2928.1088697169948
 30
0.0
  0
VERTEX
  5
FB379
  8
0
 10
15294.00556174401
 20
2963.1088697169948
 30
0.0
  0
VERTEX
  5
FB37A
  8
0
 10
14794.005561743999
 20
2963.1088697169948
 30
0.0
  0
SEQEND
  5
FB37B
  8
0
  0
POLYLINE
  5
EF849
  8
0
 66
     1
 10
0.0
 20
0.0
 30
0.0
 70
     1
  0
VERTEX
  5
FB37C
  8
0
 10
14796.50556174401
 20
6028.1088697169844
 30
0.0
  0
VERTEX
  5
FB37D
  8
0
 10
15296.50556174401
 20
6028.1088697169844
 30
0.0
  0
VERTEX
  5
FB37E
  8
0
 10
15296.50556174401
 20
6063.1088697169844
 30
0.0
  0
VERTEX
  5
FB37F
  8
0
 10
14796.50556174401
 20
6063.1088697169844
 30
0.0
  0
SEQEND
  5
FB380
  8
0
  0
POLYLINE
  5
EF84A
  8
0
 66
     1
 10
0.0
 20
0.0
 30
0.0
  0
VERTEX
  5
FB381
  8
0
 10
15296.50556174401
 20
6473.1088697169953
 30
0.0
  0
VERTEX
  5
FB382
  8
0
 10
14796.50556174401
 20
6473.1088697169953
 30
0.0
  0
VERTEX
  5
FB383
  8
0
 10
14796.50556174401
 20
6438.1088697169826
 30
0.0
  0
VERTEX
  5
FB384
  8
0
 10
15296.50556174401
 20
6438.1088697169826
 30
0.0
  0
VERTEX
  5
FB385
  8
0
 10
15296.50556174401
 20
6473.1088697169953
 30
0.0
  0
SEQEND
  5
FB386
  8
0
  0
POLYLINE
  5
EF84B
  8
0
 66
     1
 10
0.0
 20
0.0
 30
0.0
 70
     1
  0
VERTEX
  5
FB387
  8
0
 10
23330.39863549954
 20
6028.1088697169844
 30
0.0
  0
VERTEX
  5
FB388
  8
0
 10
22830.39863549954
 20
6028.1088697169844
 30
0.0
  0
VERTEX
  5
FB389
  8
0
 10
22830.39863549954
 20
6063.1088697169844
 30
0.0
  0
VERTEX
  5
FB38A
  8
0
 10
23330.39863549954
 20
6063.1088697169844
 30
0.0
  0
SEQEND
  5
FB38B
  8
0
  0
POLYLINE
  5
EF84C
  8
0
 66
     1
 10
0.0
 20
0.0
 30
0.0
  0
VERTEX
  5
FB38C
  8
0
 10
23330.39863549954
 20
6473.1088697169953
 30
0.0
  0
VERTEX
  5
FB38D
  8
0
 10
22830.39863549954
 20
6473.1088697169953
 30
0.0
  0
VERTEX
  5
FB38E
  8
0
 10
22830.39863549954
 20
6438.1088697169826
 30
0.0
  0
VERTEX
  5
FB38F
  8
0
 10
23330.39863549954
 20
6438.1088697169826
 30
0.0
  0
VERTEX
  5
FB390
  8
0
 10
23330.39863549954
 20
6473.1088697169953
 30
0.0
  0
SEQEND
  5
FB391
  8
0
  0
POLYLINE
  5
EF84D
  8
0
 66
     1
 10
0.0
 20
0.0
 30
0.0
  0
VERTEX
  5
FB392
  8
0
 10
23330.39863549954
 20
5243.1088697169953
 30
0.0
  0
VERTEX
  5
FB393
  8
0
 10
22830.39863549954
 20
5243.1088697169953
 30
0.0
  0
VERTEX
  5
FB394
  8
0
 10
22830.39863549954
 20
5208.1088697169844
 30
0.0
  0
VERTEX
  5
FB395
  8
0
 10
23330.39863549954
 20
5208.1088697169844
 30
0.0
  0
VERTEX
  5
FB396
  8
0
 10
23330.39863549954
 20
5243.1088697169953
 30
0.0
  0
SEQEND
  5
FB397
  8
0
  0
POLYLINE
  5
EF84E
  8
0
 66
     1
 10
0.0
 20
0.0
 30
0.0
  0
VERTEX
  5
FB398
  8
0
 10
15296.50556174401
 20
5243.1088697169953
 30
0.0
  0
VERTEX
  5
FB399
  8
0
 10
14796.50556174401
 20
5243.1088697169953
 30
0.0
  0
VERTEX
  5
FB39A
  8
0
 10
14796.50556174401
 20
5208.1088697169844
 30
0.0
  0
VERTEX
  5
FB39B
  8
0
 10
15296.50556174401
 20
5208.1088697169844
 30
0.0
  0
VERTEX
  5
FB39C
  8
0
 10
15296.50556174401
 20
5243.1088697169953
 30
0.0
  0
SEQEND
  5
FB39D
  8
0
  0
POLYLINE
  5
EF84F
  8
0
 66
     1
 10
0.0
 20
0.0
 30
0.0
  0
VERTEX
  5
FB39E
  8
0
 10
15331.50556174401
 20
6883.1088697169826
 30
0.0
  0
VERTEX
  5
FB39F
  8
0
 10
15331.50556174401
 20
4766.1088697169844
 30
0.0
  0
SEQEND
  5
FB3A0
  8
0
  0
POLYLINE
  5
EF850
  8
0
 66
     1
 10
0.0
 20
0.0
 30
0.0
  0
VERTEX
  5
FB3A1
  8
0
 10
15329.00556174401
 20
4766.1088697169844
 30
0.0
  0
VERTEX
  5
FB3A2
  8
0
 10
15299.00556174401
 20
4766.1088697169844
 30
0.0
  0
VERTEX
  5
FB3A3
  8
0
 10
15299.00556174401
 20
4763.1088697169844
 30
0.0
  0
VERTEX
  5
FB3A4
  8
0
 10
15329.00556174401
 20
4763.1088697169844
 30
0.0
  0
VERTEX
  5
FB3A5
  8
0
 10
15329.00556174401
 20
4766.1088697169844
 30
0.0
  0
SEQEND
  5
FB3A6
  8
0
  0
POLYLINE
  5
EF851
  8
0
 66
     1
 10
0.0
 20
0.0
 30
0.0
  0
VERTEX
  5
FB3A7
  8
0
 10
14764.00556174401
 20
4766.1088697169844
 30
0.0
  0
VERTEX
  5
FB3A8
  8
0
 10
14794.005561743999
 20
4766.1088697169844
 30
0.0
  0
VERTEX
  5
FB3A9
  8
0
 10
14794.005561743999
 20
4763.1088697169844
 30
0.0
  0
VERTEX
  5
FB3AA
  8
0
 10
14764.00556174401
 20
4763.1088697169844
 30
0.0
  0
VERTEX
  5
FB3AB
  8
0
 10
14764.00556174401
 20
4766.1088697169844
 30
0.0
  0
SEQEND
  5
FB3AC
  8
0
  0
POLYLINE
  5
EF852
  8
0
 66
     1
 10
0.0
 20
0.0
 30
0.0
 70
     1
  0
VERTEX
  5
FB3AD
  8
0
 10
14761.50556174401
 20
6883.1088697169826
 30
0.0
  0
VERTEX
  5
FB3AE
  8
0
 10
14796.50556174401
 20
6883.1088697169826
 30
0.0
  0
VERTEX
  5
FB3AF
  8
0
 10
14796.50556174401
 20
4766.1088697169844
 30
0.0
  0
VERTEX
  5
FB3B0
  8
0
 10
14761.50556174401
 20
4766.1088697169844
 30
0.0
  0
SEQEND
  5
FB3B1
  8
0
  0
POLYLINE
  5
EF853
  8
0
 66
     1
 10
0.0
 20
0.0
 30
0.0
 70
     1
  0
VERTEX
  5
FB3B2
  8
0
 10
15331.50556174401
 20
6883.1088697169826
 30
0.0
  0
VERTEX
  5
FB3B3
  8
0
 10
15296.50556174401
 20
6883.1088697169826
 30
0.0
  0
VERTEX
  5
FB3B4
  8
0
 10
15296.50556174401
 20
4766.1088697169844
 30
0.0
  0
VERTEX
  5
FB3B5
  8
0
 10
15331.50556174401
 20
4766.1088697169844
 30
0.0
  0
SEQEND
  5
FB3B6
  8
0
  0
POLYLINE
  5
EF854
  8
0
 66
     1
 10
0.0
 20
0.0
 30
0.0
 70
     1
  0
VERTEX
  5
FB3B7
  8
0
 10
14796.50556174401
 20
4798.1088697169844
 30
0.0
  0
VERTEX
  5
FB3B8
  8
0
 10
15296.50556174401
 20
4798.1088697169844
 30
0.0
  0
VERTEX
  5
FB3B9
  8
0
 10
15296.50556174401
 20
4833.1088697169844
 30
0.0
  0
VERTEX
  5
FB3BA
  8
0
 10
14796.50556174401
 20
4833.1088697169844
 30
0.0
  0
SEQEND
  5
FB3BB
  8
0
  0
POLYLINE
  5
EF855
  8
0
 66
     1
 10
0.0
 20
0.0
 30
0.0
 70
     1
  0
VERTEX
  5
FB3BC
  8
0
 10
14796.50556174401
 20
6848.1088697169853
 30
0.0
  0
VERTEX
  5
FB3BD
  8
0
 10
15296.50556174401
 20
6848.1088697169853
 30
0.0
  0
VERTEX
  5
FB3BE
  8
0
 10
15296.50556174401
 20
6883.1088697169826
 30
0.0
  0
VERTEX
  5
FB3BF
  8
0
 10
14796.50556174401
 20
6883.1088697169826
 30
0.0
  0
SEQEND
  5
FB3C0
  8
0
  0
POLYLINE
  5
EF856
  8
0
 66
     1
 10
0.0
 20
0.0
 30
0.0
 70
     1
  0
VERTEX
  5
FB3C1
  8
0
 10
23330.39863549954
 20
6848.1088697169853
 30
0.0
  0
VERTEX
  5
FB3C2
  8
0
 10
22830.39863549954
 20
6848.1088697169853
 30
0.0
  0
VERTEX
  5
FB3C3
  8
0
 10
22830.39863549954
 20
6883.1088697169826
 30
0.0
  0
VERTEX
  5
FB3C4
  8
0
 10
23330.39863549954
 20
6883.1088697169826
 30
0.0
  0
SEQEND
  5
FB3C5
  8
0
  0
POLYLINE
  5
EF857
  8
0
 66
     1
 10
0.0
 20
0.0
 30
0.0
 70
     1
  0
VERTEX
  5
FB3C6
  8
0
 10
23330.39863549954
 20
4798.1088697169844
 30
0.0
  0
VERTEX
  5
FB3C7
  8
0
 10
22830.39863549954
 20
4798.1088697169844
 30
0.0
  0
VERTEX
  5
FB3C8
  8
0
 10
22830.39863549954
 20
4833.1088697169844
 30
0.0
  0
VERTEX
  5
FB3C9
  8
0
 10
23330.39863549954
 20
4833.1088697169844
 30
0.0
  0
SEQEND
  5
FB3CA
  8
0
  0
POLYLINE
  5
EF858
  8
0
 66
     1
 10
0.0
 20
0.0
 30
0.0
 70
     1
  0
VERTEX
  5
FB3CB
  8
0
 10
23365.39863549954
 20
6883.1088697169826
 30
0.0
  0
VERTEX
  5
FB3CC
  8
0
 10
23330.39863549954
 20
6883.1088697169826
 30
0.0
  0
VERTEX
  5
FB3CD
  8
0
 10
23330.39863549954
 20
4766.1088697169844
 30
0.0
  0
VERTEX
  5
FB3CE
  8
0
 10
23365.39863549954
 20
4766.1088697169844
 30
0.0
  0
SEQEND
  5
FB3CF
  8
0
  0
POLYLINE
  5
EF859
  8
0
 66
     1
 10
0.0
 20
0.0
 30
0.0
  0
VERTEX
  5
FB3D0
  8
0
 10
23362.89863549954
 20
4766.1088697169844
 30
0.0
  0
VERTEX
  5
FB3D1
  8
0
 10
23332.898635499529
 20
4766.1088697169844
 30
0.0
  0
VERTEX
  5
FB3D2
  8
0
 10
23332.898635499529
 20
4763.1088697169844
 30
0.0
  0
VERTEX
  5
FB3D3
  8
0
 10
23362.89863549954
 20
4763.1088697169844
 30
0.0
  0
VERTEX
  5
FB3D4
  8
0
 10
23362.89863549954
 20
4766.1088697169844
 30
0.0
  0
SEQEND
  5
FB3D5
  8
0
  0
POLYLINE
  5
EF85A
  8
0
 66
     1
 10
0.0
 20
0.0
 30
0.0
 70
     1
  0
VERTEX
  5
FB3D6
  8
0
 10
23330.39863549954
 20
5618.1088697169844
 30
0.0
  0
VERTEX
  5
FB3D7
  8
0
 10
22830.39863549954
 20
5618.1088697169844
 30
0.0
  0
VERTEX
  5
FB3D8
  8
0
 10
22830.39863549954
 20
5653.1088697169844
 30
0.0
  0
VERTEX
  5
FB3D9
  8
0
 10
23330.39863549954
 20
5653.1088697169844
 30
0.0
  0
SEQEND
  5
FB3DA
  8
0
  0
POLYLINE
  5
EF85B
  8
0
 66
     1
 10
0.0
 20
0.0
 30
0.0
 70
     1
  0
VERTEX
  5
FB3DB
  8
0
 10
14796.50556174401
 20
5618.1088697169844
 30
0.0
  0
VERTEX
  5
FB3DC
  8
0
 10
15296.50556174401
 20
5618.1088697169844
 30
0.0
  0
VERTEX
  5
FB3DD
  8
0
 10
15296.50556174401
 20
5653.1088697169844
 30
0.0
  0
VERTEX
  5
FB3DE
  8
0
 10
14796.50556174401
 20
5653.1088697169844
 30
0.0
  0
SEQEND
  5
FB3DF
  8
0
  0
POLYLINE
  5
EF85C
  8
0
 66
     1
 10
0.0
 20
0.0
 30
0.0
 70
     1
  0
VERTEX
  5
FB3E0
  8
0
 10
14799.00556174401
 20
10658.108869716971
 30
0.0
  0
VERTEX
  5
FB3E1
  8
0
 10
15299.00556174401
 20
10658.108869716971
 30
0.0
  0
VERTEX
  5
FB3E2
  8
0
 10
15299.00556174401
 20
10693.108869716971
 30
0.0
  0
VERTEX
  5
FB3E3
  8
0
 10
14799.00556174401
 20
10693.108869716971
 30
0.0
  0
SEQEND
  5
FB3E4
  8
0
  0
POLYLINE
  5
EF85D
  8
0
 66
     1
 10
0.0
 20
0.0
 30
0.0
 70
     1
  0
VERTEX
  5
FB3E5
  8
0
 10
23332.898635499529
 20
10658.108869716971
 30
0.0
  0
VERTEX
  5
FB3E6
  8
0
 10
22832.89863549954
 20
10658.108869716971
 30
0.0
  0
VERTEX
  5
FB3E7
  8
0
 10
22832.89863549954
 20
10693.108869716971
 30
0.0
  0
VERTEX
  5
FB3E8
  8
0
 10
23332.898635499529
 20
10693.108869716971
 30
0.0
  0
SEQEND
  5
FB3E9
  8
0
  0
POLYLINE
  5
EF85E
  8
0
 66
     1
 10
0.0
 20
0.0
 30
0.0
  0
VERTEX
  5
FB3EA
  8
0
 10
23365.39863549954
 20
9806.1088697169798
 30
0.0
  0
VERTEX
  5
FB3EB
  8
0
 10
23335.39863549954
 20
9806.1088697169798
 30
0.0
  0
VERTEX
  5
FB3EC
  8
0
 10
23335.39863549954
 20
9803.1088697169816
 30
0.0
  0
VERTEX
  5
FB3ED
  8
0
 10
23365.39863549954
 20
9803.1088697169816
 30
0.0
  0
VERTEX
  5
FB3EE
  8
0
 10
23365.39863549954
 20
9806.1088697169798
 30
0.0
  0
SEQEND
  5
FB3EF
  8
0
  0
POLYLINE
  5
EF85F
  8
0
 66
     1
 10
0.0
 20
0.0
 30
0.0
 70
     1
  0
VERTEX
  5
FB3F0
  8
0
 10
23367.89863549954
 20
11103.108869716971
 30
0.0
  0
VERTEX
  5
FB3F1
  8
0
 10
23332.898635499529
 20
11103.108869716971
 30
0.0
  0
VERTEX
  5
FB3F2
  8
0
 10
23332.898635499529
 20
9806.1088697169798
 30
0.0
  0
VERTEX
  5
FB3F3
  8
0
 10
23367.89863549954
 20
9806.1088697169798
 30
0.0
  0
SEQEND
  5
FB3F4
  8
0
  0
POLYLINE
  5
EF860
  8
0
 66
     1
 10
0.0
 20
0.0
 30
0.0
 70
     1
  0
VERTEX
  5
FB3F5
  8
0
 10
23332.898635499529
 20
9838.1088697169816
 30
0.0
  0
VERTEX
  5
FB3F6
  8
0
 10
22832.89863549954
 20
9838.1088697169816
 30
0.0
  0
VERTEX
  5
FB3F7
  8
0
 10
22832.89863549954
 20
9873.1088697169762
 30
0.0
  0
VERTEX
  5
FB3F8
  8
0
 10
23332.898635499529
 20
9873.1088697169762
 30
0.0
  0
SEQEND
  5
FB3F9
  8
0
  0
POLYLINE
  5
EF861
  8
0
 66
     1
 10
0.0
 20
0.0
 30
0.0
 70
     1
  0
VERTEX
  5
FB3FA
  8
0
 10
23332.898635499529
 20
11068.108869716971
 30
0.0
  0
VERTEX
  5
FB3FB
  8
0
 10
22832.89863549954
 20
11068.108869716971
 30
0.0
  0
VERTEX
  5
FB3FC
  8
0
 10
22832.89863549954
 20
11103.108869716971
 30
0.0
  0
VERTEX
  5
FB3FD
  8
0
 10
23332.898635499529
 20
11103.108869716971
 30
0.0
  0
SEQEND
  5
FB3FE
  8
0
  0
POLYLINE
  5
EF862
  8
0
 66
     1
 10
0.0
 20
0.0
 30
0.0
 70
     1
  0
VERTEX
  5
FB3FF
  8
0
 10
14799.00556174401
 20
11068.108869716971
 30
0.0
  0
VERTEX
  5
FB400
  8
0
 10
15299.00556174401
 20
11068.108869716971
 30
0.0
  0
VERTEX
  5
FB401
  8
0
 10
15299.00556174401
 20
11103.108869716971
 30
0.0
  0
VERTEX
  5
FB402
  8
0
 10
14799.00556174401
 20
11103.108869716971
 30
0.0
  0
SEQEND
  5
FB403
  8
0
  0
POLYLINE
  5
EF863
  8
0
 66
     1
 10
0.0
 20
0.0
 30
0.0
 70
     1
  0
VERTEX
  5
FB404
  8
0
 10
14799.00556174401
 20
9838.1088697169816
 30
0.0
  0
VERTEX
  5
FB405
  8
0
 10
15299.00556174401
 20
9838.1088697169816
 30
0.0
  0
VERTEX
  5
FB406
  8
0
 10
15299.00556174401
 20
9873.1088697169762
 30
0.0
  0
VERTEX
  5
FB407
  8
0
 10
14799.00556174401
 20
9873.1088697169762
 30
0.0
  0
SEQEND
  5
FB408
  8
0
  0
POLYLINE
  5
EF864
  8
0
 66
     1
 10
0.0
 20
0.0
 30
0.0
 70
     1
  0
VERTEX
  5
FB409
  8
0
 10
15334.00556174401
 20
11103.108869716971
 30
0.0
  0
VERTEX
  5
FB40A
  8
0
 10
15299.00556174401
 20
11103.108869716971
 30
0.0
  0
VERTEX
  5
FB40B
  8
0
 10
15299.00556174401
 20
9806.1088697169798
 30
0.0
  0
VERTEX
  5
FB40C
  8
0
 10
15334.00556174401
 20
9806.1088697169798
 30
0.0
  0
SEQEND
  5
FB40D
  8
0
  0
POLYLINE
  5
EF865
  8
0
 66
     1
 10
0.0
 20
0.0
 30
0.0
 70
     1
  0
VERTEX
  5
FB40E
  8
0
 10
14764.00556174401
 20
11103.108869716971
 30
0.0
  0
VERTEX
  5
FB40F
  8
0
 10
14799.00556174401
 20
11103.108869716971
 30
0.0
  0
VERTEX
  5
FB410
  8
0
 10
14799.00556174401
 20
9806.1088697169798
 30
0.0
  0
VERTEX
  5
FB411
  8
0
 10
14764.00556174401
 20
9806.1088697169798
 30
0.0
  0
SEQEND
  5
FB412
  8
0
  0
POLYLINE
  5
EF866
  8
0
 66
     1
 10
0.0
 20
0.0
 30
0.0
  0
VERTEX
  5
FB413
  8
0
 10
14766.50556174401
 20
9806.1088697169798
 30
0.0
  0
VERTEX
  5
FB414
  8
0
 10
14796.50556174401
 20
9806.1088697169798
 30
0.0
  0
VERTEX
  5
FB415
  8
0
 10
14796.50556174401
 20
9803.1088697169816
 30
0.0
  0
VERTEX
  5
FB416
  8
0
 10
14766.50556174401
 20
9803.1088697169816
 30
0.0
  0
VERTEX
  5
FB417
  8
0
 10
14766.50556174401
 20
9806.1088697169798
 30
0.0
  0
SEQEND
  5
FB418
  8
0
  0
POLYLINE
  5
EF867
  8
0
 66
     1
 10
0.0
 20
0.0
 30
0.0
  0
VERTEX
  5
FB419
  8
0
 10
15331.50556174401
 20
9806.1088697169798
 30
0.0
  0
VERTEX
  5
FB41A
  8
0
 10
15301.50556174401
 20
9806.1088697169798
 30
0.0
  0
VERTEX
  5
FB41B
  8
0
 10
15301.50556174401
 20
9803.1088697169816
 30
0.0
  0
VERTEX
  5
FB41C
  8
0
 10
15331.50556174401
 20
9803.1088697169816
 30
0.0
  0
VERTEX
  5
FB41D
  8
0
 10
15331.50556174401
 20
9806.1088697169798
 30
0.0
  0
SEQEND
  5
FB41E
  8
0
  0
POLYLINE
  5
EF868
  8
0
 66
     1
 10
0.0
 20
0.0
 30
0.0
  0
VERTEX
  5
FB41F
  8
0
 10
15334.00556174401
 20
11103.108869716971
 30
0.0
  0
VERTEX
  5
FB420
  8
0
 10
15334.00556174401
 20
9806.1088697169798
 30
0.0
  0
SEQEND
  5
FB421
  8
0
  0
POLYLINE
  5
EF869
  8
0
 66
     1
 10
0.0
 20
0.0
 30
0.0
  0
VERTEX
  5
FB422
  8
0
 10
15299.00556174401
 20
10283.108869716991
 30
0.0
  0
VERTEX
  5
FB423
  8
0
 10
14799.00556174401
 20
10283.108869716991
 30
0.0
  0
VERTEX
  5
FB424
  8
0
 10
14799.00556174401
 20
10248.108869716971
 30
0.0
  0
VERTEX
  5
FB425
  8
0
 10
15299.00556174401
 20
10248.108869716971
 30
0.0
  0
VERTEX
  5
FB426
  8
0
 10
15299.00556174401
 20
10283.108869716991
 30
0.0
  0
SEQEND
  5
FB427
  8
0
  0
POLYLINE
  5
EF86A
  8
0
 66
     1
 10
0.0
 20
0.0
 30
0.0
  0
VERTEX
  5
FB428
  8
0
 10
23332.898635499529
 20
10283.108869716991
 30
0.0
  0
VERTEX
  5
FB429
  8
0
 10
22832.89863549954
 20
10283.108869716991
 30
0.0
  0
VERTEX
  5
FB42A
  8
0
 10
22832.89863549954
 20
10248.108869716971
 30
0.0
  0
VERTEX
  5
FB42B
  8
0
 10
23332.898635499529
 20
10248.108869716971
 30
0.0
  0
VERTEX
  5
FB42C
  8
0
 10
23332.898635499529
 20
10283.108869716991
 30
0.0
  0
SEQEND
  5
FB42D
  8
0
  0
POLYLINE
  5
EF86B
  8
0
 66
     1
 10
0.0
 20
0.0
 30
0.0
  0
VERTEX
  5
FB42E
  8
0
 10
23335.39863549954
 20
12188.10886971698
 30
0.0
  0
VERTEX
  5
FB42F
  8
0
 10
22835.398635499529
 20
12188.10886971698
 30
0.0
  0
VERTEX
  5
FB430
  8
0
 10
22835.398635499529
 20
12153.108869716971
 30
0.0
  0
VERTEX
  5
FB431
  8
0
 10
23335.39863549954
 20
12153.108869716971
 30
0.0
  0
VERTEX
  5
FB432
  8
0
 10
23335.39863549954
 20
12188.10886971698
 30
0.0
  0
SEQEND
  5
FB433
  8
0
  0
POLYLINE
  5
EF86C
  8
0
 66
     1
 10
0.0
 20
0.0
 30
0.0
  0
VERTEX
  5
FB434
  8
0
 10
15301.50556174401
 20
12188.10886971698
 30
0.0
  0
VERTEX
  5
FB435
  8
0
 10
14801.50556174401
 20
12188.10886971698
 30
0.0
  0
VERTEX
  5
FB436
  8
0
 10
14801.50556174401
 20
12153.108869716971
 30
0.0
  0
VERTEX
  5
FB437
  8
0
 10
15301.50556174401
 20
12153.108869716971
 30
0.0
  0
VERTEX
  5
FB438
  8
0
 10
15301.50556174401
 20
12188.10886971698
 30
0.0
  0
SEQEND
  5
FB439
  8
0
  0
POLYLINE
  5
EF86D
  8
0
 66
     1
 10
0.0
 20
0.0
 30
0.0
  0
VERTEX
  5
FB43A
  8
0
 10
15336.50556174401
 20
12598.108869716971
 30
0.0
  0
VERTEX
  5
FB43B
  8
0
 10
15336.50556174401
 20
11711.108869716971
 30
0.0
  0
SEQEND
  5
FB43C
  8
0
  0
POLYLINE
  5
EF86E
  8
0
 66
     1
 10
0.0
 20
0.0
 30
0.0
  0
VERTEX
  5
FB43D
  8
0
 10
15334.00556174401
 20
11711.108869716971
 30
0.0
  0
VERTEX
  5
FB43E
  8
0
 10
15304.00556174401
 20
11711.108869716971
 30
0.0
  0
VERTEX
  5
FB43F
  8
0
 10
15304.00556174401
 20
11708.108869716971
 30
0.0
  0
VERTEX
  5
FB440
  8
0
 10
15334.00556174401
 20
11708.108869716971
 30
0.0
  0
VERTEX
  5
FB441
  8
0
 10
15334.00556174401
 20
11711.108869716971
 30
0.0
  0
SEQEND
  5
FB442
  8
0
  0
POLYLINE
  5
EF86F
  8
0
 66
     1
 10
0.0
 20
0.0
 30
0.0
  0
VERTEX
  5
FB443
  8
0
 10
14769.005561744019
 20
11711.108869716971
 30
0.0
  0
VERTEX
  5
FB444
  8
0
 10
14799.00556174401
 20
11711.108869716971
 30
0.0
  0
VERTEX
  5
FB445
  8
0
 10
14799.00556174401
 20
11708.108869716971
 30
0.0
  0
VERTEX
  5
FB446
  8
0
 10
14769.005561744019
 20
11708.108869716971
 30
0.0
  0
VERTEX
  5
FB447
  8
0
 10
14769.005561744019
 20
11711.108869716971
 30
0.0
  0
SEQEND
  5
FB448
  8
0
  0
POLYLINE
  5
EF870
  8
0
 66
     1
 10
0.0
 20
0.0
 30
0.0
 70
     1
  0
VERTEX
  5
FB449
  8
0
 10
14766.50556174401
 20
12598.108869716971
 30
0.0
  0
VERTEX
  5
FB44A
  8
0
 10
14801.50556174401
 20
12598.108869716971
 30
0.0
  0
VERTEX
  5
FB44B
  8
0
 10
14801.50556174401
 20
11711.108869716971
 30
0.0
  0
VERTEX
  5
FB44C
  8
0
 10
14766.50556174401
 20
11711.108869716971
 30
0.0
  0
SEQEND
  5
FB44D
  8
0
  0
POLYLINE
  5
EF871
  8
0
 66
     1
 10
0.0
 20
0.0
 30
0.0
 70
     1
  0
VERTEX
  5
FB44E
  8
0
 10
15336.50556174401
 20
12598.108869716971
 30
0.0
  0
VERTEX
  5
FB44F
  8
0
 10
15301.50556174401
 20
12598.108869716971
 30
0.0
  0
VERTEX
  5
FB450
  8
0
 10
15301.50556174401
 20
11711.108869716971
 30
0.0
  0
VERTEX
  5
FB451
  8
0
 10
15336.50556174401
 20
11711.108869716971
 30
0.0
  0
SEQEND
  5
FB452
  8
0
  0
POLYLINE
  5
EF872
  8
0
 66
     1
 10
0.0
 20
0.0
 30
0.0
 70
     1
  0
VERTEX
  5
FB453
  8
0
 10
14801.50556174401
 20
11743.108869716971
 30
0.0
  0
VERTEX
  5
FB454
  8
0
 10
15301.50556174401
 20
11743.108869716971
 30
0.0
  0
VERTEX
  5
FB455
  8
0
 10
15301.50556174401
 20
11778.108869716971
 30
0.0
  0
VERTEX
  5
FB456
  8
0
 10
14801.50556174401
 20
11778.108869716971
 30
0.0
  0
SEQEND
  5
FB457
  8
0
  0
POLYLINE
  5
EF873
  8
0
 66
     1
 10
0.0
 20
0.0
 30
0.0
 70
     1
  0
VERTEX
  5
FB458
  8
0
 10
14801.50556174401
 20
12563.108869716971
 30
0.0
  0
VERTEX
  5
FB459
  8
0
 10
15301.50556174401
 20
12563.108869716971
 30
0.0
  0
VERTEX
  5
FB45A
  8
0
 10
15301.50556174401
 20
12598.108869716971
 30
0.0
  0
VERTEX
  5
FB45B
  8
0
 10
14801.50556174401
 20
12598.108869716971
 30
0.0
  0
SEQEND
  5
FB45C
  8
0
  0
POLYLINE
  5
EF874
  8
0
 66
     1
 10
0.0
 20
0.0
 30
0.0
 70
     1
  0
VERTEX
  5
FB45D
  8
0
 10
23335.39863549954
 20
12563.108869716971
 30
0.0
  0
VERTEX
  5
FB45E
  8
0
 10
22835.398635499529
 20
12563.108869716971
 30
0.0
  0
VERTEX
  5
FB45F
  8
0
 10
22835.398635499529
 20
12598.108869716971
 30
0.0
  0
VERTEX
  5
FB460
  8
0
 10
23335.39863549954
 20
12598.108869716971
 30
0.0
  0
SEQEND
  5
FB461
  8
0
  0
POLYLINE
  5
EF875
  8
0
 66
     1
 10
0.0
 20
0.0
 30
0.0
 70
     1
  0
VERTEX
  5
FB462
  8
0
 10
23335.39863549954
 20
11743.108869716971
 30
0.0
  0
VERTEX
  5
FB463
  8
0
 10
22835.398635499529
 20
11743.108869716971
 30
0.0
  0
VERTEX
  5
FB464
  8
0
 10
22835.398635499529
 20
11778.108869716971
 30
0.0
  0
VERTEX
  5
FB465
  8
0
 10
23335.39863549954
 20
11778.108869716971
 30
0.0
  0
SEQEND
  5
FB466
  8
0
  0
POLYLINE
  5
EF876
  8
0
 66
     1
 10
0.0
 20
0.0
 30
0.0
 70
     1
  0
VERTEX
  5
FB467
  8
0
 10
23370.39863549954
 20
12598.108869716971
 30
0.0
  0
VERTEX
  5
FB468
  8
0
 10
23335.39863549954
 20
12598.108869716971
 30
0.0
  0
VERTEX
  5
FB469
  8
0
 10
23335.39863549954
 20
11711.108869716971
 30
0.0
  0
VERTEX
  5
FB46A
  8
0
 10
23370.39863549954
 20
11711.108869716971
 30
0.0
  0
SEQEND
  5
FB46B
  8
0
  0
POLYLINE
  5
EF877
  8
0
 66
     1
 10
0.0
 20
0.0
 30
0.0
  0
VERTEX
  5
FB46C
  8
0
 10
23367.89863549954
 20
11711.108869716971
 30
0.0
  0
VERTEX
  5
FB46D
  8
0
 10
23337.89863549954
 20
11711.108869716971
 30
0.0
  0
VERTEX
  5
FB46E
  8
0
 10
23337.89863549954
 20
11708.108869716971
 30
0.0
  0
VERTEX
  5
FB46F
  8
0
 10
23367.89863549954
 20
11708.108869716971
 30
0.0
  0
VERTEX
  5
FB470
  8
0
 10
23367.89863549954
 20
11711.108869716971
 30
0.0
  0
SEQEND
  5
FB471
  8
0
  0
POLYLINE
  5
EF878
  8
0
 66
     1
 10
0.0
 20
0.0
 30
0.0
  0
VERTEX
  5
FB472
  8
0
 10
23370.39863549954
 20
13206.108869716971
 30
0.0
  0
VERTEX
  5
FB473
  8
0
 10
23340.398635499529
 20
13206.108869716971
 30
0.0
  0
VERTEX
  5
FB474
  8
0
 10
23340.398635499529
 20
13203.108869716971
 30
0.0
  0
VERTEX
  5
FB475
  8
0
 10
23370.39863549954
 20
13203.108869716971
 30
0.0
  0
VERTEX
  5
FB476
  8
0
 10
23370.39863549954
 20
13206.108869716971
 30
0.0
  0
SEQEND
  5
FB477
  8
0
  0
POLYLINE
  5
EF879
  8
0
 66
     1
 10
0.0
 20
0.0
 30
0.0
 70
     1
  0
VERTEX
  5
FB478
  8
0
 10
23372.898635499529
 20
13683.10886971698
 30
0.0
  0
VERTEX
  5
FB479
  8
0
 10
23337.89863549954
 20
13683.10886971698
 30
0.0
  0
VERTEX
  5
FB47A
  8
0
 10
23337.89863549954
 20
13206.108869716971
 30
0.0
  0
VERTEX
  5
FB47B
  8
0
 10
23372.898635499529
 20
13206.108869716971
 30
0.0
  0
SEQEND
  5
FB47C
  8
0
  0
POLYLINE
  5
EF87A
  8
0
 66
     1
 10
0.0
 20
0.0
 30
0.0
 70
     1
  0
VERTEX
  5
FB47D
  8
0
 10
23337.89863549954
 20
13238.108869716971
 30
0.0
  0
VERTEX
  5
FB47E
  8
0
 10
22837.89863549954
 20
13238.108869716971
 30
0.0
  0
VERTEX
  5
FB47F
  8
0
 10
22837.89863549954
 20
13273.108869716971
 30
0.0
  0
VERTEX
  5
FB480
  8
0
 10
23337.89863549954
 20
13273.108869716971
 30
0.0
  0
SEQEND
  5
FB481
  8
0
  0
POLYLINE
  5
EF87B
  8
0
 66
     1
 10
0.0
 20
0.0
 30
0.0
 70
     1
  0
VERTEX
  5
FB482
  8
0
 10
23337.89863549954
 20
13648.108869716971
 30
0.0
  0
VERTEX
  5
FB483
  8
0
 10
22837.89863549954
 20
13648.108869716971
 30
0.0
  0
VERTEX
  5
FB484
  8
0
 10
22837.89863549954
 20
13683.10886971698
 30
0.0
  0
VERTEX
  5
FB485
  8
0
 10
23337.89863549954
 20
13683.10886971698
 30
0.0
  0
SEQEND
  5
FB486
  8
0
  0
POLYLINE
  5
EF87C
  8
0
 66
     1
 10
0.0
 20
0.0
 30
0.0
 70
     1
  0
VERTEX
  5
FB487
  8
0
 10
14804.00556174401
 20
13648.108869716971
 30
0.0
  0
VERTEX
  5
FB488
  8
0
 10
15304.00556174401
 20
13648.108869716971
 30
0.0
  0
VERTEX
  5
FB489
  8
0
 10
15304.00556174401
 20
13683.10886971698
 30
0.0
  0
VERTEX
  5
FB48A
  8
0
 10
14804.00556174401
 20
13683.10886971698
 30
0.0
  0
SEQEND
  5
FB48B
  8
0
  0
POLYLINE
  5
EF87D
  8
0
 66
     1
 10
0.0
 20
0.0
 30
0.0
 70
     1
  0
VERTEX
  5
FB48C
  8
0
 10
14804.00556174401
 20
13238.108869716971
 30
0.0
  0
VERTEX
  5
FB48D
  8
0
 10
15304.00556174401
 20
13238.108869716971
 30
0.0
  0
VERTEX
  5
FB48E
  8
0
 10
15304.00556174401
 20
13273.108869716971
 30
0.0
  0
VERTEX
  5
FB48F
  8
0
 10
14804.00556174401
 20
13273.108869716971
 30
0.0
  0
SEQEND
  5
FB490
  8
0
  0
POLYLINE
  5
EF87E
  8
0
 66
     1
 10
0.0
 20
0.0
 30
0.0
 70
     1
  0
VERTEX
  5
FB491
  8
0
 10
15339.00556174401
 20
13683.10886971698
 30
0.0
  0
VERTEX
  5
FB492
  8
0
 10
15304.00556174401
 20
13683.10886971698
 30
0.0
  0
VERTEX
  5
FB493
  8
0
 10
15304.00556174401
 20
13206.108869716971
 30
0.0
  0
VERTEX
  5
FB494
  8
0
 10
15339.00556174401
 20
13206.108869716971
 30
0.0
  0
SEQEND
  5
FB495
  8
0
  0
POLYLINE
  5
EF87F
  8
0
 66
     1
 10
0.0
 20
0.0
 30
0.0
 70
     1
  0
VERTEX
  5
FB496
  8
0
 10
14769.005561744019
 20
13683.10886971698
 30
0.0
  0
VERTEX
  5
FB497
  8
0
 10
14804.00556174401
 20
13683.10886971698
 30
0.0
  0
VERTEX
  5
FB498
  8
0
 10
14804.00556174401
 20
13206.108869716971
 30
0.0
  0
VERTEX
  5
FB499
  8
0
 10
14769.005561744019
 20
13206.108869716971
 30
0.0
  0
SEQEND
  5
FB49A
  8
0
  0
POLYLINE
  5
EF880
  8
0
 66
     1
 10
0.0
 20
0.0
 30
0.0
  0
VERTEX
  5
FB49B
  8
0
 10
14771.50556174401
 20
13206.108869716971
 30
0.0
  0
VERTEX
  5
FB49C
  8
0
 10
14801.50556174401
 20
13206.108869716971
 30
0.0
  0
VERTEX
  5
FB49D
  8
0
 10
14801.50556174401
 20
13203.108869716971
 30
0.0
  0
VERTEX
  5
FB49E
  8
0
 10
14771.50556174401
 20
13203.108869716971
 30
0.0
  0
VERTEX
  5
FB49F
  8
0
 10
14771.50556174401
 20
13206.108869716971
 30
0.0
  0
SEQEND
  5
FB4A0
  8
0
  0
POLYLINE
  5
EF881
  8
0
 66
     1
 10
0.0
 20
0.0
 30
0.0
  0
VERTEX
  5
FB4A1
  8
0
 10
15336.50556174401
 20
13206.108869716971
 30
0.0
  0
VERTEX
  5
FB4A2
  8
0
 10
15306.50556174401
 20
13206.108869716971
 30
0.0
  0
VERTEX
  5
FB4A3
  8
0
 10
15306.50556174401
 20
13203.108869716971
 30
0.0
  0
VERTEX
  5
FB4A4
  8
0
 10
15336.50556174401
 20
13203.108869716971
 30
0.0
  0
VERTEX
  5
FB4A5
  8
0
 10
15336.50556174401
 20
13206.108869716971
 30
0.0
  0
SEQEND
  5
FB4A6
  8
0
  0
POLYLINE
  5
EF882
  8
0
 66
     1
 10
0.0
 20
0.0
 30
0.0
  0
VERTEX
  5
FB4A7
  8
0
 10
14175.18508982586
 20
1663.1088697169951
 30
0.0
  0
VERTEX
  5
FB4A8
  8
0
 10
20757.964787903162
 20
1663.1088697169951
 30
0.0
  0
SEQEND
  5
FB4A9
  8
0
  0
POLYLINE
  5
EF883
  8
0
 66
     1
 10
0.0
 20
0.0
 30
0.0
  0
VERTEX
  5
FB4AA
  8
0
 10
14175.18508982586
 20
4763.1088697169844
 30
0.0
  0
VERTEX
  5
FB4AB
  8
0
 10
20757.964787903162
 20
4763.1088697169844
 30
0.0
  0
SEQEND
  5
FB4AC
  8
0
  0
POLYLINE
  5
EF884
  8
0
 66
     1
 10
0.0
 20
0.0
 30
0.0
  0
VERTEX
  5
FB4AD
  8
0
 10
14175.18508982586
 20
13203.108869716971
 30
0.0
  0
VERTEX
  5
FB4AE
  8
0
 10
20757.964787903162
 20
13203.108869716971
 30
0.0
  0
SEQEND
  5
FB4AF
  8
0
  0
POLYLINE
  5
EF885
  8
0
 66
     1
 10
0.0
 20
0.0
 30
0.0
 70
     1
  0
VERTEX
  5
FB4B0
  8
0
 10
46909.728925603762
 20
554.03664205844689
 30
0.0
  0
VERTEX
  5
FB4B1
  8
0
 10
30304.948387068391
 20
554.03664205844689
 30
0.0
  0
VERTEX
  5
FB4B2
  8
0
 10
30304.948387068391
 20
14792.18109737552
 30
0.0
  0
VERTEX
  5
FB4B3
  8
0
 10
46909.728925603762
 20
14792.18109737552
 30
0.0
  0
SEQEND
  5
FB4B4
  8
0
  0
POLYLINE
  5
EF88B
  8
0
 66
     1
 10
0.0
 20
0.0
 30
0.0
  0
VERTEX
  5
FB4B5
  8
0
 10
39008.133092791802
 20
13203.108869716971
 30
0.0
  0
VERTEX
  5
FB4B6
  8
0
 10
44768.530120705851
 20
13203.108869716971
 30
0.0
  0
SEQEND
  5
FB4B7
  8
0
  0
POLYLINE
  5
EF88C
  8
0
 66
     1
 10
0.0
 20
0.0
 30
0.0
  0
VERTEX
  5
FB4B8
  8
0
 10
39051.060657751841
 20
11708.108869716971
 30
0.0
  0
VERTEX
  5
FB4B9
  8
0
 10
44768.530120705851
 20
11708.108869716971
 30
0.0
  0
SEQEND
  5
FB4BA
  8
0
  0
POLYLINE
  5
EF88D
  8
0
 66
     1
 10
0.0
 20
0.0
 30
0.0
  0
VERTEX
  5
FB4BB
  8
0
 10
39051.060657751841
 20
9803.1088697169816
 30
0.0
  0
VERTEX
  5
FB4BC
  8
0
 10
44768.530120705851
 20
9803.1088697169816
 30
0.0
  0
SEQEND
  5
FB4BD
  8
0
  0
POLYLINE
  5
EF88E
  8
0
 66
     1
 10
0.0
 20
0.0
 30
0.0
  0
VERTEX
  5
FB4BE
  8
0
 10
39051.060657751841
 20
4763.1088697169853
 30
0.0
  0
VERTEX
  5
FB4BF
  8
0
 10
44768.530120705851
 20
4763.1088697169853
 30
0.0
  0
SEQEND
  5
FB4C0
  8
0
  0
POLYLINE
  5
EF88F
  8
0
 66
     1
 10
0.0
 20
0.0
 30
0.0
  0
VERTEX
  5
FB4C1
  8
0
 10
39008.133092791802
 20
1663.1088697169951
 30
0.0
  0
VERTEX
  5
FB4C2
  8
0
 10
44768.530120705851
 20
1663.1088697169939
 30
0.0
  0
SEQEND
  5
FB4C3
  8
0
  0
TEXT
  5
EF890
  8
0
 10
5433.6244069540808
 20
12081.646322211671
 30
0.0
 40
100.0
  1
Shelves / Ripiani / Regalboden
  7
STILE1
  0
TEXT
  5
EF891
  8
0
 10
-3145.7841833428251
 20
12081.646322211671
 30
0.0
 40
100.0
  1
Uprights / Spalle / Pfosten
  7
STILE1
  0
TEXT
  5
EF892
  8
0
 10
14013.032997250981
 20
14396.64632221166
 30
0.0
 40
100.0
  1
Modularity / Componibilità / Modularitat
  7
STILE1
  0
TEXT
  5
EF893
  8
0
 10
31171.850177844801
 20
14396.64632221166
 30
0.0
 40
100.0
  1
Examples of compositions / Esempi di composizioni / Kompositionsbeispiele
  7
STILE1
  0
POLYLINE
  5
F2468
  8
0
 66
     1
 10
0.0
 20
0.0
 30
0.0
  0
VERTEX
  5
FB4C4
  8
0
 10
21730.246674823171
 20
12167.60886971698
 30
0.0
  0
VERTEX
  5
FB4C5
  8
0
 10
21166.796276661371
 20
12167.60886971698
 30
0.0
  0
SEQEND
  5
FB4C6
  8
0
  0
POLYLINE
  5
F2469
  8
0
 66
     1
 10
0.0
 20
0.0
 30
0.0
  0
VERTEX
  5
FB4C7
  8
0
 10
21448.521475742269
 20
12449.33406879788
 30
0.0
  0
VERTEX
  5
FB4C8
  8
0
 10
21448.521475742269
 20
11885.88367063608
 30
0.0
  0
SEQEND
  5
FB4C9
  8
0
  0
POLYLINE
  5
F246D
  8
0
 66
     1
 10
0.0
 20
0.0
 30
0.0
  0
VERTEX
  5
FB4CA
  8
0
 10
21730.246674823171
 20
13489.29981668079
 30
0.0
  0
VERTEX
  5
FB4CB
  8
0
 10
21166.796276661371
 20
13489.29981668079
 30
0.0
  0
SEQEND
  5
FB4CC
  8
0
  0
POLYLINE
  5
F246E
  8
0
 66
     1
 10
0.0
 20
0.0
 30
0.0
  0
VERTEX
  5
FB4CD
  8
0
 10
21448.521475742269
 20
13771.025015761699
 30
0.0
  0
VERTEX
  5
FB4CE
  8
0
 10
21448.521475742269
 20
13207.57461759989
 30
0.0
  0
SEQEND
  5
FB4CF
  8
0
  0
POLYLINE
  5
F246F
  8
0
 66
     1
 10
0.0
 20
0.0
 30
0.0
  0
VERTEX
  5
FB4D0
  8
0
 10
21448.521475742269
 20
10758.406656824231
 30
0.0
  0
VERTEX
  5
FB4D1
  8
0
 10
21448.521475742269
 20
10194.95625866242
 30
0.0
  0
SEQEND
  5
FB4D2
  8
0
  0
POLYLINE
  5
F2470
  8
0
 66
     1
 10
0.0
 20
0.0
 30
0.0
  0
VERTEX
  5
FB4D3
  8
0
 10
21730.246674823171
 20
10476.681457743331
 30
0.0
  0
VERTEX
  5
FB4D4
  8
0
 10
21166.796276661371
 20
10476.681457743331
 30
0.0
  0
SEQEND
  5
FB4D5
  8
0
  0
POLYLINE
  5
F2471
  8
0
 66
     1
 10
0.0
 20
0.0
 30
0.0
  0
VERTEX
  5
FB4D6
  8
0
 10
21730.246674823171
 20
5853.4313499283489
 30
0.0
  0
VERTEX
  5
FB4D7
  8
0
 10
21166.796276661371
 20
5853.4313499283489
 30
0.0
  0
SEQEND
  5
FB4D8
  8
0
  0
POLYLINE
  5
F2472
  8
0
 66
     1
 10
0.0
 20
0.0
 30
0.0
  0
VERTEX
  5
FB4D9
  8
0
 10
21448.521475742269
 20
6135.1565490092507
 30
0.0
  0
VERTEX
  5
FB4DA
  8
0
 10
21448.521475742269
 20
5571.7061508474471
 30
0.0
  0
SEQEND
  5
FB4DB
  8
0
  0
POLYLINE
  5
F2473
  8
0
 66
     1
 10
0.0
 20
0.0
 30
0.0
  0
VERTEX
  5
FB4DC
  8
0
 10
21448.521475742269
 20
3259.443323801836
 30
0.0
  0
VERTEX
  5
FB4DD
  8
0
 10
21448.521475742269
 20
2695.9929256400319
 30
0.0
  0
SEQEND
  5
FB4DE
  8
0
  0
POLYLINE
  5
F2474
  8
0
 66
     1
 10
0.0
 20
0.0
 30
0.0
  0
VERTEX
  5
FB4DF
  8
0
 10
21730.246674823171
 20
2977.7181247209351
 30
0.0
  0
VERTEX
  5
FB4E0
  8
0
 10
21166.796276661371
 20
2977.7181247209351
 30
0.0
  0
SEQEND
  5
FB4E1
  8
0
  0
POLYLINE
  5
F7DD0
  8
0
 66
     1
 10
0.0
 20
0.0
 30
0.0
 70
     1
  0
VERTEX
  5
FB4E2
  8
0
 10
203.0272283417996
 20
9583.8858531961105
 30
0.0
  0
VERTEX
  5
FB4E3
  8
0
 10
493.027228341799
 20
9583.8858531961105
 30
0.0
  0
VERTEX
  5
FB4E4
  8
0
 10
493.02722834179832
 20
7978.885853196105
 30
0.0
  0
VERTEX
  5
FB4E5
  8
0
 10
203.027228341799
 20
7978.885853196105
 30
0.0
  0
SEQEND
  5
FB4E6
  8
0
  0
POLYLINE
  5
F7DD1
  8
0
 66
     1
 10
0.0
 20
0.0
 30
0.0
  0
VERTEX
  5
FB4E7
  8
0
 10
168.02722834179889
 20
7911.8858531961068
 30
0.0
  0
VERTEX
  5
FB4E8
  8
0
 10
203.027228341799
 20
7911.8858531961068
 30
0.0
  0
VERTEX
  5
FB4E9
  8
0
 10
203.027228341799
 20
7943.8858531961087
 30
0.0
  0
VERTEX
  5
FB4EA
  8
0
 10
493.02722834179832
 20
7943.8858531961087
 30
0.0
  0
VERTEX
  5
FB4EB
  8
0
 10
493.02722834179832
 20
7911.8858531961068
 30
0.0
  0
VERTEX
  5
FB4EC
  8
0
 10
528.02722834179849
 20
7911.8858531961068
 30
0.0
  0
VERTEX
  5
FB4ED
  8
0
 10
528.02722834179917
 20
9618.8858531961123
 30
0.0
  0
VERTEX
  5
FB4EE
  8
0
 10
168.0272283417996
 20
9618.8858531961123
 30
0.0
  0
VERTEX
  5
FB4EF
  8
0
 10
168.02722834179889
 20
7911.8858531961068
 30
0.0
  0
SEQEND
  5
FB4F0
  8
0
  0
POLYLINE
  5
F7DD2
  8
0
 66
     1
 10
0.0
 20
0.0
 30
0.0
  0
VERTEX
  5
FB4F1
  8
0
 10
525.52722834179826
 20
7911.8858531961068
 30
0.0
  0
VERTEX
  5
FB4F2
  8
0
 10
495.52722834179713
 20
7911.8858531961068
 30
0.0
  0
VERTEX
  5
FB4F3
  8
0
 10
495.52722834179713
 20
7908.8858531961087
 30
0.0
  0
VERTEX
  5
FB4F4
  8
0
 10
525.52722834179826
 20
7908.8858531961087
 30
0.0
  0
VERTEX
  5
FB4F5
  8
0
 10
525.52722834179826
 20
7911.8858531961068
 30
0.0
  0
SEQEND
  5
FB4F6
  8
0
  0
POLYLINE
  5
F7DD3
  8
0
 66
     1
 10
0.0
 20
0.0
 30
0.0
  0
VERTEX
  5
FB4F7
  8
0
 10
170.52722834179889
 20
7911.8858531961068
 30
0.0
  0
VERTEX
  5
FB4F8
  8
0
 10
200.527228341799
 20
7911.8858531961068
 30
0.0
  0
VERTEX
  5
FB4F9
  8
0
 10
200.5272283417994
 20
7908.8858531961087
 30
0.0
  0
VERTEX
  5
FB4FA
  8
0
 10
170.52722834179889
 20
7908.8858531961087
 30
0.0
  0
VERTEX
  5
FB4FB
  8
0
 10
170.52722834179889
 20
7911.8858531961068
 30
0.0
  0
SEQEND
  5
FB4FC
  8
0
  0
TEXT
  5
F7DD4
  8
0
 10
633.24468173622699
 20
9487.2690172756156
 30
0.0
 40
100.0
  1
H 1710
  7
STILE1
  0
POLYLINE
  5
F7DD5
  8
0
 66
     1
 10
0.0
 20
0.0
 30
0.0
  0
VERTEX
  5
FB4FD
  8
0
 10
203.027228341799
 20
8388.8858531961087
 30
0.0
  0
VERTEX
  5
FB4FE
  8
0
 10
493.02722834179832
 20
8388.8858531961087
 30
0.0
  0
VERTEX
  5
FB4FF
  8
0
 10
493.02722834179832
 20
8353.8858531961087
 30
0.0
  0
VERTEX
  5
FB500
  8
0
 10
203.027228341799
 20
8353.8858531961087
 30
0.0
  0
VERTEX
  5
FB501
  8
0
 10
203.027228341799
 20
8388.8858531961087
 30
0.0
  0
SEQEND
  5
FB502
  8
0
  0
POLYLINE
  5
F7DD6
  8
0
 66
     1
 10
0.0
 20
0.0
 30
0.0
  0
VERTEX
  5
FB503
  8
0
 10
203.027228341799
 20
8798.8858531961087
 30
0.0
  0
VERTEX
  5
FB504
  8
0
 10
493.02722834179832
 20
8798.8858531961087
 30
0.0
  0
VERTEX
  5
FB505
  8
0
 10
493.02722834179832
 20
8763.8858531961087
 30
0.0
  0
VERTEX
  5
FB506
  8
0
 10
203.027228341799
 20
8763.8858531961087
 30
0.0
  0
VERTEX
  5
FB507
  8
0
 10
203.027228341799
 20
8798.8858531961087
 30
0.0
  0
SEQEND
  5
FB508
  8
0
  0
POLYLINE
  5
F7DD8
  8
0
 66
     1
 10
0.0
 20
0.0
 30
0.0
  0
VERTEX
  5
FB509
  8
0
 10
203.027228341799
 20
9208.8858531961105
 30
0.0
  0
VERTEX
  5
FB50A
  8
0
 10
493.0272283417998
 20
9208.8858531961105
 30
0.0
  0
VERTEX
  5
FB50B
  8
0
 10
493.0272283417998
 20
9173.8858531961087
 30
0.0
  0
VERTEX
  5
FB50C
  8
0
 10
203.027228341799
 20
9173.8858531961087
 30
0.0
  0
VERTEX
  5
FB50D
  8
0
 10
203.027228341799
 20
9208.8858531961105
 30
0.0
  0
SEQEND
  5
FB50E
  8
0
  0
POLYLINE
  5
F7DE6
  8
0
 66
     1
 10
0.0
 20
0.0
 30
0.0
 70
     1
  0
VERTEX
  5
FB50F
  8
0
 10
36067.411666715961
 20
13648.108869716971
 30
0.0
  0
VERTEX
  5
FB510
  8
0
 10
35067.411666715961
 20
13648.108869716971
 30
0.0
  0
VERTEX
  5
FB511
  8
0
 10
35067.411666715961
 20
13683.10886971698
 30
0.0
  0
VERTEX
  5
FB512
  8
0
 10
36067.411666715961
 20
13683.10886971698
 30
0.0
  0
SEQEND
  5
FB513
  8
0
  0
POLYLINE
  5
F7DE7
  8
0
 66
     1
 10
0.0
 20
0.0
 30
0.0
 70
     1
  0
VERTEX
  5
FB514
  8
0
 10
36067.411666715961
 20
13238.108869716971
 30
0.0
  0
VERTEX
  5
FB515
  8
0
 10
35067.411666715961
 20
13238.108869716971
 30
0.0
  0
VERTEX
  5
FB516
  8
0
 10
35067.411666715961
 20
13273.108869716971
 30
0.0
  0
VERTEX
  5
FB517
  8
0
 10
36067.411666715961
 20
13273.108869716971
 30
0.0
  0
SEQEND
  5
FB518
  8
0
  0
POLYLINE
  5
F7DE8
  8
0
 66
     1
 10
0.0
 20
0.0
 30
0.0
 70
     1
  0
VERTEX
  5
FB519
  8
0
 10
36102.411666715961
 20
13683.10886971698
 30
0.0
  0
VERTEX
  5
FB51A
  8
0
 10
36067.411666715961
 20
13683.10886971698
 30
0.0
  0
VERTEX
  5
FB51B
  8
0
 10
36067.411666715961
 20
13206.108869716971
 30
0.0
  0
VERTEX
  5
FB51C
  8
0
 10
36102.411666715961
 20
13206.108869716971
 30
0.0
  0
SEQEND
  5
FB51D
  8
0
  0
POLYLINE
  5
F7DE9
  8
0
 66
     1
 10
0.0
 20
0.0
 30
0.0
  0
VERTEX
  5
FB51E
  8
0
 10
21730.246674823171
 20
8161.6814577433324
 30
0.0
  0
VERTEX
  5
FB51F
  8
0
 10
21166.796276661371
 20
8161.6814577433324
 30
0.0
  0
SEQEND
  5
FB520
  8
0
  0
POLYLINE
  5
F7DEA
  8
0
 66
     1
 10
0.0
 20
0.0
 30
0.0
  0
VERTEX
  5
FB521
  8
0
 10
21448.521475742269
 20
8443.4066568242342
 30
0.0
  0
VERTEX
  5
FB522
  8
0
 10
21448.521475742269
 20
7879.9562586624297
 30
0.0
  0
SEQEND
  5
FB523
  8
0
  0
POLYLINE
  5
F7DEB
  8
0
 66
     1
 10
0.0
 20
0.0
 30
0.0
  0
VERTEX
  5
FB524
  8
0
 10
23332.898635499529
 20
7968.1088697169889
 30
0.0
  0
VERTEX
  5
FB525
  8
0
 10
22832.89863549954
 20
7968.1088697169889
 30
0.0
  0
VERTEX
  5
FB526
  8
0
 10
22832.89863549954
 20
7933.1088697169789
 30
0.0
  0
VERTEX
  5
FB527
  8
0
 10
23332.898635499529
 20
7933.1088697169789
 30
0.0
  0
VERTEX
  5
FB528
  8
0
 10
23332.898635499529
 20
7968.1088697169889
 30
0.0
  0
SEQEND
  5
FB529
  8
0
  0
POLYLINE
  5
F7DEC
  8
0
 66
     1
 10
0.0
 20
0.0
 30
0.0
  0
VERTEX
  5
FB52A
  8
0
 10
15299.00556174401
 20
7968.1088697169889
 30
0.0
  0
VERTEX
  5
FB52B
  8
0
 10
14799.00556174401
 20
7968.1088697169889
 30
0.0
  0
VERTEX
  5
FB52C
  8
0
 10
14799.00556174401
 20
7933.1088697169789
 30
0.0
  0
VERTEX
  5
FB52D
  8
0
 10
15299.00556174401
 20
7933.1088697169789
 30
0.0
  0
VERTEX
  5
FB52E
  8
0
 10
15299.00556174401
 20
7968.1088697169889
 30
0.0
  0
SEQEND
  5
FB52F
  8
0
  0
POLYLINE
  5
F7DED
  8
0
 66
     1
 10
0.0
 20
0.0
 30
0.0
  0
VERTEX
  5
FB530
  8
0
 10
15334.00556174401
 20
9198.1088697169798
 30
0.0
  0
VERTEX
  5
FB531
  8
0
 10
15334.00556174401
 20
7491.1088697169826
 30
0.0
  0
SEQEND
  5
FB532
  8
0
  0
POLYLINE
  5
F7DEE
  8
0
 66
     1
 10
0.0
 20
0.0
 30
0.0
  0
VERTEX
  5
FB533
  8
0
 10
15331.50556174401
 20
7491.1088697169826
 30
0.0
  0
VERTEX
  5
FB534
  8
0
 10
15301.50556174401
 20
7491.1088697169826
 30
0.0
  0
VERTEX
  5
FB535
  8
0
 10
15301.50556174401
 20
7488.1088697169826
 30
0.0
  0
VERTEX
  5
FB536
  8
0
 10
15331.50556174401
 20
7488.1088697169826
 30
0.0
  0
VERTEX
  5
FB537
  8
0
 10
15331.50556174401
 20
7491.1088697169826
 30
0.0
  0
SEQEND
  5
FB538
  8
0
  0
POLYLINE
  5
F7DEF
  8
0
 66
     1
 10
0.0
 20
0.0
 30
0.0
  0
VERTEX
  5
FB539
  8
0
 10
14766.50556174401
 20
7491.1088697169826
 30
0.0
  0
VERTEX
  5
FB53A
  8
0
 10
14796.50556174401
 20
7491.1088697169826
 30
0.0
  0
VERTEX
  5
FB53B
  8
0
 10
14796.50556174401
 20
7488.1088697169826
 30
0.0
  0
VERTEX
  5
FB53C
  8
0
 10
14766.50556174401
 20
7488.1088697169826
 30
0.0
  0
VERTEX
  5
FB53D
  8
0
 10
14766.50556174401
 20
7491.1088697169826
 30
0.0
  0
SEQEND
  5
FB53E
  8
0
  0
POLYLINE
  5
F7DF0
  8
0
 66
     1
 10
0.0
 20
0.0
 30
0.0
 70
     1
  0
VERTEX
  5
FB53F
  8
0
 10
14764.00556174401
 20
9198.1088697169798
 30
0.0
  0
VERTEX
  5
FB540
  8
0
 10
14799.00556174401
 20
9198.1088697169798
 30
0.0
  0
VERTEX
  5
FB541
  8
0
 10
14799.00556174401
 20
7491.1088697169826
 30
0.0
  0
VERTEX
  5
FB542
  8
0
 10
14764.00556174401
 20
7491.1088697169826
 30
0.0
  0
SEQEND
  5
FB543
  8
0
  0
POLYLINE
  5
F7DF1
  8
0
 66
     1
 10
0.0
 20
0.0
 30
0.0
 70
     1
  0
VERTEX
  5
FB544
  8
0
 10
15334.00556174401
 20
9198.1088697169798
 30
0.0
  0
VERTEX
  5
FB545
  8
0
 10
15299.00556174401
 20
9198.1088697169798
 30
0.0
  0
VERTEX
  5
FB546
  8
0
 10
15299.00556174401
 20
7491.1088697169826
 30
0.0
  0
VERTEX
  5
FB547
  8
0
 10
15334.00556174401
 20
7491.1088697169826
 30
0.0
  0
SEQEND
  5
FB548
  8
0
  0
POLYLINE
  5
F7DF2
  8
0
 66
     1
 10
0.0
 20
0.0
 30
0.0
 70
     1
  0
VERTEX
  5
FB549
  8
0
 10
14799.00556174401
 20
7523.1088697169816
 30
0.0
  0
VERTEX
  5
FB54A
  8
0
 10
15299.00556174401
 20
7523.1088697169816
 30
0.0
  0
VERTEX
  5
FB54B
  8
0
 10
15299.00556174401
 20
7558.1088697169789
 30
0.0
  0
VERTEX
  5
FB54C
  8
0
 10
14799.00556174401
 20
7558.1088697169789
 30
0.0
  0
SEQEND
  5
FB54D
  8
0
  0
POLYLINE
  5
F7DF3
  8
0
 66
     1
 10
0.0
 20
0.0
 30
0.0
 70
     1
  0
VERTEX
  5
FB54E
  8
0
 10
14799.00556174401
 20
9163.1088697169798
 30
0.0
  0
VERTEX
  5
FB54F
  8
0
 10
15299.00556174401
 20
9163.1088697169798
 30
0.0
  0
VERTEX
  5
FB550
  8
0
 10
15299.00556174401
 20
9198.1088697169798
 30
0.0
  0
VERTEX
  5
FB551
  8
0
 10
14799.00556174401
 20
9198.1088697169798
 30
0.0
  0
SEQEND
  5
FB552
  8
0
  0
POLYLINE
  5
F7DF4
  8
0
 66
     1
 10
0.0
 20
0.0
 30
0.0
 70
     1
  0
VERTEX
  5
FB553
  8
0
 10
23332.898635499529
 20
9163.1088697169798
 30
0.0
  0
VERTEX
  5
FB554
  8
0
 10
22832.89863549954
 20
9163.1088697169798
 30
0.0
  0
VERTEX
  5
FB555
  8
0
 10
22832.89863549954
 20
9198.1088697169798
 30
0.0
  0
VERTEX
  5
FB556
  8
0
 10
23332.898635499529
 20
9198.1088697169798
 30
0.0
  0
SEQEND
  5
FB557
  8
0
  0
POLYLINE
  5
F7DF5
  8
0
 66
     1
 10
0.0
 20
0.0
 30
0.0
 70
     1
  0
VERTEX
  5
FB558
  8
0
 10
23332.898635499529
 20
7523.1088697169816
 30
0.0
  0
VERTEX
  5
FB559
  8
0
 10
22832.89863549954
 20
7523.1088697169816
 30
0.0
  0
VERTEX
  5
FB55A
  8
0
 10
22832.89863549954
 20
7558.1088697169789
 30
0.0
  0
VERTEX
  5
FB55B
  8
0
 10
23332.898635499529
 20
7558.1088697169789
 30
0.0
  0
SEQEND
  5
FB55C
  8
0
  0
POLYLINE
  5
F7DF6
  8
0
 66
     1
 10
0.0
 20
0.0
 30
0.0
 70
     1
  0
VERTEX
  5
FB55D
  8
0
 10
23367.89863549954
 20
9198.1088697169798
 30
0.0
  0
VERTEX
  5
FB55E
  8
0
 10
23332.898635499529
 20
9198.1088697169798
 30
0.0
  0
VERTEX
  5
FB55F
  8
0
 10
23332.898635499529
 20
7491.1088697169826
 30
0.0
  0
VERTEX
  5
FB560
  8
0
 10
23367.89863549954
 20
7491.1088697169826
 30
0.0
  0
SEQEND
  5
FB561
  8
0
  0
POLYLINE
  5
F7DF7
  8
0
 66
     1
 10
0.0
 20
0.0
 30
0.0
  0
VERTEX
  5
FB562
  8
0
 10
23365.39863549954
 20
7491.1088697169826
 30
0.0
  0
VERTEX
  5
FB563
  8
0
 10
23335.39863549954
 20
7491.1088697169826
 30
0.0
  0
VERTEX
  5
FB564
  8
0
 10
23335.39863549954
 20
7488.1088697169826
 30
0.0
  0
VERTEX
  5
FB565
  8
0
 10
23365.39863549954
 20
7488.1088697169826
 30
0.0
  0
VERTEX
  5
FB566
  8
0
 10
23365.39863549954
 20
7491.1088697169826
 30
0.0
  0
SEQEND
  5
FB567
  8
0
  0
POLYLINE
  5
F7DF8
  8
0
 66
     1
 10
0.0
 20
0.0
 30
0.0
 70
     1
  0
VERTEX
  5
FB568
  8
0
 10
23332.898635499529
 20
8343.108869716978
 30
0.0
  0
VERTEX
  5
FB569
  8
0
 10
22832.89863549954
 20
8343.108869716978
 30
0.0
  0
VERTEX
  5
FB56A
  8
0
 10
22832.89863549954
 20
8378.108869716978
 30
0.0
  0
VERTEX
  5
FB56B
  8
0
 10
23332.898635499529
 20
8378.108869716978
 30
0.0
  0
SEQEND
  5
FB56C
  8
0
  0
POLYLINE
  5
F7DF9
  8
0
 66
     1
 10
0.0
 20
0.0
 30
0.0
 70
     1
  0
VERTEX
  5
FB56D
  8
0
 10
14799.00556174401
 20
8343.108869716978
 30
0.0
  0
VERTEX
  5
FB56E
  8
0
 10
15299.00556174401
 20
8343.108869716978
 30
0.0
  0
VERTEX
  5
FB56F
  8
0
 10
15299.00556174401
 20
8378.108869716978
 30
0.0
  0
VERTEX
  5
FB570
  8
0
 10
14799.00556174401
 20
8378.108869716978
 30
0.0
  0
SEQEND
  5
FB571
  8
0
  0
POLYLINE
  5
F7DFA
  8
0
 66
     1
 10
0.0
 20
0.0
 30
0.0
 70
     1
  0
VERTEX
  5
FB572
  8
0
 10
16369.00556174401
 20
8343.108869716978
 30
0.0
  0
VERTEX
  5
FB573
  8
0
 10
17369.005561744008
 20
8343.108869716978
 30
0.0
  0
VERTEX
  5
FB574
  8
0
 10
17369.005561744008
 20
8378.108869716978
 30
0.0
  0
VERTEX
  5
FB575
  8
0
 10
16369.00556174401
 20
8378.108869716978
 30
0.0
  0
SEQEND
  5
FB576
  8
0
  0
POLYLINE
  5
F7DFB
  8
0
 66
     1
 10
0.0
 20
0.0
 30
0.0
 70
     1
  0
VERTEX
  5
FB577
  8
0
 10
25367.898635499529
 20
8343.108869716978
 30
0.0
  0
VERTEX
  5
FB578
  8
0
 10
24367.89863549954
 20
8343.108869716978
 30
0.0
  0
VERTEX
  5
FB579
  8
0
 10
24367.89863549954
 20
8378.108869716978
 30
0.0
  0
VERTEX
  5
FB57A
  8
0
 10
25367.898635499529
 20
8378.108869716978
 30
0.0
  0
SEQEND
  5
FB57B
  8
0
  0
POLYLINE
  5
F7DFC
  8
0
 66
     1
 10
0.0
 20
0.0
 30
0.0
  0
VERTEX
  5
FB57C
  8
0
 10
25400.39863549954
 20
7491.1088697169826
 30
0.0
  0
VERTEX
  5
FB57D
  8
0
 10
25370.39863549954
 20
7491.1088697169826
 30
0.0
  0
VERTEX
  5
FB57E
  8
0
 10
25370.39863549954
 20
7488.1088697169826
 30
0.0
  0
VERTEX
  5
FB57F
  8
0
 10
25400.39863549954
 20
7488.1088697169826
 30
0.0
  0
VERTEX
  5
FB580
  8
0
 10
25400.39863549954
 20
7491.1088697169826
 30
0.0
  0
SEQEND
  5
FB581
  8
0
  0
POLYLINE
  5
F7DFD
  8
0
 66
     1
 10
0.0
 20
0.0
 30
0.0
 70
     1
  0
VERTEX
  5
FB582
  8
0
 10
25402.89863549954
 20
9198.1088697169798
 30
0.0
  0
VERTEX
  5
FB583
  8
0
 10
25367.898635499529
 20
9198.1088697169798
 30
0.0
  0
VERTEX
  5
FB584
  8
0
 10
25367.898635499529
 20
7491.1088697169826
 30
0.0
  0
VERTEX
  5
FB585
  8
0
 10
25402.89863549954
 20
7491.1088697169826
 30
0.0
  0
SEQEND
  5
FB586
  8
0
  0
POLYLINE
  5
F7DFE
  8
0
 66
     1
 10
0.0
 20
0.0
 30
0.0
 70
     1
  0
VERTEX
  5
FB587
  8
0
 10
25367.898635499529
 20
7523.1088697169816
 30
0.0
  0
VERTEX
  5
FB588
  8
0
 10
24367.89863549954
 20
7523.1088697169816
 30
0.0
  0
VERTEX
  5
FB589
  8
0
 10
24367.89863549954
 20
7558.1088697169789
 30
0.0
  0
VERTEX
  5
FB58A
  8
0
 10
25367.898635499529
 20
7558.1088697169789
 30
0.0
  0
SEQEND
  5
FB58B
  8
0
  0
POLYLINE
  5
F7DFF
  8
0
 66
     1
 10
0.0
 20
0.0
 30
0.0
 70
     1
  0
VERTEX
  5
FB58C
  8
0
 10
25367.898635499529
 20
9163.1088697169798
 30
0.0
  0
VERTEX
  5
FB58D
  8
0
 10
24367.89863549954
 20
9163.1088697169798
 30
0.0
  0
VERTEX
  5
FB58E
  8
0
 10
24367.89863549954
 20
9198.1088697169798
 30
0.0
  0
VERTEX
  5
FB58F
  8
0
 10
25367.898635499529
 20
9198.1088697169798
 30
0.0
  0
SEQEND
  5
FB590
  8
0
  0
POLYLINE
  5
F7E00
  8
0
 66
     1
 10
0.0
 20
0.0
 30
0.0
 70
     1
  0
VERTEX
  5
FB591
  8
0
 10
16369.00556174401
 20
9163.1088697169798
 30
0.0
  0
VERTEX
  5
FB592
  8
0
 10
17369.005561744008
 20
9163.1088697169798
 30
0.0
  0
VERTEX
  5
FB593
  8
0
 10
17369.005561744008
 20
9198.1088697169798
 30
0.0
  0
VERTEX
  5
FB594
  8
0
 10
16369.00556174401
 20
9198.1088697169798
 30
0.0
  0
SEQEND
  5
FB595
  8
0
  0
POLYLINE
  5
F7E01
  8
0
 66
     1
 10
0.0
 20
0.0
 30
0.0
 70
     1
  0
VERTEX
  5
FB596
  8
0
 10
16369.00556174401
 20
7523.1088697169816
 30
0.0
  0
VERTEX
  5
FB597
  8
0
 10
17369.005561744008
 20
7523.1088697169816
 30
0.0
  0
VERTEX
  5
FB598
  8
0
 10
17369.005561744008
 20
7558.1088697169789
 30
0.0
  0
VERTEX
  5
FB599
  8
0
 10
16369.00556174401
 20
7558.1088697169789
 30
0.0
  0
SEQEND
  5
FB59A
  8
0
  0
POLYLINE
  5
F7E02
  8
0
 66
     1
 10
0.0
 20
0.0
 30
0.0
 70
     1
  0
VERTEX
  5
FB59B
  8
0
 10
17404.005561744008
 20
9198.1088697169798
 30
0.0
  0
VERTEX
  5
FB59C
  8
0
 10
17369.005561744008
 20
9198.1088697169798
 30
0.0
  0
VERTEX
  5
FB59D
  8
0
 10
17369.005561744008
 20
7491.1088697169826
 30
0.0
  0
VERTEX
  5
FB59E
  8
0
 10
17404.005561744008
 20
7491.1088697169826
 30
0.0
  0
SEQEND
  5
FB59F
  8
0
  0
POLYLINE
  5
F7E03
  8
0
 66
     1
 10
0.0
 20
0.0
 30
0.0
 70
     1
  0
VERTEX
  5
FB5A0
  8
0
 10
16334.00556174401
 20
9198.1088697169798
 30
0.0
  0
VERTEX
  5
FB5A1
  8
0
 10
16369.00556174401
 20
9198.1088697169798
 30
0.0
  0
VERTEX
  5
FB5A2
  8
0
 10
16369.00556174401
 20
7491.1088697169826
 30
0.0
  0
VERTEX
  5
FB5A3
  8
0
 10
16334.00556174401
 20
7491.1088697169826
 30
0.0
  0
SEQEND
  5
FB5A4
  8
0
  0
POLYLINE
  5
F7E04
  8
0
 66
     1
 10
0.0
 20
0.0
 30
0.0
  0
VERTEX
  5
FB5A5
  8
0
 10
16336.50556174401
 20
7491.1088697169826
 30
0.0
  0
VERTEX
  5
FB5A6
  8
0
 10
16366.50556174401
 20
7491.1088697169826
 30
0.0
  0
VERTEX
  5
FB5A7
  8
0
 10
16366.50556174401
 20
7488.1088697169826
 30
0.0
  0
VERTEX
  5
FB5A8
  8
0
 10
16336.50556174401
 20
7488.1088697169826
 30
0.0
  0
VERTEX
  5
FB5A9
  8
0
 10
16336.50556174401
 20
7491.1088697169826
 30
0.0
  0
SEQEND
  5
FB5AA
  8
0
  0
POLYLINE
  5
F7E05
  8
0
 66
     1
 10
0.0
 20
0.0
 30
0.0
  0
VERTEX
  5
FB5AB
  8
0
 10
17401.505561744008
 20
7491.1088697169826
 30
0.0
  0
VERTEX
  5
FB5AC
  8
0
 10
17371.505561744008
 20
7491.1088697169826
 30
0.0
  0
VERTEX
  5
FB5AD
  8
0
 10
17371.505561744008
 20
7488.1088697169826
 30
0.0
  0
VERTEX
  5
FB5AE
  8
0
 10
17401.505561744008
 20
7488.1088697169826
 30
0.0
  0
VERTEX
  5
FB5AF
  8
0
 10
17401.505561744008
 20
7491.1088697169826
 30
0.0
  0
SEQEND
  5
FB5B0
  8
0
  0
POLYLINE
  5
F7E06
  8
0
 66
     1
 10
0.0
 20
0.0
 30
0.0
  0
VERTEX
  5
FB5B1
  8
0
 10
17404.005561744008
 20
9198.1088697169798
 30
0.0
  0
VERTEX
  5
FB5B2
  8
0
 10
17404.005561744008
 20
7491.1088697169826
 30
0.0
  0
SEQEND
  5
FB5B3
  8
0
  0
POLYLINE
  5
F7E07
  8
0
 66
     1
 10
0.0
 20
0.0
 30
0.0
  0
VERTEX
  5
FB5B4
  8
0
 10
17369.005561744008
 20
7968.1088697169889
 30
0.0
  0
VERTEX
  5
FB5B5
  8
0
 10
16369.00556174401
 20
7968.1088697169889
 30
0.0
  0
VERTEX
  5
FB5B6
  8
0
 10
16369.00556174401
 20
7933.1088697169789
 30
0.0
  0
VERTEX
  5
FB5B7
  8
0
 10
17369.005561744008
 20
7933.1088697169789
 30
0.0
  0
VERTEX
  5
FB5B8
  8
0
 10
17369.005561744008
 20
7968.1088697169889
 30
0.0
  0
SEQEND
  5
FB5B9
  8
0
  0
POLYLINE
  5
F7E08
  8
0
 66
     1
 10
0.0
 20
0.0
 30
0.0
  0
VERTEX
  5
FB5BA
  8
0
 10
25367.898635499529
 20
7968.1088697169889
 30
0.0
  0
VERTEX
  5
FB5BB
  8
0
 10
24367.89863549954
 20
7968.1088697169889
 30
0.0
  0
VERTEX
  5
FB5BC
  8
0
 10
24367.89863549954
 20
7933.1088697169789
 30
0.0
  0
VERTEX
  5
FB5BD
  8
0
 10
25367.898635499529
 20
7933.1088697169789
 30
0.0
  0
VERTEX
  5
FB5BE
  8
0
 10
25367.898635499529
 20
7968.1088697169889
 30
0.0
  0
SEQEND
  5
FB5BF
  8
0
  0
POLYLINE
  5
F7E09
  8
0
 66
     1
 10
0.0
 20
0.0
 30
0.0
 70
     1
  0
VERTEX
  5
FB5C0
  8
0
 10
18439.005561744019
 20
8343.108869716978
 30
0.0
  0
VERTEX
  5
FB5C1
  8
0
 10
19939.005561744008
 20
8343.108869716978
 30
0.0
  0
VERTEX
  5
FB5C2
  8
0
 10
19939.005561744008
 20
8378.108869716978
 30
0.0
  0
VERTEX
  5
FB5C3
  8
0
 10
18439.005561744019
 20
8378.108869716978
 30
0.0
  0
SEQEND
  5
FB5C4
  8
0
  0
POLYLINE
  5
F7E0A
  8
0
 66
     1
 10
0.0
 20
0.0
 30
0.0
 70
     1
  0
VERTEX
  5
FB5C5
  8
0
 10
27902.898635499521
 20
8343.108869716978
 30
0.0
  0
VERTEX
  5
FB5C6
  8
0
 10
26402.89863549954
 20
8343.108869716978
 30
0.0
  0
VERTEX
  5
FB5C7
  8
0
 10
26402.89863549954
 20
8378.108869716978
 30
0.0
  0
VERTEX
  5
FB5C8
  8
0
 10
27902.898635499521
 20
8378.108869716978
 30
0.0
  0
SEQEND
  5
FB5C9
  8
0
  0
POLYLINE
  5
F7E0B
  8
0
 66
     1
 10
0.0
 20
0.0
 30
0.0
  0
VERTEX
  5
FB5CA
  8
0
 10
27935.398635499521
 20
7491.1088697169826
 30
0.0
  0
VERTEX
  5
FB5CB
  8
0
 10
27905.398635499521
 20
7491.1088697169826
 30
0.0
  0
VERTEX
  5
FB5CC
  8
0
 10
27905.398635499521
 20
7488.1088697169826
 30
0.0
  0
VERTEX
  5
FB5CD
  8
0
 10
27935.398635499521
 20
7488.1088697169826
 30
0.0
  0
VERTEX
  5
FB5CE
  8
0
 10
27935.398635499521
 20
7491.1088697169826
 30
0.0
  0
SEQEND
  5
FB5CF
  8
0
  0
POLYLINE
  5
F7E0C
  8
0
 66
     1
 10
0.0
 20
0.0
 30
0.0
 70
     1
  0
VERTEX
  5
FB5D0
  8
0
 10
27937.898635499521
 20
9198.1088697169798
 30
0.0
  0
VERTEX
  5
FB5D1
  8
0
 10
27902.898635499521
 20
9198.1088697169798
 30
0.0
  0
VERTEX
  5
FB5D2
  8
0
 10
27902.898635499521
 20
7491.1088697169826
 30
0.0
  0
VERTEX
  5
FB5D3
  8
0
 10
27937.898635499521
 20
7491.1088697169826
 30
0.0
  0
SEQEND
  5
FB5D4
  8
0
  0
POLYLINE
  5
F7E0D
  8
0
 66
     1
 10
0.0
 20
0.0
 30
0.0
 70
     1
  0
VERTEX
  5
FB5D5
  8
0
 10
27902.898635499521
 20
7523.1088697169816
 30
0.0
  0
VERTEX
  5
FB5D6
  8
0
 10
26402.89863549954
 20
7523.1088697169816
 30
0.0
  0
VERTEX
  5
FB5D7
  8
0
 10
26402.89863549954
 20
7558.1088697169789
 30
0.0
  0
VERTEX
  5
FB5D8
  8
0
 10
27902.898635499521
 20
7558.1088697169789
 30
0.0
  0
SEQEND
  5
FB5D9
  8
0
  0
POLYLINE
  5
F7E0E
  8
0
 66
     1
 10
0.0
 20
0.0
 30
0.0
 70
     1
  0
VERTEX
  5
FB5DA
  8
0
 10
27902.898635499521
 20
9163.1088697169798
 30
0.0
  0
VERTEX
  5
FB5DB
  8
0
 10
26402.89863549954
 20
9163.1088697169798
 30
0.0
  0
VERTEX
  5
FB5DC
  8
0
 10
26402.89863549954
 20
9198.1088697169798
 30
0.0
  0
VERTEX
  5
FB5DD
  8
0
 10
27902.898635499521
 20
9198.1088697169798
 30
0.0
  0
SEQEND
  5
FB5DE
  8
0
  0
POLYLINE
  5
F7E0F
  8
0
 66
     1
 10
0.0
 20
0.0
 30
0.0
 70
     1
  0
VERTEX
  5
FB5DF
  8
0
 10
18439.005561744019
 20
9163.1088697169798
 30
0.0
  0
VERTEX
  5
FB5E0
  8
0
 10
19939.005561744008
 20
9163.1088697169798
 30
0.0
  0
VERTEX
  5
FB5E1
  8
0
 10
19939.005561744008
 20
9198.1088697169798
 30
0.0
  0
VERTEX
  5
FB5E2
  8
0
 10
18439.005561744019
 20
9198.1088697169798
 30
0.0
  0
SEQEND
  5
FB5E3
  8
0
  0
POLYLINE
  5
F7E10
  8
0
 66
     1
 10
0.0
 20
0.0
 30
0.0
 70
     1
  0
VERTEX
  5
FB5E4
  8
0
 10
18439.005561744019
 20
7523.1088697169816
 30
0.0
  0
VERTEX
  5
FB5E5
  8
0
 10
19939.005561744008
 20
7523.1088697169816
 30
0.0
  0
VERTEX
  5
FB5E6
  8
0
 10
19939.005561744008
 20
7558.1088697169789
 30
0.0
  0
VERTEX
  5
FB5E7
  8
0
 10
18439.005561744019
 20
7558.1088697169789
 30
0.0
  0
SEQEND
  5
FB5E8
  8
0
  0
POLYLINE
  5
F7E11
  8
0
 66
     1
 10
0.0
 20
0.0
 30
0.0
 70
     1
  0
VERTEX
  5
FB5E9
  8
0
 10
19974.005561744008
 20
9198.1088697169798
 30
0.0
  0
VERTEX
  5
FB5EA
  8
0
 10
19939.005561744008
 20
9198.1088697169798
 30
0.0
  0
VERTEX
  5
FB5EB
  8
0
 10
19939.005561744008
 20
7491.1088697169826
 30
0.0
  0
VERTEX
  5
FB5EC
  8
0
 10
19974.005561744008
 20
7491.1088697169826
 30
0.0
  0
SEQEND
  5
FB5ED
  8
0
  0
POLYLINE
  5
F7E12
  8
0
 66
     1
 10
0.0
 20
0.0
 30
0.0
 70
     1
  0
VERTEX
  5
FB5EE
  8
0
 10
18404.005561744008
 20
9198.1088697169798
 30
0.0
  0
VERTEX
  5
FB5EF
  8
0
 10
18439.005561744019
 20
9198.1088697169798
 30
0.0
  0
VERTEX
  5
FB5F0
  8
0
 10
18439.005561744019
 20
7491.1088697169826
 30
0.0
  0
VERTEX
  5
FB5F1
  8
0
 10
18404.005561744008
 20
7491.1088697169826
 30
0.0
  0
SEQEND
  5
FB5F2
  8
0
  0
POLYLINE
  5
F7E13
  8
0
 66
     1
 10
0.0
 20
0.0
 30
0.0
  0
VERTEX
  5
FB5F3
  8
0
 10
18406.505561744008
 20
7491.1088697169826
 30
0.0
  0
VERTEX
  5
FB5F4
  8
0
 10
18436.505561744008
 20
7491.1088697169826
 30
0.0
  0
VERTEX
  5
FB5F5
  8
0
 10
18436.505561744008
 20
7488.1088697169826
 30
0.0
  0
VERTEX
  5
FB5F6
  8
0
 10
18406.505561744008
 20
7488.1088697169826
 30
0.0
  0
VERTEX
  5
FB5F7
  8
0
 10
18406.505561744008
 20
7491.1088697169826
 30
0.0
  0
SEQEND
  5
FB5F8
  8
0
  0
POLYLINE
  5
F7E14
  8
0
 66
     1
 10
0.0
 20
0.0
 30
0.0
  0
VERTEX
  5
FB5F9
  8
0
 10
19971.505561744008
 20
7491.1088697169826
 30
0.0
  0
VERTEX
  5
FB5FA
  8
0
 10
19941.505561744008
 20
7491.1088697169826
 30
0.0
  0
VERTEX
  5
FB5FB
  8
0
 10
19941.505561744008
 20
7488.1088697169826
 30
0.0
  0
VERTEX
  5
FB5FC
  8
0
 10
19971.505561744008
 20
7488.1088697169826
 30
0.0
  0
VERTEX
  5
FB5FD
  8
0
 10
19971.505561744008
 20
7491.1088697169826
 30
0.0
  0
SEQEND
  5
FB5FE
  8
0
  0
POLYLINE
  5
F7E15
  8
0
 66
     1
 10
0.0
 20
0.0
 30
0.0
  0
VERTEX
  5
FB5FF
  8
0
 10
19974.005561744008
 20
9198.1088697169798
 30
0.0
  0
VERTEX
  5
FB600
  8
0
 10
19974.005561744008
 20
7491.1088697169826
 30
0.0
  0
SEQEND
  5
FB601
  8
0
  0
POLYLINE
  5
F7E16
  8
0
 66
     1
 10
0.0
 20
0.0
 30
0.0
  0
VERTEX
  5
FB602
  8
0
 10
19939.005561744008
 20
7968.1088697169889
 30
0.0
  0
VERTEX
  5
FB603
  8
0
 10
18439.005561744019
 20
7968.1088697169889
 30
0.0
  0
VERTEX
  5
FB604
  8
0
 10
18439.005561744019
 20
7933.1088697169789
 30
0.0
  0
VERTEX
  5
FB605
  8
0
 10
19939.005561744008
 20
7933.1088697169789
 30
0.0
  0
VERTEX
  5
FB606
  8
0
 10
19939.005561744008
 20
7968.1088697169889
 30
0.0
  0
SEQEND
  5
FB607
  8
0
  0
POLYLINE
  5
F7E17
  8
0
 66
     1
 10
0.0
 20
0.0
 30
0.0
  0
VERTEX
  5
FB608
  8
0
 10
27902.898635499521
 20
7968.1088697169889
 30
0.0
  0
VERTEX
  5
FB609
  8
0
 10
26402.89863549954
 20
7968.1088697169889
 30
0.0
  0
VERTEX
  5
FB60A
  8
0
 10
26402.89863549954
 20
7933.1088697169789
 30
0.0
  0
VERTEX
  5
FB60B
  8
0
 10
27902.898635499521
 20
7933.1088697169789
 30
0.0
  0
VERTEX
  5
FB60C
  8
0
 10
27902.898635499521
 20
7968.1088697169889
 30
0.0
  0
SEQEND
  5
FB60D
  8
0
  0
POLYLINE
  5
F7E18
  8
0
 66
     1
 10
0.0
 20
0.0
 30
0.0
  0
VERTEX
  5
FB60E
  8
0
 10
14175.18508982586
 20
7488.1088697169826
 30
0.0
  0
VERTEX
  5
FB60F
  8
0
 10
20757.964787903162
 20
7488.1088697169826
 30
0.0
  0
SEQEND
  5
FB610
  8
0
  0
POLYLINE
  5
F7E19
  8
0
 66
     1
 10
0.0
 20
0.0
 30
0.0
  0
VERTEX
  5
FB611
  8
0
 10
22139.07816358138
 20
7488.1088697169826
 30
0.0
  0
VERTEX
  5
FB612
  8
0
 10
28721.857861658671
 20
7488.1088697169826
 30
0.0
  0
SEQEND
  5
FB613
  8
0
  0
POLYLINE
  5
F7E22
  8
0
 66
     1
 10
0.0
 20
0.0
 30
0.0
 70
     1
  0
VERTEX
  5
FB614
  8
0
 10
18439.005561744019
 20
8753.1088697169707
 30
0.0
  0
VERTEX
  5
FB615
  8
0
 10
19939.005561744008
 20
8753.1088697169707
 30
0.0
  0
VERTEX
  5
FB616
  8
0
 10
19939.005561744008
 20
8788.1088697169707
 30
0.0
  0
VERTEX
  5
FB617
  8
0
 10
18439.005561744019
 20
8788.1088697169707
 30
0.0
  0
SEQEND
  5
FB618
  8
0
  0
POLYLINE
  5
F7E23
  8
0
 66
     1
 10
0.0
 20
0.0
 30
0.0
 70
     1
  0
VERTEX
  5
FB619
  8
0
 10
16369.00556174401
 20
8753.1088697169707
 30
0.0
  0
VERTEX
  5
FB61A
  8
0
 10
17369.005561744008
 20
8753.1088697169707
 30
0.0
  0
VERTEX
  5
FB61B
  8
0
 10
17369.005561744008
 20
8788.1088697169707
 30
0.0
  0
VERTEX
  5
FB61C
  8
0
 10
16369.00556174401
 20
8788.1088697169707
 30
0.0
  0
SEQEND
  5
FB61D
  8
0
  0
POLYLINE
  5
F7E24
  8
0
 66
     1
 10
0.0
 20
0.0
 30
0.0
 70
     1
  0
VERTEX
  5
FB61E
  8
0
 10
14799.00556174401
 20
8753.1088697169707
 30
0.0
  0
VERTEX
  5
FB61F
  8
0
 10
15299.00556174401
 20
8753.1088697169707
 30
0.0
  0
VERTEX
  5
FB620
  8
0
 10
15299.00556174401
 20
8788.1088697169707
 30
0.0
  0
VERTEX
  5
FB621
  8
0
 10
14799.00556174401
 20
8788.1088697169707
 30
0.0
  0
SEQEND
  5
FB622
  8
0
  0
POLYLINE
  5
F7E25
  8
0
 66
     1
 10
0.0
 20
0.0
 30
0.0
 70
     1
  0
VERTEX
  5
FB623
  8
0
 10
27902.898635499521
 20
8753.1088697169707
 30
0.0
  0
VERTEX
  5
FB624
  8
0
 10
26402.89863549954
 20
8753.1088697169707
 30
0.0
  0
VERTEX
  5
FB625
  8
0
 10
26402.89863549954
 20
8788.1088697169707
 30
0.0
  0
VERTEX
  5
FB626
  8
0
 10
27902.898635499521
 20
8788.1088697169707
 30
0.0
  0
SEQEND
  5
FB627
  8
0
  0
POLYLINE
  5
F7E26
  8
0
 66
     1
 10
0.0
 20
0.0
 30
0.0
 70
     1
  0
VERTEX
  5
FB628
  8
0
 10
25367.898635499529
 20
8753.1088697169707
 30
0.0
  0
VERTEX
  5
FB629
  8
0
 10
24367.89863549954
 20
8753.1088697169707
 30
0.0
  0
VERTEX
  5
FB62A
  8
0
 10
24367.89863549954
 20
8788.1088697169707
 30
0.0
  0
VERTEX
  5
FB62B
  8
0
 10
25367.898635499529
 20
8788.1088697169707
 30
0.0
  0
SEQEND
  5
FB62C
  8
0
  0
POLYLINE
  5
F7E27
  8
0
 66
     1
 10
0.0
 20
0.0
 30
0.0
 70
     1
  0
VERTEX
  5
FB62D
  8
0
 10
23332.898635499529
 20
8753.1088697169707
 30
0.0
  0
VERTEX
  5
FB62E
  8
0
 10
22832.89863549954
 20
8753.1088697169707
 30
0.0
  0
VERTEX
  5
FB62F
  8
0
 10
22832.89863549954
 20
8788.1088697169707
 30
0.0
  0
VERTEX
  5
FB630
  8
0
 10
23332.898635499529
 20
8788.1088697169707
 30
0.0
  0
SEQEND
  5
FB631
  8
0
  0
POLYLINE
  5
F8B6F
  8
0
 66
     1
 10
0.0
 20
0.0
 30
0.0
  0
VERTEX
  5
FB632
  8
0
 10
39051.060657751841
 20
7488.1088697169826
 30
0.0
  0
VERTEX
  5
FB633
  8
0
 10
44768.530120705851
 20
7488.1088697169826
 30
0.0
  0
SEQEND
  5
FB634
  8
0
  0
POLYLINE
  5
F8B70
  8
0
 66
     1
 10
0.0
 20
0.0
 30
0.0
  0
VERTEX
  5
FB635
  8
0
 10
32333.591194797809
 20
7488.1088697169826
 30
0.0
  0
VERTEX
  5
FB636
  8
0
 10
36627.019717113602
 20
7488.1088697169826
 30
0.0
  0
SEQEND
  5
FB637
  8
0
  0
POLYLINE
  5
F8B71
  8
0
 66
     1
 10
0.0
 20
0.0
 30
0.0
 70
     1
  0
VERTEX
  5
FB638
  8
0
 10
32962.411666715961
 20
8753.1088697169816
 30
0.0
  0
VERTEX
  5
FB639
  8
0
 10
33462.411666715961
 20
8753.1088697169816
 30
0.0
  0
VERTEX
  5
FB63A
  8
0
 10
33462.411666715961
 20
8788.1088697169816
 30
0.0
  0
VERTEX
  5
FB63B
  8
0
 10
32962.411666715961
 20
8788.1088697169816
 30
0.0
  0
SEQEND
  5
FB63C
  8
0
  0
POLYLINE
  5
F8B72
  8
0
 66
     1
 10
0.0
 20
0.0
 30
0.0
  0
VERTEX
  5
FB63D
  8
0
 10
33462.411666715961
 20
9198.1088697169926
 30
0.0
  0
VERTEX
  5
FB63E
  8
0
 10
32962.411666715961
 20
9198.1088697169926
 30
0.0
  0
VERTEX
  5
FB63F
  8
0
 10
32962.411666715961
 20
9163.1088697169835
 30
0.0
  0
VERTEX
  5
FB640
  8
0
 10
33462.411666715961
 20
9163.1088697169835
 30
0.0
  0
VERTEX
  5
FB641
  8
0
 10
33462.411666715961
 20
9198.1088697169926
 30
0.0
  0
SEQEND
  5
FB642
  8
0
  0
POLYLINE
  5
F8B73
  8
0
 66
     1
 10
0.0
 20
0.0
 30
0.0
  0
VERTEX
  5
FB643
  8
0
 10
33462.411666715961
 20
7968.1088697169944
 30
0.0
  0
VERTEX
  5
FB644
  8
0
 10
32962.411666715961
 20
7968.1088697169944
 30
0.0
  0
VERTEX
  5
FB645
  8
0
 10
32962.411666715961
 20
7933.1088697169826
 30
0.0
  0
VERTEX
  5
FB646
  8
0
 10
33462.411666715961
 20
7933.1088697169826
 30
0.0
  0
VERTEX
  5
FB647
  8
0
 10
33462.411666715961
 20
7968.1088697169944
 30
0.0
  0
SEQEND
  5
FB648
  8
0
  0
POLYLINE
  5
F8B74
  8
0
 66
     1
 10
0.0
 20
0.0
 30
0.0
  0
VERTEX
  5
FB649
  8
0
 10
33497.411666715961
 20
9198.1088697169926
 30
0.0
  0
VERTEX
  5
FB64A
  8
0
 10
33497.411666715961
 20
7491.1088697169826
 30
0.0
  0
SEQEND
  5
FB64B
  8
0
  0
POLYLINE
  5
F8B75
  8
0
 66
     1
 10
0.0
 20
0.0
 30
0.0
  0
VERTEX
  5
FB64C
  8
0
 10
33494.911666715961
 20
7491.1088697169826
 30
0.0
  0
VERTEX
  5
FB64D
  8
0
 10
33464.911666715961
 20
7491.1088697169826
 30
0.0
  0
VERTEX
  5
FB64E
  8
0
 10
33464.911666715961
 20
7488.1088697169826
 30
0.0
  0
VERTEX
  5
FB64F
  8
0
 10
33494.911666715961
 20
7488.1088697169826
 30
0.0
  0
VERTEX
  5
FB650
  8
0
 10
33494.911666715961
 20
7491.1088697169826
 30
0.0
  0
SEQEND
  5
FB651
  8
0
  0
POLYLINE
  5
F8B76
  8
0
 66
     1
 10
0.0
 20
0.0
 30
0.0
  0
VERTEX
  5
FB652
  8
0
 10
32929.911666715961
 20
7491.1088697169826
 30
0.0
  0
VERTEX
  5
FB653
  8
0
 10
32959.911666715961
 20
7491.1088697169826
 30
0.0
  0
VERTEX
  5
FB654
  8
0
 10
32959.911666715961
 20
7488.1088697169826
 30
0.0
  0
VERTEX
  5
FB655
  8
0
 10
32929.911666715961
 20
7488.1088697169826
 30
0.0
  0
VERTEX
  5
FB656
  8
0
 10
32929.911666715961
 20
7491.1088697169826
 30
0.0
  0
SEQEND
  5
FB657
  8
0
  0
POLYLINE
  5
F8B77
  8
0
 66
     1
 10
0.0
 20
0.0
 30
0.0
 70
     1
  0
VERTEX
  5
FB658
  8
0
 10
32927.411666715961
 20
9198.1088697169926
 30
0.0
  0
VERTEX
  5
FB659
  8
0
 10
32962.411666715961
 20
9198.1088697169926
 30
0.0
  0
VERTEX
  5
FB65A
  8
0
 10
32962.411666715961
 20
7491.1088697169826
 30
0.0
  0
VERTEX
  5
FB65B
  8
0
 10
32927.411666715961
 20
7491.1088697169826
 30
0.0
  0
SEQEND
  5
FB65C
  8
0
  0
POLYLINE
  5
F8B78
  8
0
 66
     1
 10
0.0
 20
0.0
 30
0.0
 70
     1
  0
VERTEX
  5
FB65D
  8
0
 10
33497.411666715961
 20
9198.1088697169926
 30
0.0
  0
VERTEX
  5
FB65E
  8
0
 10
33462.411666715961
 20
9198.1088697169926
 30
0.0
  0
VERTEX
  5
FB65F
  8
0
 10
33462.411666715961
 20
7491.1088697169826
 30
0.0
  0
VERTEX
  5
FB660
  8
0
 10
33497.411666715961
 20
7491.1088697169826
 30
0.0
  0
SEQEND
  5
FB661
  8
0
  0
POLYLINE
  5
F8B79
  8
0
 66
     1
 10
0.0
 20
0.0
 30
0.0
 70
     1
  0
VERTEX
  5
FB662
  8
0
 10
32962.411666715961
 20
7523.1088697169844
 30
0.0
  0
VERTEX
  5
FB663
  8
0
 10
33462.411666715961
 20
7523.1088697169844
 30
0.0
  0
VERTEX
  5
FB664
  8
0
 10
33462.411666715961
 20
7558.1088697169826
 30
0.0
  0
VERTEX
  5
FB665
  8
0
 10
32962.411666715961
 20
7558.1088697169826
 30
0.0
  0
SEQEND
  5
FB666
  8
0
  0
POLYLINE
  5
F8B7B
  8
0
 66
     1
 10
0.0
 20
0.0
 30
0.0
 70
     1
  0
VERTEX
  5
FB667
  8
0
 10
32962.411666715961
 20
8343.1088697169816
 30
0.0
  0
VERTEX
  5
FB668
  8
0
 10
33462.411666715961
 20
8343.1088697169816
 30
0.0
  0
VERTEX
  5
FB669
  8
0
 10
33462.411666715961
 20
8378.1088697169816
 30
0.0
  0
VERTEX
  5
FB66A
  8
0
 10
32962.411666715961
 20
8378.1088697169816
 30
0.0
  0
SEQEND
  5
FB66B
  8
0
  0
POLYLINE
  5
F8B7D
  8
0
 66
     1
 10
0.0
 20
0.0
 30
0.0
  0
VERTEX
  5
FB66C
  8
0
 10
34029.911666715961
 20
7491.1088697169826
 30
0.0
  0
VERTEX
  5
FB66D
  8
0
 10
33999.911666715961
 20
7491.1088697169826
 30
0.0
  0
VERTEX
  5
FB66E
  8
0
 10
33999.911666715961
 20
7488.1088697169826
 30
0.0
  0
VERTEX
  5
FB66F
  8
0
 10
34029.911666715961
 20
7488.1088697169826
 30
0.0
  0
VERTEX
  5
FB670
  8
0
 10
34029.911666715961
 20
7491.1088697169826
 30
0.0
  0
SEQEND
  5
FB671
  8
0
  0
POLYLINE
  5
F8B7E
  8
0
 66
     1
 10
0.0
 20
0.0
 30
0.0
 70
     1
  0
VERTEX
  5
FB672
  8
0
 10
34032.411666715961
 20
9198.1088697169926
 30
0.0
  0
VERTEX
  5
FB673
  8
0
 10
33997.411666715961
 20
9198.1088697169926
 30
0.0
  0
VERTEX
  5
FB674
  8
0
 10
33997.411666715961
 20
7491.1088697169826
 30
0.0
  0
VERTEX
  5
FB675
  8
0
 10
34032.411666715961
 20
7491.1088697169826
 30
0.0
  0
SEQEND
  5
FB676
  8
0
  0
POLYLINE
  5
F8B84
  8
0
 66
     1
 10
0.0
 20
0.0
 30
0.0
 70
     1
  0
VERTEX
  5
FB677
  8
0
 10
35532.41166671594
 20
8343.1088697169816
 30
0.0
  0
VERTEX
  5
FB678
  8
0
 10
34032.411666715961
 20
8343.1088697169816
 30
0.0
  0
VERTEX
  5
FB679
  8
0
 10
34032.411666715961
 20
8378.1088697169816
 30
0.0
  0
VERTEX
  5
FB67A
  8
0
 10
35532.41166671594
 20
8378.1088697169816
 30
0.0
  0
SEQEND
  5
FB67B
  8
0
  0
POLYLINE
  5
F8B85
  8
0
 66
     1
 10
0.0
 20
0.0
 30
0.0
  0
VERTEX
  5
FB67C
  8
0
 10
35564.91166671594
 20
7491.1088697169826
 30
0.0
  0
VERTEX
  5
FB67D
  8
0
 10
35534.91166671594
 20
7491.1088697169826
 30
0.0
  0
VERTEX
  5
FB67E
  8
0
 10
35534.91166671594
 20
7488.1088697169826
 30
0.0
  0
VERTEX
  5
FB67F
  8
0
 10
35564.91166671594
 20
7488.1088697169826
 30
0.0
  0
VERTEX
  5
FB680
  8
0
 10
35564.91166671594
 20
7491.1088697169826
 30
0.0
  0
SEQEND
  5
FB681
  8
0
  0
POLYLINE
  5
F8B86
  8
0
 66
     1
 10
0.0
 20
0.0
 30
0.0
 70
     1
  0
VERTEX
  5
FB682
  8
0
 10
35567.41166671594
 20
9198.1088697169926
 30
0.0
  0
VERTEX
  5
FB683
  8
0
 10
35532.41166671594
 20
9198.1088697169926
 30
0.0
  0
VERTEX
  5
FB684
  8
0
 10
35532.41166671594
 20
7491.1088697169826
 30
0.0
  0
VERTEX
  5
FB685
  8
0
 10
35567.41166671594
 20
7491.1088697169826
 30
0.0
  0
SEQEND
  5
FB686
  8
0
  0
POLYLINE
  5
F8B87
  8
0
 66
     1
 10
0.0
 20
0.0
 30
0.0
 70
     1
  0
VERTEX
  5
FB687
  8
0
 10
35532.41166671594
 20
7523.1088697169844
 30
0.0
  0
VERTEX
  5
FB688
  8
0
 10
34032.411666715961
 20
7523.1088697169844
 30
0.0
  0
VERTEX
  5
FB689
  8
0
 10
34032.411666715961
 20
7558.1088697169826
 30
0.0
  0
VERTEX
  5
FB68A
  8
0
 10
35532.41166671594
 20
7558.1088697169826
 30
0.0
  0
SEQEND
  5
FB68B
  8
0
  0
POLYLINE
  5
F8B89
  8
0
 66
     1
 10
0.0
 20
0.0
 30
0.0
  0
VERTEX
  5
FB68C
  8
0
 10
35532.41166671594
 20
7968.1088697169944
 30
0.0
  0
VERTEX
  5
FB68D
  8
0
 10
34032.411666715961
 20
7968.1088697169944
 30
0.0
  0
VERTEX
  5
FB68E
  8
0
 10
34032.411666715961
 20
7933.1088697169826
 30
0.0
  0
VERTEX
  5
FB68F
  8
0
 10
35532.41166671594
 20
7933.1088697169826
 30
0.0
  0
VERTEX
  5
FB690
  8
0
 10
35532.41166671594
 20
7968.1088697169944
 30
0.0
  0
SEQEND
  5
FB691
  8
0
  0
POLYLINE
  5
F8B8A
  8
0
 66
     1
 10
0.0
 20
0.0
 30
0.0
  0
VERTEX
  5
FB692
  8
0
 10
35532.41166671594
 20
9198.1088697169926
 30
0.0
  0
VERTEX
  5
FB693
  8
0
 10
34032.411666715961
 20
9198.1088697169926
 30
0.0
  0
VERTEX
  5
FB694
  8
0
 10
34032.411666715961
 20
9163.1088697169835
 30
0.0
  0
VERTEX
  5
FB695
  8
0
 10
35532.41166671594
 20
9163.1088697169835
 30
0.0
  0
VERTEX
  5
FB696
  8
0
 10
35532.41166671594
 20
9198.1088697169926
 30
0.0
  0
SEQEND
  5
FB697
  8
0
  0
POLYLINE
  5
F8B8B
  8
0
 66
     1
 10
0.0
 20
0.0
 30
0.0
 70
     1
  0
VERTEX
  5
FB698
  8
0
 10
35532.41166671594
 20
8753.1088697169816
 30
0.0
  0
VERTEX
  5
FB699
  8
0
 10
34032.411666715961
 20
8753.1088697169816
 30
0.0
  0
VERTEX
  5
FB69A
  8
0
 10
34032.411666715961
 20
8788.1088697169816
 30
0.0
  0
VERTEX
  5
FB69B
  8
0
 10
35532.41166671594
 20
8788.1088697169816
 30
0.0
  0
SEQEND
  5
FB69C
  8
0
  0
POLYLINE
  5
F8B8E
  8
0
 66
     1
 10
0.0
 20
0.0
 30
0.0
 70
     1
  0
VERTEX
  5
FB69D
  8
0
 10
39540.027447699998
 20
7523.1088697169844
 30
0.0
  0
VERTEX
  5
FB69E
  8
0
 10
40540.027447699991
 20
7523.1088697169844
 30
0.0
  0
VERTEX
  5
FB69F
  8
0
 10
40540.027447699991
 20
7558.1088697169826
 30
0.0
  0
VERTEX
  5
FB6A0
  8
0
 10
39540.027447699998
 20
7558.1088697169826
 30
0.0
  0
SEQEND
  5
FB6A1
  8
0
  0
POLYLINE
  5
F8B8F
  8
0
 66
     1
 10
0.0
 20
0.0
 30
0.0
 70
     1
  0
VERTEX
  5
FB6A2
  8
0
 10
40575.027447699977
 20
9198.1088697169926
 30
0.0
  0
VERTEX
  5
FB6A3
  8
0
 10
40540.027447699991
 20
9198.1088697169926
 30
0.0
  0
VERTEX
  5
FB6A4
  8
0
 10
40540.027447699991
 20
7491.1088697169826
 30
0.0
  0
VERTEX
  5
FB6A5
  8
0
 10
40575.027447699977
 20
7491.1088697169826
 30
0.0
  0
SEQEND
  5
FB6A6
  8
0
  0
POLYLINE
  5
F8B90
  8
0
 66
     1
 10
0.0
 20
0.0
 30
0.0
 70
     1
  0
VERTEX
  5
FB6A7
  8
0
 10
39505.027447699998
 20
9198.1088697169926
 30
0.0
  0
VERTEX
  5
FB6A8
  8
0
 10
39540.027447699998
 20
9198.1088697169926
 30
0.0
  0
VERTEX
  5
FB6A9
  8
0
 10
39540.027447699998
 20
7491.1088697169826
 30
0.0
  0
VERTEX
  5
FB6AA
  8
0
 10
39505.027447699998
 20
7491.1088697169826
 30
0.0
  0
SEQEND
  5
FB6AB
  8
0
  0
POLYLINE
  5
F8B91
  8
0
 66
     1
 10
0.0
 20
0.0
 30
0.0
  0
VERTEX
  5
FB6AC
  8
0
 10
39507.527447699998
 20
7491.1088697169826
 30
0.0
  0
VERTEX
  5
FB6AD
  8
0
 10
39537.527447699998
 20
7491.1088697169826
 30
0.0
  0
VERTEX
  5
FB6AE
  8
0
 10
39537.527447699998
 20
7488.1088697169826
 30
0.0
  0
VERTEX
  5
FB6AF
  8
0
 10
39507.527447699998
 20
7488.1088697169826
 30
0.0
  0
VERTEX
  5
FB6B0
  8
0
 10
39507.527447699998
 20
7491.1088697169826
 30
0.0
  0
SEQEND
  5
FB6B1
  8
0
  0
POLYLINE
  5
F8B92
  8
0
 66
     1
 10
0.0
 20
0.0
 30
0.0
  0
VERTEX
  5
FB6B2
  8
0
 10
40572.527447699998
 20
7491.1088697169826
 30
0.0
  0
VERTEX
  5
FB6B3
  8
0
 10
40542.527447699998
 20
7491.1088697169826
 30
0.0
  0
VERTEX
  5
FB6B4
  8
0
 10
40542.527447699998
 20
7488.1088697169826
 30
0.0
  0
VERTEX
  5
FB6B5
  8
0
 10
40572.527447699998
 20
7488.1088697169826
 30
0.0
  0
VERTEX
  5
FB6B6
  8
0
 10
40572.527447699998
 20
7491.1088697169826
 30
0.0
  0
SEQEND
  5
FB6B7
  8
0
  0
POLYLINE
  5
F8B93
  8
0
 66
     1
 10
0.0
 20
0.0
 30
0.0
  0
VERTEX
  5
FB6B8
  8
0
 10
40575.027447699977
 20
9198.1088697169926
 30
0.0
  0
VERTEX
  5
FB6B9
  8
0
 10
40575.027447699977
 20
7491.1088697169826
 30
0.0
  0
SEQEND
  5
FB6BA
  8
0
  0
POLYLINE
  5
F8B94
  8
0
 66
     1
 10
0.0
 20
0.0
 30
0.0
  0
VERTEX
  5
FB6BB
  8
0
 10
40540.027447699991
 20
7968.1088697169944
 30
0.0
  0
VERTEX
  5
FB6BC
  8
0
 10
39540.027447699998
 20
7968.1088697169944
 30
0.0
  0
VERTEX
  5
FB6BD
  8
0
 10
39540.027447699998
 20
7933.1088697169826
 30
0.0
  0
VERTEX
  5
FB6BE
  8
0
 10
40540.027447699991
 20
7933.1088697169826
 30
0.0
  0
VERTEX
  5
FB6BF
  8
0
 10
40540.027447699991
 20
7968.1088697169944
 30
0.0
  0
SEQEND
  5
FB6C0
  8
0
  0
POLYLINE
  5
F8B95
  8
0
 66
     1
 10
0.0
 20
0.0
 30
0.0
  0
VERTEX
  5
FB6C1
  8
0
 10
40540.027447699991
 20
9198.1088697169926
 30
0.0
  0
VERTEX
  5
FB6C2
  8
0
 10
39540.027447699998
 20
9198.1088697169926
 30
0.0
  0
VERTEX
  5
FB6C3
  8
0
 10
39540.027447699998
 20
9163.1088697169835
 30
0.0
  0
VERTEX
  5
FB6C4
  8
0
 10
40540.027447699991
 20
9163.1088697169835
 30
0.0
  0
VERTEX
  5
FB6C5
  8
0
 10
40540.027447699991
 20
9198.1088697169926
 30
0.0
  0
SEQEND
  5
FB6C6
  8
0
  0
POLYLINE
  5
F8B96
  8
0
 66
     1
 10
0.0
 20
0.0
 30
0.0
 70
     1
  0
VERTEX
  5
FB6C7
  8
0
 10
39540.027447699998
 20
8753.1088697169816
 30
0.0
  0
VERTEX
  5
FB6C8
  8
0
 10
40540.027447699991
 20
8753.1088697169816
 30
0.0
  0
VERTEX
  5
FB6C9
  8
0
 10
40540.027447699991
 20
8788.1088697169816
 30
0.0
  0
VERTEX
  5
FB6CA
  8
0
 10
39540.027447699998
 20
8788.1088697169816
 30
0.0
  0
SEQEND
  5
FB6CB
  8
0
  0
POLYLINE
  5
F8B97
  8
0
 66
     1
 10
0.0
 20
0.0
 30
0.0
 70
     1
  0
VERTEX
  5
FB6CC
  8
0
 10
40575.027447699977
 20
8753.1088697169816
 30
0.0
  0
VERTEX
  5
FB6CD
  8
0
 10
41575.027447699998
 20
8753.1088697169816
 30
0.0
  0
VERTEX
  5
FB6CE
  8
0
 10
41575.027447699998
 20
8788.1088697169816
 30
0.0
  0
VERTEX
  5
FB6CF
  8
0
 10
40575.027447699977
 20
8788.1088697169816
 30
0.0
  0
SEQEND
  5
FB6D0
  8
0
  0
POLYLINE
  5
F8B98
  8
0
 66
     1
 10
0.0
 20
0.0
 30
0.0
  0
VERTEX
  5
FB6D1
  8
0
 10
41575.027447699998
 20
9198.1088697169926
 30
0.0
  0
VERTEX
  5
FB6D2
  8
0
 10
40575.027447699977
 20
9198.1088697169926
 30
0.0
  0
VERTEX
  5
FB6D3
  8
0
 10
40575.027447699977
 20
9163.1088697169835
 30
0.0
  0
VERTEX
  5
FB6D4
  8
0
 10
41575.027447699998
 20
9163.1088697169835
 30
0.0
  0
VERTEX
  5
FB6D5
  8
0
 10
41575.027447699998
 20
9198.1088697169926
 30
0.0
  0
SEQEND
  5
FB6D6
  8
0
  0
POLYLINE
  5
F8B99
  8
0
 66
     1
 10
0.0
 20
0.0
 30
0.0
  0
VERTEX
  5
FB6D7
  8
0
 10
41575.027447699998
 20
7968.1088697169944
 30
0.0
  0
VERTEX
  5
FB6D8
  8
0
 10
40575.027447699977
 20
7968.1088697169944
 30
0.0
  0
VERTEX
  5
FB6D9
  8
0
 10
40575.027447699977
 20
7933.1088697169826
 30
0.0
  0
VERTEX
  5
FB6DA
  8
0
 10
41575.027447699998
 20
7933.1088697169826
 30
0.0
  0
VERTEX
  5
FB6DB
  8
0
 10
41575.027447699998
 20
7968.1088697169944
 30
0.0
  0
SEQEND
  5
FB6DC
  8
0
  0
POLYLINE
  5
F8B9A
  8
0
 66
     1
 10
0.0
 20
0.0
 30
0.0
  0
VERTEX
  5
FB6DD
  8
0
 10
41610.027447699998
 20
9198.1088697169926
 30
0.0
  0
VERTEX
  5
FB6DE
  8
0
 10
41610.027447699998
 20
7491.1088697169826
 30
0.0
  0
SEQEND
  5
FB6DF
  8
0
  0
POLYLINE
  5
F8B9B
  8
0
 66
     1
 10
0.0
 20
0.0
 30
0.0
  0
VERTEX
  5
FB6E0
  8
0
 10
41607.527447699991
 20
7491.1088697169826
 30
0.0
  0
VERTEX
  5
FB6E1
  8
0
 10
41577.527447699977
 20
7491.1088697169826
 30
0.0
  0
VERTEX
  5
FB6E2
  8
0
 10
41577.527447699977
 20
7488.1088697169826
 30
0.0
  0
VERTEX
  5
FB6E3
  8
0
 10
41607.527447699991
 20
7488.1088697169826
 30
0.0
  0
VERTEX
  5
FB6E4
  8
0
 10
41607.527447699991
 20
7491.1088697169826
 30
0.0
  0
SEQEND
  5
FB6E5
  8
0
  0
POLYLINE
  5
F8B9C
  8
0
 66
     1
 10
0.0
 20
0.0
 30
0.0
 70
     1
  0
VERTEX
  5
FB6E6
  8
0
 10
41610.027447699998
 20
9198.1088697169926
 30
0.0
  0
VERTEX
  5
FB6E7
  8
0
 10
41575.027447699998
 20
9198.1088697169926
 30
0.0
  0
VERTEX
  5
FB6E8
  8
0
 10
41575.027447699998
 20
7491.1088697169826
 30
0.0
  0
VERTEX
  5
FB6E9
  8
0
 10
41610.027447699998
 20
7491.1088697169826
 30
0.0
  0
SEQEND
  5
FB6EA
  8
0
  0
POLYLINE
  5
F8B9D
  8
0
 66
     1
 10
0.0
 20
0.0
 30
0.0
 70
     1
  0
VERTEX
  5
FB6EB
  8
0
 10
40575.027447699977
 20
7523.1088697169844
 30
0.0
  0
VERTEX
  5
FB6EC
  8
0
 10
41575.027447699998
 20
7523.1088697169844
 30
0.0
  0
VERTEX
  5
FB6ED
  8
0
 10
41575.027447699998
 20
7558.1088697169826
 30
0.0
  0
VERTEX
  5
FB6EE
  8
0
 10
40575.027447699977
 20
7558.1088697169826
 30
0.0
  0
SEQEND
  5
FB6EF
  8
0
  0
POLYLINE
  5
F8BA2
  8
0
 66
     1
 10
0.0
 20
0.0
 30
0.0
 70
     1
  0
VERTEX
  5
FB6F0
  8
0
 10
41610.027447699998
 20
7523.1088697169844
 30
0.0
  0
VERTEX
  5
FB6F1
  8
0
 10
42610.027447699977
 20
7523.1088697169844
 30
0.0
  0
VERTEX
  5
FB6F2
  8
0
 10
42610.027447699977
 20
7558.1088697169826
 30
0.0
  0
VERTEX
  5
FB6F3
  8
0
 10
41610.027447699998
 20
7558.1088697169826
 30
0.0
  0
SEQEND
  5
FB6F4
  8
0
  0
POLYLINE
  5
F8BA3
  8
0
 66
     1
 10
0.0
 20
0.0
 30
0.0
 70
     1
  0
VERTEX
  5
FB6F5
  8
0
 10
42645.027447699991
 20
9198.1088697169926
 30
0.0
  0
VERTEX
  5
FB6F6
  8
0
 10
42610.027447699977
 20
9198.1088697169926
 30
0.0
  0
VERTEX
  5
FB6F7
  8
0
 10
42610.027447699977
 20
7491.1088697169826
 30
0.0
  0
VERTEX
  5
FB6F8
  8
0
 10
42645.027447699991
 20
7491.1088697169826
 30
0.0
  0
SEQEND
  5
FB6F9
  8
0
  0
POLYLINE
  5
F8BA4
  8
0
 66
     1
 10
0.0
 20
0.0
 30
0.0
  0
VERTEX
  5
FB6FA
  8
0
 10
42642.527447699998
 20
7491.1088697169826
 30
0.0
  0
VERTEX
  5
FB6FB
  8
0
 10
42612.527447699998
 20
7491.1088697169826
 30
0.0
  0
VERTEX
  5
FB6FC
  8
0
 10
42612.527447699998
 20
7488.1088697169826
 30
0.0
  0
VERTEX
  5
FB6FD
  8
0
 10
42642.527447699998
 20
7488.1088697169826
 30
0.0
  0
VERTEX
  5
FB6FE
  8
0
 10
42642.527447699998
 20
7491.1088697169826
 30
0.0
  0
SEQEND
  5
FB6FF
  8
0
  0
POLYLINE
  5
F8BA5
  8
0
 66
     1
 10
0.0
 20
0.0
 30
0.0
  0
VERTEX
  5
FB700
  8
0
 10
42645.027447699991
 20
9198.1088697169926
 30
0.0
  0
VERTEX
  5
FB701
  8
0
 10
42645.027447699991
 20
7491.1088697169826
 30
0.0
  0
SEQEND
  5
FB702
  8
0
  0
POLYLINE
  5
F8BA6
  8
0
 66
     1
 10
0.0
 20
0.0
 30
0.0
  0
VERTEX
  5
FB703
  8
0
 10
42610.027447699977
 20
7968.1088697169944
 30
0.0
  0
VERTEX
  5
FB704
  8
0
 10
41610.027447699998
 20
7968.1088697169944
 30
0.0
  0
VERTEX
  5
FB705
  8
0
 10
41610.027447699998
 20
7933.1088697169826
 30
0.0
  0
VERTEX
  5
FB706
  8
0
 10
42610.027447699977
 20
7933.1088697169826
 30
0.0
  0
VERTEX
  5
FB707
  8
0
 10
42610.027447699977
 20
7968.1088697169944
 30
0.0
  0
SEQEND
  5
FB708
  8
0
  0
POLYLINE
  5
F8BA7
  8
0
 66
     1
 10
0.0
 20
0.0
 30
0.0
  0
VERTEX
  5
FB709
  8
0
 10
42610.027447699977
 20
9198.1088697169926
 30
0.0
  0
VERTEX
  5
FB70A
  8
0
 10
41610.027447699998
 20
9198.1088697169926
 30
0.0
  0
VERTEX
  5
FB70B
  8
0
 10
41610.027447699998
 20
9163.1088697169835
 30
0.0
  0
VERTEX
  5
FB70C
  8
0
 10
42610.027447699977
 20
9163.1088697169835
 30
0.0
  0
VERTEX
  5
FB70D
  8
0
 10
42610.027447699977
 20
9198.1088697169926
 30
0.0
  0
SEQEND
  5
FB70E
  8
0
  0
POLYLINE
  5
F8BA8
  8
0
 66
     1
 10
0.0
 20
0.0
 30
0.0
 70
     1
  0
VERTEX
  5
FB70F
  8
0
 10
41610.027447699998
 20
8753.1088697169816
 30
0.0
  0
VERTEX
  5
FB710
  8
0
 10
42610.027447699977
 20
8753.1088697169816
 30
0.0
  0
VERTEX
  5
FB711
  8
0
 10
42610.027447699977
 20
8788.1088697169816
 30
0.0
  0
VERTEX
  5
FB712
  8
0
 10
41610.027447699998
 20
8788.1088697169816
 30
0.0
  0
SEQEND
  5
FB713
  8
0
  0
POLYLINE
  5
F8BB5
  8
0
 66
     1
 10
0.0
 20
0.0
 30
0.0
  0
VERTEX
  5
FB714
  8
0
 10
34029.911666715961
 20
7491.1088697169826
 30
0.0
  0
VERTEX
  5
FB715
  8
0
 10
33999.911666715961
 20
7491.1088697169826
 30
0.0
  0
VERTEX
  5
FB716
  8
0
 10
33999.911666715961
 20
7488.1088697169826
 30
0.0
  0
VERTEX
  5
FB717
  8
0
 10
34029.911666715961
 20
7488.1088697169826
 30
0.0
  0
VERTEX
  5
FB718
  8
0
 10
34029.911666715961
 20
7491.1088697169826
 30
0.0
  0
SEQEND
  5
FB719
  8
0
  0
POLYLINE
  5
F8BB7
  8
0
 66
     1
 10
0.0
 20
0.0
 30
0.0
 70
     1
  0
VERTEX
  5
FB71A
  8
0
 10
33497.411666715961
 20
8343.1088697169816
 30
0.0
  0
VERTEX
  5
FB71B
  8
0
 10
33997.411666715961
 20
8343.1088697169816
 30
0.0
  0
VERTEX
  5
FB71C
  8
0
 10
33997.411666715961
 20
8378.1088697169816
 30
0.0
  0
VERTEX
  5
FB71D
  8
0
 10
33497.411666715961
 20
8378.1088697169816
 30
0.0
  0
SEQEND
  5
FB71E
  8
0
  0
POLYLINE
  5
F8BB8
  8
0
 66
     1
 10
0.0
 20
0.0
 30
0.0
 70
     1
  0
VERTEX
  5
FB71F
  8
0
 10
33497.411666715961
 20
7523.1088697169844
 30
0.0
  0
VERTEX
  5
FB720
  8
0
 10
33997.411666715961
 20
7523.1088697169844
 30
0.0
  0
VERTEX
  5
FB721
  8
0
 10
33997.411666715961
 20
7558.1088697169826
 30
0.0
  0
VERTEX
  5
FB722
  8
0
 10
33497.411666715961
 20
7558.1088697169826
 30
0.0
  0
SEQEND
  5
FB723
  8
0
  0
POLYLINE
  5
F8BB9
  8
0
 66
     1
 10
0.0
 20
0.0
 30
0.0
  0
VERTEX
  5
FB724
  8
0
 10
33997.411666715961
 20
7968.1088697169944
 30
0.0
  0
VERTEX
  5
FB725
  8
0
 10
33497.411666715961
 20
7968.1088697169944
 30
0.0
  0
VERTEX
  5
FB726
  8
0
 10
33497.411666715961
 20
7933.1088697169826
 30
0.0
  0
VERTEX
  5
FB727
  8
0
 10
33997.411666715961
 20
7933.1088697169826
 30
0.0
  0
VERTEX
  5
FB728
  8
0
 10
33997.411666715961
 20
7968.1088697169944
 30
0.0
  0
SEQEND
  5
FB729
  8
0
  0
POLYLINE
  5
F8BBA
  8
0
 66
     1
 10
0.0
 20
0.0
 30
0.0
  0
VERTEX
  5
FB72A
  8
0
 10
33997.411666715961
 20
9198.1088697169926
 30
0.0
  0
VERTEX
  5
FB72B
  8
0
 10
33497.411666715961
 20
9198.1088697169926
 30
0.0
  0
VERTEX
  5
FB72C
  8
0
 10
33497.411666715961
 20
9163.1088697169835
 30
0.0
  0
VERTEX
  5
FB72D
  8
0
 10
33997.411666715961
 20
9163.1088697169835
 30
0.0
  0
VERTEX
  5
FB72E
  8
0
 10
33997.411666715961
 20
9198.1088697169926
 30
0.0
  0
SEQEND
  5
FB72F
  8
0
  0
POLYLINE
  5
F8BBB
  8
0
 66
     1
 10
0.0
 20
0.0
 30
0.0
 70
     1
  0
VERTEX
  5
FB730
  8
0
 10
33497.411666715961
 20
8753.1088697169816
 30
0.0
  0
VERTEX
  5
FB731
  8
0
 10
33997.411666715961
 20
8753.1088697169816
 30
0.0
  0
VERTEX
  5
FB732
  8
0
 10
33997.411666715961
 20
8788.1088697169816
 30
0.0
  0
VERTEX
  5
FB733
  8
0
 10
33497.411666715961
 20
8788.1088697169816
 30
0.0
  0
SEQEND
  5
FB734
  8
0
  0
VIEWPORT
  5
DAB74
 67
     1
  8
0
 10
0.0
 20
0.0
 30
0.0
 40
10.872707774798929
 41
8.1600000000000001
 68
     1
 69
     1
1001
ACAD
1000
MVIEW
1002
{
1070
    16
1010
0.0
1020
0.0
1030
0.0
1010
0.0
1020
0.0
1030
1.0
1040
0.0
1040
8.1600000000000001
1040
6.0659999999999981
1040
3.8512386058981232
1040
50.0
1040
0.0
1040
0.0
1070
    16
1070
   100
1070
     1
1070
     3
1070
     0
1070
     0
1070
     0
1070
     0
1040
0.0
1040
0.0
1040
0.0
1040
0.5
1040
0.5
1040
0.0
1040
0.0
1070
     0
1002
{
1002
}
1002
}
  0
VIEWPORT
  5
DAB75
 67
     1
  8
0
 10
5.25
 20
4.0
 30
0.0
 40
8.4000000000000004
 41
6.4000000000000004
 68
     2
 69
     2
1001
ACAD
1000
MVIEW
1002
{
1070
    16
1010
0.0
1020
0.0
1030
0.0
1010
0.0
1020
0.0
1030
1.0
1040
0.0
1040
12730.992515089791
1040
-238.8342129778575
1040
5240.6826054361727
1040
50.0
1040
0.0
1040
0.0
1070
     0
1070
   100
1070
     1
1070
     3
1070
     0
1070
     0
1070
     0
1070
     0
1040
0.0
1040
0.0
1040
0.0
1040
0.5
1040
0.5
1040
0.0
1040
0.0
1070
     0
1002
{
1002
}
1002
}
  0
ENDSEC
  0
EOF
