  0
SECTION
  2
HEADER
  9
$ACADVER
  1
AC1009
  9
$DWGCODEPAGE
  3
ansi_1252
  9
$INSBASE
 10
0.0
 20
0.0
 30
0.0
  9
$EXTMIN
 10
0.0
 20
0.0
 30
0.0
  9
$EXTMAX
 10
12602.47213647047
 20
12230.73937437942
 30
0.0
  9
$LIMMIN
 10
0.0
 20
0.0
  9
$LIMMAX
 10
12.0
 20
9.0
  9
$ORTHOMODE
 70
     1
  9
$REGENMODE
 70
     1
  9
$FILLMODE
 70
     1
  9
$QTEXTMODE
 70
     0
  9
$MIRRTEXT
 70
     0
  9
$DRAGMODE
 70
     2
  9
$LTSCALE
 40
1.0
  9
$OSMODE
 70
 16383
  9
$ATTMODE
 70
     1
  9
$TEXTSIZE
 40
0.2
  9
$TRACEWID
 40
0.05
  9
$TEXTSTYLE
  7
STANDARD
  9
$CLAYER
  8
0
  9
$CELTYPE
  6
BYLAYER
  9
$CECOLOR
 62
   256
  9
$DIMSCALE
 40
1.0
  9
$DIMASZ
 40
0.18
  9
$DIMEXO
 40
0.0625
  9
$DIMDLI
 40
0.38
  9
$DIMRND
 40
0.0
  9
$DIMDLE
 40
0.0
  9
$DIMEXE
 40
0.18
  9
$DIMTP
 40
0.0
  9
$DIMTM
 40
0.0
  9
$DIMTXT
 40
0.18
  9
$DIMCEN
 40
0.09
  9
$DIMTSZ
 40
0.0
  9
$DIMTOL
 70
     0
  9
$DIMLIM
 70
     0
  9
$DIMTIH
 70
     1
  9
$DIMTOH
 70
     1
  9
$DIMSE1
 70
     0
  9
$DIMSE2
 70
     0
  9
$DIMTAD
 70
     0
  9
$DIMZIN
 70
     0
  9
$DIMBLK
  1

  9
$DIMASO
 70
     1
  9
$DIMSHO
 70
     1
  9
$DIMPOST
  1

  9
$DIMAPOST
  1

  9
$DIMALT
 70
     0
  9
$DIMALTD
 70
     2
  9
$DIMALTF
 40
25.4
  9
$DIMLFAC
 40
1.0
  9
$DIMTOFL
 70
     0
  9
$DIMTVP
 40
0.0
  9
$DIMTIX
 70
     0
  9
$DIMSOXD
 70
     0
  9
$DIMSAH
 70
     0
  9
$DIMBLK1
  1

  9
$DIMBLK2
  1

  9
$DIMSTYLE
  2
STANDARD
  9
$DIMCLRD
 70
     0
  9
$DIMCLRE
 70
     0
  9
$DIMCLRT
 70
     0
  9
$DIMTFAC
 40
1.0
  9
$DIMGAP
 40
0.09
  9
$LUNITS
 70
     2
  9
$LUPREC
 70
     4
  9
$SKETCHINC
 40
0.1
  9
$FILLETRAD
 40
0.0
  9
$AUNITS
 70
     0
  9
$AUPREC
 70
     0
  9
$MENU
  1
.
  9
$ELEVATION
 40
0.0
  9
$PELEVATION
 40
0.0
  9
$THICKNESS
 40
0.0
  9
$LIMCHECK
 70
     0
  9
$CHAMFERA
 40
0.0
  9
$CHAMFERB
 40
0.0
  9
$SKPOLY
 70
     0
  9
$TDCREATE
 40
2457352.610530232
  9
$TDUPDATE
 40
2459748.752326563
  9
$TDINDWG
 40
0.3168560069
  9
$TDUSRTIMER
 40
0.000882338
  9
$USRTIMER
 70
     1
  9
$ANGBASE
 50
0.0
  9
$ANGDIR
 70
     0
  9
$PDMODE
 70
     0
  9
$PDSIZE
 40
0.0
  9
$PLINEWID
 40
0.0
  9
$COORDS
 70
     1
  9
$SPLFRAME
 70
     0
  9
$SPLINETYPE
 70
     6
  9
$SPLINESEGS
 70
     8
  9
$ATTDIA
 70
     0
  9
$ATTREQ
 70
     1
  9
$HANDLING
 70
     1
  9
$HANDSEED
  5
12AE9
  9
$SURFTAB1
 70
     6
  9
$SURFTAB2
 70
     6
  9
$SURFTYPE
 70
     6
  9
$SURFU
 70
     6
  9
$SURFV
 70
     6
  9
$UCSNAME
  2

  9
$UCSORG
 10
0.0
 20
0.0
 30
0.0
  9
$UCSXDIR
 10
1.0
 20
0.0
 30
0.0
  9
$UCSYDIR
 10
0.0
 20
1.0
 30
0.0
  9
$PUCSNAME
  2

  9
$PUCSORG
 10
0.0
 20
0.0
 30
0.0
  9
$PUCSXDIR
 10
1.0
 20
0.0
 30
0.0
  9
$PUCSYDIR
 10
0.0
 20
1.0
 30
0.0
  9
$USERI1
 70
     0
  9
$USERI2
 70
     0
  9
$USERI3
 70
     0
  9
$USERI4
 70
     0
  9
$USERI5
 70
     0
  9
$USERR1
 40
0.0
  9
$USERR2
 40
0.0
  9
$USERR3
 40
0.0
  9
$USERR4
 40
0.0
  9
$USERR5
 40
0.0
  9
$WORLDVIEW
 70
     1
  9
$SHADEDGE
 70
     3
  9
$SHADEDIF
 70
    70
  9
$TILEMODE
 70
     1
  9
$MAXACTVP
 70
    64
  9
$PLIMCHECK
 70
     0
  9
$PEXTMIN
 10
0.0
 20
0.0
 30
0.0
  9
$PEXTMAX
 10
0.0
 20
0.0
 30
0.0
  9
$PLIMMIN
 10
0.0
 20
0.0
  9
$PLIMMAX
 10
0.0
 20
0.0
  9
$UNITMODE
 70
     0
  9
$VISRETAIN
 70
     1
  9
$PLINEGEN
 70
     0
  9
$PSLTSCALE
 70
     1
  0
ENDSEC
  0
SECTION
  2
TABLES
  0
TABLE
  2
VPORT
 70
     1
  0
VPORT
  2
*ACTIVE
 70
     0
 10
0.0
 20
0.0
 11
1.0
 21
1.0
 12
8551.219685761971
 22
6115.713070398623
 13
0.0
 23
0.0
 14
0.5
 24
0.5
 15
0.5
 25
0.5
 16
0.0
 26
0.0
 36
1.0
 17
0.0
 27
0.0
 37
0.0
 40
12363.90021961993
 41
2.221621621621621
 42
50.0
 43
0.0
 44
0.0
 50
0.0
 51
0.0
 71
     0
 72
  1000
 73
     1
 74
     3
 75
     0
 76
     0
 77
     0
 78
     0
  0
ENDTAB
  0
TABLE
  2
LTYPE
 70
     1
  0
LTYPE
  2
CONTINUOUS
 70
     0
  3
Solid line
 72
    65
 73
     0
 40
0.0
  0
ENDTAB
  0
TABLE
  2
LAYER
 70
     2
  0
LAYER
  2
0
 70
     0
 62
     7
  6
CONTINUOUS
  0
ENDTAB
  0
TABLE
  2
STYLE
 70
     2
  0
STYLE
  2
STANDARD
 70
     0
 40
0.0
 41
1.0
 50
0.0
 71
     0
 42
0.2
  3
txt
  4

  0
STYLE
  2
STILE1
 70
     0
 40
0.0
 41
1.0
 50
0.0
 71
     0
 42
19.0
  3
ROMANS.SHX
  4

  0
ENDTAB
  0
TABLE
  2
VIEW
 70
     0
  0
ENDTAB
  0
TABLE
  2
UCS
 70
     0
  0
ENDTAB
  0
TABLE
  2
APPID
 70
     2
  0
APPID
  2
ACAD
 70
     0
  0
APPID
  2
DCO15
 70
     0
  0
ENDTAB
  0
TABLE
  2
DIMSTYLE
 70
     1
  0
DIMSTYLE
  2
STANDARD
 70
     0
  3

  4

  5

  6

  7

 40
1.0
 41
0.18
 42
0.0625
 43
0.38
 44
0.18
 45
0.0
 46
0.0
 47
0.0
 48
0.0
140
0.18
141
0.09
142
0.0
143
25.4
144
1.0
145
0.0
146
1.0
147
0.09
 71
     0
 72
     0
 73
     1
 74
     1
 75
     0
 76
     0
 77
     0
 78
     0
170
     0
171
     2
172
     0
173
     0
174
     0
175
     0
176
     0
177
     0
178
     0
  0
ENDTAB
  0
ENDSEC
  0
SECTION
  2
BLOCKS
  0
BLOCK
  8
0
  2
$MODEL_SPACE
 70
     0
 10
0.0
 20
0.0
 30
0.0
  3
$MODEL_SPACE
  1

  0
ENDBLK
  5
1286B
  8
0
  0
BLOCK
 67
     1
  8
0
  2
$PAPER_SPACE
 70
     0
 10
0.0
 20
0.0
 30
0.0
  3
$PAPER_SPACE
  1

  0
ENDBLK
  5
12867
 67
     1
  8
0
  0
ENDSEC
  0
SECTION
  2
ENTITIES
  0
TEXT
  5
13CA
  8
0
 10
3173.906836621409
 20
432.2479967307316
 30
0.0
 40
125.0
  1
Questo disegno è di proprietà di Fantin S.r.l.   
  7
STILE1
 72
     1
 11
5596.525884240456
 21
432.2479967307316
 31
0.0
  0
TEXT
  5
13CB
  8
0
 10
3623.965843968677
 20
778.7322304035333
 30
0.0
 40
125.0
  1
Frame Tables & Desks
  7
STILE1
 72
     1
 11
4739.851260635344
 21
778.7322304035333
 31
0.0
  0
POLYLINE
  5
13CC
  8
0
  6
CONTINUOUS
 66
     1
 10
0.0
 20
0.0
 30
0.0
  0
VERTEX
  5
129F4
  8
0
  6
CONTINUOUS
 10
2006.841552732512
 20
299.9999999999997
 30
0.0
  0
VERTEX
  5
129F5
  8
0
  6
CONTINUOUS
 10
2006.841552732512
 20
687.661092123016
 30
0.0
  0
VERTEX
  5
129F6
  8
0
  6
CONTINUOUS
 10
2108.191094296053
 20
687.661092123016
 30
0.0
 42
-0.316444976687396
  0
VERTEX
  5
129F7
  8
0
  6
CONTINUOUS
 10
2159.138888884337
 20
659.4164767791514
 30
0.0
  0
VERTEX
  5
129F8
  8
0
  6
CONTINUOUS
 10
2259.932047529146
 20
489.3975694442633
 30
0.0
  0
VERTEX
  5
129F9
  8
0
  6
CONTINUOUS
 10
2262.700181747787
 20
489.3975694442633
 30
0.0
  0
VERTEX
  5
129FA
  8
0
  6
CONTINUOUS
 10
2262.700181747787
 20
687.661092123016
 30
0.0
  0
VERTEX
  5
129FB
  8
0
  6
CONTINUOUS
 10
2375.123982746154
 20
687.661092123016
 30
0.0
  0
VERTEX
  5
129FC
  8
0
  6
CONTINUOUS
 10
2375.123982746154
 20
299.9999999999997
 30
0.0
  0
VERTEX
  5
129FD
  8
0
  6
CONTINUOUS
 10
2292.601888021454
 20
299.9999999999997
 30
0.0
 42
-0.312959769389874
  0
VERTEX
  5
129FE
  8
0
  6
CONTINUOUS
 10
2241.654093428515
 20
328.2428927952421
 30
0.0
  0
VERTEX
  5
129FF
  8
0
  6
CONTINUOUS
 10
2122.033487958833
 20
521.5196397574612
 30
0.0
  0
VERTEX
  5
12A00
  8
0
  6
CONTINUOUS
 10
2119.268798828125
 20
521.5196397574612
 30
0.0
  0
VERTEX
  5
12A01
  8
0
  6
CONTINUOUS
 10
2119.268798828125
 20
299.9999999999997
 30
0.0
  0
VERTEX
  5
12A02
  8
0
  6
CONTINUOUS
 10
2006.841552732512
 20
299.9999999999997
 30
0.0
  0
SEQEND
  5
12AC6
  8
0
  6
CONTINUOUS
  0
POLYLINE
  5
13CD
  8
0
  6
CONTINUOUS
 66
     1
 10
0.0
 20
0.0
 30
0.0
  0
VERTEX
  5
12A03
  8
0
  6
CONTINUOUS
 10
1030.479098847136
 20
299.9999999999997
 30
0.0
  0
VERTEX
  5
12A04
  8
0
  6
CONTINUOUS
 10
1030.479098847136
 20
687.661092123016
 30
0.0
  0
VERTEX
  5
12A05
  8
0
  6
CONTINUOUS
 10
1131.828640410675
 20
687.661092123016
 30
0.0
 42
-0.316444976687396
  0
VERTEX
  5
12A06
  8
0
  6
CONTINUOUS
 10
1182.776435003616
 20
659.4164767791514
 30
0.0
  0
VERTEX
  5
12A07
  8
0
  6
CONTINUOUS
 10
1283.569593643768
 20
489.3975694442633
 30
0.0
  0
VERTEX
  5
12A08
  8
0
  6
CONTINUOUS
 10
1286.337727867066
 20
489.3975694442633
 30
0.0
  0
VERTEX
  5
12A09
  8
0
  6
CONTINUOUS
 10
1286.337727867066
 20
687.661092123016
 30
0.0
  0
VERTEX
  5
12A0A
  8
0
  6
CONTINUOUS
 10
1398.761528860777
 20
687.661092123016
 30
0.0
  0
VERTEX
  5
12A0B
  8
0
  6
CONTINUOUS
 10
1398.761528860777
 20
299.9999999999997
 30
0.0
  0
VERTEX
  5
12A0C
  8
0
  6
CONTINUOUS
 10
1316.239434136078
 20
299.9999999999997
 30
0.0
 42
-0.312959769389874
  0
VERTEX
  5
12A0D
  8
0
  6
CONTINUOUS
 10
1265.29163953848
 20
328.2428927952421
 30
0.0
  0
VERTEX
  5
12A0E
  8
0
  6
CONTINUOUS
 10
1145.671034073457
 20
521.5196397574612
 30
0.0
  0
VERTEX
  5
12A0F
  8
0
  6
CONTINUOUS
 10
1142.906344942748
 20
521.5196397574612
 30
0.0
  0
VERTEX
  5
12A10
  8
0
  6
CONTINUOUS
 10
1142.906344942748
 20
299.9999999999997
 30
0.0
  0
VERTEX
  5
12A11
  8
0
  6
CONTINUOUS
 10
1030.479098847136
 20
299.9999999999997
 30
0.0
  0
SEQEND
  5
12AC7
  8
0
  6
CONTINUOUS
  0
POLYLINE
  5
13CE
  8
0
  6
CONTINUOUS
 66
     1
 10
0.0
 20
0.0
 30
0.0
  0
VERTEX
  5
12A12
  8
0
  6
CONTINUOUS
 10
1783.103271485306
 20
687.6593695743937
 30
0.0
  0
VERTEX
  5
12A13
  8
0
  6
CONTINUOUS
 10
1783.103271485306
 20
596.8363172747192
 30
0.0
  0
VERTEX
  5
12A14
  8
0
  6
CONTINUOUS
 10
1666.80718316231
 20
596.8363172747192
 30
0.0
  0
VERTEX
  5
12A15
  8
0
  6
CONTINUOUS
 10
1666.80718316231
 20
299.9999999999997
 30
0.0
  0
VERTEX
  5
12A16
  8
0
  6
CONTINUOUS
 10
1547.737792972475
 20
299.9999999999997
 30
0.0
  0
VERTEX
  5
12A17
  8
0
  6
CONTINUOUS
 10
1547.737792972475
 20
596.8363172747192
 30
0.0
  0
VERTEX
  5
12A18
  8
0
  6
CONTINUOUS
 10
1434.204671224579
 20
596.8363172747192
 30
0.0
  0
VERTEX
  5
12A19
  8
0
  6
CONTINUOUS
 10
1434.204671224579
 20
687.6593695743937
 30
0.0
  0
VERTEX
  5
12A1A
  8
0
  6
CONTINUOUS
 10
1783.103271485306
 20
687.6593695743937
 30
0.0
  0
SEQEND
  5
12AC8
  8
0
  6
CONTINUOUS
  0
POLYLINE
  5
13CF
  8
0
  6
CONTINUOUS
 66
     1
 10
0.0
 20
0.0
 30
0.0
 70
     1
  0
VERTEX
  5
12A1B
  8
0
  6
CONTINUOUS
 10
1820.206949869171
 20
687.6593695743937
 30
0.0
  0
VERTEX
  5
12A1C
  8
0
  6
CONTINUOUS
 10
1939.276340059005
 20
687.6593695743937
 30
0.0
  0
VERTEX
  5
12A1D
  8
0
  6
CONTINUOUS
 10
1939.276340059005
 20
299.9999999999997
 30
0.0
  0
VERTEX
  5
12A1E
  8
0
  6
CONTINUOUS
 10
1820.206949869171
 20
299.9999999999997
 30
0.0
  0
SEQEND
  5
12AC9
  8
0
  6
CONTINUOUS
  0
POLYLINE
  5
13D0
  8
0
  6
CONTINUOUS
 66
     1
 10
0.0
 20
0.0
 30
0.0
  0
VERTEX
  5
12A1F
  8
0
  6
CONTINUOUS
 10
605.1458875834936
 20
687.6576470269353
 30
0.0
  0
VERTEX
  5
12A20
  8
0
  6
CONTINUOUS
 10
605.1458875834936
 20
598.4968532994384
 30
0.0
  0
VERTEX
  5
12A21
  8
0
  6
CONTINUOUS
 10
419.0693901898336
 20
598.4968532994384
 30
0.0
  0
VERTEX
  5
12A22
  8
0
  6
CONTINUOUS
 10
419.0693901898336
 20
521.52136230492
 30
0.0
  0
VERTEX
  5
12A23
  8
0
  6
CONTINUOUS
 10
549.2130398191512
 20
521.52136230492
 30
0.0
  0
VERTEX
  5
12A24
  8
0
  6
CONTINUOUS
 10
549.2130398191512
 20
438.4480523003727
 30
0.0
  0
VERTEX
  5
12A25
  8
0
  6
CONTINUOUS
 10
419.0693901898336
 20
438.4480523003727
 30
0.0
  0
VERTEX
  5
12A26
  8
0
  6
CONTINUOUS
 10
419.0693901898336
 20
299.9999999999997
 30
0.0
  0
VERTEX
  5
12A27
  8
0
  6
CONTINUOUS
 10
300.0
 20
299.9999999999997
 30
0.0
  0
VERTEX
  5
12A28
  8
0
  6
CONTINUOUS
 10
300.0
 20
687.6576470269353
 30
0.0
  0
VERTEX
  5
12A29
  8
0
  6
CONTINUOUS
 10
605.1458875834936
 20
687.6576470269353
 30
0.0
  0
SEQEND
  5
12ACA
  8
0
  6
CONTINUOUS
  0
POLYLINE
  5
13D1
  8
0
  6
CONTINUOUS
 66
     1
 10
0.0
 20
0.0
 30
0.0
  0
VERTEX
  5
12A2A
  8
0
  6
CONTINUOUS
 10
791.2309977225952
 20
580.7787272136192
 30
0.0
  0
VERTEX
  5
12A2B
  8
0
  6
CONTINUOUS
 10
824.458943684584
 20
466.6909450956151
 30
0.0
  0
VERTEX
  5
12A2C
  8
0
  6
CONTINUOUS
 10
751.9104003906241
 20
466.6909450956151
 30
0.0
  0
VERTEX
  5
12A2D
  8
0
  6
CONTINUOUS
 10
785.13834635727
 20
580.7787272136192
 30
0.0
  0
VERTEX
  5
12A2E
  8
0
  6
CONTINUOUS
 10
791.2309977225952
 20
580.7787272136192
 30
0.0
  0
SEQEND
  5
12ACB
  8
0
  6
CONTINUOUS
  0
POLYLINE
  5
13D2
  8
0
  6
CONTINUOUS
 66
     1
 10
0.0
 20
0.0
 30
0.0
 70
     1
  0
VERTEX
  5
12A2F
  8
0
  6
CONTINUOUS
 10
847.7226611692438
 20
383.6228027346076
 30
0.0
  0
VERTEX
  5
12A30
  8
0
  6
CONTINUOUS
 10
847.7226611692438
 20
383.6228027346076
 30
0.0
  0
VERTEX
  5
12A31
  8
0
  6
CONTINUOUS
 10
872.0839436817907
 20
299.9999999999997
 30
0.0
  0
VERTEX
  5
12A32
  8
0
  6
CONTINUOUS
 10
997.8006456140432
 20
299.9999999999997
 30
0.0
  0
VERTEX
  5
12A33
  8
0
  6
CONTINUOUS
 10
880.3917914489284
 20
652.7743326826017
 30
0.0
 42
0.1089385125692126
  0
VERTEX
  5
12A34
  8
0
  6
CONTINUOUS
 10
867.6499316329131
 20
680.4454704024826
 30
0.0
 42
0.1589313772246072
  0
VERTEX
  5
12A35
  8
0
  6
CONTINUOUS
 10
855.6541064428161
 20
687.7303423592817
 30
0.0
 42
0.058673645385263
  0
VERTEX
  5
12A36
  8
0
  6
CONTINUOUS
 10
839.4089355459447
 20
689.3216281465718
 30
0.0
  0
VERTEX
  5
12A37
  8
0
  6
CONTINUOUS
 10
839.4089355459447
 20
689.3216281465718
 30
0.0
  0
VERTEX
  5
12A38
  8
0
  6
CONTINUOUS
 10
744.1606580931694
 20
689.3216281465718
 30
0.0
 42
0.058673645385263
  0
VERTEX
  5
12A39
  8
0
  6
CONTINUOUS
 10
727.9154871962947
 20
687.7303423592817
 30
0.0
 42
0.1589313772246072
  0
VERTEX
  5
12A3A
  8
0
  6
CONTINUOUS
 10
715.9196620061985
 20
680.4454704024826
 30
0.0
 42
0.1089385125692126
  0
VERTEX
  5
12A3B
  8
0
  6
CONTINUOUS
 10
703.1778021901849
 20
652.7743326826017
 30
0.0
  0
VERTEX
  5
12A3C
  8
0
  6
CONTINUOUS
 10
585.768948029726
 20
299.9999999999997
 30
0.0
  0
VERTEX
  5
12A3D
  8
0
  6
CONTINUOUS
 10
704.8348931223154
 20
299.9999999999997
 30
0.0
  0
VERTEX
  5
12A3E
  8
0
  6
CONTINUOUS
 10
728.6473931185901
 20
383.6228027346076
 30
0.0
  0
SEQEND
  5
12ACC
  8
0
  6
CONTINUOUS
  0
TEXT
  5
13D3
  8
0
 10
3484.840736835664
 20
170.1637904425171
 30
0.0
 40
125.0
  1
This drawing is property of Fantin S.r.l. 
  7
STILE1
 72
     1
 11
5499.721689216617
 21
170.1637904425171
 31
0.0
  0
POLYLINE
  5
13D4
  8
0
 66
     1
 10
0.0
 20
0.0
 30
0.0
  0
VERTEX
  5
12A3F
  8
0
 10
2675.123982746154
 20
687.661092123016
 30
0.0
  0
VERTEX
  5
12A40
  8
0
 10
8025.371948238463
 20
687.6610921230168
 30
0.0
  0
SEQEND
  5
12ACD
  8
0
  0
POLYLINE
  5
13D5
  8
0
 66
     1
 10
0.0
 20
0.0
 30
0.0
 70
     1
  0
VERTEX
  5
12A41
  8
0
 10
0.0
 20
987.6576470269353
 30
0.0
  0
VERTEX
  5
12A42
  8
0
 10
8025.371948238463
 20
987.6576470269353
 30
0.0
  0
VERTEX
  5
12A43
  8
0
 10
8025.371948238463
 20
0.0
 30
0.0
  0
VERTEX
  5
12A44
  8
0
 10
0.0
 20
0.0
 30
0.0
  0
SEQEND
  5
12ACE
  8
0
  0
LINE
  5
13D6
  8
0
 10
2675.123982746154
 20
987.6576470269353
 30
0.0
 11
2675.123982746154
 21
0.0
 31
0.0
  0
LINE
  5
13D7
  8
0
 10
6747.493701050597
 20
687.661092123016
 30
0.0
 11
6747.493701050597
 21
987.6576470269353
 31
0.0
  0
TEXT
  5
13D8
  8
0
 10
6924.416716516012
 20
778.7322304035333
 30
0.0
 40
125.0
  1
2022-06
  7
STILE1
 72
     1
 11
7359.312549849345
 21
778.7322304035333
 31
0.0
  0
LINE
  5
13D9
  8
0
 10
8025.371948238463
 20
987.6576470269353
 30
0.0
 11
8025.371948238463
 21
0.0
 31
0.0
  0
POLYLINE
  5
12445
  8
0
 66
     1
 10
0.0
 20
0.0
 30
0.0
 70
     1
  0
VERTEX
  5
12A45
  8
0
 10
3001.236068235276
 20
3978.216831732401
 30
0.0
  0
VERTEX
  5
12A46
  8
0
 10
4401.23606823527
 20
3978.216831732401
 30
0.0
  0
VERTEX
  5
12A47
  8
0
 10
4401.23606823527
 20
3981.2168317324
 30
0.0
  0
VERTEX
  5
12A48
  8
0
 10
3001.236068235276
 20
3981.2168317324
 30
0.0
  0
SEQEND
  5
12ACF
  8
0
  0
POLYLINE
  5
12446
  8
0
 66
     1
 10
0.0
 20
0.0
 30
0.0
 70
     1
  0
VERTEX
  5
12A49
  8
0
 10
1301.236068235269
 20
3978.216831732401
 30
0.0
  0
VERTEX
  5
12A4A
  8
0
 10
2501.236068235267
 20
3978.216831732401
 30
0.0
  0
VERTEX
  5
12A4B
  8
0
 10
2501.236068235267
 20
3981.2168317324
 30
0.0
  0
VERTEX
  5
12A4C
  8
0
 10
1301.236068235269
 20
3981.2168317324
 30
0.0
  0
SEQEND
  5
12AD0
  8
0
  0
POLYLINE
  5
12447
  8
0
 66
     1
 10
0.0
 20
0.0
 30
0.0
 70
     1
  0
VERTEX
  5
12A4D
  8
0
 10
9301.23606823524
 20
3978.2168317324
 30
0.0
  0
VERTEX
  5
12A4E
  8
0
 10
11301.23606823524
 20
3978.2168317324
 30
0.0
  0
VERTEX
  5
12A4F
  8
0
 10
11301.23606823524
 20
3981.2168317324
 30
0.0
  0
VERTEX
  5
12A50
  8
0
 10
9301.23606823524
 20
3981.2168317324
 30
0.0
  0
SEQEND
  5
12AD1
  8
0
  0
POLYLINE
  5
12448
  8
0
 66
     1
 10
0.0
 20
0.0
 30
0.0
 70
     1
  0
VERTEX
  5
12A51
  8
0
 10
7001.236068235239
 20
3978.2168317324
 30
0.0
  0
VERTEX
  5
12A52
  8
0
 10
8801.23606823525
 20
3978.2168317324
 30
0.0
  0
VERTEX
  5
12A53
  8
0
 10
8801.23606823525
 20
3981.2168317324
 30
0.0
  0
VERTEX
  5
12A54
  8
0
 10
7001.236068235239
 20
3981.2168317324
 30
0.0
  0
SEQEND
  5
12AD2
  8
0
  0
POLYLINE
  5
12449
  8
0
 66
     1
 10
0.0
 20
0.0
 30
0.0
 70
     1
  0
VERTEX
  5
12A55
  8
0
 10
4901.236068235252
 20
3978.2168317324
 30
0.0
  0
VERTEX
  5
12A56
  8
0
 10
6501.236068235259
 20
3978.2168317324
 30
0.0
  0
VERTEX
  5
12A57
  8
0
 10
6501.236068235259
 20
3981.2168317324
 30
0.0
  0
VERTEX
  5
12A58
  8
0
 10
4901.236068235252
 20
3981.2168317324
 30
0.0
  0
SEQEND
  5
12AD3
  8
0
  0
POLYLINE
  5
1244A
  8
0
 66
     1
 10
0.0
 20
0.0
 30
0.0
  0
VERTEX
  5
12A59
  8
0
 10
3036.236068235276
 20
3244.216831732405
 30
0.0
  0
VERTEX
  5
12A5A
  8
0
 10
3001.236068235276
 20
3244.216831732405
 30
0.0
  0
VERTEX
  5
12A5B
  8
0
 10
3001.236068235276
 20
3978.216831732401
 30
0.0
  0
VERTEX
  5
12A5C
  8
0
 10
4401.23606823527
 20
3978.216831732401
 30
0.0
  0
VERTEX
  5
12A5D
  8
0
 10
4401.23606823527
 20
3244.216831732405
 30
0.0
  0
VERTEX
  5
12A5E
  8
0
 10
4366.236068235277
 20
3244.216831732405
 30
0.0
  0
VERTEX
  5
12A5F
  8
0
 10
4366.236068235277
 20
3943.216831732402
 30
0.0
  0
VERTEX
  5
12A60
  8
0
 10
3036.236068235276
 20
3943.216831732402
 30
0.0
  0
VERTEX
  5
12A61
  8
0
 10
3036.236068235276
 20
3244.216831732405
 30
0.0
  0
SEQEND
  5
12AD4
  8
0
  0
POLYLINE
  5
1244B
  8
0
 66
     1
 10
0.0
 20
0.0
 30
0.0
  0
VERTEX
  5
12A62
  8
0
 10
1336.236068235269
 20
3244.216831732405
 30
0.0
  0
VERTEX
  5
12A63
  8
0
 10
1301.236068235269
 20
3244.216831732405
 30
0.0
  0
VERTEX
  5
12A64
  8
0
 10
1301.236068235269
 20
3978.216831732401
 30
0.0
  0
VERTEX
  5
12A65
  8
0
 10
2501.236068235267
 20
3978.216831732401
 30
0.0
  0
VERTEX
  5
12A66
  8
0
 10
2501.236068235267
 20
3244.216831732405
 30
0.0
  0
VERTEX
  5
12A67
  8
0
 10
2466.236068235276
 20
3244.216831732405
 30
0.0
  0
VERTEX
  5
12A68
  8
0
 10
2466.236068235276
 20
3943.216831732402
 30
0.0
  0
VERTEX
  5
12A69
  8
0
 10
1336.236068235269
 20
3943.216831732402
 30
0.0
  0
VERTEX
  5
12A6A
  8
0
 10
1336.236068235269
 20
3244.216831732405
 30
0.0
  0
SEQEND
  5
12AD5
  8
0
  0
POLYLINE
  5
1244C
  8
0
 66
     1
 10
0.0
 20
0.0
 30
0.0
  0
VERTEX
  5
12A6B
  8
0
 10
9336.23606823526
 20
3244.216831732404
 30
0.0
  0
VERTEX
  5
12A6C
  8
0
 10
9301.23606823524
 20
3244.216831732404
 30
0.0
  0
VERTEX
  5
12A6D
  8
0
 10
9301.23606823524
 20
3978.2168317324
 30
0.0
  0
VERTEX
  5
12A6E
  8
0
 10
11301.23606823524
 20
3978.2168317324
 30
0.0
  0
VERTEX
  5
12A6F
  8
0
 10
11301.23606823524
 20
3244.216831732404
 30
0.0
  0
VERTEX
  5
12A70
  8
0
 10
11266.23606823524
 20
3244.216831732404
 30
0.0
  0
VERTEX
  5
12A71
  8
0
 10
11266.23606823524
 20
3943.216831732402
 30
0.0
  0
VERTEX
  5
12A72
  8
0
 10
9336.23606823526
 20
3943.216831732402
 30
0.0
  0
VERTEX
  5
12A73
  8
0
 10
9336.23606823526
 20
3244.216831732404
 30
0.0
  0
SEQEND
  5
12AD6
  8
0
  0
POLYLINE
  5
1244D
  8
0
 66
     1
 10
0.0
 20
0.0
 30
0.0
  0
VERTEX
  5
12A74
  8
0
 10
7036.236068235239
 20
3244.216831732404
 30
0.0
  0
VERTEX
  5
12A75
  8
0
 10
7001.236068235239
 20
3244.216831732404
 30
0.0
  0
VERTEX
  5
12A76
  8
0
 10
7001.236068235239
 20
3978.2168317324
 30
0.0
  0
VERTEX
  5
12A77
  8
0
 10
8801.23606823525
 20
3978.2168317324
 30
0.0
  0
VERTEX
  5
12A78
  8
0
 10
8801.23606823525
 20
3244.216831732404
 30
0.0
  0
VERTEX
  5
12A79
  8
0
 10
8766.23606823524
 20
3244.216831732404
 30
0.0
  0
VERTEX
  5
12A7A
  8
0
 10
8766.23606823524
 20
3943.216831732402
 30
0.0
  0
VERTEX
  5
12A7B
  8
0
 10
7036.236068235239
 20
3943.216831732402
 30
0.0
  0
VERTEX
  5
12A7C
  8
0
 10
7036.236068235239
 20
3244.216831732404
 30
0.0
  0
SEQEND
  5
12AD7
  8
0
  0
POLYLINE
  5
1244E
  8
0
 66
     1
 10
0.0
 20
0.0
 30
0.0
  0
VERTEX
  5
12A7D
  8
0
 10
4936.236068235252
 20
3244.216831732404
 30
0.0
  0
VERTEX
  5
12A7E
  8
0
 10
4901.236068235252
 20
3244.216831732404
 30
0.0
  0
VERTEX
  5
12A7F
  8
0
 10
4901.236068235252
 20
3978.2168317324
 30
0.0
  0
VERTEX
  5
12A80
  8
0
 10
6501.236068235259
 20
3978.2168317324
 30
0.0
  0
VERTEX
  5
12A81
  8
0
 10
6501.236068235259
 20
3244.216831732404
 30
0.0
  0
VERTEX
  5
12A82
  8
0
 10
6466.236068235252
 20
3244.216831732404
 30
0.0
  0
VERTEX
  5
12A83
  8
0
 10
6466.236068235252
 20
3943.216831732402
 30
0.0
  0
VERTEX
  5
12A84
  8
0
 10
4936.236068235252
 20
3943.216831732402
 30
0.0
  0
VERTEX
  5
12A85
  8
0
 10
4936.236068235252
 20
3244.216831732404
 30
0.0
  0
SEQEND
  5
12AD8
  8
0
  0
POLYLINE
  5
1244F
  8
0
 66
     1
 10
0.0
 20
0.0
 30
0.0
 70
     1
  0
VERTEX
  5
12A86
  8
0
 10
3001.236068235276
 20
7967.52568490613
 30
0.0
  0
VERTEX
  5
12A87
  8
0
 10
4401.23606823527
 20
7967.52568490613
 30
0.0
  0
VERTEX
  5
12A88
  8
0
 10
4401.23606823527
 20
8667.52568490613
 30
0.0
  0
VERTEX
  5
12A89
  8
0
 10
3001.236068235276
 20
8667.52568490613
 30
0.0
  0
SEQEND
  5
12AD9
  8
0
  0
POLYLINE
  5
12450
  8
0
 66
     1
 10
0.0
 20
0.0
 30
0.0
 70
     1
  0
VERTEX
  5
12A8A
  8
0
 10
1301.236068235269
 20
7967.52568490613
 30
0.0
  0
VERTEX
  5
12A8B
  8
0
 10
2501.236068235267
 20
7967.52568490613
 30
0.0
  0
VERTEX
  5
12A8C
  8
0
 10
2501.236068235267
 20
8667.52568490613
 30
0.0
  0
VERTEX
  5
12A8D
  8
0
 10
1301.236068235269
 20
8667.52568490613
 30
0.0
  0
SEQEND
  5
12ADA
  8
0
  0
POLYLINE
  5
12451
  8
0
 66
     1
 10
0.0
 20
0.0
 30
0.0
 70
     1
  0
VERTEX
  5
12A8E
  8
0
 10
4901.236068235252
 20
5067.525684906132
 30
0.0
  0
VERTEX
  5
12A8F
  8
0
 10
6501.236068235259
 20
5067.525684906132
 30
0.0
  0
VERTEX
  5
12A90
  8
0
 10
6501.236068235259
 20
5967.525684906132
 30
0.0
  0
VERTEX
  5
12A91
  8
0
 10
4901.236068235252
 20
5967.525684906132
 30
0.0
  0
SEQEND
  5
12ADB
  8
0
  0
POLYLINE
  5
12452
  8
0
 66
     1
 10
0.0
 20
0.0
 30
0.0
 70
     1
  0
VERTEX
  5
12A92
  8
0
 10
4901.236068235252
 20
6567.525684906136
 30
0.0
  0
VERTEX
  5
12A93
  8
0
 10
6501.236068235259
 20
6567.525684906136
 30
0.0
  0
VERTEX
  5
12A94
  8
0
 10
6501.236068235259
 20
7367.525684906126
 30
0.0
  0
VERTEX
  5
12A95
  8
0
 10
4901.236068235252
 20
7367.525684906126
 30
0.0
  0
SEQEND
  5
12ADC
  8
0
  0
POLYLINE
  5
12453
  8
0
 66
     1
 10
0.0
 20
0.0
 30
0.0
 70
     1
  0
VERTEX
  5
12A96
  8
0
 10
4901.236068235252
 20
7967.52568490613
 30
0.0
  0
VERTEX
  5
12A97
  8
0
 10
6501.236068235259
 20
7967.52568490613
 30
0.0
  0
VERTEX
  5
12A98
  8
0
 10
6501.236068235259
 20
8667.52568490613
 30
0.0
  0
VERTEX
  5
12A99
  8
0
 10
4901.236068235252
 20
8667.52568490613
 30
0.0
  0
SEQEND
  5
12ADD
  8
0
  0
POLYLINE
  5
12454
  8
0
 66
     1
 10
0.0
 20
0.0
 30
0.0
 70
     1
  0
VERTEX
  5
12A9A
  8
0
 10
7001.236068235239
 20
7967.52568490613
 30
0.0
  0
VERTEX
  5
12A9B
  8
0
 10
8801.23606823525
 20
7967.52568490613
 30
0.0
  0
VERTEX
  5
12A9C
  8
0
 10
8801.23606823525
 20
8667.52568490613
 30
0.0
  0
VERTEX
  5
12A9D
  8
0
 10
7001.236068235239
 20
8667.52568490613
 30
0.0
  0
SEQEND
  5
12ADE
  8
0
  0
POLYLINE
  5
12455
  8
0
 66
     1
 10
0.0
 20
0.0
 30
0.0
 70
     1
  0
VERTEX
  5
12A9E
  8
0
 10
7001.236068235239
 20
6567.525684906136
 30
0.0
  0
VERTEX
  5
12A9F
  8
0
 10
8801.23606823525
 20
6567.525684906136
 30
0.0
  0
VERTEX
  5
12AA0
  8
0
 10
8801.23606823525
 20
7367.525684906126
 30
0.0
  0
VERTEX
  5
12AA1
  8
0
 10
7001.236068235239
 20
7367.525684906126
 30
0.0
  0
SEQEND
  5
12ADF
  8
0
  0
POLYLINE
  5
12456
  8
0
 66
     1
 10
0.0
 20
0.0
 30
0.0
 70
     1
  0
VERTEX
  5
12AA2
  8
0
 10
7001.236068235239
 20
5067.525684906132
 30
0.0
  0
VERTEX
  5
12AA3
  8
0
 10
8801.23606823525
 20
5067.525684906132
 30
0.0
  0
VERTEX
  5
12AA4
  8
0
 10
8801.23606823525
 20
5967.525684906132
 30
0.0
  0
VERTEX
  5
12AA5
  8
0
 10
7001.236068235239
 20
5967.525684906132
 30
0.0
  0
SEQEND
  5
12AE0
  8
0
  0
POLYLINE
  5
12457
  8
0
 66
     1
 10
0.0
 20
0.0
 30
0.0
 70
     1
  0
VERTEX
  5
12AA6
  8
0
 10
9301.23606823524
 20
5067.525684906132
 30
0.0
  0
VERTEX
  5
12AA7
  8
0
 10
11301.23606823524
 20
5067.525684906132
 30
0.0
  0
VERTEX
  5
12AA8
  8
0
 10
11301.23606823524
 20
5967.525684906132
 30
0.0
  0
VERTEX
  5
12AA9
  8
0
 10
9301.23606823524
 20
5967.525684906132
 30
0.0
  0
SEQEND
  5
12AE1
  8
0
  0
POLYLINE
  5
12458
  8
0
 66
     1
 10
0.0
 20
0.0
 30
0.0
 70
     1
  0
VERTEX
  5
12AAA
  8
0
 10
9301.23606823524
 20
6567.525684906136
 30
0.0
  0
VERTEX
  5
12AAB
  8
0
 10
11301.23606823524
 20
6567.525684906136
 30
0.0
  0
VERTEX
  5
12AAC
  8
0
 10
11301.23606823524
 20
7367.525684906126
 30
0.0
  0
VERTEX
  5
12AAD
  8
0
 10
9301.23606823524
 20
7367.525684906126
 30
0.0
  0
SEQEND
  5
12AE2
  8
0
  0
POLYLINE
  5
12459
  8
0
 66
     1
 10
0.0
 20
0.0
 30
0.0
 70
     1
  0
VERTEX
  5
12AAE
  8
0
 10
9301.23606823524
 20
7967.52568490613
 30
0.0
  0
VERTEX
  5
12AAF
  8
0
 10
11301.23606823524
 20
7967.52568490613
 30
0.0
  0
VERTEX
  5
12AB0
  8
0
 10
11301.23606823524
 20
8667.52568490613
 30
0.0
  0
VERTEX
  5
12AB1
  8
0
 10
9301.23606823524
 20
8667.52568490613
 30
0.0
  0
SEQEND
  5
12AE3
  8
0
  0
POLYLINE
  5
1245C
  8
0
 66
     1
 10
0.0
 20
0.0
 30
0.0
 70
     1
  0
VERTEX
  5
12AB2
  8
0
 10
12602.47213647047
 20
12230.73937437942
 30
0.0
  0
VERTEX
  5
12AB3
  8
0
 10
0.000000000003638
 20
12230.73937437942
 30
0.0
  0
VERTEX
  5
12AB4
  8
0
 10
0.000000000003638
 20
1541.694289085376
 30
0.0
  0
VERTEX
  5
12AB5
  8
0
 10
12602.47213647047
 20
1541.694289085379
 30
0.0
  0
SEQEND
  5
12AE4
  8
0
  0
POLYLINE
  5
1262B
  8
0
 66
     1
 10
0.0
 20
0.0
 30
0.0
 70
     1
  0
VERTEX
  5
12AB6
  8
0
 10
3001.236068235276
 20
10317.52568490613
 30
0.0
  0
VERTEX
  5
12AB7
  8
0
 10
4401.23606823527
 20
10317.52568490613
 30
0.0
  0
VERTEX
  5
12AB8
  8
0
 10
4401.23606823527
 20
11717.52568490613
 30
0.0
  0
VERTEX
  5
12AB9
  8
0
 10
3001.236068235276
 20
11717.52568490613
 30
0.0
  0
SEQEND
  5
12AE5
  8
0
  0
POLYLINE
  5
1262C
  8
0
 66
     1
 10
0.0
 20
0.0
 30
0.0
 70
     1
  0
VERTEX
  5
12ABA
  8
0
 10
1301.236068235269
 20
10517.52568490613
 30
0.0
  0
VERTEX
  5
12ABB
  8
0
 10
2501.236068235267
 20
10517.52568490613
 30
0.0
  0
VERTEX
  5
12ABC
  8
0
 10
2501.236068235267
 20
11717.52568490613
 30
0.0
  0
VERTEX
  5
12ABD
  8
0
 10
1301.236068235269
 20
11717.52568490613
 30
0.0
  0
SEQEND
  5
12AE6
  8
0
  0
POLYLINE
  5
12880
  8
0
 66
     1
 10
0.0
 20
0.0
 30
0.0
 70
     1
  0
VERTEX
  5
12ABE
  8
0
 10
1301.236068235269
 20
9267.525684906133
 30
0.0
  0
VERTEX
  5
12ABF
  8
0
 10
2501.236068235267
 20
9267.525684906133
 30
0.0
  0
VERTEX
  5
12AC0
  8
0
 10
2501.236068235267
 20
9717.525684906135
 30
0.0
  0
VERTEX
  5
12AC1
  8
0
 10
1301.236068235269
 20
9717.525684906135
 30
0.0
  0
SEQEND
  5
12AE7
  8
0
  0
POLYLINE
  5
12881
  8
0
 66
     1
 10
0.0
 20
0.0
 30
0.0
 70
     1
  0
VERTEX
  5
12AC2
  8
0
 10
3001.236068235276
 20
9267.525684906133
 30
0.0
  0
VERTEX
  5
12AC3
  8
0
 10
4401.23606823527
 20
9267.525684906133
 30
0.0
  0
VERTEX
  5
12AC4
  8
0
 10
4401.23606823527
 20
9717.525684906135
 30
0.0
  0
VERTEX
  5
12AC5
  8
0
 10
3001.236068235276
 20
9717.525684906135
 30
0.0
  0
SEQEND
  5
12AE8
  8
0
  0
ENDSEC
  0
EOF
