  0
SECTION
  2
HEADER
  9
$ACADVER
  1
AC1032
  9
$ACADMAINTVER
 90
        4
  9
$DWGCODEPAGE
  3
ANSI_1252
  9
$LASTSAVEDBY
  1
ut02
  9
$REQUIREDVERSIONS
160
                 0
  9
$INSBASE
 10
0.0
 20
0.0
 30
0.0
  9
$EXTMIN
 10
460.4760900694055
 20
517.9490274821073
 30
0.0
  9
$EXTMAX
 10
13615.47609485968
 20
11813.76908149682
 30
0.0
  9
$LIMMIN
 10
0.0
 20
0.0
  9
$LIMMAX
 10
2100.0
 20
1485.0
  9
$ORTHOMODE
 70
     1
  9
$REGENMODE
 70
     1
  9
$FILLMODE
 70
     1
  9
$QTEXTMODE
 70
     0
  9
$MIRRTEXT
 70
     1
  9
$LTSCALE
 40
5.0
  9
$ATTMODE
 70
     1
  9
$TEXTSIZE
 40
15.0
  9
$TRACEWID
 40
1.0
  9
$TEXTSTYLE
  7
Standard
  9
$CLAYER
  8
0
  9
$CELTYPE
  6
ByLayer
  9
$CECOLOR
 62
   256
  9
$CELTSCALE
 40
1.0
  9
$DISPSILH
 70
     0
  9
$DIMSCALE
 40
1.0
  9
$DIMASZ
 40
15.0
  9
$DIMEXO
 40
5.0
  9
$DIMDLI
 40
3.75
  9
$DIMRND
 40
0.0
  9
$DIMDLE
 40
0.0
  9
$DIMEXE
 40
5.0
  9
$DIMTP
 40
0.0
  9
$DIMTM
 40
0.0
  9
$DIMTXT
 40
15.0
  9
$DIMCEN
 40
2.5
  9
$DIMTSZ
 40
0.0
  9
$DIMTOL
 70
     0
  9
$DIMLIM
 70
     0
  9
$DIMTIH
 70
     1
  9
$DIMTOH
 70
     1
  9
$DIMSE1
 70
     0
  9
$DIMSE2
 70
     0
  9
$DIMTAD
 70
     1
  9
$DIMZIN
 70
     0
  9
$DIMBLK
  1

  9
$DIMASO
 70
     1
  9
$DIMSHO
 70
     1
  9
$DIMPOST
  1

  9
$DIMAPOST
  1

  9
$DIMALT
 70
     0
  9
$DIMALTD
 70
     3
  9
$DIMALTF
 40
0.0393700787
  9
$DIMLFAC
 40
1.0
  9
$DIMTOFL
 70
     1
  9
$DIMTVP
 40
0.0
  9
$DIMTIX
 70
     0
  9
$DIMSOXD
 70
     0
  9
$DIMSAH
 70
     0
  9
$DIMBLK1
  1

  9
$DIMBLK2
  1

  9
$DIMSTYLE
  2
ISO-25
  9
$DIMCLRD
 70
     0
  9
$DIMCLRE
 70
     0
  9
$DIMCLRT
 70
     0
  9
$DIMTFAC
 40
1.0
  9
$DIMGAP
 40
7.62
  9
$DIMJUST
 70
     0
  9
$DIMSD1
 70
     0
  9
$DIMSD2
 70
     0
  9
$DIMTOLJ
 70
     0
  9
$DIMTZIN
 70
     0
  9
$DIMALTZ
 70
     0
  9
$DIMALTTZ
 70
     0
  9
$DIMUPT
 70
     0
  9
$DIMDEC
 70
     1
  9
$DIMTDEC
 70
     1
  9
$DIMALTU
 70
     2
  9
$DIMALTTD
 70
     3
  9
$DIMTXSTY
  7
Standard
  9
$DIMAUNIT
 70
     0
  9
$DIMADEC
 70
     2
  9
$DIMALTRND
 40
0.0
  9
$DIMAZIN
 70
     0
  9
$DIMDSEP
 70
    44
  9
$DIMATFIT
 70
     3
  9
$DIMFRAC
 70
     0
  9
$DIMLDRBLK
  1

  9
$DIMLUNIT
 70
     2
  9
$DIMLWD
 70
    -2
  9
$DIMLWE
 70
    -2
  9
$DIMTMOVE
 70
     0
  9
$DIMFXL
 40
1.0
  9
$DIMFXLON
 70
     0
  9
$DIMJOGANG
 40
0.7853981634
  9
$DIMTFILL
 70
     0
  9
$DIMTFILLCLR
 70
     0
  9
$DIMARCSYM
 70
     0
  9
$DIMLTYPE
  6

  9
$DIMLTEX1
  6

  9
$DIMLTEX2
  6

  9
$DIMTXTDIRECTION
 70
     0
  9
$LUNITS
 70
     2
  9
$LUPREC
 70
     2
  9
$SKETCHINC
 40
1.0
  9
$FILLETRAD
 40
6.2
  9
$AUNITS
 70
     0
  9
$AUPREC
 70
     2
  9
$MENU
  1
.
  9
$ELEVATION
 40
0.0
  9
$PELEVATION
 40
0.0
  9
$THICKNESS
 40
0.0
  9
$LIMCHECK
 70
     0
  9
$CHAMFERA
 40
0.0
  9
$CHAMFERB
 40
0.0
  9
$CHAMFERC
 40
0.0
  9
$CHAMFERD
 40
0.0
  9
$SKPOLY
 70
     0
  9
$TDCREATE
 40
2459569.630876609
  9
$TDUCREATE
 40
2459569.547543276
  9
$TDUPDATE
 40
2459748.767873125
  9
$TDUUPDATE
 40
2459748.684539792
  9
$TDINDWG
 40
0.0230302894
  9
$TDUSRTIMER
 40
0.0122333796
  9
$USRTIMER
 70
     1
  9
$ANGBASE
 50
0.0
  9
$ANGDIR
 70
     0
  9
$PDMODE
 70
     0
  9
$PDSIZE
 40
-1.0
  9
$PLINEWID
 40
0.0
  9
$SPLFRAME
 70
     0
  9
$SPLINETYPE
 70
     6
  9
$SPLINESEGS
 70
     8
  9
$HANDSEED
  5
13BF1
  9
$SURFTAB1
 70
     6
  9
$SURFTAB2
 70
     6
  9
$SURFTYPE
 70
     6
  9
$SURFU
 70
     6
  9
$SURFV
 70
     6
  9
$UCSBASE
  2

  9
$UCSNAME
  2

  9
$UCSORG
 10
0.0
 20
0.0
 30
0.0
  9
$UCSXDIR
 10
1.0
 20
0.0
 30
0.0
  9
$UCSYDIR
 10
0.0
 20
1.0
 30
0.0
  9
$UCSORTHOREF
  2

  9
$UCSORTHOVIEW
 70
     0
  9
$UCSORGTOP
 10
0.0
 20
0.0
 30
0.0
  9
$UCSORGBOTTOM
 10
0.0
 20
0.0
 30
0.0
  9
$UCSORGLEFT
 10
0.0
 20
0.0
 30
0.0
  9
$UCSORGRIGHT
 10
0.0
 20
0.0
 30
0.0
  9
$UCSORGFRONT
 10
0.0
 20
0.0
 30
0.0
  9
$UCSORGBACK
 10
0.0
 20
0.0
 30
0.0
  9
$PUCSBASE
  2

  9
$PUCSNAME
  2

  9
$PUCSORG
 10
0.0
 20
0.0
 30
0.0
  9
$PUCSXDIR
 10
1.0
 20
0.0
 30
0.0
  9
$PUCSYDIR
 10
0.0
 20
1.0
 30
0.0
  9
$PUCSORTHOREF
  2

  9
$PUCSORTHOVIEW
 70
     0
  9
$PUCSORGTOP
 10
0.0
 20
0.0
 30
0.0
  9
$PUCSORGBOTTOM
 10
0.0
 20
0.0
 30
0.0
  9
$PUCSORGLEFT
 10
0.0
 20
0.0
 30
0.0
  9
$PUCSORGRIGHT
 10
0.0
 20
0.0
 30
0.0
  9
$PUCSORGFRONT
 10
0.0
 20
0.0
 30
0.0
  9
$PUCSORGBACK
 10
0.0
 20
0.0
 30
0.0
  9
$USERI1
 70
     0
  9
$USERI2
 70
     0
  9
$USERI3
 70
     0
  9
$USERI4
 70
     0
  9
$USERI5
 70
     0
  9
$USERR1
 40
0.0
  9
$USERR2
 40
0.0
  9
$USERR3
 40
0.0
  9
$USERR4
 40
0.0
  9
$USERR5
 40
0.0
  9
$WORLDVIEW
 70
     1
  9
$SHADEDGE
 70
     3
  9
$SHADEDIF
 70
    70
  9
$TILEMODE
 70
     1
  9
$MAXACTVP
 70
    64
  9
$PINSBASE
 10
0.0
 20
0.0
 30
0.0
  9
$PLIMCHECK
 70
     0
  9
$PEXTMIN
 10
1.000000000000000E+20
 20
1.000000000000000E+20
 30
1.000000000000000E+20
  9
$PEXTMAX
 10
-1.000000000000000E+20
 20
-1.000000000000000E+20
 30
-1.000000000000000E+20
  9
$PLIMMIN
 10
0.0
 20
0.0
  9
$PLIMMAX
 10
0.0
 20
0.0
  9
$UNITMODE
 70
     0
  9
$VISRETAIN
 70
     1
  9
$PLINEGEN
 70
     0
  9
$PSLTSCALE
 70
     1
  9
$TREEDEPTH
 70
  3020
  9
$CMLSTYLE
  2
Standard
  9
$CMLJUST
 70
     0
  9
$CMLSCALE
 40
20.0
  9
$PROXYGRAPHICS
 70
     1
  9
$MEASUREMENT
 70
     1
  9
$CELWEIGHT
370
    -1
  9
$ENDCAPS
280
     0
  9
$JOINSTYLE
280
     0
  9
$LWDISPLAY
290
     1
  9
$INSUNITS
 70
     4
  9
$HYPERLINKBASE
  1

  9
$STYLESHEET
  1

  9
$XEDIT
290
     1
  9
$CEPSNTYPE
380
     0
  9
$PSTYLEMODE
290
     1
  9
$FINGERPRINTGUID
  2
{00f3a04a-5a05-4d24-b31a-b5e6fe7acda9}
  9
$VERSIONGUID
  2
{FAEB1C32-E019-11D5-929B-00C0DF256EC4}
  9
$EXTNAMES
290
     1
  9
$PSVPSCALE
 40
0.0
  9
$OLESTARTUP
290
     0
  9
$SORTENTS
280
   127
  9
$INDEXCTL
280
     0
  9
$HIDETEXT
280
     1
  9
$XCLIPFRAME
280
     0
  9
$HALOGAP
280
     0
  9
$OBSCOLOR
 70
   257
  9
$OBSLTYPE
280
     0
  9
$INTERSECTIONDISPLAY
280
     0
  9
$INTERSECTIONCOLOR
 70
   257
  9
$DIMASSOC
280
     2
  9
$PROJECTNAME
  1

  9
$CAMERADISPLAY
290
     0
  9
$LENSLENGTH
 40
50.0
  9
$CAMERAHEIGHT
 40
0.0
  9
$STEPSPERSEC
 40
2.0
  9
$STEPSIZE
 40
6.0
  9
$3DDWFPREC
 40
2.0
  9
$PSOLWIDTH
 40
5.0
  9
$PSOLHEIGHT
 40
80.0
  9
$LOFTANG1
 40
1.5707963268
  9
$LOFTANG2
 40
1.5707963268
  9
$LOFTMAG1
 40
0.0
  9
$LOFTMAG2
 40
0.0
  9
$LOFTPARAM
 70
     7
  9
$LOFTNORMALS
280
     1
  9
$LATITUDE
 40
37.795
  9
$LONGITUDE
 40
-122.394
  9
$NORTHDIRECTION
 40
0.0
  9
$TIMEZONE
 70
 -8000
  9
$LIGHTGLYPHDISPLAY
280
     1
  9
$TILEMODELIGHTSYNCH
280
     1
  9
$CMATERIAL
347
44
  9
$SOLIDHIST
280
     0
  9
$SHOWHIST
280
     1
  9
$DWFFRAME
280
     2
  9
$DGNFRAME
280
     2
  9
$REALWORLDSCALE
290
     1
  9
$INTERFERECOLOR
 62
   256
  9
$CSHADOW
280
     0
  9
$SHADOWPLANELOCATION
 40
0.0
  0
ENDSEC
  0
SECTION
  2
CLASSES
  0
CLASS
  1
ACDBDICTIONARYWDFLT
  2
AcDbDictionaryWithDefault
  3
ObjectDBX Classes
 90
        0
 91
        3
280
     0
281
     0
  0
CLASS
  1
VISUALSTYLE
  2
AcDbVisualStyle
  3
ObjectDBX Classes
 90
     4095
 91
        3
280
     0
281
     0
  0
CLASS
  1
MATERIAL
  2
AcDbMaterial
  3
ObjectDBX Classes
 90
     1153
 91
        3
280
     0
281
     0
  0
CLASS
  1
SCALE
  2
AcDbScale
  3
ObjectDBX Classes
 90
     1153
 91
        3
280
     0
281
     0
  0
CLASS
  1
TABLESTYLE
  2
AcDbTableStyle
  3
ObjectDBX Classes
 90
     4095
 91
        3
280
     0
281
     0
  0
CLASS
  1
MLEADERSTYLE
  2
AcDbMLeaderStyle
  3
ACDB_MLEADERSTYLE_CLASS
 90
     4095
 91
        3
280
     0
281
     0
  0
CLASS
  1
SUN
  2
AcDbSun
  3
SCENEOE
 90
     1153
 91
        3
280
     0
281
     0
  0
CLASS
  1
DICTIONARYVAR
  2
AcDbDictionaryVar
  3
ObjectDBX Classes
 90
        0
 91
        3
280
     0
281
     0
  0
CLASS
  1
CELLSTYLEMAP
  2
AcDbCellStyleMap
  3
ObjectDBX Classes
 90
     1152
 91
        3
280
     0
281
     0
  0
CLASS
  1
SORTENTSTABLE
  2
AcDbSortentsTable
  3
ObjectDBX Classes
 90
        0
 91
        3
280
     0
281
     0
  0
CLASS
  1
DIMASSOC
  2
AcDbDimAssoc
  3
"AcDbDimAssoc|Product Desc:     AcDim ARX App For Dimension|Company:          Autodesk, Inc.|WEB Address:      www.autodesk.com"
 90
        0
 91
        3
280
     0
281
     0
  0
ENDSEC
  0
SECTION
  2
TABLES
  0
TABLE
  2
VPORT
  5
8
330
0
100
AcDbSymbolTable
 70
     1
  0
VPORT
  5
29
330
8
100
AcDbSymbolTableRecord
100
AcDbViewportTableRecord
  2
*Active
 70
     0
 10
0.0
 20
0.0
 11
1.0
 21
1.0
 12
7037.976092464542
 22
6165.859054489462
 13
0.0
 23
0.0
 14
10.0
 24
10.0
 15
10.0
 25
10.0
 16
0.0
 26
0.0
 36
1.0
 17
0.0
 27
0.0
 37
0.0
 40
11521.736455095
 41
2.040114613180516
 42
50.0
 43
0.0
 44
0.0
 50
0.0
 51
0.0
 71
    16
 72
  2000
 73
     1
 74
     3
 75
     0
 76
     0
 77
     0
 78
     0
281
     0
 65
     1
110
0.0
120
0.0
130
0.0
111
1.0
121
0.0
131
0.0
112
0.0
122
1.0
132
0.0
 79
     0
146
0.0
348
2F
 60
     3
 61
     5
292
     1
282
     1
141
0.0
142
0.0
 63
   250
361
6D
  0
ENDTAB
  0
TABLE
  2
LTYPE
  5
5
330
0
100
AcDbSymbolTable
 70
     1
  0
LTYPE
  5
14
330
5
100
AcDbSymbolTableRecord
100
AcDbLinetypeTableRecord
  2
ByBlock
 70
     0
  3

 72
    65
 73
     0
 40
0.0
  0
LTYPE
  5
15
330
5
100
AcDbSymbolTableRecord
100
AcDbLinetypeTableRecord
  2
ByLayer
 70
     0
  3

 72
    65
 73
     0
 40
0.0
  0
LTYPE
  5
16
330
5
100
AcDbSymbolTableRecord
100
AcDbLinetypeTableRecord
  2
Continuous
 70
     0
  3
Solid line
 72
    65
 73
     0
 40
0.0
  0
ENDTAB
  0
TABLE
  2
LAYER
  5
2
102
{ACAD_XDICTIONARY
360
7B76
102
}
330
0
100
AcDbSymbolTable
 70
     1
  0
LAYER
  5
10
330
2
100
AcDbSymbolTableRecord
100
AcDbLayerTableRecord
  2
0
 70
     0
 62
     7
  6
Continuous
370
    -3
390
F
347
46
348
0
  0
ENDTAB
  0
TABLE
  2
STYLE
  5
3
330
0
100
AcDbSymbolTable
 70
     2
  0
STYLE
  5
11
330
3
100
AcDbSymbolTableRecord
100
AcDbTextStyleTableRecord
  2
Standard
 70
     0
 40
0.0
 41
1.0
 50
0.0
 71
     0
 42
15.0
  3
txt
  4

  0
STYLE
  5
7701
330
3
100
AcDbSymbolTableRecord
100
AcDbTextStyleTableRecord
  2
STILE1
 70
     0
 40
0.0
 41
1.0
 50
0.0
 71
     0
 42
15.0
  3
ROMANS.SHX
  4

  0
ENDTAB
  0
TABLE
  2
VIEW
  5
6
330
0
100
AcDbSymbolTable
 70
     0
  0
ENDTAB
  0
TABLE
  2
UCS
  5
7
330
0
100
AcDbSymbolTable
 70
     0
  0
ENDTAB
  0
TABLE
  2
APPID
  5
9
330
0
100
AcDbSymbolTable
 70
     9
  0
APPID
  5
12
330
9
100
AcDbSymbolTableRecord
100
AcDbRegAppTableRecord
  2
ACAD
 70
     0
  0
APPID
  5
76DC
330
9
100
AcDbSymbolTableRecord
100
AcDbRegAppTableRecord
  2
ACAD_MLEADERVER
 70
     0
  0
APPID
  5
7705
330
9
100
AcDbSymbolTableRecord
100
AcDbRegAppTableRecord
  2
ACAD_PSEXT
 70
     0
  0
APPID
  5
7706
330
9
100
AcDbSymbolTableRecord
100
AcDbRegAppTableRecord
  2
ACAD_NAV_VCDISPLAY
 70
     0
  0
APPID
  5
7707
330
9
100
AcDbSymbolTableRecord
100
AcDbRegAppTableRecord
  2
AcLayerTools
 70
     0
  0
APPID
  5
7708
330
9
100
AcDbSymbolTableRecord
100
AcDbRegAppTableRecord
  2
ACAD_DSTYLE_DIMRADIAL_EXTENSION
 70
     0
  0
APPID
  5
7709
330
9
100
AcDbSymbolTableRecord
100
AcDbRegAppTableRecord
  2
HATCHBACKGROUNDCOLOR
 70
     0
  0
APPID
  5
770A
330
9
100
AcDbSymbolTableRecord
100
AcDbRegAppTableRecord
  2
PE_URL
 70
     0
  0
APPID
  5
7FBA
330
9
100
AcDbSymbolTableRecord
100
AcDbRegAppTableRecord
  2
AcAecLayerStandard
 70
     0
  0
ENDTAB
  0
TABLE
  2
DIMSTYLE
  5
A
330
0
100
AcDbSymbolTable
 70
     1
100
AcDbDimStyleTable
  0
DIMSTYLE
105
27
330
A
100
AcDbSymbolTableRecord
100
AcDbDimStyleTableRecord
  2
ISO-25
 70
     0
 41
2.5
 42
0.625
 43
3.75
 44
1.25
 73
     0
 74
     0
 77
     1
 78
     8
140
2.5
141
2.5
143
0.0393700787
147
0.625
171
     3
172
     1
178
     0
271
     2
272
     2
274
     3
278
    44
283
     0
284
     8
340
11
  0
ENDTAB
  0
TABLE
  2
BLOCK_RECORD
  5
1
330
0
100
AcDbSymbolTable
 70
     1
  0
BLOCK_RECORD
  5
1F
102
{ACAD_XDICTIONARY
360
11586
102
}
330
1
100
AcDbSymbolTableRecord
100
AcDbBlockTableRecord
  2
*Model_Space
340
22
 70
     0
280
     1
281
     0
  0
BLOCK_RECORD
  5
1B
330
1
100
AcDbSymbolTableRecord
100
AcDbBlockTableRecord
  2
*Paper_Space
340
1E
 70
     0
280
     1
281
     0
  0
BLOCK_RECORD
  5
23
330
1
100
AcDbSymbolTableRecord
100
AcDbBlockTableRecord
  2
*Paper_Space0
340
26
 70
     0
280
     1
281
     0
  0
ENDTAB
  0
ENDSEC
  0
SECTION
  2
BLOCKS
  0
BLOCK
  5
20
330
1F
100
AcDbEntity
  8
0
100
AcDbBlockBegin
  2
*Model_Space
 70
     0
 10
0.0
 20
0.0
 30
0.0
  3
*Model_Space
  1

  0
ENDBLK
  5
21
330
1F
100
AcDbEntity
  8
0
100
AcDbBlockEnd
  0
BLOCK
  5
1C
330
1B
100
AcDbEntity
 67
     1
  8
0
100
AcDbBlockBegin
  2
*Paper_Space
 70
     0
 10
0.0
 20
0.0
 30
0.0
  3
*Paper_Space
  1

  0
ENDBLK
  5
1D
330
1B
100
AcDbEntity
 67
     1
  8
0
100
AcDbBlockEnd
  0
BLOCK
  5
24
330
23
100
AcDbEntity
  8
0
100
AcDbBlockBegin
  2
*Paper_Space0
 70
     0
 10
0.0
 20
0.0
 30
0.0
  3
*Paper_Space0
  1

  0
ENDBLK
  5
25
330
23
100
AcDbEntity
  8
0
100
AcDbBlockEnd
  0
ENDSEC
  0
SECTION
  2
ENTITIES
  0
TEXT
  5
1021C
330
1F
100
AcDbEntity
  8
0
100
AcDbText
 10
3634.382926690831
 20
950.1970242128373
 30
0.0
 40
125.0
  1
Questo disegno è di proprietà di Fantin S.r.l.   
  7
STILE1
 72
     1
 11
6057.001974309878
 21
950.1970242128373
 31
0.0
100
AcDbText
  0
LWPOLYLINE
  5
1021E
330
1F
100
AcDbEntity
  8
0
  6
Continuous
100
AcDbPolyline
 90
       15
 70
     0
 43
0.0
 10
2467.317642801938
 20
817.9490274821073
 10
2467.317642801938
 20
1205.610119605124
 10
2568.667184365479
 20
1205.610119605124
 42
-0.316444976687396
 10
2619.614978953758
 20
1177.365504261259
 10
2720.408137598568
 20
1007.346596926371
 10
2723.176271817209
 20
1007.346596926371
 10
2723.176271817209
 20
1205.610119605124
 10
2835.600072815578
 20
1205.610119605124
 10
2835.600072815578
 20
817.9490274821073
 10
2753.077978090878
 20
817.9490274821073
 42
-0.312959769389874
 10
2702.130183497939
 20
846.1919202773497
 10
2582.509578028257
 20
1039.468667239569
 10
2579.744888897549
 20
1039.468667239569
 10
2579.744888897549
 20
817.9490274821073
 10
2467.317642801938
 20
817.9490274821073
  0
LWPOLYLINE
  5
1021F
330
1F
100
AcDbEntity
  8
0
  6
Continuous
100
AcDbPolyline
 90
       15
 70
     0
 43
0.0
 10
1490.955188916558
 20
817.9490274821073
 10
1490.955188916558
 20
1205.610119605124
 10
1592.304730480098
 20
1205.610119605124
 42
-0.316444976687396
 10
1643.252525073038
 20
1177.365504261259
 10
1744.045683713188
 20
1007.346596926371
 10
1746.813817936489
 20
1007.346596926371
 10
1746.813817936489
 20
1205.610119605124
 10
1859.237618930198
 20
1205.610119605124
 10
1859.237618930198
 20
817.9490274821073
 10
1776.715524205498
 20
817.9490274821073
 42
-0.312959769389874
 10
1725.767729607907
 20
846.1919202773497
 10
1606.147124142877
 20
1039.468667239569
 10
1603.382435012169
 20
1039.468667239569
 10
1603.382435012169
 20
817.9490274821073
 10
1490.955188916558
 20
817.9490274821073
  0
LWPOLYLINE
  5
10220
330
1F
100
AcDbEntity
  8
0
  6
Continuous
100
AcDbPolyline
 90
        9
 70
     0
 43
0.0
 10
2243.579361554728
 20
1205.608397056501
 10
2243.579361554728
 20
1114.785344756827
 10
2127.283273231727
 20
1114.785344756827
 10
2127.283273231727
 20
817.9490274821073
 10
2008.213883041897
 20
817.9490274821073
 10
2008.213883041897
 20
1114.785344756827
 10
1894.680761293997
 20
1114.785344756827
 10
1894.680761293997
 20
1205.608397056501
 10
2243.579361554728
 20
1205.608397056501
  0
LWPOLYLINE
  5
10221
330
1F
100
AcDbEntity
  8
0
  6
Continuous
100
AcDbPolyline
 90
        4
 70
     1
 43
0.0
 10
2280.683039938598
 20
1205.608397056501
 10
2399.752430128428
 20
1205.608397056501
 10
2399.752430128428
 20
817.9490274821073
 10
2280.683039938598
 20
817.9490274821073
  0
LWPOLYLINE
  5
10222
330
1F
100
AcDbEntity
  8
0
  6
Continuous
100
AcDbPolyline
 90
       11
 70
     0
 43
0.0
 10
1065.621977652918
 20
1205.606674509043
 10
1065.621977652918
 20
1116.445880781546
 10
879.5454802592576
 20
1116.445880781546
 10
879.5454802592576
 20
1039.470389787028
 10
1009.689129888578
 20
1039.470389787028
 10
1009.689129888578
 20
956.3970797824804
 10
879.5454802592576
 20
956.3970797824804
 10
879.5454802592576
 20
817.9490274821073
 10
760.4760900694273
 20
817.9490274821073
 10
760.4760900694273
 20
1205.606674509043
 10
1065.621977652918
 20
1205.606674509043
  0
LWPOLYLINE
  5
10223
330
1F
100
AcDbEntity
  8
0
  6
Continuous
100
AcDbPolyline
 90
        5
 70
     0
 43
0.0
 10
1251.707087792018
 20
1098.727754695727
 10
1284.935033754007
 20
984.6399725777228
 10
1212.386490460049
 20
984.6399725777228
 10
1245.614436426687
 20
1098.727754695727
 10
1251.707087792018
 20
1098.727754695727
  0
LWPOLYLINE
  5
10224
330
1F
100
AcDbEntity
  8
0
  6
Continuous
100
AcDbPolyline
 90
       16
 70
     1
 43
0.0
 10
1308.198751238668
 20
901.5718302167152
 10
1308.198751238668
 20
901.5718302167152
 10
1332.560033751219
 20
817.9490274821073
 10
1458.276735683468
 20
817.9490274821073
 10
1340.867881518348
 20
1170.723360164709
 42
0.1089385125692126
 10
1328.126021702337
 20
1198.39449788459
 42
0.1589313772246072
 10
1316.130196512238
 20
1205.679369841389
 42
0.058673645385263
 10
1299.885025615367
 20
1207.270655628679
 10
1299.885025615367
 20
1207.270655628679
 10
1204.636748162588
 20
1207.270655628679
 42
0.058673645385263
 10
1188.391577265718
 20
1205.679369841389
 42
0.1589313772246072
 10
1176.395752075628
 20
1198.39449788459
 42
0.1089385125692126
 10
1163.653892259608
 20
1170.723360164709
 10
1046.245038099149
 20
817.9490274821073
 10
1165.310983191737
 20
817.9490274821073
 10
1189.123483188017
 20
901.5718302167152
  0
TEXT
  5
10225
330
1F
100
AcDbEntity
  8
0
100
AcDbText
 10
3945.316826905085
 20
688.1128179246261
 30
0.0
 40
125.0
  1
This drawing is property of Fantin S.r.l. 
  7
STILE1
 72
     1
 11
5960.197779286038
 21
688.1128179246261
 31
0.0
100
AcDbText
  0
LWPOLYLINE
  5
10226
330
1F
100
AcDbEntity
  8
0
100
AcDbPolyline
 90
        2
 70
     0
 43
0.0
 10
3135.600072815578
 20
1205.610119605124
 10
8485.84803830789
 20
1205.610119605124
  0
LWPOLYLINE
  5
10227
330
1F
100
AcDbEntity
  8
0
100
AcDbPolyline
 90
        4
 70
     1
 43
0.0
 10
460.4760900694273
 20
1505.606674509043
 10
8485.84803830789
 20
1505.606674509043
 10
8485.84803830789
 20
517.9490274821073
 10
460.4760900694273
 20
517.9490274821073
  0
LINE
  5
10228
330
1F
100
AcDbEntity
  8
0
100
AcDbLine
 10
3135.600072815578
 20
1505.606674509043
 30
0.0
 11
3135.600072815578
 21
517.9490274821073
 31
0.0
  0
LINE
  5
10229
330
1F
100
AcDbEntity
  8
0
100
AcDbLine
 10
7207.969791120016
 20
1205.610119605124
 30
0.0
 11
7207.969791120016
 21
1505.606674509043
 31
0.0
  0
TEXT
  5
1022A
330
1F
100
AcDbEntity
  8
0
100
AcDbText
 10
7384.892806585433
 20
1296.681257885641
 30
0.0
 40
125.0
  1
2022-06
  7
STILE1
 72
     1
 11
7819.788639918766
 21
1296.681257885641
 31
0.0
100
AcDbText
  0
LINE
  5
1022B
330
1F
100
AcDbEntity
  8
0
100
AcDbLine
 10
8485.84803830789
 20
1505.606674509043
 30
0.0
 11
8485.84803830789
 21
517.9490274821073
 31
0.0
  0
LWPOLYLINE
  5
10700
330
1F
100
AcDbEntity
  8
0
100
AcDbPolyline
 90
        4
 70
     1
 43
0.0
 10
460.4760900694073
 20
11813.76908149682
 10
13615.47609485968
 20
11813.76908149682
 10
13615.47609485968
 20
2070.111948905684
 10
460.4760900694073
 20
2070.111948905691
  0
LWPOLYLINE
  5
11873
330
1F
100
AcDbEntity
  8
0
100
AcDbPolyline
 90
        4
 70
     1
 43
0.0
 10
9470.457849233178
 20
3443.476616300983
 10
9470.457849233178
 20
3471.476616300983
 10
11470.45784923318
 20
3471.476616300983
 10
11470.45784923318
 20
3443.476616300983
1001
PE_URL
1000

  0
LWPOLYLINE
  5
11876
330
1F
100
AcDbEntity
  8
0
100
AcDbPolyline
 90
        4
 70
     1
 43
0.0
 10
11970.45784923318
 20
3443.476616300983
 10
11970.45784923318
 20
3471.476616300983
 10
12870.45784923318
 20
3471.476616300983
 10
12870.45784923318
 20
3443.476616300983
1001
PE_URL
1000

  0
LINE
  5
11877
330
1F
100
AcDbEntity
  8
0
100
AcDbLine
 10
12028.67257864037
 20
3380.491208536933
 30
0.0
 11
11970.41914182628
 21
2714.476616300983
 31
0.0
1001
PE_URL
1000

  0
LINE
  5
11878
330
1F
100
AcDbEntity
  8
0
100
AcDbLine
 10
11970.41914182628
 20
2714.476616300983
 30
0.0
 11
12010.57185530478
 21
2714.476616300983
 31
0.0
1001
PE_URL
1000

  0
LINE
  5
1187A
330
1F
100
AcDbEntity
  8
0
100
AcDbLine
 10
12812.24311982599
 20
3380.491208536933
 30
0.0
 11
12870.49655664008
 21
2714.476616300983
 31
0.0
1001
PE_URL
1000

  0
LINE
  5
1187B
330
1F
100
AcDbEntity
  8
0
100
AcDbLine
 10
12870.49655664008
 20
2714.476616300983
 30
0.0
 11
12830.34384316157
 21
2714.476616300983
 31
0.0
1001
PE_URL
1000

  0
LWPOLYLINE
  5
1187C
330
1F
100
AcDbEntity
  8
0
100
AcDbPolyline
 90
        4
 70
     0
 43
0.0
 10
12766.58134316153
 20
3443.476616300983
 10
12768.9429172356
 20
3416.476616300983
 10
12071.97278123074
 20
3416.476616300983
 10
12074.33435530482
 20
3443.476616300983
1001
PE_URL
1000

  0
LWPOLYLINE
  5
1187D
330
1F
100
AcDbEntity
  8
0
100
AcDbPolyline
 90
        4
 70
     0
 43
0.0
 10
12830.34384316157
 20
2714.476616300983
 10
12772.44154549349
 20
3376.476616300983
 10
12068.47415297285
 20
3376.476616300983
 10
12010.57185530478
 20
2714.476616300983
1001
PE_URL
1000

  0
LWPOLYLINE
  5
1187F
330
1F
100
AcDbEntity
  8
0
100
AcDbPolyline
 90
        8
 70
     0
 43
0.0
 10
9528.67257864037
 20
3380.491208536933
 10
9470.419141826278
 20
2714.476616300983
 10
9510.571855304777
 20
2714.476616300983
 10
9568.474152972856
 20
3376.476616300983
 10
11372.4415454935
 20
3376.476616300983
 10
11430.34384316157
 20
2714.476616300983
 10
11470.49655664008
 20
2714.476616300983
 10
11412.24311982599
 20
3380.491208536933
1001
PE_URL
1000

  0
LWPOLYLINE
  5
11880
330
1F
100
AcDbEntity
  8
0
100
AcDbPolyline
 90
        4
 70
     0
 43
0.0
 10
9574.334355304818
 20
3443.476616300983
 10
9571.972781230746
 20
3416.476616300983
 10
11368.94291723561
 20
3416.476616300983
 10
11366.58134316153
 20
3443.476616300983
1001
PE_URL
1000

  0
LWPOLYLINE
  5
11881
330
1F
100
AcDbEntity
  8
0
100
AcDbPolyline
 90
        4
 70
     1
 43
0.0
 10
9470.457849233178
 20
3971.476616300983
 10
9470.457849233178
 20
4871.476616300983
 10
11470.45784923318
 20
4871.476616300983
 10
11470.45784923318
 20
3971.476616300983
1001
PE_URL
1000

  0
LWPOLYLINE
  5
11888
330
1F
100
AcDbEntity
  8
0
100
AcDbPolyline
 90
        4
 70
     1
 43
0.0
 10
7170.457849233178
 20
3971.476616300983
 10
7170.457849233178
 20
4871.476616300983
 10
8970.457849233178
 20
4871.476616300983
 10
8970.457849233178
 20
3971.476616300983
1001
PE_URL
1000

  0
LWPOLYLINE
  5
1188C
330
1F
100
AcDbEntity
  8
0
100
AcDbPolyline
 90
        4
 70
     1
 43
0.0
 10
5070.457849233178
 20
3971.476616300981
 10
5070.457849233178
 20
4871.476616300981
 10
6670.457849233178
 20
4871.476616300981
 10
6670.457849233178
 20
3971.476616300981
1001
PE_URL
1000

  0
LWPOLYLINE
  5
11890
330
1F
100
AcDbEntity
  8
0
100
AcDbPolyline
 90
        4
 70
     1
 43
0.0
 10
9470.457849233178
 20
5371.476616300983
 10
9470.457849233178
 20
6171.476616300986
 10
11470.45784923318
 20
6171.476616300986
 10
11470.45784923318
 20
5371.476616300983
1001
PE_URL
1000

  0
LWPOLYLINE
  5
11894
330
1F
100
AcDbEntity
  8
0
100
AcDbPolyline
 90
        4
 70
     1
 43
0.0
 10
7170.457849233178
 20
5371.476616300983
 10
7170.457849233178
 20
6171.476616300986
 10
8970.457849233178
 20
6171.476616300986
 10
8970.457849233178
 20
5371.476616300983
1001
PE_URL
1000

  0
LWPOLYLINE
  5
11895
330
1F
100
AcDbEntity
  8
0
100
AcDbPolyline
 90
        4
 70
     1
 43
0.0
 10
5070.457849233178
 20
5371.476616300981
 10
5070.457849233178
 20
6171.476616300977
 10
6670.457849233178
 20
6171.476616300977
 10
6670.457849233178
 20
5371.476616300981
1001
PE_URL
1000

  0
LWPOLYLINE
  5
11898
330
1F
100
AcDbEntity
  8
0
100
AcDbPolyline
 90
        4
 70
     1
 43
0.0
 10
3170.457849233178
 20
6671.476616300977
 10
3170.457849233178
 20
7371.476616300977
 10
4570.457849233178
 20
7371.476616300977
 10
4570.457849233178
 20
6671.476616300977
1001
PE_URL
1000

  0
LWPOLYLINE
  5
1189E
330
1F
100
AcDbEntity
  8
0
100
AcDbPolyline
 90
        4
 70
     1
 43
0.0
 10
1470.457849233178
 20
6671.476616300977
 10
1470.457849233178
 20
7371.476616300977
 10
2670.457849233178
 20
7371.476616300977
 10
2670.457849233178
 20
6671.476616300977
1001
PE_URL
1000

  0
LWPOLYLINE
  5
118A2
330
1F
100
AcDbEntity
  8
0
100
AcDbPolyline
 90
        4
 70
     1
 43
0.0
 10
7170.457849233178
 20
3443.476616300983
 10
7170.457849233178
 20
3471.476616300983
 10
8970.457849233178
 20
3471.476616300983
 10
8970.457849233178
 20
3443.476616300983
1001
PE_URL
1000

  0
LWPOLYLINE
  5
118A5
330
1F
100
AcDbEntity
  8
0
100
AcDbPolyline
 90
        8
 70
     0
 43
0.0
 10
7228.672578640369
 20
3380.491208536933
 10
7170.419141826278
 20
2714.476616300983
 10
7210.571855304777
 20
2714.476616300983
 10
7268.474152972856
 20
3376.476616300983
 10
8872.441545493497
 20
3376.476616300983
 10
8930.343843161569
 20
2714.476616300983
 10
8970.496556640079
 20
2714.476616300983
 10
8912.243119825987
 20
3380.491208536933
1001
PE_URL
1000

  0
LWPOLYLINE
  5
118A6
330
1F
100
AcDbEntity
  8
0
100
AcDbPolyline
 90
        4
 70
     0
 43
0.0
 10
7274.334355304818
 20
3443.476616300983
 10
7271.972781230746
 20
3416.476616300983
 10
8868.942917235607
 20
3416.476616300983
 10
8866.581343161528
 20
3443.476616300983
1001
PE_URL
1000

  0
LWPOLYLINE
  5
118A7
330
1F
100
AcDbEntity
  8
0
100
AcDbPolyline
 90
        4
 70
     1
 43
0.0
 10
5070.457849233178
 20
3443.476616300981
 10
5070.457849233178
 20
3471.476616300981
 10
6670.457849233178
 20
3471.476616300981
 10
6670.457849233178
 20
3443.476616300981
1001
PE_URL
1000

  0
LWPOLYLINE
  5
118AA
330
1F
100
AcDbEntity
  8
0
100
AcDbPolyline
 90
        8
 70
     0
 43
0.0
 10
5128.672578640369
 20
3380.491208536932
 10
5070.419141826278
 20
2714.476616300981
 10
5110.571855304777
 20
2714.476616300983
 10
5168.474152972856
 20
3376.476616300981
 10
6572.441545493497
 20
3376.476616300981
 10
6630.343843161569
 20
2714.476616300983
 10
6670.496556640079
 20
2714.476616300981
 10
6612.243119825987
 20
3380.491208536932
1001
PE_URL
1000

  0
LWPOLYLINE
  5
118AB
330
1F
100
AcDbEntity
  8
0
100
AcDbPolyline
 90
        4
 70
     0
 43
0.0
 10
5174.334355304818
 20
3443.476616300981
 10
5171.972781230746
 20
3416.476616300981
 10
6568.942917235607
 20
3416.476616300981
 10
6566.581343161528
 20
3443.476616300981
1001
PE_URL
1000

  0
LWPOLYLINE
  5
118AC
330
1F
100
AcDbEntity
  8
0
100
AcDbPolyline
 90
        4
 70
     1
 43
0.0
 10
3170.457849233178
 20
3443.476616300981
 10
3170.457849233178
 20
3471.476616300981
 10
4570.457849233178
 20
3471.476616300981
 10
4570.457849233178
 20
3443.476616300981
1001
PE_URL
1000

  0
LWPOLYLINE
  5
118AF
330
1F
100
AcDbEntity
  8
0
100
AcDbPolyline
 90
        8
 70
     0
 43
0.0
 10
3228.672578640368
 20
3380.491208536931
 10
3170.419141826278
 20
2714.476616300981
 10
3210.571855304777
 20
2714.476616300981
 10
3268.474152972858
 20
3376.476616300981
 10
4472.441545493499
 20
3376.476616300981
 10
4530.343843161569
 20
2714.476616300982
 10
4570.496556640079
 20
2714.476616300981
 10
4512.243119825987
 20
3380.491208536931
1001
PE_URL
1000

  0
LWPOLYLINE
  5
118B0
330
1F
100
AcDbEntity
  8
0
100
AcDbPolyline
 90
        4
 70
     0
 43
0.0
 10
3274.334355304827
 20
3443.476616300981
 10
3271.972781230748
 20
3416.476616300981
 10
4468.942917235609
 20
3416.476616300981
 10
4466.581343161528
 20
3443.476616300981
1001
PE_URL
1000

  0
LWPOLYLINE
  5
118B1
330
1F
100
AcDbEntity
  8
0
100
AcDbPolyline
 90
        4
 70
     1
 43
0.0
 10
1470.457849233178
 20
3443.476616300979
 10
1470.457849233178
 20
3471.476616300979
 10
2670.457849233178
 20
3471.476616300979
 10
2670.457849233178
 20
3443.476616300979
1001
PE_URL
1000

  0
LWPOLYLINE
  5
118B4
330
1F
100
AcDbEntity
  8
0
100
AcDbPolyline
 90
        8
 70
     0
 43
0.0
 10
1528.672578640368
 20
3380.49120853693
 10
1470.419141826278
 20
2714.476616300979
 10
1510.571855304777
 20
2714.47661630098
 10
1568.474152972858
 20
3376.476616300979
 10
2572.441545493499
 20
3376.476616300979
 10
2630.343843161569
 20
2714.476616300981
 10
2670.496556640079
 20
2714.476616300979
 10
2612.243119825987
 20
3380.491208536931
1001
PE_URL
1000

  0
LWPOLYLINE
  5
118B5
330
1F
100
AcDbEntity
  8
0
100
AcDbPolyline
 90
        4
 70
     0
 43
0.0
 10
1574.334355304827
 20
3443.476616300979
 10
1571.972781230748
 20
3416.476616300979
 10
2568.942917235609
 20
3416.476616300979
 10
2566.581343161528
 20
3443.476616300979
1001
PE_URL
1000

  0
CIRCLE
  5
11930
330
1F
100
AcDbEntity
  8
0
100
AcDbCircle
 10
3870.457849233178
 20
10471.47661630098
 30
0.0
 40
600.0
1001
PE_URL
1000

  0
CIRCLE
  5
11932
330
1F
100
AcDbEntity
  8
0
100
AcDbCircle
 10
2070.457849233178
 20
10471.47661630098
 30
0.0
 40
400.0
1001
PE_URL
1000

  0
LWPOLYLINE
  5
11951
330
1F
100
AcDbEntity
  8
0
100
AcDbPolyline
 90
        4
 70
     1
 43
0.0
 10
1670.457849233178
 20
9543.476616300977
 10
1670.457849233178
 20
9571.476616300977
 10
2470.457849233178
 20
9571.476616300977
 10
2470.457849233178
 20
9543.476616300977
1001
PE_URL
1000

  0
LWPOLYLINE
  5
11956
330
1F
100
AcDbEntity
  8
0
100
AcDbPolyline
 90
        4
 70
     1
 43
0.0
 10
3270.457849233178
 20
9543.476616300977
 10
3270.457849233178
 20
9571.476616300977
 10
4470.457849233178
 20
9571.476616300977
 10
4470.457849233178
 20
9543.476616300977
1001
PE_URL
1000

  0
LWPOLYLINE
  5
11959
330
1F
100
AcDbEntity
  8
0
100
AcDbPolyline
 90
        8
 70
     0
 43
0.0
 10
3462.631846359029
 20
9480.491208536938
 10
3404.378409544937
 20
8814.476616300977
 10
3444.531123023438
 20
8814.476616300977
 10
3502.433420691517
 20
9476.476616300977
 10
4238.482277774838
 20
9476.476616300977
 10
4296.384575442919
 20
8814.476616300986
 10
4336.537288921429
 20
8814.476616300977
 10
4278.283852107328
 20
9480.491208536938
1001
PE_URL
1000

  0
LWPOLYLINE
  5
1195A
330
1F
100
AcDbEntity
  8
0
100
AcDbPolyline
 90
        4
 70
     0
 43
0.0
 10
3508.293623023477
 20
9543.476616300977
 10
3505.932048949408
 20
9516.476616300977
 10
4234.983649516947
 20
9516.476616300977
 10
4232.622075442878
 20
9543.476616300977
1001
PE_URL
1000

  0
LINE
  5
11979
330
1F
100
AcDbEntity
  8
0
100
AcDbLine
 10
3890.457849233178
 20
9516.476616300977
 30
0.0
 11
3890.457849233178
 21
9543.476616300977
 31
0.0
1001
PE_URL
1000

  0
LINE
  5
1197B
330
1F
100
AcDbEntity
  8
0
100
AcDbLine
 10
3850.457849233178
 20
9516.476616300977
 30
0.0
 11
3850.457849233178
 21
9543.476616300977
 31
0.0
1001
PE_URL
1000

  0
LWPOLYLINE
  5
1197E
330
1F
100
AcDbEntity
  8
0
100
AcDbPolyline
 90
        4
 70
     0
 43
0.0
 10
3850.457849233178
 20
9476.476616300977
 10
3850.457849233178
 20
8814.476616300986
 10
3890.457849233178
 20
8814.476616300986
 10
3890.457849233178
 20
9476.476616300977
1001
PE_URL
1000

  0
LWPOLYLINE
  5
1198D
330
1F
100
AcDbEntity
  8
0
100
AcDbPolyline
 90
        8
 70
     0
 43
0.0
 10
1793.634929308018
 20
9480.491208536927
 10
1735.381492493929
 20
8814.476616300977
 10
1775.534205972428
 20
8814.476616300977
 10
1833.436503640509
 20
9476.476616300977
 10
2307.479194825848
 20
9476.476616300977
 10
2365.381492493929
 20
8814.476616300977
 10
2405.534205972428
 20
8814.476616300977
 10
2347.280769158338
 20
9480.491208536927
1001
PE_URL
1000

  0
LWPOLYLINE
  5
1198E
330
1F
100
AcDbEntity
  8
0
100
AcDbPolyline
 90
        4
 70
     0
 43
0.0
 10
1839.296705972469
 20
9543.476616300977
 10
1836.935131898397
 20
9516.476616300977
 10
2303.980566567958
 20
9516.476616300977
 10
2301.618992493877
 20
9543.476616300977
1001
PE_URL
1000

  0
LINE
  5
1198F
330
1F
100
AcDbEntity
  8
0
100
AcDbLine
 10
2090.457849233178
 20
9516.476616300977
 30
0.0
 11
2090.457849233178
 21
9543.476616300977
 31
0.0
1001
PE_URL
1000

  0
LINE
  5
11990
330
1F
100
AcDbEntity
  8
0
100
AcDbLine
 10
2050.457849233178
 20
9516.476616300977
 30
0.0
 11
2050.457849233178
 21
9543.476616300977
 31
0.0
1001
PE_URL
1000

  0
LWPOLYLINE
  5
11991
330
1F
100
AcDbEntity
  8
0
100
AcDbPolyline
 90
        4
 70
     0
 43
0.0
 10
2050.457849233178
 20
9476.476616300977
 10
2050.457849233178
 20
8814.476616300977
 10
2090.457849233178
 20
8814.476616300977
 10
2090.457849233178
 20
9476.476616300977
1001
PE_URL
1000

  0
TEXT
  5
13768
330
1F
100
AcDbEntity
  8
0
100
AcDbText
 10
9272.572958547158
 20
10734.67597785382
 30
0.0
 40
125.0
  1
Accessories
  7
STILE1
 72
     1
 11
9805.590071642397
 21
10734.67597785382
 31
0.0
100
AcDbText
  0
LWPOLYLINE
  5
137B9
330
1F
100
AcDbEntity
  8
0
100
AcDbPolyline
 90
        4
 70
     1
 43
0.0
 10
8576.630437033276
 20
9944.334767890947
 10
8696.630437033276
 20
9944.334767890947
 10
8696.630437033276
 20
9898.334767890947
 10
8576.630437033276
 20
9898.334767890947
1001
PE_URL
1000

  0
LINE
  5
137BA
330
1F
100
AcDbEntity
  8
0
100
AcDbLine
 10
9068.99894271695
 20
10421.09962953715
 30
0.0
 11
9068.99894271695
 21
9678.868318658037
 31
0.0
1001
PE_URL
1000

  0
LWPOLYLINE
  5
137C4
330
1F
100
AcDbEntity
  8
0
100
AcDbPolyline
 90
        4
 70
     1
 43
0.0
 10
9438.19058444908
 20
9944.334767890947
 10
9463.19058444908
 20
9944.334767890947
 10
9463.19058444908
 20
9898.334767890947
 10
9438.19058444908
 20
9898.334767890947
1001
PE_URL
1000

  0
LINE
  5
137C5
330
1F
100
AcDbEntity
  8
0
100
AcDbLine
 10
9883.059090132749
 20
10421.09962953715
 30
0.0
 11
9883.059090132749
 21
9678.868318658037
 31
0.0
1001
PE_URL
1000

  0
LWPOLYLINE
  5
137CF
330
1F
100
AcDbEntity
  8
0
100
AcDbPolyline
 90
        4
 70
     1
 43
0.0
 10
10154.85643731366
 20
9944.334767890947
 10
10369.85643731366
 20
9944.334767890947
 10
10369.85643731366
 20
9898.334767890947
 10
10154.85643731366
 20
9898.334767890947
1001
PE_URL
1000

  0
LINE
  5
137D0
330
1F
100
AcDbEntity
  8
0
100
AcDbLine
 10
10694.72494299733
 20
10421.09962953715
 30
0.0
 11
10694.72494299733
 21
9678.868318658037
 31
0.0
1001
PE_URL
1000

  0
ARC
  5
1389C
330
1F
100
AcDbEntity
  8
0
100
AcDbCircle
 10
9541.383010456379
 20
3307.197105159552
 30
0.0
 40
74.3880411547698
100
AcDbArc
 50
68.64245456591394
 51
99.83820893477706
1001
PE_URL
1000

  0
ARC
  5
1389D
330
1F
100
AcDbEntity
  8
0
100
AcDbCircle
 10
9549.222258599599
 20
3467.757270542989
 30
0.0
 40
56.10072886762471
100
AcDbArc
 50
251.7413834140576
 51
293.9243372857784
1001
PE_URL
1000

  0
ARC
  5
1389E
330
1F
100
AcDbEntity
  8
0
100
AcDbCircle
 10
11399.53268800999
 20
3307.19710515963
 30
0.0
 40
74.3880411547698
100
AcDbArc
 50
80.16179106522577
 51
111.3575454340891
1001
PE_URL
1000

  0
ARC
  5
1389F
330
1F
100
AcDbEntity
  8
0
100
AcDbCircle
 10
11391.69343986676
 20
3467.757270543067
 30
0.0
 40
56.10072886762471
100
AcDbArc
 50
246.0756627142297
 51
288.2586165859502
1001
PE_URL
1000

  0
ARC
  5
138A0
330
1F
100
AcDbEntity
  8
0
100
AcDbCircle
 10
12799.53268800999
 20
3307.19710515963
 30
0.0
 40
74.3880411547698
100
AcDbArc
 50
80.16179106522577
 51
111.3575454340891
1001
PE_URL
1000

  0
ARC
  5
138A1
330
1F
100
AcDbEntity
  8
0
100
AcDbCircle
 10
12791.69343986676
 20
3467.757270543067
 30
0.0
 40
56.10072886762471
100
AcDbArc
 50
246.0756627142297
 51
288.2586165859502
1001
PE_URL
1000

  0
ARC
  5
138A2
330
1F
100
AcDbEntity
  8
0
100
AcDbCircle
 10
8899.53268800999
 20
3307.19710515963
 30
0.0
 40
74.3880411547698
100
AcDbArc
 50
80.16179106522577
 51
111.3575454340891
1001
PE_URL
1000

  0
ARC
  5
138A3
330
1F
100
AcDbEntity
  8
0
100
AcDbCircle
 10
8891.693439866758
 20
3467.757270543067
 30
0.0
 40
56.10072886762471
100
AcDbArc
 50
246.0756627142297
 51
288.2586165859502
1001
PE_URL
1000

  0
ARC
  5
138A4
330
1F
100
AcDbEntity
  8
0
100
AcDbCircle
 10
6599.532688009989
 20
3307.197105159628
 30
0.0
 40
74.3880411547698
100
AcDbArc
 50
80.16179106522577
 51
111.3575454340891
1001
PE_URL
1000

  0
ARC
  5
138A5
330
1F
100
AcDbEntity
  8
0
100
AcDbCircle
 10
6591.693439866758
 20
3467.757270543066
 30
0.0
 40
56.10072886762471
100
AcDbArc
 50
246.0756627142297
 51
288.2586165859502
1001
PE_URL
1000

  0
ARC
  5
138A6
330
1F
100
AcDbEntity
  8
0
100
AcDbCircle
 10
4499.532688009987
 20
3307.197105159628
 30
0.0
 40
74.3880411547698
100
AcDbArc
 50
80.16179106522577
 51
111.3575454340891
1001
PE_URL
1000

  0
ARC
  5
138A7
330
1F
100
AcDbEntity
  8
0
100
AcDbCircle
 10
4491.693439866758
 20
3467.757270543066
 30
0.0
 40
56.10072886762471
100
AcDbArc
 50
246.0756627142297
 51
288.2586165859502
1001
PE_URL
1000

  0
ARC
  5
138A8
330
1F
100
AcDbEntity
  8
0
100
AcDbCircle
 10
2599.532688009987
 20
3307.197105159626
 30
0.0
 40
74.3880411547698
100
AcDbArc
 50
80.16179106522577
 51
111.3575454340891
1001
PE_URL
1000

  0
ARC
  5
138A9
330
1F
100
AcDbEntity
  8
0
100
AcDbCircle
 10
2591.693439866758
 20
3467.757270543064
 30
0.0
 40
56.10072886762471
100
AcDbArc
 50
246.0756627142297
 51
288.2586165859502
1001
PE_URL
1000

  0
ARC
  5
138AA
330
1F
100
AcDbEntity
  8
0
100
AcDbCircle
 10
4265.573420291317
 20
9407.197105159546
 30
0.0
 40
74.3880411547698
100
AcDbArc
 50
80.16179106522577
 51
111.3575454340892
1001
PE_URL
1000

  0
ARC
  5
138AB
330
1F
100
AcDbEntity
  8
0
100
AcDbCircle
 10
4257.734172148088
 20
9567.757270542987
 30
0.0
 40
56.10072886762471
100
AcDbArc
 50
246.0756627142297
 51
288.2586165859503
1001
PE_URL
1000

  0
ARC
  5
138AC
330
1F
100
AcDbEntity
  8
0
100
AcDbCircle
 10
2334.570337342328
 20
9407.197105159546
 30
0.0
 40
74.3880411547698
100
AcDbArc
 50
80.16179106522577
 51
111.3575454340892
1001
PE_URL
1000

  0
ARC
  5
138AD
330
1F
100
AcDbEntity
  8
0
100
AcDbCircle
 10
2326.731089199098
 20
9567.757270542987
 30
0.0
 40
56.10072886762471
100
AcDbArc
 50
246.0756627142297
 51
288.2586165859503
1001
PE_URL
1000

  0
ARC
  5
138AE
330
1F
100
AcDbEntity
  8
0
100
AcDbCircle
 10
3475.342278175038
 20
9407.197105159546
 30
0.0
 40
74.3880411547698
100
AcDbArc
 50
68.64245456591082
 51
99.83820893477424
1001
PE_URL
1000

  0
ARC
  5
138AF
330
1F
100
AcDbEntity
  8
0
100
AcDbCircle
 10
3483.181526318269
 20
9567.757270542987
 30
0.0
 40
56.10072886762471
100
AcDbArc
 50
251.7413834140497
 51
293.9243372857703
1001
PE_URL
1000

  0
ARC
  5
138B0
330
1F
100
AcDbEntity
  8
0
100
AcDbCircle
 10
1806.345361124027
 20
9407.197105159546
 30
0.0
 40
74.3880411547698
100
AcDbArc
 50
68.64245456591065
 51
99.83820893477424
1001
PE_URL
1000

  0
ARC
  5
138B1
330
1F
100
AcDbEntity
  8
0
100
AcDbCircle
 10
1814.184609267259
 20
9567.757270542987
 30
0.0
 40
56.10072886762471
100
AcDbArc
 50
251.7413834140497
 51
293.9243372857703
1001
PE_URL
1000

  0
ARC
  5
138B2
330
1F
100
AcDbEntity
  8
0
100
AcDbCircle
 10
1541.383010456368
 20
3307.197105159626
 30
0.0
 40
74.3880411547698
100
AcDbArc
 50
68.64245456591094
 51
99.83820893477424
1001
PE_URL
1000

  0
ARC
  5
138B3
330
1F
100
AcDbEntity
  8
0
100
AcDbCircle
 10
1549.222258599599
 20
3467.757270543064
 30
0.0
 40
56.10072886762471
100
AcDbArc
 50
251.7413834140498
 51
293.9243372857703
1001
PE_URL
1000

  0
ARC
  5
138B4
330
1F
100
AcDbEntity
  8
0
100
AcDbCircle
 10
3241.383010456359
 20
3307.197105159664
 30
0.0
 40
74.3880411547698
100
AcDbArc
 50
68.64245456590639
 51
99.83820893477
1001
PE_URL
1000

  0
ARC
  5
138B5
330
1F
100
AcDbEntity
  8
0
100
AcDbCircle
 10
3249.222258599599
 20
3467.757270543101
 30
0.0
 40
56.10072886762471
100
AcDbArc
 50
251.7413834140478
 51
293.9243372857683
1001
PE_URL
1000

  0
ARC
  5
138B6
330
1F
100
AcDbEntity
  8
0
100
AcDbCircle
 10
5149.222258599599
 20
3467.757270543066
 30
0.0
 40
56.10072886762471
100
AcDbArc
 50
251.7413834140498
 51
293.9243372857703
1001
PE_URL
1000

  0
ARC
  5
138B7
330
1F
100
AcDbEntity
  8
0
100
AcDbCircle
 10
5141.383010456368
 20
3307.197105159628
 30
0.0
 40
74.3880411547698
100
AcDbArc
 50
68.64245456591094
 51
99.83820893477424
1001
PE_URL
1000

  0
ARC
  5
138B8
330
1F
100
AcDbEntity
  8
0
100
AcDbCircle
 10
7249.222258599599
 20
3467.757270543067
 30
0.0
 40
56.10072886762471
100
AcDbArc
 50
251.7413834140498
 51
293.9243372857703
1001
PE_URL
1000

  0
ARC
  5
138B9
330
1F
100
AcDbEntity
  8
0
100
AcDbCircle
 10
7241.383010456368
 20
3307.19710515963
 30
0.0
 40
74.3880411547698
100
AcDbArc
 50
68.64245456591094
 51
99.83820893477424
1001
PE_URL
1000

  0
ARC
  5
138BA
330
1F
100
AcDbEntity
  8
0
100
AcDbCircle
 10
12049.2222585996
 20
3467.757270543067
 30
0.0
 40
56.10072886762471
100
AcDbArc
 50
251.7413834140498
 51
293.9243372857703
1001
PE_URL
1000

  0
ARC
  5
138BB
330
1F
100
AcDbEntity
  8
0
100
AcDbCircle
 10
12041.38301045637
 20
3307.19710515963
 30
0.0
 40
74.3880411547698
100
AcDbArc
 50
68.64245456591094
 51
99.83820893477424
1001
PE_URL
1000

  0
LINE
  5
13905
330
1F
100
AcDbEntity
  8
0
100
AcDbLine
 10
1907.520199900828
 20
9476.476616300977
 30
0.0
 11
1907.520199900828
 21
9516.476616300977
 31
0.0
1001
PE_URL
1000

  0
LINE
  5
13906
330
1F
100
AcDbEntity
  8
0
100
AcDbLine
 10
3576.517116951838
 20
9476.476616300977
 30
0.0
 11
3576.517116951838
 21
9516.476616300977
 31
0.0
1001
PE_URL
1000

  0
LINE
  5
13907
330
1F
100
AcDbEntity
  8
0
100
AcDbLine
 10
4164.398581514519
 20
9476.476616300977
 30
0.0
 11
4164.398581514519
 21
9516.476616300977
 31
0.0
1001
PE_URL
1000

  0
LINE
  5
13908
330
1F
100
AcDbEntity
  8
0
100
AcDbLine
 10
2233.395498565527
 20
9476.476616300977
 30
0.0
 11
2233.395498565527
 21
9516.476616300977
 31
0.0
  0
LINE
  5
13909
330
1F
100
AcDbEntity
  8
0
100
AcDbLine
 10
1642.557849233168
 20
3376.476616301054
 30
0.0
 11
1642.557849233168
 21
3416.476616301054
 31
0.0
1001
PE_URL
1000

  0
LINE
  5
1390A
330
1F
100
AcDbEntity
  8
0
100
AcDbLine
 10
2498.357849233187
 20
3376.476616301044
 30
0.0
 11
2498.357849233187
 21
3416.476616301044
 31
0.0
1001
PE_URL
1000

  0
LINE
  5
1390B
330
1F
100
AcDbEntity
  8
0
100
AcDbLine
 10
3342.557849233168
 20
3376.476616301056
 30
0.0
 11
3342.557849233168
 21
3416.476616301056
 31
0.0
1001
PE_URL
1000

  0
LINE
  5
1390C
330
1F
100
AcDbEntity
  8
0
100
AcDbLine
 10
5242.55784923317
 20
3376.476616301056
 30
0.0
 11
5242.55784923317
 21
3416.476616301056
 31
0.0
1001
PE_URL
1000

  0
LINE
  5
1390D
330
1F
100
AcDbEntity
  8
0
100
AcDbLine
 10
7342.55784923317
 20
3376.476616301058
 30
0.0
 11
7342.55784923317
 21
3416.476616301058
 31
0.0
1001
PE_URL
1000

  0
LINE
  5
1390E
330
1F
100
AcDbEntity
  8
0
100
AcDbLine
 10
9642.55784923317
 20
3376.476616301058
 30
0.0
 11
9642.55784923317
 21
3416.476616301058
 31
0.0
1001
PE_URL
1000

  0
LINE
  5
1390F
330
1F
100
AcDbEntity
  8
0
100
AcDbLine
 10
12142.55784923317
 20
3376.476616301058
 30
0.0
 11
12142.55784923317
 21
3416.476616301058
 31
0.0
1001
PE_URL
1000

  0
LINE
  5
13910
330
1F
100
AcDbEntity
  8
0
100
AcDbLine
 10
12698.35784923319
 20
3376.476616301058
 30
0.0
 11
12698.35784923319
 21
3416.476616301058
 31
0.0
1001
PE_URL
1000

  0
LINE
  5
13911
330
1F
100
AcDbEntity
  8
0
100
AcDbLine
 10
11298.35784923319
 20
3376.476616301058
 30
0.0
 11
11298.35784923319
 21
3416.476616301058
 31
0.0
1001
PE_URL
1000

  0
LINE
  5
13912
330
1F
100
AcDbEntity
  8
0
100
AcDbLine
 10
8798.357849233187
 20
3376.476616301058
 30
0.0
 11
8798.357849233187
 21
3416.476616301058
 31
0.0
1001
PE_URL
1000

  0
LINE
  5
13913
330
1F
100
AcDbEntity
  8
0
100
AcDbLine
 10
6498.357849233187
 20
3376.476616301056
 30
0.0
 11
6498.357849233187
 21
3416.476616301056
 31
0.0
1001
PE_URL
1000

  0
LINE
  5
13914
330
1F
100
AcDbEntity
  8
0
100
AcDbLine
 10
4398.357849233187
 20
3376.476616301056
 30
0.0
 11
4398.357849233187
 21
3416.476616301056
 31
0.0
1001
PE_URL
1000

  0
LWPOLYLINE
  5
139B8
330
1F
100
AcDbEntity
  8
0
100
AcDbPolyline
 90
        4
 70
     1
 43
0.0
 10
8803.441738053487
 20
8672.700769859428
 10
8803.441738053487
 20
8700.700769859428
 10
10803.44173805349
 20
8700.700769859428
 10
10803.44173805349
 20
8672.700769859428
1001
PE_URL
1000

  0
LWPOLYLINE
  5
139B9
330
1F
100
AcDbEntity
  8
0
100
AcDbPolyline
 90
        8
 70
     0
 43
0.0
 10
8861.656467460678
 20
8609.715362095378
 10
8803.40303064658
 20
7943.700769859428
 10
8843.555744125078
 20
7943.700769859428
 10
8901.458041793157
 20
8605.700769859428
 10
10705.4254343138
 20
8605.700769859428
 10
10763.32773198188
 20
7943.700769859428
 10
10803.48044546039
 20
7943.700769859428
 10
10745.2270086463
 20
8609.715362095378
1001
PE_URL
1000

  0
LWPOLYLINE
  5
139BA
330
1F
100
AcDbEntity
  8
0
100
AcDbPolyline
 90
        3
 70
     0
 43
0.0
 10
8907.31824412512
 20
8672.700769859428
 10
8904.956670051048
 20
8645.700769859428
 10
9140.941738053487
 20
8645.700769859428
1001
PE_URL
1000

  0
LWPOLYLINE
  5
139BB
330
1F
100
AcDbEntity
  8
0
100
AcDbPolyline
 90
        2
 70
     0
 43
0.0
 10
9165.941738053487
 20
8645.700769859428
 10
10133.44173805349
 20
8645.700769859428
1001
PE_URL
1000

  0
LWPOLYLINE
  5
139BC
330
1F
100
AcDbEntity
  8
0
100
AcDbPolyline
 90
        2
 70
     0
 43
0.0
 10
10353.44173805349
 20
8645.700769859428
 10
10393.44173805349
 20
8645.700769859428
1001
PE_URL
1000

  0
LWPOLYLINE
  5
139BD
330
1F
100
AcDbEntity
  8
0
100
AcDbPolyline
 90
        3
 70
     0
 43
0.0
 10
10513.44173805349
 20
8645.700769859428
 10
10701.92680605591
 20
8645.700769859428
 10
10699.56523198184
 20
8672.700769859428
1001
PE_URL
1000

  0
ARC
  5
139BE
330
1F
100
AcDbEntity
  8
0
100
AcDbCircle
 10
8874.366899276687
 20
8536.421258717997
 30
0.0
 40
74.3880411547698
100
AcDbArc
 50
68.64245456591394
 51
99.838208934777
1001
PE_URL
1000

  0
ARC
  5
139BF
330
1F
100
AcDbEntity
  8
0
100
AcDbCircle
 10
8882.206147419907
 20
8696.981424101437
 30
0.0
 40
56.10072886762471
100
AcDbArc
 50
251.7413834140538
 51
293.9243372857786
1001
PE_URL
1000

  0
ARC
  5
139C0
330
1F
100
AcDbEntity
  8
0
100
AcDbCircle
 10
10732.5165768303
 20
8536.421258718077
 30
0.0
 40
74.3880411547698
100
AcDbArc
 50
80.16179106522577
 51
111.3575454340892
1001
PE_URL
1000

  0
ARC
  5
139C1
330
1F
100
AcDbEntity
  8
0
100
AcDbCircle
 10
10724.67732868707
 20
8696.981424101517
 30
0.0
 40
56.10072886762471
100
AcDbArc
 50
246.0756627142297
 51
288.2586165859503
1001
PE_URL
1000

  0
LINE
  5
139C2
330
1F
100
AcDbEntity
  8
0
100
AcDbLine
 10
9140.941738053487
 20
8537.700769859428
 30
0.0
 11
9165.941738053487
 21
8537.700769859428
 31
0.0
1001
PE_URL
1000

  0
LINE
  5
139C3
330
1F
100
AcDbEntity
  8
0
100
AcDbLine
 10
9140.941738053487
 20
8605.700769859428
 30
0.0
 11
9140.941738053487
 21
8537.700769859428
 31
0.0
1001
PE_URL
1000

  0
LINE
  5
139C4
330
1F
100
AcDbEntity
  8
0
100
AcDbLine
 10
9165.941738053487
 20
8605.700769859428
 30
0.0
 11
9165.941738053487
 21
8537.700769859428
 31
0.0
1001
PE_URL
1000

  0
LWPOLYLINE
  5
139C5
330
1F
100
AcDbEntity
  8
0
100
AcDbPolyline
 90
        4
 70
     0
 43
0.0
 10
9165.941738053487
 20
8548.700769859397
 42
0.414213562373095
 10
9160.941738053487
 20
8553.700769859397
 10
9145.941738053487
 20
8553.700769859397
 42
0.414213562373095
 10
9140.941738053487
 20
8548.700769859397
1001
PE_URL
1000

  0
LWPOLYLINE
  5
139C6
330
1F
100
AcDbEntity
  8
0
100
AcDbPolyline
 90
        6
 70
     1
 43
0.0
 10
10348.44173805349
 20
8553.700769859377
 10
10138.44173805349
 20
8553.700769859428
 42
0.4142135623731725
 10
10133.44173805349
 20
8548.700769859428
 10
10133.44173805349
 20
8537.700769859428
 10
10353.44173805349
 20
8537.700769859428
 10
10353.44173805349
 20
8548.700769859377
 42
0.4142135623730156
1001
PE_URL
1000

  0
LWPOLYLINE
  5
139C7
330
1F
100
AcDbEntity
  8
0
100
AcDbPolyline
 90
        6
 70
     1
 43
0.0
 10
10133.44173805349
 20
8619.700769859428
 10
10133.44173805349
 20
8647.700769859428
 10
10353.44173805349
 20
8647.700769859428
 10
10353.44173805349
 20
8619.700769859428
 42
-0.4142135623730953
 10
10348.44173805349
 20
8614.700769859428
 10
10138.44173805349
 20
8614.700769859428
 42
-0.4142135623730953
1001
PE_URL
1000

  0
LINE
  5
139C8
330
1F
100
AcDbEntity
  8
0
100
AcDbLine
 10
10133.44173805349
 20
8605.700769859428
 30
0.0
 11
10133.44173805349
 21
8548.700769859428
 31
0.0
1001
PE_URL
1000

  0
LINE
  5
139C9
330
1F
100
AcDbEntity
  8
0
100
AcDbLine
 10
10353.44173805349
 20
8605.700769859428
 30
0.0
 11
10353.44173805349
 21
8548.700769859428
 31
0.0
1001
PE_URL
1000

  0
LWPOLYLINE
  5
139CA
330
1F
100
AcDbEntity
  8
0
100
AcDbPolyline
 90
        8
 70
     1
 43
0.0
 10
10508.44173805349
 20
8553.700769859348
 10
10398.44173805349
 20
8553.700769859408
 42
0.4142135623731725
 10
10393.44173805349
 20
8548.700769859408
 10
10393.44173805349
 20
8449.700769859428
 42
0.4142135623730954
 10
10395.44173805349
 20
8447.700769859428
 10
10511.44173805349
 20
8447.700769859428
 42
0.4142135623730954
 10
10513.44173805349
 20
8449.700769859428
 10
10513.44173805349
 20
8548.700769859348
 42
0.4142135623730156
1001
PE_URL
1000

  0
LWPOLYLINE
  5
139CB
330
1F
100
AcDbEntity
  8
0
100
AcDbPolyline
 90
        6
 70
     1
 43
0.0
 10
10393.44173805349
 20
8619.700769859428
 10
10393.44173805349
 20
8647.700769859428
 10
10513.44173805349
 20
8647.700769859428
 10
10513.44173805349
 20
8619.700769859428
 42
-0.4142135623730953
 10
10508.44173805349
 20
8614.700769859428
 10
10398.44173805349
 20
8614.700769859428
 42
-0.4142135623730953
1001
PE_URL
1000

  0
LINE
  5
139CC
330
1F
100
AcDbEntity
  8
0
100
AcDbLine
 10
10393.44173805349
 20
8605.700769859428
 30
0.0
 11
10393.44173805349
 21
8548.700769859408
 31
0.0
1001
PE_URL
1000

  0
LINE
  5
139CD
330
1F
100
AcDbEntity
  8
0
100
AcDbLine
 10
10513.44173805349
 20
8605.700769859428
 30
0.0
 11
10513.44173805349
 21
8548.700769859408
 31
0.0
1001
PE_URL
1000

  0
LWPOLYLINE
  5
139CE
330
1F
100
AcDbEntity
  8
0
100
AcDbPolyline
 90
        6
 70
     1
 43
0.0
 10
9165.941738053487
 20
8647.700769859428
 10
9165.94173805348
 20
8619.700769859428
 42
-0.414213562373095
 10
9160.94173805348
 20
8614.700769859428
 10
9145.94173805348
 20
8614.700769859428
 42
-0.414213562373095
 10
9140.94173805348
 20
8619.700769859428
 10
9140.941738053487
 20
8647.700769859428
1001
PE_URL
1000

  0
LINE
  5
139CF
330
1F
100
AcDbEntity
  8
0
100
AcDbLine
 10
8975.541738053478
 20
8605.700769859428
 30
0.0
 11
8975.541738053478
 21
8645.700769859428
 31
0.0
1001
PE_URL
1000

  0
LINE
  5
139D0
330
1F
100
AcDbEntity
  8
0
100
AcDbLine
 10
10631.34173805349
 20
8605.700769859428
 30
0.0
 11
10631.34173805349
 21
8645.700769859428
 31
0.0
1001
PE_URL
1000

  0
ARC
  5
139D1
330
1F
100
AcDbEntity
  8
0
100
AcDbCircle
 10
8887.216509541719
 20
8624.604696310707
 30
0.0
 40
29.5805345550118
100
AcDbArc
 50
139.7807903278934
 51
210.2218203817152
1001
PE_URL
1000

  0
LINE
  5
139D2
330
1F
100
AcDbEntity
  8
0
100
AcDbLine
 10
8864.629417336677
 20
8643.705253639777
 30
0.0
 11
8867.165530646627
 21
8672.700769859428
 31
0.0
1001
PE_URL
1000

  0
LINE
  5
139D3
330
1F
100
AcDbEntity
  8
0
100
AcDbLine
 10
10742.2540587703
 20
8643.705253639777
 30
0.0
 11
10739.71794546035
 21
8672.700769859428
 31
0.0
1001
PE_URL
1000

  0
ARC
  5
139D4
330
1F
100
AcDbEntity
  8
0
100
AcDbCircle
 10
10719.66696656526
 20
8624.604696310707
 30
0.0
 40
29.5805345550118
100
AcDbArc
 50
329.7781796182848
 51
40.21920967210663
1001
PE_URL
1000

  0
LWPOLYLINE
  5
139D5
330
1F
100
AcDbEntity
  8
0
100
AcDbPolyline
 90
        4
 70
     1
 43
0.0
 10
7658.507430463509
 20
11218.10218638303
 10
7658.507430463509
 20
7474.293573784367
 10
11539.70351508414
 20
7474.293573784367
 10
11539.70351508414
 20
11218.10218638303
1001
PE_URL
1000

  0
ARC
  5
139D9
330
1F
100
AcDbEntity
  8
0
100
AcDbCircle
 10
3488.191888440064
 20
9495.380542752258
 30
0.0
 40
29.5805345550118
100
AcDbArc
 50
139.7807903278945
 51
210.2218203817162
1001
PE_URL
1000

  0
ARC
  5
139DA
330
1F
100
AcDbEntity
  8
0
100
AcDbCircle
 10
1819.194971389066
 20
9495.380542752258
 30
0.0
 40
29.5805345550118
100
AcDbArc
 50
139.7807903278945
 51
210.2218203817162
1001
PE_URL
1000

  0
LINE
  5
139DE
330
1F
100
AcDbEntity
  8
0
100
AcDbLine
 10
1796.607879184008
 20
9514.481100081328
 30
0.0
 11
1799.143992493968
 21
9543.476616300977
 31
0.0
1001
PE_URL
1000

  0
LINE
  5
139E2
330
1F
100
AcDbEntity
  8
0
100
AcDbLine
 10
2344.307819282349
 20
9514.481100081328
 30
0.0
 11
2341.771705972387
 21
9543.476616300977
 31
0.0
1001
PE_URL
1000

  0
LINE
  5
139E6
330
1F
100
AcDbEntity
  8
0
100
AcDbLine
 10
3465.604796235019
 20
9514.481100081328
 30
0.0
 11
3468.140909544978
 21
9543.476616300977
 31
0.0
1001
PE_URL
1000

  0
LINE
  5
139EA
330
1F
100
AcDbEntity
  8
0
100
AcDbLine
 10
4275.310902231338
 20
9514.481100081328
 30
0.0
 11
4272.774788921379
 21
9543.476616300977
 31
0.0
1001
PE_URL
1000

  0
ARC
  5
139EB
330
1F
100
AcDbEntity
  8
0
100
AcDbCircle
 10
4252.723810026293
 20
9495.380542752258
 30
0.0
 40
29.5805345550118
100
AcDbArc
 50
329.7781796182838
 51
40.21920967210549
1001
PE_URL
1000

  0
ARC
  5
139EC
330
1F
100
AcDbEntity
  8
0
100
AcDbCircle
 10
2321.720727077291
 20
9495.380542752258
 30
0.0
 40
29.5805345550118
100
AcDbArc
 50
329.7781796182838
 51
40.21920967210549
1001
PE_URL
1000

  0
TEXT
  5
13A04
330
1F
100
AcDbEntity
  8
0
100
AcDbText
 10
3926.703838800005
 20
1296.681257885641
 30
0.0
 40
125.0
  1
Hug Tables & Accessories
  7
STILE1
 72
     1
 11
5200.327350704767
 21
1296.681257885641
 31
0.0
100
AcDbText
  0
LINE
  5
13A08
330
1F
100
AcDbEntity
  8
0
100
AcDbLine
 10
1531.645528516357
 20
3414.481100081324
 30
0.0
 11
1534.181641826319
 21
3443.476616300979
 31
0.0
1001
PE_URL
1000

  0
LINE
  5
13A0C
330
1F
100
AcDbEntity
  8
0
100
AcDbLine
 10
2609.270169949988
 20
3414.481100081325
 30
0.0
 11
2606.734056640038
 21
3443.476616300979
 31
0.0
1001
PE_URL
1000

  0
LINE
  5
13A10
330
1F
100
AcDbEntity
  8
0
100
AcDbLine
 10
3231.645528516357
 20
3414.481100081326
 30
0.0
 11
3234.181641826319
 21
3443.476616300981
 31
0.0
1001
PE_URL
1000

  0
LINE
  5
13A14
330
1F
100
AcDbEntity
  8
0
100
AcDbLine
 10
4509.270169949988
 20
3414.481100081326
 30
0.0
 11
4506.734056640038
 21
3443.476616300981
 31
0.0
1001
PE_URL
1000

  0
LINE
  5
13A18
330
1F
100
AcDbEntity
  8
0
100
AcDbLine
 10
5131.645528516368
 20
3414.481100081327
 30
0.0
 11
5134.181641826319
 21
3443.476616300981
 31
0.0
1001
PE_URL
1000

  0
LINE
  5
13A1C
330
1F
100
AcDbEntity
  8
0
100
AcDbLine
 10
6609.270169949988
 20
3414.481100081327
 30
0.0
 11
6606.734056640038
 21
3443.476616300981
 31
0.0
1001
PE_URL
1000

  0
LINE
  5
13A20
330
1F
100
AcDbEntity
  8
0
100
AcDbLine
 10
7231.645528516368
 20
3414.481100081328
 30
0.0
 11
7234.181641826319
 21
3443.476616300983
 31
0.0
1001
PE_URL
1000

  0
LINE
  5
13A24
330
1F
100
AcDbEntity
  8
0
100
AcDbLine
 10
8909.270169949988
 20
3414.481100081328
 30
0.0
 11
8906.734056640038
 21
3443.476616300983
 31
0.0
1001
PE_URL
1000

  0
LINE
  5
13A28
330
1F
100
AcDbEntity
  8
0
100
AcDbLine
 10
9531.645528516368
 20
3414.481100081328
 30
0.0
 11
9534.181641826319
 21
3443.476616300983
 31
0.0
1001
PE_URL
1000

  0
LINE
  5
13A2C
330
1F
100
AcDbEntity
  8
0
100
AcDbLine
 10
11409.27016994999
 20
3414.481100081328
 30
0.0
 11
11406.73405664004
 21
3443.476616300983
 31
0.0
1001
PE_URL
1000

  0
LINE
  5
13A30
330
1F
100
AcDbEntity
  8
0
100
AcDbLine
 10
12031.64552851636
 20
3414.481100081328
 30
0.0
 11
12034.18164182632
 21
3443.476616300983
 31
0.0
1001
PE_URL
1000

  0
LINE
  5
13A34
330
1F
100
AcDbEntity
  8
0
100
AcDbLine
 10
12809.27016994999
 20
3414.481100081328
 30
0.0
 11
12806.73405664004
 21
3443.476616300983
 31
0.0
1001
PE_URL
1000

  0
ARC
  5
13A35
330
1F
100
AcDbEntity
  8
0
100
AcDbCircle
 10
1554.232620721403
 20
3395.380542752334
 30
0.0
 40
29.5805345550118
100
AcDbArc
 50
139.7807903278923
 51
210.2218203817142
1001
PE_URL
1000

  0
ARC
  5
13A36
330
1F
100
AcDbEntity
  8
0
100
AcDbCircle
 10
3254.232620721401
 20
3395.380542752371
 30
0.0
 40
29.5805345550118
100
AcDbArc
 50
139.780790327892
 51
210.2218203817142
1001
PE_URL
1000

  0
ARC
  5
13A37
330
1F
100
AcDbEntity
  8
0
100
AcDbCircle
 10
5154.23262072141
 20
3395.380542752256
 30
0.0
 40
29.5805345550118
100
AcDbArc
 50
139.780790327892
 51
210.2218203817146
1001
PE_URL
1000

  0
ARC
  5
13A38
330
1F
100
AcDbEntity
  8
0
100
AcDbCircle
 10
7254.232620721403
 20
3395.380542752337
 30
0.0
 40
29.5805345550118
100
AcDbArc
 50
139.780790327892
 51
210.2218203817146
1001
PE_URL
1000

  0
ARC
  5
13A39
330
1F
100
AcDbEntity
  8
0
100
AcDbCircle
 10
9554.23262072141
 20
3395.380542752257
 30
0.0
 40
29.5805345550118
100
AcDbArc
 50
139.780790327892
 51
210.2218203817137
1001
PE_URL
1000

  0
ARC
  5
13A3A
330
1F
100
AcDbEntity
  8
0
100
AcDbCircle
 10
12054.2326207214
 20
3395.380542752257
 30
0.0
 40
29.5805345550118
100
AcDbArc
 50
139.780790327892
 51
210.2218203817137
1001
PE_URL
1000

  0
ARC
  5
13A3B
330
1F
100
AcDbEntity
  8
0
100
AcDbCircle
 10
2586.68307774493
 20
3395.380542752256
 30
0.0
 40
29.5805345550118
100
AcDbArc
 50
329.7781796182858
 51
40.21920967210797
1001
PE_URL
1000

  0
ARC
  5
13A3C
330
1F
100
AcDbEntity
  8
0
100
AcDbCircle
 10
4486.683077744938
 20
3395.380542752338
 30
0.0
 40
29.5805345550118
100
AcDbArc
 50
329.7781796182863
 51
40.21920967210797
1001
PE_URL
1000

  0
ARC
  5
13A3D
330
1F
100
AcDbEntity
  8
0
100
AcDbCircle
 10
6586.68307774494
 20
3395.380542752338
 30
0.0
 40
29.5805345550118
100
AcDbArc
 50
329.7781796182838
 51
40.21920967210932
1001
PE_URL
1000

  0
ARC
  5
13A3E
330
1F
100
AcDbEntity
  8
0
100
AcDbCircle
 10
8886.683077744932
 20
3395.380542752258
 30
0.0
 40
29.5805345550118
100
AcDbArc
 50
329.7781796182822
 51
40.21920967210932
1001
PE_URL
1000

  0
ARC
  5
13A3F
330
1F
100
AcDbEntity
  8
0
100
AcDbCircle
 10
11386.68307774494
 20
3395.380542752338
 30
0.0
 40
29.5805345550118
100
AcDbArc
 50
329.7781796182822
 51
40.21920967210932
1001
PE_URL
1000

  0
ARC
  5
13A40
330
1F
100
AcDbEntity
  8
0
100
AcDbCircle
 10
12786.68307774494
 20
3395.380542752338
 30
0.0
 40
29.5805345550118
100
AcDbArc
 50
329.7781796182822
 51
40.21920967210932
1001
PE_URL
1000

  0
LWPOLYLINE
  5
13A67
330
1F
100
AcDbEntity
  8
0
100
AcDbPolyline
 90
       16
 70
     1
 43
0.0
 10
10494.40446038766
 20
10129.48623975347
 10
10485.06892648178
 20
10116.15070584761
 42
-0.1989123673805695
 10
10480.68486443841
 20
10114.33476789095
 10
10413.55854756438
 20
10114.33476789095
 42
-0.4787638836111662
 10
10407.50164208367
 20
10121.85911527654
 10
10422.99201823602
 20
10206.70438233893
 42
-0.8886147014526395
 10
10468.35643731366
 20
10201.33476789095
 10
10468.35643731366
 20
10191.33476789095
 10
10467.15643731366
 20
10191.33476789095
 10
10467.15643731366
 20
10201.33476789095
 42
0.8883672102828483
 10
10424.16167639533
 20
10206.43595496998
 10
10408.67394637026
 20
10121.6027899761
 42
0.4787638836111565
 10
10413.55854756438
 20
10115.53476789095
 10
10480.68486443841
 20
10115.53476789095
 42
0.1989123673805775
 10
10484.22039834435
 20
10116.99923398503
 10
10493.55593225023
 20
10130.3347678909
  0
LINE
  5
13A98
330
1F
100
AcDbEntity
  8
0
100
AcDbLine
 10
9438.19058444908
 20
10114.33476789095
 30
0.0
 11
9463.19058444908
 21
10114.33476789095
 31
0.0
1001
PE_URL
1000

  0
LINE
  5
13A99
330
1F
100
AcDbEntity
  8
0
100
AcDbLine
 10
9438.190584449072
 20
10196.33476789095
 30
0.0
 11
9438.19058444908
 21
10114.33476789095
 31
0.0
1001
PE_URL
1000

  0
LINE
  5
13A9A
330
1F
100
AcDbEntity
  8
0
100
AcDbLine
 10
9463.190584449072
 20
10196.33476789095
 30
0.0
 11
9463.19058444908
 21
10114.33476789095
 31
0.0
1001
PE_URL
1000

  0
LWPOLYLINE
  5
13A9B
330
1F
100
AcDbEntity
  8
0
100
AcDbPolyline
 90
        4
 70
     0
 43
0.0
 10
9463.19058444908
 20
10125.33476789092
 42
0.414213562373095
 10
9458.19058444908
 20
10130.33476789092
 10
9443.19058444908
 20
10130.33476789092
 42
0.414213562373095
 10
9438.19058444908
 20
10125.33476789092
1001
PE_URL
1000

  0
LWPOLYLINE
  5
13A9C
330
1F
100
AcDbEntity
  8
0
100
AcDbPolyline
 90
        6
 70
     1
 43
0.0
 10
10369.85643731366
 20
10130.3347678909
 10
10159.85643731366
 20
10130.33476789095
 42
0.4142135623731725
 10
10154.85643731366
 20
10125.33476789095
 10
10154.85643731366
 20
10114.33476789095
 10
10374.85643731366
 20
10114.33476789095
 10
10374.85643731366
 20
10125.3347678909
 42
0.4142135623730156
1001
PE_URL
1000

  0
LWPOLYLINE
  5
13A9D
330
1F
100
AcDbEntity
  8
0
100
AcDbPolyline
 90
        6
 70
     1
 43
0.0
 10
10154.85643731366
 20
10196.33476789095
 10
10154.85643731366
 20
10224.33476789095
 10
10374.85643731366
 20
10224.33476789095
 10
10374.85643731366
 20
10196.33476789095
 42
-0.4142135623730953
 10
10369.85643731366
 20
10191.33476789095
 10
10159.85643731366
 20
10191.33476789095
 42
-0.4142135623730953
1001
PE_URL
1000

  0
LINE
  5
13A9E
330
1F
100
AcDbEntity
  8
0
100
AcDbLine
 10
10154.85643731366
 20
10196.33476789095
 30
0.0
 11
10154.85643731366
 21
10125.33476789095
 31
0.0
1001
PE_URL
1000

  0
LINE
  5
13A9F
330
1F
100
AcDbEntity
  8
0
100
AcDbLine
 10
10374.85643731366
 20
10196.33476789095
 30
0.0
 11
10374.85643731366
 21
10125.33476789095
 31
0.0
1001
PE_URL
1000

  0
LWPOLYLINE
  5
13AA0
330
1F
100
AcDbEntity
  8
0
100
AcDbPolyline
 90
        8
 70
     1
 43
0.0
 10
8691.630437033276
 20
10130.33476789087
 10
8581.630437033276
 20
10130.33476789093
 42
0.4142135623731725
 10
8576.630437033276
 20
10125.33476789093
 10
8576.630437033276
 20
10026.33476789095
 42
0.4142135623730954
 10
8578.630437033276
 20
10024.33476789095
 10
8694.630437033276
 20
10024.33476789095
 42
0.4142135623730954
 10
8696.630437033276
 20
10026.33476789095
 10
8696.630437033276
 20
10125.33476789087
 42
0.4142135623730156
1001
PE_URL
1000

  0
LWPOLYLINE
  5
13AA1
330
1F
100
AcDbEntity
  8
0
100
AcDbPolyline
 90
        6
 70
     1
 43
0.0
 10
8576.630437033276
 20
10196.33476789095
 10
8576.630437033276
 20
10224.33476789095
 10
8696.630437033276
 20
10224.33476789095
 10
8696.630437033276
 20
10196.33476789095
 42
-0.4142135623730953
 10
8691.630437033276
 20
10191.33476789095
 10
8581.630437033276
 20
10191.33476789095
 42
-0.4142135623730953
1001
PE_URL
1000

  0
LINE
  5
13AA2
330
1F
100
AcDbEntity
  8
0
100
AcDbLine
 10
8576.630437033276
 20
10196.33476789095
 30
0.0
 11
8576.630437033276
 21
10125.33476789093
 31
0.0
1001
PE_URL
1000

  0
LINE
  5
13AA3
330
1F
100
AcDbEntity
  8
0
100
AcDbLine
 10
8696.630437033276
 20
10196.33476789095
 30
0.0
 11
8696.630437033276
 21
10125.33476789093
 31
0.0
1001
PE_URL
1000

  0
LWPOLYLINE
  5
13AA4
330
1F
100
AcDbEntity
  8
0
100
AcDbPolyline
 90
        6
 70
     1
 43
0.0
 10
9463.19058444908
 20
10224.33476789095
 10
9463.190584449072
 20
10196.33476789095
 42
-0.414213562373095
 10
9458.190584449072
 20
10191.33476789095
 10
9443.190584449072
 20
10191.33476789095
 42
-0.414213562373095
 10
9438.190584449072
 20
10196.33476789095
 10
9438.19058444908
 20
10224.33476789095
1001
PE_URL
1000

  0
LWPOLYLINE
  5
13AC3
330
1F
100
AcDbEntity
  8
0
100
AcDbPolyline
 90
       16
 70
     1
 43
0.0
 10
9655.490584449079
 20
10191.33476789095
 10
9655.490584449079
 20
10201.33476789095
 42
0.9987548958875978
 10
9611.890652125658
 20
10201.38908818426
 10
9619.36763224944
 20
10120.07692933813
 42
0.387604384765693
 10
9624.346626511291
 20
10115.53476789095
 10
9643.034542386864
 20
10115.53476789095
 42
0.3876043847657568
 10
9648.01353664872
 20
10120.07692933813
 10
9648.96689019405
 20
10130.33476789094
 10
9650.161848816893
 20
10130.22488663827
 10
9649.208495271563
 20
10119.96704808546
 42
-0.3876043847657568
 10
9643.034542386864
 20
10114.33476789094
 10
9624.346626511291
 20
10114.33476789095
 42
-0.387604384765693
 10
9618.172673626595
 20
10119.96704808546
 10
9610.69058444908
 20
10201.33476789095
 42
-0.9999999999999999
 10
9656.69058444908
 20
10201.33476789095
 10
9656.69058444908
 20
10191.33476789095
  0
LWPOLYLINE
  5
13BA3
330
1F
100
AcDbEntity
  8
0
100
AcDbPolyline
 90
       14
 70
     0
 43
0.0
 10
8796.630437033276
 20
10130.3347678909
 10
8850.97347794403
 20
10130.3347678909
 10
8852.16851638021
 20
10130.22575809295
 10
8843.023462488418
 20
10029.97155060157
 42
-0.3878141026848442
 10
8836.849097234812
 20
10024.33476789095
 10
8802.830437033277
 20
10024.33476789095
 42
-0.4142135623730953
 10
8796.630437033276
 20
10030.53476789095
 10
8796.630437033276
 20
10201.33476789095
 42
-0.9999999999999999
 10
8842.630437033276
 20
10201.33476789095
 10
8842.630437033276
 20
10191.33476789095
 10
8841.430437033276
 20
10191.33476789095
 10
8841.430437033276
 20
10201.33476789095
 42
0.9999999999999999
 10
8797.830437033277
 20
10201.33476789095
 10
8797.830437033277
 20
10130.3347678909
  0
ENDSEC
  0
SECTION
  2
OBJECTS
  0
DICTIONARY
  5
C
330
0
100
AcDbDictionary
281
     1
  3
ACAD_COLOR
350
770C
  3
ACAD_DETAILVIEWSTYLE
350
76E0
  3
ACAD_GROUP
350
D
  3
ACAD_LAYOUT
350
1A
  3
ACAD_MATERIAL
350
43
  3
ACAD_MLEADERSTYLE
350
6B
  3
ACAD_MLINESTYLE
350
17
  3
ACAD_PLOTSETTINGS
350
19
  3
ACAD_PLOTSTYLENAME
350
E
  3
ACAD_SCALELIST
350
47
  3
ACAD_SECTIONVIEWSTYLE
350
76E1
  3
ACAD_TABLESTYLE
350
69
  3
ACAD_VISUALSTYLE
350
2A
  3
ACDB_RECOMPOSE_DATA
350
13BF0
  3
AcDbVariableDictionary
350
76D8
  3
APPDATA
350
76E4
  0
SUN
  5
6D
330
29
100
AcDbSun
 90
        1
290
     0
 63
     7
421
 16777215
 40
1.0
291
     1
 91
  2455826
 92
 54000000
292
     0
 70
     2
 71
   256
280
     1
  0
DICTIONARY
  5
7B76
330
2
100
AcDbDictionary
280
     1
281
     1
  3
ACAD_LAYERSTATES
360
7B77
  0
DICTIONARY
  5
11586
330
1F
100
AcDbDictionary
280
     1
281
     1
  3
ACAD_SORTENTS
360
11587
  0
DICTIONARY
  5
770C
102
{ACAD_REACTORS
330
C
102
}
330
C
100
AcDbDictionary
281
     1
  0
DICTIONARY
  5
76E0
102
{ACAD_REACTORS
330
C
102
}
330
C
100
AcDbDictionary
281
     1
  0
DICTIONARY
  5
D
102
{ACAD_REACTORS
330
C
102
}
330
C
100
AcDbDictionary
281
     1
  0
DICTIONARY
  5
1A
102
{ACAD_REACTORS
330
C
102
}
330
C
100
AcDbDictionary
281
     1
  3
Layout1
350
1E
  3
Layout2
350
26
  3
Model
350
22
  0
DICTIONARY
  5
43
102
{ACAD_REACTORS
330
C
102
}
330
C
100
AcDbDictionary
281
     1
  3
ByBlock
350
45
  3
ByLayer
350
44
  3
Global
350
46
  0
DICTIONARY
  5
6B
102
{ACAD_REACTORS
330
C
102
}
330
C
100
AcDbDictionary
281
     1
  3
Standard
350
6C
  0
DICTIONARY
  5
17
102
{ACAD_REACTORS
330
C
102
}
330
C
100
AcDbDictionary
281
     1
  3
Standard
350
18
  0
DICTIONARY
  5
19
102
{ACAD_REACTORS
330
C
102
}
330
C
100
AcDbDictionary
281
     1
  0
ACDBDICTIONARYWDFLT
  5
E
102
{ACAD_REACTORS
330
C
102
}
330
C
100
AcDbDictionary
281
     1
  3
Normal
350
F
100
AcDbDictionaryWithDefault
340
F
  0
DICTIONARY
  5
47
102
{ACAD_REACTORS
330
C
102
}
330
C
100
AcDbDictionary
281
     1
  3
A0
350
48
  3
A1
350
49
  3
A2
350
4A
  3
A3
350
4B
  3
A4
350
4C
  3
A5
350
4D
  3
A6
350
4E
  3
A7
350
4F
  3
A8
350
50
  3
A9
350
51
  3
B0
350
52
  3
B1
350
53
  3
B2
350
54
  3
B3
350
55
  3
B4
350
56
  3
B5
350
57
  3
B6
350
58
  3
B7
350
59
  3
B8
350
5A
  3
B9
350
5B
  3
C0
350
5C
  3
C1
350
5D
  3
C2
350
5E
  3
C3
350
5F
  3
C4
350
60
  3
C5
350
61
  3
C6
350
62
  3
C7
350
63
  3
C8
350
64
  3
C9
350
65
  3
D0
350
66
  3
D1
350
67
  3
D2
350
68
  0
DICTIONARY
  5
76E1
102
{ACAD_REACTORS
330
C
102
}
330
C
100
AcDbDictionary
281
     1
  0
DICTIONARY
  5
69
102
{ACAD_REACTORS
330
C
102
}
330
C
100
AcDbDictionary
281
     1
  3
Standard
350
6A
  0
DICTIONARY
  5
2A
102
{ACAD_REACTORS
330
C
102
}
330
C
100
AcDbDictionary
281
     1
  3
2dWireframe
350
2F
  3
Basic
350
32
  3
Brighten
350
36
  3
ColorChange
350
3A
  3
Conceptual
350
34
  3
Dim
350
35
  3
EdgeColorOff
350
3D
  3
Facepattern
350
39
  3
Flat
350
2B
  3
FlatWithEdges
350
2C
  3
Gouraud
350
2D
  3
GouraudWithEdges
350
2E
  3
Hidden
350
31
  3
JitterOff
350
3B
  3
Linepattern
350
38
  3
OverhangOff
350
3C
  3
Realistic
350
33
  3
Shaded
350
42
  3
Shaded with edges
350
41
  3
Shades of Gray
350
3E
  3
Sketchy
350
3F
  3
Thicken
350
37
  3
Wireframe
350
30
  3
X-Ray
350
40
  0
XRECORD
  5
13BF0
102
{ACAD_REACTORS
330
C
102
}
330
C
100
AcDbXrecord
280
     1
 90
        1
330
6A
  0
DICTIONARY
  5
76D8
102
{ACAD_REACTORS
330
C
102
}
330
C
100
AcDbDictionary
281
     1
  3
CANNOSCALE
350
76D9
  3
CENTEREXE
350
76E2
  3
CENTERLTYPEFILE
350
76E3
  3
CMLEADERSTYLE
350
76DF
  3
CTABLESTYLE
350
76DE
  3
XCLIPFRAME
350
76E9
  0
DICTIONARY
  5
76E4
102
{ACAD_REACTORS
330
C
102
}
330
C
100
AcDbDictionary
281
     1
  0
DICTIONARY
  5
7B77
102
{ACAD_REACTORS
330
7B76
102
}
330
7B76
100
AcDbDictionary
281
     1
  0
SORTENTSTABLE
  5
11587
102
{ACAD_REACTORS
330
11586
102
}
330
11586
100
AcDbSortentsTable
330
1F
  0
LAYOUT
  5
1E
102
{ACAD_REACTORS
330
1A
102
}
330
1A
100
AcDbPlotSettings
  1

  2
none_device
  4

  6

 40
0.0
 41
0.0
 42
0.0
 43
0.0
 44
0.0
 45
0.0
 46
0.0
 47
0.0
 48
0.0
 49
0.0
140
0.0
141
0.0
142
1.0
143
1.0
 70
   688
 72
     1
 73
     0
 74
     5
  7

 75
    16
 76
     0
 77
     2
 78
   300
147
1.0
148
0.0
149
0.0
100
AcDbLayout
  1
Layout1
 70
     1
 71
     1
 10
0.0
 20
0.0
 11
420.0
 21
297.0
 12
0.0
 22
0.0
 32
0.0
 14
1.000000000000000E+20
 24
1.000000000000000E+20
 34
1.000000000000000E+20
 15
-1.000000000000000E+20
 25
-1.000000000000000E+20
 35
-1.000000000000000E+20
146
0.0
 13
0.0
 23
0.0
 33
0.0
 16
1.0
 26
0.0
 36
0.0
 17
0.0
 27
1.0
 37
0.0
 76
     0
330
1B
  0
LAYOUT
  5
26
102
{ACAD_REACTORS
330
1A
102
}
330
1A
100
AcDbPlotSettings
  1

  2
none_device
  4

  6

 40
0.0
 41
0.0
 42
0.0
 43
0.0
 44
0.0
 45
0.0
 46
0.0
 47
0.0
 48
0.0
 49
0.0
140
0.0
141
0.0
142
1.0
143
1.0
 70
   688
 72
     1
 73
     0
 74
     5
  7

 75
    16
 76
     0
 77
     2
 78
   300
147
1.0
148
0.0
149
0.0
100
AcDbLayout
  1
Layout2
 70
     1
 71
     2
 10
0.0
 20
0.0
 11
0.0
 21
0.0
 12
0.0
 22
0.0
 32
0.0
 14
0.0
 24
0.0
 34
0.0
 15
0.0
 25
0.0
 35
0.0
146
0.0
 13
0.0
 23
0.0
 33
0.0
 16
1.0
 26
0.0
 36
0.0
 17
0.0
 27
1.0
 37
0.0
 76
     0
330
23
  0
LAYOUT
  5
22
102
{ACAD_REACTORS
330
1A
102
}
330
1A
100
AcDbPlotSettings
  1

  2
none_device
  4
Letter_(8.50_x_11.00_Inches)
  6

 40
6.35
 41
6.35
 42
6.35000508
 43
6.35000508
 44
215.9
 45
279.4
 46
0.0
 47
0.0
 48
0.0
 49
0.0
140
0.0
141
0.0
142
1.0
143
1.0
 70
  1712
 72
     1
 73
     0
 74
     0
  7

 75
     0
 76
     0
 77
     2
 78
   300
147
1.0
148
0.0
149
0.0
100
AcDbLayout
  1
Model
 70
     1
 71
     0
 10
0.0
 20
0.0
 11
2100.0
 21
1485.0
 12
0.0
 22
0.0
 32
0.0
 14
460.4760900694055
 24
517.9490274821073
 34
0.0
 15
13615.47609485968
 25
11813.76908149682
 35
0.0
146
0.0
 13
0.0
 23
0.0
 33
0.0
 16
1.0
 26
0.0
 36
0.0
 17
0.0
 27
1.0
 37
0.0
 76
     0
330
1F
331
29
  0
MATERIAL
  5
45
102
{ACAD_REACTORS
330
43
102
}
330
43
100
AcDbMaterial
  1
ByBlock
 72
     1
 94
      127
  0
MATERIAL
  5
44
102
{ACAD_REACTORS
330
43
102
}
330
43
100
AcDbMaterial
  1
ByLayer
 72
     1
 94
      127
  0
MATERIAL
  5
46
102
{ACAD_REACTORS
330
43
102
}
330
43
100
AcDbMaterial
  1
Global
 72
     1
 94
      127
  0
MLEADERSTYLE
  5
6C
102
{ACAD_REACTORS
330
6B
102
}
330
6B
100
AcDbMLeaderStyle
179
     2
170
     2
171
     1
172
     0
 90
        2
 40
0.0
 41
0.0
173
     1
 91
-1056964608
340
14
 92
       -2
290
     1
 42
2.0
291
     1
 43
8.0
  3
Standard
341
0
 44
4.0
300

342
11
174
     1
178
     6
175
     1
176
     0
 93
-1056964608
 45
4.0
292
     0
297
     0
 46
4.0
343
0
 94
-1056964608
 47
1.0
 49
1.0
140
1.0
293
     1
141
0.0
294
     1
177
     0
142
1.0
295
     0
296
     0
143
3.75
271
     0
272
     9
273
     9
298
     0
  0
MLINESTYLE
  5
18
102
{ACAD_REACTORS
330
17
102
}
330
17
100
AcDbMlineStyle
  2
Standard
 70
     0
  3

 62
   256
 51
90.0
 52
90.0
 71
     2
 49
0.5
 62
   256
  6
BYLAYER
 49
-0.5
 62
   256
  6
BYLAYER
  0
ACDBPLACEHOLDER
  5
F
102
{ACAD_REACTORS
330
E
102
}
330
E
  0
SCALE
  5
48
102
{ACAD_REACTORS
330
47
102
}
330
47
100
AcDbScale
 70
     0
300
1:1
140
1.0
141
1.0
290
     1
  0
SCALE
  5
49
102
{ACAD_REACTORS
330
47
102
}
330
47
100
AcDbScale
 70
     0
300
1:2
140
1.0
141
2.0
290
     0
  0
SCALE
  5
4A
102
{ACAD_REACTORS
330
47
102
}
330
47
100
AcDbScale
 70
     0
300
1:4
140
1.0
141
4.0
290
     0
  0
SCALE
  5
4B
102
{ACAD_REACTORS
330
47
102
}
330
47
100
AcDbScale
 70
     0
300
1:5
140
1.0
141
5.0
290
     0
  0
SCALE
  5
4C
102
{ACAD_REACTORS
330
47
102
}
330
47
100
AcDbScale
 70
     0
300
1:8
140
1.0
141
8.0
290
     0
  0
SCALE
  5
4D
102
{ACAD_REACTORS
330
47
102
}
330
47
100
AcDbScale
 70
     0
300
1:10
140
1.0
141
10.0
290
     0
  0
SCALE
  5
4E
102
{ACAD_REACTORS
330
47
102
}
330
47
100
AcDbScale
 70
     0
300
1:16
140
1.0
141
16.0
290
     0
  0
SCALE
  5
4F
102
{ACAD_REACTORS
330
47
102
}
330
47
100
AcDbScale
 70
     0
300
1:20
140
1.0
141
20.0
290
     0
  0
SCALE
  5
50
102
{ACAD_REACTORS
330
47
102
}
330
47
100
AcDbScale
 70
     0
300
1:30
140
1.0
141
30.0
290
     0
  0
SCALE
  5
51
102
{ACAD_REACTORS
330
47
102
}
330
47
100
AcDbScale
 70
     0
300
1:40
140
1.0
141
40.0
290
     0
  0
SCALE
  5
52
102
{ACAD_REACTORS
330
47
102
}
330
47
100
AcDbScale
 70
     0
300
1:50
140
1.0
141
50.0
290
     0
  0
SCALE
  5
53
102
{ACAD_REACTORS
330
47
102
}
330
47
100
AcDbScale
 70
     0
300
1:100
140
1.0
141
100.0
290
     0
  0
SCALE
  5
54
102
{ACAD_REACTORS
330
47
102
}
330
47
100
AcDbScale
 70
     0
300
2:1
140
2.0
141
1.0
290
     0
  0
SCALE
  5
55
102
{ACAD_REACTORS
330
47
102
}
330
47
100
AcDbScale
 70
     0
300
4:1
140
4.0
141
1.0
290
     0
  0
SCALE
  5
56
102
{ACAD_REACTORS
330
47
102
}
330
47
100
AcDbScale
 70
     0
300
8:1
140
8.0
141
1.0
290
     0
  0
SCALE
  5
57
102
{ACAD_REACTORS
330
47
102
}
330
47
100
AcDbScale
 70
     0
300
10:1
140
10.0
141
1.0
290
     0
  0
SCALE
  5
58
102
{ACAD_REACTORS
330
47
102
}
330
47
100
AcDbScale
 70
     0
300
100:1
140
100.0
141
1.0
290
     0
  0
SCALE
  5
59
102
{ACAD_REACTORS
330
47
102
}
330
47
100
AcDbScale
 70
     0
300
1/128" = 1'-0"
140
0.0078125
141
12.0
290
     0
  0
SCALE
  5
5A
102
{ACAD_REACTORS
330
47
102
}
330
47
100
AcDbScale
 70
     0
300
1/64" = 1'-0"
140
0.015625
141
12.0
290
     0
  0
SCALE
  5
5B
102
{ACAD_REACTORS
330
47
102
}
330
47
100
AcDbScale
 70
     0
300
1/32" = 1'-0"
140
0.03125
141
12.0
290
     0
  0
SCALE
  5
5C
102
{ACAD_REACTORS
330
47
102
}
330
47
100
AcDbScale
 70
     0
300
1/16" = 1'-0"
140
0.0625
141
12.0
290
     0
  0
SCALE
  5
5D
102
{ACAD_REACTORS
330
47
102
}
330
47
100
AcDbScale
 70
     0
300
3/32" = 1'-0"
140
0.09375
141
12.0
290
     0
  0
SCALE
  5
5E
102
{ACAD_REACTORS
330
47
102
}
330
47
100
AcDbScale
 70
     0
300
1/8" = 1'-0"
140
0.125
141
12.0
290
     0
  0
SCALE
  5
5F
102
{ACAD_REACTORS
330
47
102
}
330
47
100
AcDbScale
 70
     0
300
3/16" = 1'-0"
140
0.1875
141
12.0
290
     0
  0
SCALE
  5
60
102
{ACAD_REACTORS
330
47
102
}
330
47
100
AcDbScale
 70
     0
300
1/4" = 1'-0"
140
0.25
141
12.0
290
     0
  0
SCALE
  5
61
102
{ACAD_REACTORS
330
47
102
}
330
47
100
AcDbScale
 70
     0
300
3/8" = 1'-0"
140
0.375
141
12.0
290
     0
  0
SCALE
  5
62
102
{ACAD_REACTORS
330
47
102
}
330
47
100
AcDbScale
 70
     0
300
1/2" = 1'-0"
140
0.5
141
12.0
290
     0
  0
SCALE
  5
63
102
{ACAD_REACTORS
330
47
102
}
330
47
100
AcDbScale
 70
     0
300
3/4" = 1'-0"
140
0.75
141
12.0
290
     0
  0
SCALE
  5
64
102
{ACAD_REACTORS
330
47
102
}
330
47
100
AcDbScale
 70
     0
300
1" = 1'-0"
140
1.0
141
12.0
290
     0
  0
SCALE
  5
65
102
{ACAD_REACTORS
330
47
102
}
330
47
100
AcDbScale
 70
     0
300
1-1/2" = 1'-0"
140
1.5
141
12.0
290
     0
  0
SCALE
  5
66
102
{ACAD_REACTORS
330
47
102
}
330
47
100
AcDbScale
 70
     0
300
3" = 1'-0"
140
3.0
141
12.0
290
     0
  0
SCALE
  5
67
102
{ACAD_REACTORS
330
47
102
}
330
47
100
AcDbScale
 70
     0
300
6" = 1'-0"
140
6.0
141
12.0
290
     0
  0
SCALE
  5
68
102
{ACAD_REACTORS
330
47
102
}
330
47
100
AcDbScale
 70
     0
300
1'-0" = 1'-0"
140
12.0
141
12.0
290
     0
  0
TABLESTYLE
  5
6A
102
{ACAD_REACTORS
330
69
102
}
102
{ACAD_XDICTIONARY
360
13BEE
102
}
330
69
100
AcDbTableStyle
  3
Standard
 70
     0
 71
     0
 40
1.5
 41
1.5
280
     0
281
     0
  7
Standard
140
4.5
170
     2
 62
     0
 63
   257
283
     0
 90
        4
 91
        0
  1

274
    -2
284
     1
 64
     0
275
    -2
285
     1
 65
     0
276
    -2
286
     1
 66
     0
277
    -2
287
     1
 67
     0
278
    -2
288
     1
 68
     0
279
    -2
289
     1
 69
     0
  7
Standard
140
6.0
170
     5
 62
     0
 63
   257
283
     0
 90
        4
 91
        0
  1

274
    -2
284
     1
 64
     0
275
    -2
285
     1
 65
     0
276
    -2
286
     1
 66
     0
277
    -2
287
     1
 67
     0
278
    -2
288
     1
 68
     0
279
    -2
289
     1
 69
     0
  7
Standard
140
4.5
170
     5
 62
     0
 63
   257
283
     0
 90
        4
 91
        0
  1

274
    -2
284
     1
 64
     0
275
    -2
285
     1
 65
     0
276
    -2
286
     1
 66
     0
277
    -2
287
     1
 67
     0
278
    -2
288
     1
 68
     0
279
    -2
289
     1
 69
     0
  0
VISUALSTYLE
  5
2F
102
{ACAD_REACTORS
330
2A
102
}
330
2A
100
AcDbVisualStyle
  2
2dWireframe
 70
     4
177
     3
291
     0
 70
    58
 90
        0
176
     1
 90
        2
176
     1
 90
        0
176
     1
 90
        0
176
     1
 40
0.6
176
     1
 40
30.0
176
     1
 62
     7
420
 16777215
176
     1
 90
        1
176
     1
 90
        4
176
     1
 62
     7
176
     1
 62
   257
176
     1
 90
        1
176
     1
 90
        1
176
     1
 40
1.0
176
     1
 90
        0
176
     1
 62
   257
176
     1
 40
1.0
176
     1
 90
        1
176
     1
 90
        6
176
     1
 90
        2
176
     1
 62
     7
176
     1
 90
        5
176
     1
 90
        0
176
     1
 90
        0
176
     1
290
     0
176
     1
 90
        1
176
     1
 40
0.0
176
     1
 90
        0
176
     1
290
     1
176
     1
290
     1
176
     1
290
     0
176
     1
290
     0
176
     1
290
     0
176
     1
290
     0
176
     1
290
     0
176
     1
290
     0
176
     1
290
     0
176
     1
 90
       50
176
     1
 40
0.0
176
     1
 40
1.0
176
     1
 90
        0
176
     1
 62
    18
420
        0
176
     1
 90
       50
176
     1
 90
        3
176
     1
 62
     5
420
      255
176
     1
290
     0
176
     1
 90
       50
176
     1
 90
       50
176
     1
 90
       50
176
     1
290
     0
176
     1
 90
       50
176
     1
 62
   256
176
     0
 40
1.0
176
     0
 90
        2
176
     1
  1
strokes_ogs.tif
176
     1
290
     0
176
     1
 40
1.0
176
     1
 40
1.0
176
     1
  0
VISUALSTYLE
  5
32
102
{ACAD_REACTORS
330
2A
102
}
330
2A
100
AcDbVisualStyle
  2
Basic
 70
     7
177
     3
291
     1
 70
    58
 90
        1
176
     1
 90
        0
176
     1
 90
        1
176
     1
 90
        0
176
     1
 40
0.6
176
     1
 40
30.0
176
     1
 62
     7
420
 16777215
176
     1
 90
        0
176
     1
 90
        4
176
     1
 62
     7
176
     1
 62
   257
176
     1
 90
        1
176
     1
 90
        1
176
     1
 40
1.0
176
     1
 90
        8
176
     1
 62
     7
176
     1
 40
1.0
176
     1
 90
        1
176
     1
 90
        6
176
     1
 90
        2
176
     1
 62
     7
176
     1
 90
        5
176
     1
 90
        0
176
     1
 90
        0
176
     1
290
     0
176
     1
 90
        1
176
     1
 40
0.0
176
     1
 90
        0
176
     1
290
     0
176
     1
290
     1
176
     1
290
     1
176
     1
290
     0
176
     1
290
     0
176
     1
290
     0
176
     1
290
     0
176
     1
290
     0
176
     1
290
     0
176
     1
 90
       50
176
     1
 40
0.0
176
     1
 40
1.0
176
     1
 90
        0
176
     1
 62
    18
420
        0
176
     1
 90
       50
176
     1
 90
        3
176
     1
 62
     5
420
      255
176
     1
290
     0
176
     1
 90
       50
176
     1
 90
       50
176
     1
 90
       50
176
     1
290
     0
176
     1
 90
       50
176
     1
 62
   256
176
     0
 40
1.0
176
     0
 90
        2
176
     1
  1
strokes_ogs.tif
176
     1
290
     0
176
     1
 40
1.0
176
     1
 40
1.0
176
     1
  0
VISUALSTYLE
  5
36
102
{ACAD_REACTORS
330
2A
102
}
330
2A
100
AcDbVisualStyle
  2
Brighten
 70
    12
177
     3
291
     1
 70
    58
 90
        2
176
     1
 90
        2
176
     1
 90
        0
176
     1
 90
        0
176
     1
 40
0.6
176
     1
 40
30.0
176
     1
 62
     7
420
 16777215
176
     1
 90
        1
176
     1
 90
        4
176
     1
 62
     7
176
     1
 62
   257
176
     1
 90
        1
176
     1
 90
        1
176
     1
 40
1.0
176
     1
 90
        8
176
     1
 62
     7
176
     1
 40
1.0
176
     1
 90
        1
176
     1
 90
        6
176
     1
 90
        2
176
     1
 62
     7
176
     1
 90
        5
176
     1
 90
        0
176
     1
 90
        0
176
     1
290
     0
176
     1
 90
        1
176
     1
 40
50.0
176
     1
 90
        0
176
     1
290
     0
176
     1
290
     1
176
     1
290
     1
176
     1
290
     0
176
     1
290
     0
176
     1
290
     0
176
     1
290
     0
176
     1
290
     0
176
     1
290
     0
176
     1
 90
       50
176
     1
 40
0.0
176
     1
 40
1.0
176
     1
 90
        0
176
     1
 62
    18
420
        0
176
     1
 90
       50
176
     1
 90
        3
176
     1
 62
     5
420
      255
176
     1
290
     0
176
     1
 90
       50
176
     1
 90
       50
176
     1
 90
       50
176
     1
290
     0
176
     1
 90
       50
176
     1
 62
   256
176
     0
 40
1.0
176
     0
 90
        2
176
     1
  1
strokes_ogs.tif
176
     1
290
     0
176
     1
 40
1.0
176
     1
 40
1.0
176
     1
  0
VISUALSTYLE
  5
3A
102
{ACAD_REACTORS
330
2A
102
}
330
2A
100
AcDbVisualStyle
  2
ColorChange
 70
    16
177
     3
291
     1
 70
    58
 90
        2
176
     1
 90
        2
176
     1
 90
        3
176
     1
 90
        0
176
     1
 40
0.6
176
     1
 40
30.0
176
     1
 62
     8
420
  8421504
176
     1
 90
        1
176
     1
 90
        4
176
     1
 62
     7
176
     1
 62
   257
176
     1
 90
        1
176
     1
 90
        1
176
     1
 40
1.0
176
     1
 90
        8
176
     1
 62
     8
420
  8421504
176
     1
 40
1.0
176
     1
 90
        1
176
     1
 90
        6
176
     1
 90
        2
176
     1
 62
     7
176
     1
 90
        5
176
     1
 90
        0
176
     1
 90
        0
176
     1
290
     0
176
     1
 90
        1
176
     1
 40
0.0
176
     1
 90
        0
176
     1
290
     0
176
     1
290
     1
176
     1
290
     1
176
     1
290
     0
176
     1
290
     0
176
     1
290
     0
176
     1
290
     0
176
     1
290
     0
176
     1
290
     0
176
     1
 90
       50
176
     1
 40
0.0
176
     1
 40
1.0
176
     1
 90
        0
176
     1
 62
    18
420
        0
176
     1
 90
       50
176
     1
 90
        3
176
     1
 62
     5
420
      255
176
     1
290
     0
176
     1
 90
       50
176
     1
 90
       50
176
     1
 90
       50
176
     1
290
     0
176
     1
 90
       50
176
     1
 62
   256
176
     0
 40
1.0
176
     0
 90
        2
176
     1
  1
strokes_ogs.tif
176
     1
290
     0
176
     1
 40
1.0
176
     1
 40
1.0
176
     1
  0
VISUALSTYLE
  5
34
102
{ACAD_REACTORS
330
2A
102
}
330
2A
100
AcDbVisualStyle
  2
Conceptual
 70
     9
177
     3
291
     0
 70
    58
 90
        3
176
     1
 90
        2
176
     1
 90
        0
176
     1
 90
        0
176
     1
 40
0.6
176
     1
 40
30.0
176
     1
 62
     7
420
 16777215
176
     1
 90
        2
176
     1
 90
        2
176
     1
 62
     7
176
     1
 62
   257
176
     1
 90
        1
176
     1
 90
        1
176
     1
 40
179.0
176
     1
 90
        8
176
     1
 62
     7
176
     1
 40
1.0
176
     1
 90
        1
176
     1
 90
        6
176
     1
 90
        2
176
     1
 62
     7
176
     1
 90
        3
176
     1
 90
        0
176
     1
 90
        0
176
     1
290
     0
176
     1
 90
        1
176
     1
 40
0.0
176
     1
 90
        0
176
     1
290
     0
176
     1
290
     1
176
     1
290
     1
176
     1
290
     0
176
     1
290
     0
176
     1
290
     0
176
     1
290
     0
176
     1
290
     0
176
     1
290
     0
176
     1
 90
       50
176
     1
 40
0.0
176
     1
 40
1.0
176
     1
 90
        0
176
     1
 62
    18
420
        0
176
     1
 90
       50
176
     1
 90
        3
176
     1
 62
     5
420
      255
176
     1
290
     0
176
     1
 90
       50
176
     1
 90
       50
176
     1
 90
       50
176
     1
290
     0
176
     1
 90
       50
176
     1
 62
   256
176
     0
 40
1.0
176
     0
 90
        2
176
     1
  1
strokes_ogs.tif
176
     1
290
     0
176
     1
 40
1.0
176
     1
 40
1.0
176
     1
  0
VISUALSTYLE
  5
35
102
{ACAD_REACTORS
330
2A
102
}
330
2A
100
AcDbVisualStyle
  2
Dim
 70
    11
177
     3
291
     1
 70
    58
 90
        2
176
     1
 90
        2
176
     1
 90
        0
176
     1
 90
        0
176
     1
 40
0.6
176
     1
 40
30.0
176
     1
 62
     7
420
 16777215
176
     1
 90
        1
176
     1
 90
        4
176
     1
 62
     7
176
     1
 62
   257
176
     1
 90
        1
176
     1
 90
        1
176
     1
 40
1.0
176
     1
 90
        8
176
     1
 62
     7
176
     1
 40
1.0
176
     1
 90
        1
176
     1
 90
        6
176
     1
 90
        2
176
     1
 62
     7
176
     1
 90
        5
176
     1
 90
        0
176
     1
 90
        0
176
     1
290
     0
176
     1
 90
        1
176
     1
 40
-50.0
176
     1
 90
        0
176
     1
290
     0
176
     1
290
     1
176
     1
290
     1
176
     1
290
     0
176
     1
290
     0
176
     1
290
     0
176
     1
290
     0
176
     1
290
     0
176
     1
290
     0
176
     1
 90
       50
176
     1
 40
0.0
176
     1
 40
1.0
176
     1
 90
        0
176
     1
 62
    18
420
        0
176
     1
 90
       50
176
     1
 90
        3
176
     1
 62
     5
420
      255
176
     1
290
     0
176
     1
 90
       50
176
     1
 90
       50
176
     1
 90
       50
176
     1
290
     0
176
     1
 90
       50
176
     1
 62
   256
176
     0
 40
1.0
176
     0
 90
        2
176
     1
  1
strokes_ogs.tif
176
     1
290
     0
176
     1
 40
1.0
176
     1
 40
1.0
176
     1
  0
VISUALSTYLE
  5
3D
102
{ACAD_REACTORS
330
2A
102
}
330
2A
100
AcDbVisualStyle
  2
EdgeColorOff
 70
    22
177
     3
291
     1
 70
    58
 90
        2
176
     1
 90
        2
176
     1
 90
        0
176
     1
 90
        0
176
     1
 40
0.6
176
     1
 40
30.0
176
     1
 62
     7
420
 16777215
176
     1
 90
        1
176
     1
 90
        4
176
     1
 62
     7
176
     1
 62
   257
176
     1
 90
        1
176
     1
 90
        1
176
     1
 40
1.0
176
     1
 90
        8
176
     1
 62
     7
176
     1
 40
1.0
176
     1
 90
        1
176
     1
 90
        6
176
     1
 90
        2
176
     1
 62
     7
176
     1
 90
        5
176
     1
 90
        0
176
     1
 90
        0
176
     1
290
     0
176
     1
 90
        1
176
     1
 40
0.0
176
     1
 90
        0
176
     1
290
     0
176
     1
290
     1
176
     1
290
     1
176
     1
290
     0
176
     1
290
     0
176
     1
290
     0
176
     1
290
     0
176
     1
290
     0
176
     1
290
     0
176
     1
 90
       50
176
     1
 40
0.0
176
     1
 40
1.0
176
     1
 90
        0
176
     1
 62
    18
420
        0
176
     1
 90
       50
176
     1
 90
        3
176
     1
 62
     5
420
      255
176
     1
290
     0
176
     1
 90
       50
176
     1
 90
       50
176
     1
 90
       50
176
     1
290
     0
176
     1
 90
       50
176
     1
 62
   256
176
     0
 40
1.0
176
     0
 90
        2
176
     1
  1
strokes_ogs.tif
176
     1
290
     0
176
     1
 40
1.0
176
     1
 40
1.0
176
     1
  0
VISUALSTYLE
  5
39
102
{ACAD_REACTORS
330
2A
102
}
330
2A
100
AcDbVisualStyle
  2
Facepattern
 70
    15
177
     3
291
     1
 70
    58
 90
        2
176
     1
 90
        2
176
     1
 90
        0
176
     1
 90
        0
176
     1
 40
0.6
176
     1
 40
30.0
176
     1
 62
     7
420
 16777215
176
     1
 90
        1
176
     1
 90
        4
176
     1
 62
     7
176
     1
 62
   257
176
     1
 90
        1
176
     1
 90
        1
176
     1
 40
1.0
176
     1
 90
        8
176
     1
 62
     7
176
     1
 40
1.0
176
     1
 90
        1
176
     1
 90
        6
176
     1
 90
        2
176
     1
 62
     7
176
     1
 90
        5
176
     1
 90
        0
176
     1
 90
        0
176
     1
290
     0
176
     1
 90
        1
176
     1
 40
0.0
176
     1
 90
        0
176
     1
290
     0
176
     1
290
     1
176
     1
290
     1
176
     1
290
     0
176
     1
290
     0
176
     1
290
     0
176
     1
290
     0
176
     1
290
     0
176
     1
290
     0
176
     1
 90
       50
176
     1
 40
0.0
176
     1
 40
1.0
176
     1
 90
        0
176
     1
 62
    18
420
        0
176
     1
 90
       50
176
     1
 90
        3
176
     1
 62
     5
420
      255
176
     1
290
     0
176
     1
 90
       50
176
     1
 90
       50
176
     1
 90
       50
176
     1
290
     0
176
     1
 90
       50
176
     1
 62
   256
176
     0
 40
1.0
176
     0
 90
        2
176
     1
  1
strokes_ogs.tif
176
     1
290
     0
176
     1
 40
1.0
176
     1
 40
1.0
176
     1
  0
VISUALSTYLE
  5
2B
102
{ACAD_REACTORS
330
2A
102
}
330
2A
100
AcDbVisualStyle
  2
Flat
 70
     0
177
     3
291
     1
 70
    58
 90
        2
176
     1
 90
        1
176
     1
 90
        1
176
     1
 90
        2
176
     1
 40
0.6
176
     1
 40
30.0
176
     1
 62
     7
420
 16777215
176
     1
 90
        0
176
     1
 90
        0
176
     1
 62
     7
176
     1
 62
   257
176
     1
 90
        1
176
     1
 90
        1
176
     1
 40
1.0
176
     1
 90
        8
176
     1
 62
     7
176
     1
 40
1.0
176
     1
 90
        1
176
     1
 90
        6
176
     1
 90
        2
176
     1
 62
     7
176
     1
 90
        5
176
     1
 90
        0
176
     1
 90
        0
176
     1
290
     0
176
     1
 90
       13
176
     1
 40
0.0
176
     1
 90
        0
176
     1
290
     0
176
     1
290
     1
176
     1
290
     1
176
     1
290
     0
176
     1
290
     0
176
     1
290
     0
176
     1
290
     0
176
     1
290
     0
176
     1
290
     0
176
     1
 90
       50
176
     1
 40
0.0
176
     1
 40
1.0
176
     1
 90
        0
176
     1
 62
    18
420
        0
176
     1
 90
       50
176
     1
 90
        3
176
     1
 62
     5
420
      255
176
     1
290
     0
176
     1
 90
       50
176
     1
 90
       50
176
     1
 90
       50
176
     1
290
     0
176
     1
 90
       50
176
     1
 62
   256
176
     0
 40
1.0
176
     0
 90
        2
176
     1
  1
strokes_ogs.tif
176
     1
290
     0
176
     1
 40
1.0
176
     1
 40
1.0
176
     1
  0
VISUALSTYLE
  5
2C
102
{ACAD_REACTORS
330
2A
102
}
330
2A
100
AcDbVisualStyle
  2
FlatWithEdges
 70
     1
177
     3
291
     1
 70
    58
 90
        2
176
     1
 90
        1
176
     1
 90
        1
176
     1
 90
        2
176
     1
 40
0.6
176
     1
 40
30.0
176
     1
 62
     7
420
 16777215
176
     1
 90
        1
176
     1
 90
        0
176
     1
 62
     7
176
     1
 62
   257
176
     1
 90
        1
176
     1
 90
        1
176
     1
 40
1.0
176
     1
 90
        0
176
     1
 62
   257
176
     1
 40
1.0
176
     1
 90
        1
176
     1
 90
        6
176
     1
 90
        2
176
     1
 62
     7
176
     1
 90
        5
176
     1
 90
        0
176
     1
 90
        0
176
     1
290
     0
176
     1
 90
       13
176
     1
 40
0.0
176
     1
 90
        0
176
     1
290
     0
176
     1
290
     1
176
     1
290
     1
176
     1
290
     0
176
     1
290
     0
176
     1
290
     0
176
     1
290
     0
176
     1
290
     0
176
     1
290
     0
176
     1
 90
       50
176
     1
 40
0.0
176
     1
 40
1.0
176
     1
 90
        0
176
     1
 62
    18
420
        0
176
     1
 90
       50
176
     1
 90
        3
176
     1
 62
     5
420
      255
176
     1
290
     0
176
     1
 90
       50
176
     1
 90
       50
176
     1
 90
       50
176
     1
290
     0
176
     1
 90
       50
176
     1
 62
   256
176
     0
 40
1.0
176
     0
 90
        2
176
     1
  1
strokes_ogs.tif
176
     1
290
     0
176
     1
 40
1.0
176
     1
 40
1.0
176
     1
  0
VISUALSTYLE
  5
2D
102
{ACAD_REACTORS
330
2A
102
}
330
2A
100
AcDbVisualStyle
  2
Gouraud
 70
     2
177
     3
291
     1
 70
    58
 90
        2
176
     1
 90
        2
176
     1
 90
        1
176
     1
 90
        2
176
     1
 40
0.6
176
     1
 40
30.0
176
     1
 62
     7
420
 16777215
176
     1
 90
        0
176
     1
 90
        0
176
     1
 62
     7
176
     1
 62
   257
176
     1
 90
        1
176
     1
 90
        1
176
     1
 40
1.0
176
     1
 90
        0
176
     1
 62
     7
176
     1
 40
1.0
176
     1
 90
        1
176
     1
 90
        6
176
     1
 90
        2
176
     1
 62
     7
176
     1
 90
        5
176
     1
 90
        0
176
     1
 90
        0
176
     1
290
     0
176
     1
 90
       13
176
     1
 40
0.0
176
     1
 90
        0
176
     1
290
     0
176
     1
290
     1
176
     1
290
     1
176
     1
290
     0
176
     1
290
     0
176
     1
290
     0
176
     1
290
     0
176
     1
290
     0
176
     1
290
     0
176
     1
 90
       50
176
     1
 40
0.0
176
     1
 40
1.0
176
     1
 90
        0
176
     1
 62
    18
420
        0
176
     1
 90
       50
176
     1
 90
        3
176
     1
 62
     5
420
      255
176
     1
290
     0
176
     1
 90
       50
176
     1
 90
       50
176
     1
 90
       50
176
     1
290
     0
176
     1
 90
       50
176
     1
 62
   256
176
     0
 40
1.0
176
     0
 90
        2
176
     1
  1
strokes_ogs.tif
176
     1
290
     0
176
     1
 40
1.0
176
     1
 40
1.0
176
     1
  0
VISUALSTYLE
  5
2E
102
{ACAD_REACTORS
330
2A
102
}
330
2A
100
AcDbVisualStyle
  2
GouraudWithEdges
 70
     3
177
     3
291
     1
 70
    58
 90
        2
176
     1
 90
        2
176
     1
 90
        1
176
     1
 90
        2
176
     1
 40
0.6
176
     1
 40
30.0
176
     1
 62
     7
420
 16777215
176
     1
 90
        1
176
     1
 90
        0
176
     1
 62
     7
176
     1
 62
   257
176
     1
 90
        1
176
     1
 90
        1
176
     1
 40
1.0
176
     1
 90
        0
176
     1
 62
   257
176
     1
 40
1.0
176
     1
 90
        1
176
     1
 90
        6
176
     1
 90
        2
176
     1
 62
     7
176
     1
 90
        5
176
     1
 90
        0
176
     1
 90
        0
176
     1
290
     0
176
     1
 90
       13
176
     1
 40
0.0
176
     1
 90
        0
176
     1
290
     0
176
     1
290
     1
176
     1
290
     1
176
     1
290
     0
176
     1
290
     0
176
     1
290
     0
176
     1
290
     0
176
     1
290
     0
176
     1
290
     0
176
     1
 90
       50
176
     1
 40
0.0
176
     1
 40
1.0
176
     1
 90
        0
176
     1
 62
    18
420
        0
176
     1
 90
       50
176
     1
 90
        3
176
     1
 62
     5
420
      255
176
     1
290
     0
176
     1
 90
       50
176
     1
 90
       50
176
     1
 90
       50
176
     1
290
     0
176
     1
 90
       50
176
     1
 62
   256
176
     0
 40
1.0
176
     0
 90
        2
176
     1
  1
strokes_ogs.tif
176
     1
290
     0
176
     1
 40
1.0
176
     1
 40
1.0
176
     1
  0
VISUALSTYLE
  5
31
102
{ACAD_REACTORS
330
2A
102
}
330
2A
100
AcDbVisualStyle
  2
Hidden
 70
     6
177
     3
291
     0
 70
    58
 90
        1
176
     1
 90
        2
176
     1
 90
        2
176
     1
 90
        0
176
     1
 40
0.6
176
     1
 40
30.0
176
     1
 62
     7
420
 16777215
176
     1
 90
        2
176
     1
 90
        2
176
     1
 62
     7
176
     1
 62
   257
176
     1
 90
        2
176
     1
 90
        1
176
     1
 40
40.0
176
     1
 90
        0
176
     1
 62
   257
176
     1
 40
1.0
176
     1
 90
        1
176
     1
 90
        6
176
     1
 90
        2
176
     1
 62
     7
176
     1
 90
        3
176
     1
 90
        0
176
     1
 90
        0
176
     1
290
     0
176
     1
 90
        1
176
     1
 40
0.0
176
     1
 90
        0
176
     1
290
     0
176
     1
290
     1
176
     1
290
     1
176
     1
290
     0
176
     1
290
     0
176
     1
290
     0
176
     1
290
     0
176
     1
290
     0
176
     1
290
     0
176
     1
 90
       50
176
     1
 40
0.0
176
     1
 40
1.0
176
     1
 90
        0
176
     1
 62
    18
420
        0
176
     1
 90
       50
176
     1
 90
        3
176
     1
 62
     5
420
      255
176
     1
290
     0
176
     1
 90
       50
176
     1
 90
       50
176
     1
 90
       50
176
     1
290
     0
176
     1
 90
       50
176
     1
 62
   256
176
     0
 40
1.0
176
     0
 90
        2
176
     1
  1
strokes_ogs.tif
176
     1
290
     0
176
     1
 40
1.0
176
     1
 40
1.0
176
     1
  0
VISUALSTYLE
  5
3B
102
{ACAD_REACTORS
330
2A
102
}
330
2A
100
AcDbVisualStyle
  2
JitterOff
 70
    20
177
     3
291
     1
 70
    58
 90
        2
176
     1
 90
        2
176
     1
 90
        0
176
     1
 90
        0
176
     1
 40
0.6
176
     1
 40
30.0
176
     1
 62
     7
420
 16777215
176
     1
 90
        1
176
     1
 90
        4
176
     1
 62
     7
176
     1
 62
   257
176
     1
 90
        1
176
     1
 90
        1
176
     1
 40
1.0
176
     1
 90
       10
176
     1
 62
     7
176
     1
 40
1.0
176
     1
 90
        1
176
     1
 90
        6
176
     1
 90
        2
176
     1
 62
     7
176
     1
 90
        5
176
     1
 90
        0
176
     1
 90
        0
176
     1
290
     0
176
     1
 90
        1
176
     1
 40
0.0
176
     1
 90
        0
176
     1
290
     0
176
     1
290
     1
176
     1
290
     1
176
     1
290
     0
176
     1
290
     0
176
     1
290
     0
176
     1
290
     0
176
     1
290
     0
176
     1
290
     0
176
     1
 90
       50
176
     1
 40
0.0
176
     1
 40
1.0
176
     1
 90
        0
176
     1
 62
    18
420
        0
176
     1
 90
       50
176
     1
 90
        3
176
     1
 62
     5
420
      255
176
     1
290
     0
176
     1
 90
       50
176
     1
 90
       50
176
     1
 90
       50
176
     1
290
     0
176
     1
 90
       50
176
     1
 62
   256
176
     0
 40
1.0
176
     0
 90
        2
176
     1
  1
strokes_ogs.tif
176
     1
290
     0
176
     1
 40
1.0
176
     1
 40
1.0
176
     1
  0
VISUALSTYLE
  5
38
102
{ACAD_REACTORS
330
2A
102
}
330
2A
100
AcDbVisualStyle
  2
Linepattern
 70
    14
177
     3
291
     1
 70
    58
 90
        2
176
     1
 90
        2
176
     1
 90
        0
176
     1
 90
        0
176
     1
 40
0.6
176
     1
 40
30.0
176
     1
 62
     7
420
 16777215
176
     1
 90
        1
176
     1
 90
        4
176
     1
 62
     7
176
     1
 62
   257
176
     1
 90
        7
176
     1
 90
        7
176
     1
 40
1.0
176
     1
 90
        8
176
     1
 62
     7
176
     1
 40
1.0
176
     1
 90
        1
176
     1
 90
        6
176
     1
 90
        2
176
     1
 62
     7
176
     1
 90
        5
176
     1
 90
        0
176
     1
 90
        0
176
     1
290
     0
176
     1
 90
        1
176
     1
 40
0.0
176
     1
 90
        0
176
     1
290
     0
176
     1
290
     1
176
     1
290
     1
176
     1
290
     0
176
     1
290
     0
176
     1
290
     0
176
     1
290
     0
176
     1
290
     0
176
     1
290
     0
176
     1
 90
       50
176
     1
 40
0.0
176
     1
 40
1.0
176
     1
 90
        0
176
     1
 62
    18
420
        0
176
     1
 90
       50
176
     1
 90
        3
176
     1
 62
     5
420
      255
176
     1
290
     0
176
     1
 90
       50
176
     1
 90
       50
176
     1
 90
       50
176
     1
290
     0
176
     1
 90
       50
176
     1
 62
   256
176
     0
 40
1.0
176
     0
 90
        2
176
     1
  1
strokes_ogs.tif
176
     1
290
     0
176
     1
 40
1.0
176
     1
 40
1.0
176
     1
  0
VISUALSTYLE
  5
3C
102
{ACAD_REACTORS
330
2A
102
}
330
2A
100
AcDbVisualStyle
  2
OverhangOff
 70
    21
177
     3
291
     1
 70
    58
 90
        2
176
     1
 90
        2
176
     1
 90
        0
176
     1
 90
        0
176
     1
 40
0.6
176
     1
 40
30.0
176
     1
 62
     7
420
 16777215
176
     1
 90
        1
176
     1
 90
        4
176
     1
 62
     7
176
     1
 62
   257
176
     1
 90
        1
176
     1
 90
        1
176
     1
 40
1.0
176
     1
 90
        9
176
     1
 62
     7
176
     1
 40
1.0
176
     1
 90
        1
176
     1
 90
        6
176
     1
 90
        2
176
     1
 62
     7
176
     1
 90
        5
176
     1
 90
        0
176
     1
 90
        0
176
     1
290
     0
176
     1
 90
        1
176
     1
 40
0.0
176
     1
 90
        0
176
     1
290
     0
176
     1
290
     1
176
     1
290
     1
176
     1
290
     0
176
     1
290
     0
176
     1
290
     0
176
     1
290
     0
176
     1
290
     0
176
     1
290
     0
176
     1
 90
       50
176
     1
 40
0.0
176
     1
 40
1.0
176
     1
 90
        0
176
     1
 62
    18
420
        0
176
     1
 90
       50
176
     1
 90
        3
176
     1
 62
     5
420
      255
176
     1
290
     0
176
     1
 90
       50
176
     1
 90
       50
176
     1
 90
       50
176
     1
290
     0
176
     1
 90
       50
176
     1
 62
   256
176
     0
 40
1.0
176
     0
 90
        2
176
     1
  1
strokes_ogs.tif
176
     1
290
     0
176
     1
 40
1.0
176
     1
 40
1.0
176
     1
  0
VISUALSTYLE
  5
33
102
{ACAD_REACTORS
330
2A
102
}
330
2A
100
AcDbVisualStyle
  2
Realistic
 70
     8
177
     3
291
     0
 70
    58
 90
        2
176
     1
 90
        3
176
     1
 90
        0
176
     1
 90
        2
176
     1
 40
0.6
176
     1
 40
30.0
176
     1
 62
     7
420
 16777215
176
     1
 90
        0
176
     1
 90
        0
176
     1
 62
     7
176
     1
 62
   257
176
     1
 90
        1
176
     1
 90
        1
176
     1
 40
1.0
176
     1
 90
        8
176
     1
 62
   257
176
     1
 40
1.0
176
     1
 90
        1
176
     1
 90
        6
176
     1
 90
        2
176
     1
 62
     7
176
     1
 90
        3
176
     1
 90
        0
176
     1
 90
        0
176
     1
290
     0
176
     1
 90
       13
176
     1
 40
0.0
176
     1
 90
        0
176
     1
290
     0
176
     1
290
     1
176
     1
290
     1
176
     1
290
     0
176
     1
290
     0
176
     1
290
     0
176
     1
290
     0
176
     1
290
     0
176
     1
290
     0
176
     1
 90
       50
176
     1
 40
0.0
176
     1
 40
1.0
176
     1
 90
        0
176
     1
 62
    18
420
        0
176
     1
 90
       50
176
     1
 90
        3
176
     1
 62
     5
420
      255
176
     1
290
     0
176
     1
 90
       50
176
     1
 90
       50
176
     1
 90
       50
176
     1
290
     0
176
     1
 90
       50
176
     1
 62
   256
176
     0
 40
1.0
176
     0
 90
        2
176
     1
  1
strokes_ogs.tif
176
     1
290
     0
176
     1
 40
1.0
176
     1
 40
1.0
176
     1
  0
VISUALSTYLE
  5
42
102
{ACAD_REACTORS
330
2A
102
}
330
2A
100
AcDbVisualStyle
  2
Shaded
 70
    27
177
     3
291
     0
 70
    58
 90
        2
176
     1
 90
        2
176
     1
 90
        1
176
     1
 90
        2
176
     1
 40
0.6
176
     1
 40
30.0
176
     1
 62
     7
420
 16777215
176
     1
 90
        0
176
     1
 90
        4
176
     1
 62
     7
176
     1
 62
   257
176
     1
 90
        1
176
     1
 90
        1
176
     1
 40
1.0
176
     1
 90
        8
176
     1
 62
   257
176
     1
 40
1.0
176
     1
 90
        1
176
     1
 90
        6
176
     1
 90
        2
176
     1
 62
     8
420
  7895160
176
     1
 90
        3
176
     1
 90
        0
176
     1
 90
        0
176
     1
290
     0
176
     1
 90
        5
176
     1
 40
0.0
176
     1
 90
        0
176
     1
290
     0
176
     1
290
     1
176
     1
290
     1
176
     1
290
     0
176
     1
290
     0
176
     1
290
     0
176
     1
290
     0
176
     1
290
     0
176
     1
290
     0
176
     1
 90
       50
176
     1
 40
0.0
176
     1
 40
1.0
176
     1
 90
        0
176
     1
 62
    18
420
        0
176
     1
 90
       50
176
     1
 90
        3
176
     1
 62
     5
420
      255
176
     1
290
     0
176
     1
 90
       50
176
     1
 90
       50
176
     1
 90
       50
176
     1
290
     0
176
     1
 90
       50
176
     1
 62
   256
176
     0
 40
1.0
176
     0
 90
        2
176
     1
  1
strokes_ogs.tif
176
     1
290
     0
176
     1
 40
1.0
176
     1
 40
1.0
176
     1
  0
VISUALSTYLE
  5
41
102
{ACAD_REACTORS
330
2A
102
}
330
2A
100
AcDbVisualStyle
  2
Shaded with edges
 70
    26
177
     3
291
     0
 70
    58
 90
        2
176
     1
 90
        2
176
     1
 90
        1
176
     1
 90
        2
176
     1
 40
0.6
176
     1
 40
30.0
176
     1
 62
     7
420
 16777215
176
     1
 90
        1
176
     1
 90
       10
176
     1
 62
     7
176
     1
 62
   257
176
     1
 90
        2
176
     1
 90
        1
176
     1
 40
1.0
176
     1
 90
        8
176
     1
 62
   257
176
     1
 40
1.0
176
     1
 90
        1
176
     1
 90
        6
176
     1
 90
        2
176
     1
 62
     7
176
     1
 90
        3
176
     1
 90
        0
176
     1
 90
        0
176
     1
290
     0
176
     1
 90
        5
176
     1
 40
0.0
176
     1
 90
        0
176
     1
290
     0
176
     1
290
     1
176
     1
290
     1
176
     1
290
     0
176
     1
290
     0
176
     1
290
     0
176
     1
290
     0
176
     1
290
     0
176
     1
290
     0
176
     1
 90
       50
176
     1
 40
0.0
176
     1
 40
1.0
176
     1
 90
        0
176
     1
 62
    18
420
        0
176
     1
 90
       50
176
     1
 90
        3
176
     1
 62
     5
420
      255
176
     1
290
     0
176
     1
 90
       50
176
     1
 90
       50
176
     1
 90
       50
176
     1
290
     0
176
     1
 90
       50
176
     1
 62
   256
176
     0
 40
1.0
176
     0
 90
        2
176
     1
  1
strokes_ogs.tif
176
     1
290
     0
176
     1
 40
1.0
176
     1
 40
1.0
176
     1
  0
VISUALSTYLE
  5
3E
102
{ACAD_REACTORS
330
2A
102
}
330
2A
100
AcDbVisualStyle
  2
Shades of Gray
 70
    23
177
     3
291
     0
 70
    58
 90
        2
176
     1
 90
        2
176
     1
 90
        3
176
     1
 90
        0
176
     1
 40
0.6
176
     1
 40
30.0
176
     1
 62
     7
420
 16777215
176
     1
 90
        2
176
     1
 90
        2
176
     1
 62
     7
176
     1
 62
     7
176
     1
 90
        1
176
     1
 90
        1
176
     1
 40
40.0
176
     1
 90
        8
176
     1
 62
     7
176
     1
 40
1.0
176
     1
 90
        1
176
     1
 90
        6
176
     1
 90
        2
176
     1
 62
     7
176
     1
 90
        3
176
     1
 90
        0
176
     1
 90
        0
176
     1
290
     0
176
     1
 90
        1
176
     1
 40
0.0
176
     1
 90
        0
176
     1
290
     0
176
     1
290
     1
176
     1
290
     1
176
     1
290
     0
176
     1
290
     0
176
     1
290
     0
176
     1
290
     0
176
     1
290
     0
176
     1
290
     0
176
     1
 90
       50
176
     1
 40
0.0
176
     1
 40
1.0
176
     1
 90
        0
176
     1
 62
    18
420
        0
176
     1
 90
       50
176
     1
 90
        3
176
     1
 62
     5
420
      255
176
     1
290
     0
176
     1
 90
       50
176
     1
 90
       50
176
     1
 90
       50
176
     1
290
     0
176
     1
 90
       50
176
     1
 62
   256
176
     0
 40
1.0
176
     0
 90
        2
176
     1
  1
strokes_ogs.tif
176
     1
290
     0
176
     1
 40
1.0
176
     1
 40
1.0
176
     1
  0
VISUALSTYLE
  5
3F
102
{ACAD_REACTORS
330
2A
102
}
330
2A
100
AcDbVisualStyle
  2
Sketchy
 70
    24
177
     3
291
     0
 70
    58
 90
        1
176
     1
 90
        2
176
     1
 90
        2
176
     1
 90
        0
176
     1
 40
0.6
176
     1
 40
30.0
176
     1
 62
     7
420
 16777215
176
     1
 90
        2
176
     1
 90
        2
176
     1
 62
     7
176
     1
 62
     7
176
     1
 90
        1
176
     1
 90
        1
176
     1
 40
40.0
176
     1
 90
       11
176
     1
 62
     7
176
     1
 40
1.0
176
     1
 90
        1
176
     1
 90
        6
176
     1
 90
        2
176
     1
 62
     7
176
     1
 90
        6
176
     1
 90
        0
176
     1
 90
        0
176
     1
290
     0
176
     1
 90
        1
176
     1
 40
0.0
176
     1
 90
        0
176
     1
290
     0
176
     1
290
     1
176
     1
290
     1
176
     1
290
     0
176
     1
290
     0
176
     1
290
     0
176
     1
290
     0
176
     1
290
     0
176
     1
290
     0
176
     1
 90
       50
176
     1
 40
0.0
176
     1
 40
1.0
176
     1
 90
        0
176
     1
 62
    18
420
        0
176
     1
 90
       50
176
     1
 90
        3
176
     1
 62
     5
420
      255
176
     1
290
     0
176
     1
 90
       50
176
     1
 90
       50
176
     1
 90
       50
176
     1
290
     0
176
     1
 90
       50
176
     1
 62
   256
176
     0
 40
1.0
176
     0
 90
        2
176
     1
  1
strokes_ogs.tif
176
     1
290
     0
176
     1
 40
1.0
176
     1
 40
1.0
176
     1
  0
VISUALSTYLE
  5
37
102
{ACAD_REACTORS
330
2A
102
}
330
2A
100
AcDbVisualStyle
  2
Thicken
 70
    13
177
     3
291
     1
 70
    58
 90
        2
176
     1
 90
        2
176
     1
 90
        0
176
     1
 90
        0
176
     1
 40
0.6
176
     1
 40
30.0
176
     1
 62
     7
420
 16777215
176
     1
 90
        1
176
     1
 90
        4
176
     1
 62
     7
176
     1
 62
   257
176
     1
 90
        1
176
     1
 90
        1
176
     1
 40
1.0
176
     1
 90
       12
176
     1
 62
     7
176
     1
 40
1.0
176
     1
 90
        1
176
     1
 90
        6
176
     1
 90
        2
176
     1
 62
     7
176
     1
 90
        5
176
     1
 90
        0
176
     1
 90
        0
176
     1
290
     0
176
     1
 90
        1
176
     1
 40
0.0
176
     1
 90
        0
176
     1
290
     0
176
     1
290
     1
176
     1
290
     1
176
     1
290
     0
176
     1
290
     0
176
     1
290
     0
176
     1
290
     0
176
     1
290
     0
176
     1
290
     0
176
     1
 90
       50
176
     1
 40
0.0
176
     1
 40
1.0
176
     1
 90
        0
176
     1
 62
    18
420
        0
176
     1
 90
       50
176
     1
 90
        3
176
     1
 62
     5
420
      255
176
     1
290
     0
176
     1
 90
       50
176
     1
 90
       50
176
     1
 90
       50
176
     1
290
     0
176
     1
 90
       50
176
     1
 62
   256
176
     0
 40
1.0
176
     0
 90
        2
176
     1
  1
strokes_ogs.tif
176
     1
290
     0
176
     1
 40
1.0
176
     1
 40
1.0
176
     1
  0
VISUALSTYLE
  5
30
102
{ACAD_REACTORS
330
2A
102
}
330
2A
100
AcDbVisualStyle
  2
Wireframe
 70
     5
177
     3
291
     0
 70
    58
 90
        0
176
     1
 90
        2
176
     1
 90
        0
176
     1
 90
        0
176
     1
 40
0.6
176
     1
 40
30.0
176
     1
 62
     7
420
 16777215
176
     1
 90
        1
176
     1
 90
        4
176
     1
 62
     7
176
     1
 62
   257
176
     1
 90
        1
176
     1
 90
        1
176
     1
 40
1.0
176
     1
 90
        0
176
     1
 62
   257
176
     1
 40
1.0
176
     1
 90
        1
176
     1
 90
        6
176
     1
 90
        2
176
     1
 62
     7
176
     1
 90
        3
176
     1
 90
        0
176
     1
 90
        0
176
     1
290
     0
176
     1
 90
        1
176
     1
 40
0.0
176
     1
 90
        0
176
     1
290
     0
176
     1
290
     1
176
     1
290
     1
176
     1
290
     0
176
     1
290
     0
176
     1
290
     0
176
     1
290
     0
176
     1
290
     0
176
     1
290
     0
176
     1
 90
       50
176
     1
 40
0.0
176
     1
 40
1.0
176
     1
 90
        0
176
     1
 62
    18
420
        0
176
     1
 90
       50
176
     1
 90
        3
176
     1
 62
     5
420
      255
176
     1
290
     0
176
     1
 90
       50
176
     1
 90
       50
176
     1
 90
       50
176
     1
290
     0
176
     1
 90
       50
176
     1
 62
   256
176
     0
 40
1.0
176
     0
 90
        2
176
     1
  1
strokes_ogs.tif
176
     1
290
     0
176
     1
 40
1.0
176
     1
 40
1.0
176
     1
  0
VISUALSTYLE
  5
40
102
{ACAD_REACTORS
330
2A
102
}
330
2A
100
AcDbVisualStyle
  2
X-Ray
 70
    25
177
     3
291
     0
 70
    58
 90
        2
176
     1
 90
        2
176
     1
 90
        1
176
     1
 90
        1
176
     1
 40
0.5
176
     1
 40
30.0
176
     1
 62
     7
420
 16777215
176
     1
 90
        1
176
     1
 90
        0
176
     1
 62
     7
176
     1
 62
   257
176
     1
 90
        1
176
     1
 90
        1
176
     1
 40
1.0
176
     1
 90
        8
176
     1
 62
     7
176
     1
 40
1.0
176
     1
 90
        1
176
     1
 90
        6
176
     1
 90
        2
176
     1
 62
     7
176
     1
 90
        3
176
     1
 90
        0
176
     1
 90
        0
176
     1
290
     0
176
     1
 90
       13
176
     1
 40
0.0
176
     1
 90
        0
176
     1
290
     0
176
     1
290
     1
176
     1
290
     1
176
     1
290
     0
176
     1
290
     0
176
     1
290
     0
176
     1
290
     0
176
     1
290
     0
176
     1
290
     0
176
     1
 90
       50
176
     1
 40
0.0
176
     1
 40
1.0
176
     1
 90
        0
176
     1
 62
    18
420
        0
176
     1
 90
       50
176
     1
 90
        3
176
     1
 62
     5
420
      255
176
     1
290
     0
176
     1
 90
       50
176
     1
 90
       50
176
     1
 90
       50
176
     1
290
     0
176
     1
 90
       50
176
     1
 62
   256
176
     0
 40
1.0
176
     0
 90
        2
176
     1
  1
strokes_ogs.tif
176
     1
290
     0
176
     1
 40
1.0
176
     1
 40
1.0
176
     1
  0
DICTIONARYVAR
  5
76D9
102
{ACAD_REACTORS
330
76D8
102
}
330
76D8
100
DictionaryVariables
280
     0
  1
1:1
  0
DICTIONARYVAR
  5
76E2
102
{ACAD_REACTORS
330
76D8
102
}
330
76D8
100
DictionaryVariables
280
     0
  1
3.500000
  0
DICTIONARYVAR
  5
76E3
102
{ACAD_REACTORS
330
76D8
102
}
330
76D8
100
DictionaryVariables
280
     0
  1
acadiso.lin
  0
DICTIONARYVAR
  5
76DF
102
{ACAD_REACTORS
330
76D8
102
}
330
76D8
100
DictionaryVariables
280
     0
  1
Standard
  0
DICTIONARYVAR
  5
76DE
102
{ACAD_REACTORS
330
76D8
102
}
330
76D8
100
DictionaryVariables
280
     0
  1
Standard
  0
DICTIONARYVAR
  5
76E9
102
{ACAD_REACTORS
330
76D8
102
}
330
76D8
100
DictionaryVariables
280
     0
  1
0
  0
DICTIONARY
  5
13BEE
330
6A
100
AcDbDictionary
280
     1
281
     1
  3
ACAD_ROUNDTRIP_2008_TABLESTYLE_CELLSTYLEMAP
360
13BEF
  0
CELLSTYLEMAP
  5
13BEF
102
{ACAD_REACTORS
330
13BEE
102
}
330
13BEE
100
AcDbCellStyleMap
 90
        3
300
CELLSTYLE
  1
TABLEFORMAT_BEGIN
 90
        5
170
     1
 91
        0
 92
    32768
 62
   257
 93
        1
300
CONTENTFORMAT
  1
CONTENTFORMAT_BEGIN
 90
        0
 91
        0
 92
        4
 93
        0
300

 40
0.0
140
1.0
 94
        5
 62
     0
340
11
144
6.0
309
CONTENTFORMAT_END
171
     1
301
MARGIN
  1
CELLMARGIN_BEGIN
 40
1.5
 40
1.5
 40
1.5
 40
1.5
 40
1.5
 40
1.5
309
CELLMARGIN_END
 94
        6
 95
        1
302
GRIDFORMAT
  1
GRIDFORMAT_BEGIN
 90
        0
 91
        1
 62
     0
 92
       -2
340
14
 93
        0
 40
0.045
309
GRIDFORMAT_END
 95
        2
302
GRIDFORMAT
  1
GRIDFORMAT_BEGIN
 90
        0
 91
        1
 62
     0
 92
       -2
340
14
 93
        0
 40
0.045
309
GRIDFORMAT_END
 95
        4
302
GRIDFORMAT
  1
GRIDFORMAT_BEGIN
 90
        0
 91
        1
 62
     0
 92
       -2
340
14
 93
        0
 40
0.045
309
GRIDFORMAT_END
 95
        8
302
GRIDFORMAT
  1
GRIDFORMAT_BEGIN
 90
        0
 91
        1
 62
     0
 92
       -2
340
14
 93
        0
 40
0.045
309
GRIDFORMAT_END
 95
       16
302
GRIDFORMAT
  1
GRIDFORMAT_BEGIN
 90
        0
 91
        1
 62
     0
 92
       -2
340
14
 93
        0
 40
0.045
309
GRIDFORMAT_END
 95
       32
302
GRIDFORMAT
  1
GRIDFORMAT_BEGIN
 90
        0
 91
        1
 62
     0
 92
       -2
340
14
 93
        0
 40
0.045
309
GRIDFORMAT_END
309
TABLEFORMAT_END
  1
CELLSTYLE_BEGIN
 90
        1
 91
        1
300
_TITLE
309
CELLSTYLE_END
300
CELLSTYLE
  1
TABLEFORMAT_BEGIN
 90
        5
170
     1
 91
        0
 92
        0
 62
   257
 93
        1
300
CONTENTFORMAT
  1
CONTENTFORMAT_BEGIN
 90
        0
 91
        0
 92
        4
 93
        0
300

 40
0.0
140
1.0
 94
        5
 62
     0
340
11
144
4.5
309
CONTENTFORMAT_END
171
     1
301
MARGIN
  1
CELLMARGIN_BEGIN
 40
1.5
 40
1.5
 40
1.5
 40
1.5
 40
1.5
 40
1.5
309
CELLMARGIN_END
 94
        6
 95
        1
302
GRIDFORMAT
  1
GRIDFORMAT_BEGIN
 90
        0
 91
        1
 62
     0
 92
       -2
340
14
 93
        0
 40
0.045
309
GRIDFORMAT_END
 95
        2
302
GRIDFORMAT
  1
GRIDFORMAT_BEGIN
 90
        0
 91
        1
 62
     0
 92
       -2
340
14
 93
        0
 40
0.045
309
GRIDFORMAT_END
 95
        4
302
GRIDFORMAT
  1
GRIDFORMAT_BEGIN
 90
        0
 91
        1
 62
     0
 92
       -2
340
14
 93
        0
 40
0.045
309
GRIDFORMAT_END
 95
        8
302
GRIDFORMAT
  1
GRIDFORMAT_BEGIN
 90
        0
 91
        1
 62
     0
 92
       -2
340
14
 93
        0
 40
0.045
309
GRIDFORMAT_END
 95
       16
302
GRIDFORMAT
  1
GRIDFORMAT_BEGIN
 90
        0
 91
        1
 62
     0
 92
       -2
340
14
 93
        0
 40
0.045
309
GRIDFORMAT_END
 95
       32
302
GRIDFORMAT
  1
GRIDFORMAT_BEGIN
 90
        0
 91
        1
 62
     0
 92
       -2
340
14
 93
        0
 40
0.045
309
GRIDFORMAT_END
309
TABLEFORMAT_END
  1
CELLSTYLE_BEGIN
 90
        2
 91
        1
300
_HEADER
309
CELLSTYLE_END
300
CELLSTYLE
  1
TABLEFORMAT_BEGIN
 90
        5
170
     1
 91
        0
 92
        0
 62
   257
 93
        1
300
CONTENTFORMAT
  1
CONTENTFORMAT_BEGIN
 90
        0
 91
        0
 92
        4
 93
        0
300

 40
0.0
140
1.0
 94
        2
 62
     0
340
11
144
4.5
309
CONTENTFORMAT_END
171
     1
301
MARGIN
  1
CELLMARGIN_BEGIN
 40
1.5
 40
1.5
 40
1.5
 40
1.5
 40
1.5
 40
1.5
309
CELLMARGIN_END
 94
        6
 95
        1
302
GRIDFORMAT
  1
GRIDFORMAT_BEGIN
 90
        0
 91
        1
 62
     0
 92
       -2
340
14
 93
        0
 40
0.045
309
GRIDFORMAT_END
 95
        2
302
GRIDFORMAT
  1
GRIDFORMAT_BEGIN
 90
        0
 91
        1
 62
     0
 92
       -2
340
14
 93
        0
 40
0.045
309
GRIDFORMAT_END
 95
        4
302
GRIDFORMAT
  1
GRIDFORMAT_BEGIN
 90
        0
 91
        1
 62
     0
 92
       -2
340
14
 93
        0
 40
0.045
309
GRIDFORMAT_END
 95
        8
302
GRIDFORMAT
  1
GRIDFORMAT_BEGIN
 90
        0
 91
        1
 62
     0
 92
       -2
340
14
 93
        0
 40
0.045
309
GRIDFORMAT_END
 95
       16
302
GRIDFORMAT
  1
GRIDFORMAT_BEGIN
 90
        0
 91
        1
 62
     0
 92
       -2
340
14
 93
        0
 40
0.045
309
GRIDFORMAT_END
 95
       32
302
GRIDFORMAT
  1
GRIDFORMAT_BEGIN
 90
        0
 91
        1
 62
     0
 92
       -2
340
14
 93
        0
 40
0.045
309
GRIDFORMAT_END
309
TABLEFORMAT_END
  1
CELLSTYLE_BEGIN
 90
        3
 91
        2
300
_DATA
309
CELLSTYLE_END
  0
ENDSEC
  0
EOF
