  0
SECTION
  2
HEADER
  9
$ACADVER
  1
AC1009
  9
$DWGCODEPAGE
  3
ansi_1252
  9
$INSBASE
 10
0.0
 20
0.0
 30
0.0
  9
$EXTMIN
 10
-0.000000000007276
 20
0.0
 30
0.0
  9
$EXTMAX
 10
34375.89773943181
 20
17955.95716581255
 30
0.0
  9
$LIMMIN
 10
0.0
 20
0.0
  9
$LIMMAX
 10
12.0
 20
9.0
  9
$ORTHOMODE
 70
     1
  9
$REGENMODE
 70
     1
  9
$FILLMODE
 70
     1
  9
$QTEXTMODE
 70
     0
  9
$MIRRTEXT
 70
     0
  9
$DRAGMODE
 70
     2
  9
$LTSCALE
 40
5.0
  9
$OSMODE
 70
 16383
  9
$ATTMODE
 70
     2
  9
$TEXTSIZE
 40
19.0
  9
$TRACEWID
 40
0.05
  9
$TEXTSTYLE
  7
STILE1
  9
$CLAYER
  8
0
  9
$CELTYPE
  6
BYLAYER
  9
$CECOLOR
 62
   256
  9
$DIMSCALE
 40
20.0
  9
$DIMASZ
 40
2.5
  9
$DIMEXO
 40
1.0
  9
$DIMDLI
 40
0.0
  9
$DIMRND
 40
0.0
  9
$DIMDLE
 40
0.0
  9
$DIMEXE
 40
1.0
  9
$DIMTP
 40
0.0
  9
$DIMTM
 40
0.0
  9
$DIMTXT
 40
2.5
  9
$DIMCEN
 40
1.0
  9
$DIMTSZ
 40
0.0
  9
$DIMTOL
 70
     0
  9
$DIMLIM
 70
     0
  9
$DIMTIH
 70
     0
  9
$DIMTOH
 70
     0
  9
$DIMSE1
 70
     0
  9
$DIMSE2
 70
     0
  9
$DIMTAD
 70
     1
  9
$DIMZIN
 70
     8
  9
$DIMBLK
  1

  9
$DIMASO
 70
     1
  9
$DIMSHO
 70
     0
  9
$DIMPOST
  1

  9
$DIMAPOST
  1

  9
$DIMALT
 70
     0
  9
$DIMALTD
 70
     2
  9
$DIMALTF
 40
25.4
  9
$DIMLFAC
 40
1.0
  9
$DIMTOFL
 70
     1
  9
$DIMTVP
 40
0.0
  9
$DIMTIX
 70
     1
  9
$DIMSOXD
 70
     0
  9
$DIMSAH
 70
     0
  9
$DIMBLK1
  1

  9
$DIMBLK2
  1

  9
$DIMSTYLE
  2
STANDARD
  9
$DIMCLRD
 70
     0
  9
$DIMCLRE
 70
     0
  9
$DIMCLRT
 70
     0
  9
$DIMTFAC
 40
1.0
  9
$DIMGAP
 40
1.5
  9
$LUNITS
 70
     2
  9
$LUPREC
 70
     4
  9
$SKETCHINC
 40
0.1
  9
$FILLETRAD
 40
500.0
  9
$AUNITS
 70
     0
  9
$AUPREC
 70
     0
  9
$MENU
  1
acad
  9
$ELEVATION
 40
0.0
  9
$PELEVATION
 40
0.0
  9
$THICKNESS
 40
0.0
  9
$LIMCHECK
 70
     0
  9
$CHAMFERA
 40
0.0
  9
$CHAMFERB
 40
0.0
  9
$SKPOLY
 70
     0
  9
$TDCREATE
 40
2450277.54597441
  9
$TDUPDATE
 40
2459760.483170474
  9
$TDINDWG
 40
23.4934983681
  9
$TDUSRTIMER
 40
0.0002071991
  9
$USRTIMER
 70
     1
  9
$ANGBASE
 50
0.0
  9
$ANGDIR
 70
     0
  9
$PDMODE
 70
     0
  9
$PDSIZE
 40
0.0
  9
$PLINEWID
 40
0.0
  9
$COORDS
 70
     1
  9
$SPLFRAME
 70
     0
  9
$SPLINETYPE
 70
     6
  9
$SPLINESEGS
 70
     8
  9
$ATTDIA
 70
     0
  9
$ATTREQ
 70
     1
  9
$HANDLING
 70
     1
  9
$HANDSEED
  5
B08AF
  9
$SURFTAB1
 70
     6
  9
$SURFTAB2
 70
     6
  9
$SURFTYPE
 70
     6
  9
$SURFU
 70
     6
  9
$SURFV
 70
     6
  9
$UCSNAME
  2

  9
$UCSORG
 10
0.0
 20
0.0
 30
0.0
  9
$UCSXDIR
 10
1.0
 20
0.0
 30
0.0
  9
$UCSYDIR
 10
0.0
 20
1.0
 30
0.0
  9
$PUCSNAME
  2

  9
$PUCSORG
 10
0.0
 20
0.0
 30
0.0
  9
$PUCSXDIR
 10
1.0
 20
0.0
 30
0.0
  9
$PUCSYDIR
 10
0.0
 20
1.0
 30
0.0
  9
$USERI1
 70
     0
  9
$USERI2
 70
     0
  9
$USERI3
 70
     0
  9
$USERI4
 70
     0
  9
$USERI5
 70
     0
  9
$USERR1
 40
0.0
  9
$USERR2
 40
0.0
  9
$USERR3
 40
0.0
  9
$USERR4
 40
0.0
  9
$USERR5
 40
0.0
  9
$WORLDVIEW
 70
     1
  9
$SHADEDGE
 70
     3
  9
$SHADEDIF
 70
    70
  9
$TILEMODE
 70
     1
  9
$MAXACTVP
 70
    16
  9
$PLIMCHECK
 70
     0
  9
$PEXTMIN
 10
5211.97193308841
 20
-46.47543711420804
 30
0.0
  9
$PEXTMAX
 10
5820.50813952323
 20
216.4264256745723
 30
0.0
  9
$PLIMMIN
 10
0.0
 20
0.0
  9
$PLIMMAX
 10
0.0
 20
0.0
  9
$UNITMODE
 70
     0
  9
$VISRETAIN
 70
     0
  9
$PLINEGEN
 70
     0
  9
$PSLTSCALE
 70
     1
  0
ENDSEC
  0
SECTION
  2
TABLES
  0
TABLE
  2
VPORT
 70
     1
  0
VPORT
  2
*ACTIVE
 70
     0
 10
0.0
 20
0.0
 11
1.0
 21
1.0
 12
17187.94910984344
 22
8977.978708334844
 13
0.0
 23
0.0
 14
1.0
 24
1.0
 15
0.0
 25
0.0
 16
0.0
 26
0.0
 36
1.0
 17
0.0
 27
0.0
 37
0.0
 40
18150.28023821026
 41
2.221621621621621
 42
50.0
 43
0.0
 44
0.0
 50
0.0
 51
0.0
 71
    16
 72
   100
 73
     1
 74
     1
 75
     0
 76
     0
 77
     0
 78
     0
  0
ENDTAB
  0
TABLE
  2
LTYPE
 70
     1
  0
LTYPE
  2
CONTINUOUS
 70
     0
  3
Solid line
 72
    65
 73
     0
 40
0.0
  0
ENDTAB
  0
TABLE
  2
LAYER
 70
     5
  0
LAYER
  2
0
 70
     0
 62
     7
  6
CONTINUOUS
  0
LAYER
  2
CLOTHES_RAIL
 70
     0
 62
     3
  6
CONTINUOUS
  0
LAYER
  2
RIPIANI
 70
     0
 62
     2
  6
CONTINUOUS
  0
LAYER
  2
RETE
 70
     0
 62
     4
  6
CONTINUOUS
  0
ENDTAB
  0
TABLE
  2
STYLE
 70
     3
  0
STYLE
  2
STANDARD
 70
     0
 40
0.0
 41
1.0
 50
0.0
 71
     0
 42
2.5
  3
txt
  4

  0
STYLE
  2
STILE1
 70
     0
 40
0.0
 41
1.0
 50
0.0
 71
     0
 42
19.0
  3
ROMANS.SHX
  4

  0
STYLE
  2
STILE4
 70
     0
 40
0.0
 41
1.0
 50
0.0
 71
     0
 42
2.5
  3
ROMANS.SHX
  4

  0
ENDTAB
  0
TABLE
  2
VIEW
 70
     0
  0
ENDTAB
  0
TABLE
  2
UCS
 70
     0
  0
ENDTAB
  0
TABLE
  2
APPID
 70
    18
  0
APPID
  2
ACAD
 70
     0
  0
APPID
  2
DCO15
 70
     0
  0
APPID
  2
ACAD_PSEXT
 70
     0
  0
APPID
  2
ACAECLAYERSTANDARD
 70
     0
  0
APPID
  2
ACDBDYNAMICBLOCKGUID
 70
     0
  0
APPID
  2
ACDBBLOCKREPETAG
 70
     0
  0
APPID
  2
ACAD_DSTYLE_DIMEXT_ENABLED
 70
     0
  0
APPID
  2
ACAD_DSTYLE_DIMEXT_LENGTH
 70
     0
  0
APPID
  2
ACAD_DSTYLE_DIMJOGGED_JOGA
 70
     0
  0
APPID
  2
ACAD_DSTYLE_DIMJOGGED_JOG0
 70
     0
  0
APPID
  2
$DDT_AUDIT_GENERATED__2CAF
 70
     0
  0
APPID
  2
ACCMTRANSPARENCY
 70
     0
  0
APPID
  2
ACAD_NAV_VCDISPLAY
 70
     0
  0
APPID
  2
GRADIENTCOLOR1ACI
 70
     0
  0
APPID
  2
GRADIENTCOLOR2ACI
 70
     0
  0
APPID
  2
RAK
 70
     0
  0
APPID
  2
ACAD_DSTYLE_DIMRADIAL_EXTE
 70
     0
  0
APPID
  2
ACAD_MLEADERVER
 70
     0
  0
ENDTAB
  0
TABLE
  2
DIMSTYLE
 70
     1
  0
DIMSTYLE
  2
STANDARD
 70
     0
  3

  4

  5

  6

  7

 40
1.0
 41
0.18
 42
0.0625
 43
0.38
 44
0.18
 45
0.0
 46
0.0
 47
0.0
 48
0.0
140
300.0
141
0.09
142
0.0
143
25.4
144
1.0
145
0.0
146
1.0
147
0.09
 71
     0
 72
     0
 73
     1
 74
     1
 75
     0
 76
     0
 77
     0
 78
     0
170
     0
171
     2
172
     0
173
     0
174
     0
175
     0
176
     0
177
     0
178
     0
  0
ENDTAB
  0
ENDSEC
  0
SECTION
  2
BLOCKS
  0
BLOCK
  8
0
  2
$MODEL_SPACE
 70
     0
 10
0.0
 20
0.0
 30
0.0
  3
$MODEL_SPACE
  1

  0
ENDBLK
  5
AF1F0
  8
0
  0
BLOCK
 67
     1
  8
0
  2
$PAPER_SPACE
 70
     0
 10
0.0
 20
0.0
 30
0.0
  3
$PAPER_SPACE
  1

  0
ENDBLK
  5
AF1EC
 67
     1
  8
0
  0
ENDSEC
  0
SECTION
  2
ENTITIES
  0
TEXT
  5
3C998
  8
CLOTHES_RAIL
 10
54216.23091534142
 20
19413.99999809511
 30
0.0
 40
137.5
  1

  7
STILE1
  0
TEXT
  5
3E8B6
  8
0
 10
41890.34487605011
 20
15396.05051007833
 30
0.0
 40
85.0
  1

 50
90.0
  7
STILE1
  0
TEXT
  5
3E8B9
  8
0
 10
39397.05051007832
 20
14327.65512394988
 30
0.0
 40
85.0
  1

  7
STILE1
  0
TEXT
  5
75F3B
  8
0
 10
201181.4559518903
 20
28290.99290028673
 30
0.0
 40
112.8125
  1

  7
STILE1
  0
TEXT
  5
76002
  8
0
 10
201181.4559518903
 20
30150.99290028673
 30
0.0
 40
112.8125
  1

  7
STILE1
  0
TEXT
  5
76061
  8
0
 10
201181.4559518903
 20
32010.99290028673
 30
0.0
 40
112.8125
  1

  7
STILE1
  0
TEXT
  5
760C0
  8
0
 10
201181.4559518904
 20
33870.99290028674
 30
0.0
 40
112.8125
  1

  7
STILE1
  0
TEXT
  5
7611D
  8
0
 10
201181.4559518904
 20
35730.99290028673
 30
0.0
 40
112.8125
  1

  7
STILE1
  0
TEXT
  5
79EA0
  8
CLOTHES_RAIL
 10
184385.7047872411
 20
38170.01720615364
 30
0.0
 40
72.0
  1

  7
STILE1
  0
POLYLINE
  5
A14E2
  8
0
 66
     1
 10
0.0
 20
0.0
 30
0.0
  0
VERTEX
  5
AFDAD
  8
0
 10
24141.98945446307
 20
2163.036426392835
 30
0.0
  0
VERTEX
  5
AFDAE
  8
0
 10
23145.57602734765
 20
2163.036426392835
 30
0.0
  0
SEQEND
  5
B06DB
  8
0
  0
POLYLINE
  5
A6D6D
  8
0
 66
     1
 10
0.0
 20
0.0
 30
0.0
 70
     1
  0
VERTEX
  5
AFDAF
  8
0
 10
17527.11111616126
 20
8157.171916405991
 30
0.0
  0
VERTEX
  5
AFDB0
  8
0
 10
17527.11111616126
 20
8183.171916405992
 30
0.0
  0
VERTEX
  5
AFDB1
  8
0
 10
18497.11111616126
 20
8183.171916405992
 30
0.0
  0
VERTEX
  5
AFDB2
  8
0
 10
18497.11111616126
 20
8157.171916405991
 30
0.0
  0
SEQEND
  5
B06DC
  8
0
  0
POLYLINE
  5
A6D6E
  8
CLOTHES_RAIL
 66
     1
 10
0.0
 20
0.0
 30
0.0
 70
     1
  0
VERTEX
  5
AFDB3
  8
CLOTHES_RAIL
 10
17527.11111616078
 20
8109.671916405988
 30
0.0
  0
VERTEX
  5
AFDB4
  8
CLOTHES_RAIL
 10
17527.11111616078
 20
8083.671916405988
 30
0.0
  0
VERTEX
  5
AFDB5
  8
CLOTHES_RAIL
 10
18497.11111616078
 20
8083.671916405988
 30
0.0
  0
VERTEX
  5
AFDB6
  8
CLOTHES_RAIL
 10
18497.11111616078
 20
8109.671916405988
 30
0.0
  0
SEQEND
  5
B06DD
  8
CLOTHES_RAIL
  0
POLYLINE
  5
A6D6F
  8
0
 66
     1
 10
0.0
 20
0.0
 30
0.0
 70
     1
  0
VERTEX
  5
AFDB7
  8
0
 10
19497.11111616126
 20
8183.171916405992
 30
0.0
  0
VERTEX
  5
AFDB8
  8
0
 10
19497.11111616126
 20
8157.171916405991
 30
0.0
  0
VERTEX
  5
AFDB9
  8
0
 10
18527.11111616126
 20
8157.171916405991
 30
0.0
  0
VERTEX
  5
AFDBA
  8
0
 10
18527.11111616126
 20
8183.171916405992
 30
0.0
  0
SEQEND
  5
B06DE
  8
0
  0
POLYLINE
  5
A6D70
  8
CLOTHES_RAIL
 66
     1
 10
0.0
 20
0.0
 30
0.0
 70
     1
  0
VERTEX
  5
AFDBB
  8
CLOTHES_RAIL
 10
19497.11111616126
 20
8109.671916405988
 30
0.0
  0
VERTEX
  5
AFDBC
  8
CLOTHES_RAIL
 10
19497.11111616126
 20
8083.671916405988
 30
0.0
  0
VERTEX
  5
AFDBD
  8
CLOTHES_RAIL
 10
18527.11111616126
 20
8083.671916405988
 30
0.0
  0
VERTEX
  5
AFDBE
  8
CLOTHES_RAIL
 10
18527.11111616126
 20
8109.671916405988
 30
0.0
  0
SEQEND
  5
B06DF
  8
CLOTHES_RAIL
  0
POLYLINE
  5
A6D79
  8
0
 66
     1
 10
0.0
 20
0.0
 30
0.0
 70
     1
  0
VERTEX
  5
AFDBF
  8
0
 10
17527.11111616126
 20
7157.171916405992
 30
0.0
  0
VERTEX
  5
AFDC0
  8
0
 10
17527.11111616126
 20
7183.171916405992
 30
0.0
  0
VERTEX
  5
AFDC1
  8
0
 10
18497.11111616128
 20
7183.171916405992
 30
0.0
  0
VERTEX
  5
AFDC2
  8
0
 10
18497.11111616128
 20
7157.171916405992
 30
0.0
  0
SEQEND
  5
B06E0
  8
0
  0
POLYLINE
  5
A6D7A
  8
0
 66
     1
 10
0.0
 20
0.0
 30
0.0
 70
     1
  0
VERTEX
  5
AFDC3
  8
0
 10
17527.11111616126
 20
6757.171916405993
 30
0.0
  0
VERTEX
  5
AFDC4
  8
0
 10
17527.11111616126
 20
6783.171916405992
 30
0.0
  0
VERTEX
  5
AFDC5
  8
0
 10
18497.11111616128
 20
6783.171916405992
 30
0.0
  0
VERTEX
  5
AFDC6
  8
0
 10
18497.11111616128
 20
6757.171916405993
 30
0.0
  0
SEQEND
  5
B06E1
  8
0
  0
POLYLINE
  5
A6D7B
  8
0
 66
     1
 10
0.0
 20
0.0
 30
0.0
 70
     1
  0
VERTEX
  5
AFDC7
  8
0
 10
19497.11111616128
 20
7183.171916405992
 30
0.0
  0
VERTEX
  5
AFDC8
  8
0
 10
19497.11111616128
 20
7157.171916405992
 30
0.0
  0
VERTEX
  5
AFDC9
  8
0
 10
18527.11111616126
 20
7157.171916405992
 30
0.0
  0
VERTEX
  5
AFDCA
  8
0
 10
18527.11111616126
 20
7183.171916405992
 30
0.0
  0
SEQEND
  5
B06E2
  8
0
  0
POLYLINE
  5
A6D7C
  8
0
 66
     1
 10
0.0
 20
0.0
 30
0.0
 70
     1
  0
VERTEX
  5
AFDCB
  8
0
 10
19497.11111616128
 20
6783.171916405992
 30
0.0
  0
VERTEX
  5
AFDCC
  8
0
 10
19497.11111616128
 20
6757.171916405993
 30
0.0
  0
VERTEX
  5
AFDCD
  8
0
 10
18527.11111616126
 20
6757.171916405993
 30
0.0
  0
VERTEX
  5
AFDCE
  8
0
 10
18527.11111616126
 20
6783.171916405992
 30
0.0
  0
SEQEND
  5
B06E3
  8
0
  0
POLYLINE
  5
A6E03
  8
0
 66
     1
 10
0.0
 20
0.0
 30
0.0
  0
VERTEX
  5
AFDCF
  8
0
 10
19527.11111616106
 20
2163.036426392835
 30
0.0
  0
VERTEX
  5
AFDD0
  8
0
 10
19432.11111616107
 20
2193.036426392835
 30
0.0
  0
VERTEX
  5
AFDD1
  8
0
 10
19024.61111616106
 20
2193.036426392835
 30
0.0
  0
VERTEX
  5
AFDD2
  8
0
 10
19024.61111616106
 20
2168.036426392835
 30
0.0
  0
VERTEX
  5
AFDD3
  8
0
 10
18999.61111616106
 20
2168.036426392835
 30
0.0
  0
VERTEX
  5
AFDD4
  8
0
 10
18999.61111616106
 20
2193.036426392835
 30
0.0
  0
VERTEX
  5
AFDD5
  8
0
 10
18999.61111616106
 20
2193.036426392835
 30
0.0
  0
VERTEX
  5
AFDD6
  8
0
 10
18024.61111616107
 20
2193.036426392835
 30
0.0
  0
VERTEX
  5
AFDD7
  8
0
 10
18024.61111616107
 20
2168.036426392835
 30
0.0
  0
VERTEX
  5
AFDD8
  8
0
 10
17999.61111616106
 20
2168.036426392835
 30
0.0
  0
VERTEX
  5
AFDD9
  8
0
 10
17999.61111616106
 20
2193.036426392835
 30
0.0
  0
VERTEX
  5
AFDDA
  8
0
 10
17527.11111616106
 20
2193.036426392835
 30
0.0
  0
VERTEX
  5
AFDDB
  8
0
 10
17432.11111616107
 20
2163.036426392835
 30
0.0
  0
VERTEX
  5
AFDDC
  8
0
 10
19527.11111616106
 20
2163.036426392835
 30
0.0
  0
SEQEND
  5
B06E4
  8
0
  0
POLYLINE
  5
A6E04
  8
0
 66
     1
 10
0.0
 20
0.0
 30
0.0
  0
VERTEX
  5
AFDDD
  8
0
 10
19527.11111616104
 20
6207.171916406283
 30
0.0
  0
VERTEX
  5
AFDDE
  8
0
 10
19432.11111616104
 20
6237.171916406282
 30
0.0
  0
VERTEX
  5
AFDDF
  8
0
 10
19024.61111616105
 20
6237.171916406282
 30
0.0
  0
VERTEX
  5
AFDE0
  8
0
 10
19024.61111616105
 20
6212.171916406282
 30
0.0
  0
VERTEX
  5
AFDE1
  8
0
 10
18999.61111616104
 20
6212.171916406282
 30
0.0
  0
VERTEX
  5
AFDE2
  8
0
 10
18999.61111616104
 20
6237.171916406282
 30
0.0
  0
VERTEX
  5
AFDE3
  8
0
 10
18999.61111616104
 20
6237.171916406282
 30
0.0
  0
VERTEX
  5
AFDE4
  8
0
 10
18024.61111616104
 20
6237.171916406282
 30
0.0
  0
VERTEX
  5
AFDE5
  8
0
 10
18024.61111616104
 20
6212.171916406282
 30
0.0
  0
VERTEX
  5
AFDE6
  8
0
 10
17999.61111616104
 20
6212.171916406282
 30
0.0
  0
VERTEX
  5
AFDE7
  8
0
 10
17999.61111616104
 20
6237.171916406282
 30
0.0
  0
VERTEX
  5
AFDE8
  8
0
 10
17527.11111616104
 20
6237.171916406282
 30
0.0
  0
VERTEX
  5
AFDE9
  8
0
 10
17432.11111616104
 20
6207.171916406283
 30
0.0
  0
VERTEX
  5
AFDEA
  8
0
 10
19527.11111616104
 20
6207.171916406283
 30
0.0
  0
SEQEND
  5
B06E5
  8
0
  0
POLYLINE
  5
A6E05
  8
0
 66
     1
 10
0.0
 20
0.0
 30
0.0
  0
VERTEX
  5
AFDEB
  8
0
 10
19527.11111616106
 20
10251.30740641973
 30
0.0
  0
VERTEX
  5
AFDEC
  8
0
 10
19432.11111616106
 20
10281.30740641973
 30
0.0
  0
VERTEX
  5
AFDED
  8
0
 10
19024.61111616106
 20
10281.30740641973
 30
0.0
  0
VERTEX
  5
AFDEE
  8
0
 10
19024.61111616106
 20
10256.30740641973
 30
0.0
  0
VERTEX
  5
AFDEF
  8
0
 10
18999.61111616106
 20
10256.30740641973
 30
0.0
  0
VERTEX
  5
AFDF0
  8
0
 10
18999.61111616106
 20
10281.30740641973
 30
0.0
  0
VERTEX
  5
AFDF1
  8
0
 10
18999.61111616106
 20
10281.30740641973
 30
0.0
  0
VERTEX
  5
AFDF2
  8
0
 10
18024.61111616106
 20
10281.30740641973
 30
0.0
  0
VERTEX
  5
AFDF3
  8
0
 10
18024.61111616106
 20
10256.30740641973
 30
0.0
  0
VERTEX
  5
AFDF4
  8
0
 10
17999.61111616106
 20
10256.30740641973
 30
0.0
  0
VERTEX
  5
AFDF5
  8
0
 10
17999.61111616106
 20
10281.30740641973
 30
0.0
  0
VERTEX
  5
AFDF6
  8
0
 10
17527.11111616106
 20
10281.30740641973
 30
0.0
  0
VERTEX
  5
AFDF7
  8
0
 10
17432.11111616106
 20
10251.30740641973
 30
0.0
  0
VERTEX
  5
AFDF8
  8
0
 10
19527.11111616106
 20
10251.30740641973
 30
0.0
  0
SEQEND
  5
B06E6
  8
0
  0
POLYLINE
  5
A6E06
  8
0
 66
     1
 10
0.0
 20
0.0
 30
0.0
  0
VERTEX
  5
AFDF9
  8
0
 10
19527.11111616104
 20
14295.44289643319
 30
0.0
  0
VERTEX
  5
AFDFA
  8
0
 10
19432.11111616104
 20
14325.44289643319
 30
0.0
  0
VERTEX
  5
AFDFB
  8
0
 10
19024.61111616105
 20
14325.44289643319
 30
0.0
  0
VERTEX
  5
AFDFC
  8
0
 10
19024.61111616105
 20
14300.44289643319
 30
0.0
  0
VERTEX
  5
AFDFD
  8
0
 10
18999.61111616104
 20
14300.44289643319
 30
0.0
  0
VERTEX
  5
AFDFE
  8
0
 10
18999.61111616104
 20
14325.44289643319
 30
0.0
  0
VERTEX
  5
AFDFF
  8
0
 10
18999.61111616104
 20
14325.44289643319
 30
0.0
  0
VERTEX
  5
AFE00
  8
0
 10
18024.61111616104
 20
14325.44289643319
 30
0.0
  0
VERTEX
  5
AFE01
  8
0
 10
18024.61111616104
 20
14300.44289643319
 30
0.0
  0
VERTEX
  5
AFE02
  8
0
 10
17999.61111616104
 20
14300.44289643319
 30
0.0
  0
VERTEX
  5
AFE03
  8
0
 10
17999.61111616104
 20
14325.44289643319
 30
0.0
  0
VERTEX
  5
AFE04
  8
0
 10
17527.11111616104
 20
14325.44289643319
 30
0.0
  0
VERTEX
  5
AFE05
  8
0
 10
17432.11111616104
 20
14295.44289643319
 30
0.0
  0
VERTEX
  5
AFE06
  8
0
 10
19527.11111616104
 20
14295.44289643319
 30
0.0
  0
SEQEND
  5
B06E7
  8
0
  0
LINE
  5
A6E07
  8
0
 10
22732.69473631098
 20
2163.036426392835
 30
0.0
 11
17223.39205753694
 21
2163.036426392835
 31
0.0
  0
LINE
  5
A6E08
  8
0
 10
22732.69473631098
 20
6207.171916406282
 30
0.0
 11
17223.39205753694
 21
6207.171916406282
 31
0.0
  0
POLYLINE
  5
A6E09
  8
0
 66
     1
 10
0.0
 20
0.0
 30
0.0
 70
     1
  0
VERTEX
  5
AFE07
  8
0
 10
19024.61111616107
 20
2193.036426392835
 30
0.0
  0
VERTEX
  5
AFE08
  8
0
 10
19024.61111616107
 20
2168.036426392835
 30
0.0
  0
VERTEX
  5
AFE09
  8
0
 10
18999.61111616106
 20
2168.036426392835
 30
0.0
  0
VERTEX
  5
AFE0A
  8
0
 10
18999.61111616106
 20
2193.036426392835
 30
0.0
  0
SEQEND
  5
B06E8
  8
0
  0
POLYLINE
  5
A6E0A
  8
0
 66
     1
 10
0.0
 20
0.0
 30
0.0
 70
     1
  0
VERTEX
  5
AFE0B
  8
0
 10
19034.61111616107
 20
2218.036426392835
 30
0.0
  0
VERTEX
  5
AFE0C
  8
0
 10
19034.61111616107
 20
2193.036426392835
 30
0.0
  0
VERTEX
  5
AFE0D
  8
0
 10
18989.61111616107
 20
2193.036426392835
 30
0.0
  0
VERTEX
  5
AFE0E
  8
0
 10
18989.61111616107
 20
2218.036426392835
 30
0.0
  0
SEQEND
  5
B06E9
  8
0
  0
LINE
  5
A6E0B
  8
0
 10
18989.61111616107
 20
2218.036426392835
 30
0.0
 11
18989.61111616107
 21
2193.036426392835
 31
0.0
  0
LINE
  5
A6E0C
  8
0
 10
18989.61111616107
 20
2218.036426392835
 30
0.0
 11
18989.61111616107
 21
2193.036426392835
 31
0.0
  0
LINE
  5
A6E0D
  8
0
 10
18999.61111616106
 20
2193.036426392835
 30
0.0
 11
18999.61111616106
 21
2168.036426392835
 31
0.0
  0
LINE
  5
A6E0E
  8
0
 10
18999.61111616106
 20
2193.036426392835
 30
0.0
 11
18999.61111616106
 21
2168.036426392835
 31
0.0
  0
LINE
  5
A6E0F
  8
0
 10
19034.61111616107
 20
2193.036426392835
 30
0.0
 11
18989.61111616107
 21
2193.036426392835
 31
0.0
  0
LINE
  5
A6E10
  8
0
 10
19034.61111616107
 20
2193.036426392835
 30
0.0
 11
18989.61111616107
 21
2193.036426392835
 31
0.0
  0
LINE
  5
A6E11
  8
0
 10
18999.61111616106
 20
2193.036426392835
 30
0.0
 11
18999.61111616106
 21
2168.036426392835
 31
0.0
  0
LINE
  5
A6E12
  8
0
 10
18999.61111616106
 20
2193.036426392835
 30
0.0
 11
18999.61111616106
 21
2168.036426392835
 31
0.0
  0
LINE
  5
A6E13
  8
0
 10
19034.61111616107
 20
2193.036426392835
 30
0.0
 11
18989.61111616107
 21
2193.036426392835
 31
0.0
  0
LINE
  5
A6E14
  8
0
 10
19034.61111616107
 20
2193.036426392835
 30
0.0
 11
18989.61111616107
 21
2193.036426392835
 31
0.0
  0
LINE
  5
A6E15
  8
0
 10
18989.61111616107
 20
2218.036426392835
 30
0.0
 11
18989.61111616107
 21
2193.036426392835
 31
0.0
  0
LINE
  5
A6E16
  8
0
 10
18989.61111616107
 20
2218.036426392835
 30
0.0
 11
18989.61111616107
 21
2193.036426392835
 31
0.0
  0
POLYLINE
  5
A6E17
  8
0
 66
     1
 10
0.0
 20
0.0
 30
0.0
 70
     1
  0
VERTEX
  5
AFE0F
  8
0
 10
18024.61111616107
 20
2193.036426392835
 30
0.0
  0
VERTEX
  5
AFE10
  8
0
 10
18024.61111616107
 20
2168.036426392835
 30
0.0
  0
VERTEX
  5
AFE11
  8
0
 10
17999.61111616107
 20
2168.036426392835
 30
0.0
  0
VERTEX
  5
AFE12
  8
0
 10
17999.61111616107
 20
2193.036426392835
 30
0.0
  0
SEQEND
  5
B06EA
  8
0
  0
POLYLINE
  5
A6E18
  8
0
 66
     1
 10
0.0
 20
0.0
 30
0.0
 70
     1
  0
VERTEX
  5
AFE13
  8
0
 10
18034.61111616107
 20
2218.036426392835
 30
0.0
  0
VERTEX
  5
AFE14
  8
0
 10
18034.61111616107
 20
2193.036426392835
 30
0.0
  0
VERTEX
  5
AFE15
  8
0
 10
17989.61111616107
 20
2193.036426392835
 30
0.0
  0
VERTEX
  5
AFE16
  8
0
 10
17989.61111616107
 20
2218.036426392835
 30
0.0
  0
SEQEND
  5
B06EB
  8
0
  0
LINE
  5
A6E19
  8
0
 10
17989.61111616107
 20
2218.036426392835
 30
0.0
 11
17989.61111616107
 21
2193.036426392835
 31
0.0
  0
LINE
  5
A6E1A
  8
0
 10
17989.61111616107
 20
2218.036426392835
 30
0.0
 11
17989.61111616107
 21
2193.036426392835
 31
0.0
  0
LINE
  5
A6E1B
  8
0
 10
17999.61111616107
 20
2193.036426392835
 30
0.0
 11
17999.61111616107
 21
2168.036426392835
 31
0.0
  0
LINE
  5
A6E1C
  8
0
 10
17999.61111616107
 20
2193.036426392835
 30
0.0
 11
17999.61111616107
 21
2168.036426392835
 31
0.0
  0
LINE
  5
A6E1D
  8
0
 10
18034.61111616107
 20
2193.036426392835
 30
0.0
 11
17989.61111616107
 21
2193.036426392835
 31
0.0
  0
LINE
  5
A6E1E
  8
0
 10
18034.61111616107
 20
2193.036426392835
 30
0.0
 11
17989.61111616107
 21
2193.036426392835
 31
0.0
  0
LINE
  5
A6E1F
  8
0
 10
17999.61111616107
 20
2193.036426392835
 30
0.0
 11
17999.61111616107
 21
2168.036426392835
 31
0.0
  0
LINE
  5
A6E20
  8
0
 10
17999.61111616107
 20
2193.036426392835
 30
0.0
 11
17999.61111616107
 21
2168.036426392835
 31
0.0
  0
LINE
  5
A6E21
  8
0
 10
18034.61111616107
 20
2193.036426392835
 30
0.0
 11
17989.61111616107
 21
2193.036426392835
 31
0.0
  0
LINE
  5
A6E22
  8
0
 10
18034.61111616107
 20
2193.036426392835
 30
0.0
 11
17989.61111616107
 21
2193.036426392835
 31
0.0
  0
LINE
  5
A6E23
  8
0
 10
17989.61111616107
 20
2218.036426392835
 30
0.0
 11
17989.61111616107
 21
2193.036426392835
 31
0.0
  0
LINE
  5
A6E24
  8
0
 10
17989.61111616107
 20
2218.036426392835
 30
0.0
 11
17989.61111616107
 21
2193.036426392835
 31
0.0
  0
LINE
  5
A6E25
  8
0
 10
18989.61111616107
 20
2218.036426392835
 30
0.0
 11
18989.61111616107
 21
2193.036426392835
 31
0.0
  0
LINE
  5
A6E26
  8
0
 10
18989.61111616107
 20
2218.036426392835
 30
0.0
 11
18989.61111616107
 21
2193.036426392835
 31
0.0
  0
LINE
  5
A6E27
  8
0
 10
18999.61111616106
 20
2193.036426392835
 30
0.0
 11
18999.61111616106
 21
2168.036426392835
 31
0.0
  0
LINE
  5
A6E28
  8
0
 10
18999.61111616106
 20
2193.036426392835
 30
0.0
 11
18999.61111616106
 21
2168.036426392835
 31
0.0
  0
LINE
  5
A6E29
  8
0
 10
19034.61111616107
 20
2193.036426392835
 30
0.0
 11
18989.61111616107
 21
2193.036426392835
 31
0.0
  0
LINE
  5
A6E2A
  8
0
 10
19034.61111616107
 20
2193.036426392835
 30
0.0
 11
18989.61111616107
 21
2193.036426392835
 31
0.0
  0
LINE
  5
A6E2B
  8
0
 10
18999.61111616106
 20
2193.036426392835
 30
0.0
 11
18999.61111616106
 21
2168.036426392835
 31
0.0
  0
LINE
  5
A6E2C
  8
0
 10
18999.61111616106
 20
2193.036426392835
 30
0.0
 11
18999.61111616106
 21
2168.036426392835
 31
0.0
  0
LINE
  5
A6E2D
  8
0
 10
19034.61111616107
 20
2193.036426392835
 30
0.0
 11
18989.61111616107
 21
2193.036426392835
 31
0.0
  0
LINE
  5
A6E2E
  8
0
 10
19034.61111616107
 20
2193.036426392835
 30
0.0
 11
18989.61111616107
 21
2193.036426392835
 31
0.0
  0
LINE
  5
A6E2F
  8
0
 10
18989.61111616107
 20
2218.036426392835
 30
0.0
 11
18989.61111616107
 21
2193.036426392835
 31
0.0
  0
LINE
  5
A6E30
  8
0
 10
18989.61111616107
 20
2218.036426392835
 30
0.0
 11
18989.61111616107
 21
2193.036426392835
 31
0.0
  0
POLYLINE
  5
A6E31
  8
0
 66
     1
 10
0.0
 20
0.0
 30
0.0
 70
     1
  0
VERTEX
  5
AFE17
  8
0
 10
19429.61111616107
 20
4368.036426392865
 30
0.0
  0
VERTEX
  5
AFE18
  8
0
 10
19429.61111616107
 20
4390.536426392864
 30
0.0
 42
-1.0
  0
VERTEX
  5
AFE19
  8
0
 10
19384.61111616106
 20
4390.536426392864
 30
0.0
  0
VERTEX
  5
AFE1A
  8
0
 10
19384.61111616106
 20
4368.036426392835
 30
0.0
  0
VERTEX
  5
AFE1B
  8
0
 10
19367.11111616107
 20
4368.036426392865
 30
0.0
  0
VERTEX
  5
AFE1C
  8
0
 10
19357.11111616107
 20
4358.036426392835
 30
0.0
  0
VERTEX
  5
AFE1D
  8
0
 10
19457.11111616107
 20
4358.036426392835
 30
0.0
  0
VERTEX
  5
AFE1E
  8
0
 10
19447.11111616107
 20
4368.036426392865
 30
0.0
  0
SEQEND
  5
B06EC
  8
0
  0
POLYLINE
  5
A6E32
  8
0
 66
     1
 10
0.0
 20
0.0
 30
0.0
 70
     1
  0
VERTEX
  5
AFE1F
  8
0
 10
19497.11111616107
 20
2339.036426392835
 30
0.0
  0
VERTEX
  5
AFE20
  8
0
 10
19497.11111616107
 20
2313.036426392835
 30
0.0
  0
VERTEX
  5
AFE21
  8
0
 10
18527.11111616106
 20
2313.036426392835
 30
0.0
  0
VERTEX
  5
AFE22
  8
0
 10
18527.11111616106
 20
2339.036426392835
 30
0.0
  0
SEQEND
  5
B06ED
  8
0
  0
POLYLINE
  5
A6E33
  8
0
 66
     1
 10
0.0
 20
0.0
 30
0.0
 70
     1
  0
VERTEX
  5
AFE23
  8
0
 10
18497.11111616107
 20
2313.036426392835
 30
0.0
  0
VERTEX
  5
AFE24
  8
0
 10
18497.11111616107
 20
4313.036426392835
 30
0.0
  0
VERTEX
  5
AFE25
  8
0
 10
18527.11111616106
 20
4313.036426392835
 30
0.0
  0
VERTEX
  5
AFE26
  8
0
 10
18527.11111616106
 20
2313.036426392835
 30
0.0
  0
SEQEND
  5
B06EE
  8
0
  0
POLYLINE
  5
A6E34
  8
0
 66
     1
 10
0.0
 20
0.0
 30
0.0
 70
     1
  0
VERTEX
  5
AFE27
  8
0
 10
17527.11111616107
 20
2313.036426392835
 30
0.0
  0
VERTEX
  5
AFE28
  8
0
 10
17527.11111616107
 20
2339.036426392835
 30
0.0
  0
VERTEX
  5
AFE29
  8
0
 10
18497.11111616107
 20
2339.036426392835
 30
0.0
  0
VERTEX
  5
AFE2A
  8
0
 10
18497.11111616107
 20
2313.036426392835
 30
0.0
  0
SEQEND
  5
B06EF
  8
0
  0
POLYLINE
  5
A6E35
  8
0
 66
     1
 10
0.0
 20
0.0
 30
0.0
 70
     1
  0
VERTEX
  5
AFE2B
  8
0
 10
19497.11111616119
 20
2218.036426392835
 30
0.0
  0
VERTEX
  5
AFE2C
  8
0
 10
19497.11111616119
 20
2313.036426393126
 30
0.0
  0
VERTEX
  5
AFE2D
  8
0
 10
17527.11111616084
 20
2313.036426393126
 30
0.0
  0
VERTEX
  5
AFE2E
  8
0
 10
17527.11111616084
 20
2218.036426392835
 30
0.0
  0
SEQEND
  5
B06F0
  8
0
  0
POLYLINE
  5
A6E36
  8
0
 66
     1
 10
0.0
 20
0.0
 30
0.0
 70
     1
  0
VERTEX
  5
AFE2F
  8
0
 10
19527.11111616107
 20
4348.036426392835
 30
0.0
  0
VERTEX
  5
AFE30
  8
0
 10
19527.11111616107
 20
2218.036426392835
 30
0.0
  0
VERTEX
  5
AFE31
  8
0
 10
19497.11111616119
 20
2218.036426392835
 30
0.0
  0
VERTEX
  5
AFE32
  8
0
 10
19497.11111616119
 20
4348.036426392835
 30
0.0
  0
SEQEND
  5
B06F1
  8
0
  0
POLYLINE
  5
A6E37
  8
0
 66
     1
 10
0.0
 20
0.0
 30
0.0
 70
     1
  0
VERTEX
  5
AFE33
  8
0
 10
17527.11111616107
 20
4348.036426392835
 30
0.0
  0
VERTEX
  5
AFE34
  8
0
 10
17527.11111616107
 20
2218.036426392835
 30
0.0
  0
VERTEX
  5
AFE35
  8
0
 10
17497.11111616107
 20
2218.036426392835
 30
0.0
  0
VERTEX
  5
AFE36
  8
0
 10
17497.11111616107
 20
4348.036426392835
 30
0.0
  0
SEQEND
  5
B06F2
  8
0
  0
POLYLINE
  5
A6E39
  8
0
 66
     1
 10
0.0
 20
0.0
 30
0.0
 70
     1
  0
VERTEX
  5
AFE37
  8
0
 10
19497.11111616107
 20
4348.036426392835
 30
0.0
  0
VERTEX
  5
AFE38
  8
0
 10
19497.11111616107
 20
4313.036426392835
 30
0.0
  0
VERTEX
  5
AFE39
  8
0
 10
17527.11111616107
 20
4313.036426392835
 30
0.0
  0
VERTEX
  5
AFE3A
  8
0
 10
17527.11111616107
 20
4348.036426392835
 30
0.0
  0
SEQEND
  5
B06F3
  8
0
  0
CIRCLE
  5
A6E3F
  8
0
 10
19407.11111616107
 20
4390.536426392833
 30
0.0
 40
22.5
  0
CIRCLE
  5
A6E40
  8
0
 10
19407.11111616107
 20
4390.536426392833
 30
0.0
 40
12.5
  0
LINE
  5
A6E41
  8
0
 10
19357.11111616107
 20
4358.036426392835
 30
0.0
 11
19457.11111616107
 21
4358.036426392835
 31
0.0
  0
POLYLINE
  5
A6E42
  8
0
 66
     1
 10
0.0
 20
0.0
 30
0.0
 70
     1
  0
VERTEX
  5
AFE3B
  8
0
 10
19337.11111616107
 20
4358.036426392864
 30
0.0
  0
VERTEX
  5
AFE3C
  8
0
 10
19477.11111616107
 20
4358.036426392864
 30
0.0
  0
VERTEX
  5
AFE3D
  8
0
 10
19477.11111616107
 20
4348.036426392864
 30
0.0
  0
VERTEX
  5
AFE3E
  8
0
 10
19337.11111616107
 20
4348.036426392864
 30
0.0
  0
SEQEND
  5
B06F4
  8
0
  0
POLYLINE
  5
A6E43
  8
0
 66
     1
 10
0.0
 20
0.0
 30
0.0
 70
     1
  0
VERTEX
  5
AFE3F
  8
0
 10
19024.61111616105
 20
6237.171916406282
 30
0.0
  0
VERTEX
  5
AFE40
  8
0
 10
19024.61111616105
 20
6212.171916406282
 30
0.0
  0
VERTEX
  5
AFE41
  8
0
 10
18999.61111616104
 20
6212.171916406282
 30
0.0
  0
VERTEX
  5
AFE42
  8
0
 10
18999.61111616104
 20
6237.171916406282
 30
0.0
  0
SEQEND
  5
B06F5
  8
0
  0
POLYLINE
  5
A6E44
  8
0
 66
     1
 10
0.0
 20
0.0
 30
0.0
 70
     1
  0
VERTEX
  5
AFE43
  8
0
 10
19034.61111616104
 20
6262.171916406281
 30
0.0
  0
VERTEX
  5
AFE44
  8
0
 10
19034.61111616104
 20
6237.171916406282
 30
0.0
  0
VERTEX
  5
AFE45
  8
0
 10
18989.61111616104
 20
6237.171916406282
 30
0.0
  0
VERTEX
  5
AFE46
  8
0
 10
18989.61111616104
 20
6262.171916406281
 30
0.0
  0
SEQEND
  5
B06F6
  8
0
  0
LINE
  5
A6E45
  8
0
 10
18989.61111616104
 20
6262.171916406281
 30
0.0
 11
18989.61111616104
 21
6237.171916406282
 31
0.0
  0
LINE
  5
A6E46
  8
0
 10
18989.61111616104
 20
6262.171916406281
 30
0.0
 11
18989.61111616104
 21
6237.171916406282
 31
0.0
  0
LINE
  5
A6E47
  8
0
 10
18999.61111616104
 20
6237.171916406282
 30
0.0
 11
18999.61111616104
 21
6212.171916406282
 31
0.0
  0
LINE
  5
A6E48
  8
0
 10
18999.61111616104
 20
6237.171916406282
 30
0.0
 11
18999.61111616104
 21
6212.171916406282
 31
0.0
  0
LINE
  5
A6E49
  8
0
 10
19034.61111616104
 20
6237.171916406282
 30
0.0
 11
18989.61111616104
 21
6237.171916406282
 31
0.0
  0
LINE
  5
A6E4A
  8
0
 10
19034.61111616104
 20
6237.171916406282
 30
0.0
 11
18989.61111616104
 21
6237.171916406282
 31
0.0
  0
LINE
  5
A6E4B
  8
0
 10
18999.61111616104
 20
6237.171916406282
 30
0.0
 11
18999.61111616104
 21
6212.171916406282
 31
0.0
  0
LINE
  5
A6E4C
  8
0
 10
18999.61111616104
 20
6237.171916406282
 30
0.0
 11
18999.61111616104
 21
6212.171916406282
 31
0.0
  0
LINE
  5
A6E4D
  8
0
 10
19034.61111616104
 20
6237.171916406282
 30
0.0
 11
18989.61111616104
 21
6237.171916406282
 31
0.0
  0
LINE
  5
A6E4E
  8
0
 10
19034.61111616104
 20
6237.171916406282
 30
0.0
 11
18989.61111616104
 21
6237.171916406282
 31
0.0
  0
LINE
  5
A6E4F
  8
0
 10
18989.61111616104
 20
6262.171916406281
 30
0.0
 11
18989.61111616104
 21
6237.171916406282
 31
0.0
  0
LINE
  5
A6E50
  8
0
 10
18989.61111616104
 20
6262.171916406281
 30
0.0
 11
18989.61111616104
 21
6237.171916406282
 31
0.0
  0
POLYLINE
  5
A6E51
  8
0
 66
     1
 10
0.0
 20
0.0
 30
0.0
 70
     1
  0
VERTEX
  5
AFE47
  8
0
 10
18024.61111616104
 20
6237.171916406282
 30
0.0
  0
VERTEX
  5
AFE48
  8
0
 10
18024.61111616104
 20
6212.171916406282
 30
0.0
  0
VERTEX
  5
AFE49
  8
0
 10
17999.61111616104
 20
6212.171916406282
 30
0.0
  0
VERTEX
  5
AFE4A
  8
0
 10
17999.61111616104
 20
6237.171916406282
 30
0.0
  0
SEQEND
  5
B06F7
  8
0
  0
POLYLINE
  5
A6E52
  8
0
 66
     1
 10
0.0
 20
0.0
 30
0.0
 70
     1
  0
VERTEX
  5
AFE4B
  8
0
 10
18034.61111616105
 20
6262.171916406281
 30
0.0
  0
VERTEX
  5
AFE4C
  8
0
 10
18034.61111616105
 20
6237.171916406282
 30
0.0
  0
VERTEX
  5
AFE4D
  8
0
 10
17989.61111616104
 20
6237.171916406282
 30
0.0
  0
VERTEX
  5
AFE4E
  8
0
 10
17989.61111616104
 20
6262.171916406281
 30
0.0
  0
SEQEND
  5
B06F8
  8
0
  0
LINE
  5
A6E53
  8
0
 10
17989.61111616104
 20
6262.171916406281
 30
0.0
 11
17989.61111616104
 21
6237.171916406282
 31
0.0
  0
LINE
  5
A6E54
  8
0
 10
17989.61111616104
 20
6262.171916406281
 30
0.0
 11
17989.61111616104
 21
6237.171916406282
 31
0.0
  0
LINE
  5
A6E55
  8
0
 10
17999.61111616104
 20
6237.171916406282
 30
0.0
 11
17999.61111616104
 21
6212.171916406282
 31
0.0
  0
LINE
  5
A6E56
  8
0
 10
17999.61111616104
 20
6237.171916406282
 30
0.0
 11
17999.61111616104
 21
6212.171916406282
 31
0.0
  0
LINE
  5
A6E57
  8
0
 10
18034.61111616105
 20
6237.171916406282
 30
0.0
 11
17989.61111616104
 21
6237.171916406282
 31
0.0
  0
LINE
  5
A6E58
  8
0
 10
18034.61111616105
 20
6237.171916406282
 30
0.0
 11
17989.61111616104
 21
6237.171916406282
 31
0.0
  0
LINE
  5
A6E59
  8
0
 10
17999.61111616104
 20
6237.171916406282
 30
0.0
 11
17999.61111616104
 21
6212.171916406282
 31
0.0
  0
LINE
  5
A6E5A
  8
0
 10
17999.61111616104
 20
6237.171916406282
 30
0.0
 11
17999.61111616104
 21
6212.171916406282
 31
0.0
  0
LINE
  5
A6E5B
  8
0
 10
18034.61111616105
 20
6237.171916406282
 30
0.0
 11
17989.61111616104
 21
6237.171916406282
 31
0.0
  0
LINE
  5
A6E5C
  8
0
 10
18034.61111616105
 20
6237.171916406282
 30
0.0
 11
17989.61111616104
 21
6237.171916406282
 31
0.0
  0
LINE
  5
A6E5D
  8
0
 10
17989.61111616104
 20
6262.171916406281
 30
0.0
 11
17989.61111616104
 21
6237.171916406282
 31
0.0
  0
LINE
  5
A6E5E
  8
0
 10
17989.61111616104
 20
6262.171916406281
 30
0.0
 11
17989.61111616104
 21
6237.171916406282
 31
0.0
  0
LINE
  5
A6E5F
  8
0
 10
18989.61111616104
 20
6262.171916406281
 30
0.0
 11
18989.61111616104
 21
6237.171916406282
 31
0.0
  0
LINE
  5
A6E60
  8
0
 10
18989.61111616104
 20
6262.171916406281
 30
0.0
 11
18989.61111616104
 21
6237.171916406282
 31
0.0
  0
LINE
  5
A6E61
  8
0
 10
18999.61111616104
 20
6237.171916406282
 30
0.0
 11
18999.61111616104
 21
6212.171916406282
 31
0.0
  0
LINE
  5
A6E62
  8
0
 10
18999.61111616104
 20
6237.171916406282
 30
0.0
 11
18999.61111616104
 21
6212.171916406282
 31
0.0
  0
LINE
  5
A6E63
  8
0
 10
19034.61111616104
 20
6237.171916406282
 30
0.0
 11
18989.61111616104
 21
6237.171916406282
 31
0.0
  0
LINE
  5
A6E64
  8
0
 10
19034.61111616104
 20
6237.171916406282
 30
0.0
 11
18989.61111616104
 21
6237.171916406282
 31
0.0
  0
LINE
  5
A6E65
  8
0
 10
18999.61111616104
 20
6237.171916406282
 30
0.0
 11
18999.61111616104
 21
6212.171916406282
 31
0.0
  0
LINE
  5
A6E66
  8
0
 10
18999.61111616104
 20
6237.171916406282
 30
0.0
 11
18999.61111616104
 21
6212.171916406282
 31
0.0
  0
LINE
  5
A6E67
  8
0
 10
19034.61111616104
 20
6237.171916406282
 30
0.0
 11
18989.61111616104
 21
6237.171916406282
 31
0.0
  0
LINE
  5
A6E68
  8
0
 10
19034.61111616104
 20
6237.171916406282
 30
0.0
 11
18989.61111616104
 21
6237.171916406282
 31
0.0
  0
LINE
  5
A6E69
  8
0
 10
18989.61111616104
 20
6262.171916406281
 30
0.0
 11
18989.61111616104
 21
6237.171916406282
 31
0.0
  0
LINE
  5
A6E6A
  8
0
 10
18989.61111616104
 20
6262.171916406281
 30
0.0
 11
18989.61111616104
 21
6237.171916406282
 31
0.0
  0
POLYLINE
  5
A6E6B
  8
0
 66
     1
 10
0.0
 20
0.0
 30
0.0
 70
     1
  0
VERTEX
  5
AFE4F
  8
0
 10
19429.61111616105
 20
8412.171916406314
 30
0.0
  0
VERTEX
  5
AFE50
  8
0
 10
19429.61111616105
 20
8434.67191640631
 30
0.0
 42
-1.0
  0
VERTEX
  5
AFE51
  8
0
 10
19384.61111616105
 20
8434.67191640631
 30
0.0
  0
VERTEX
  5
AFE52
  8
0
 10
19384.61111616105
 20
8412.171916406278
 30
0.0
  0
VERTEX
  5
AFE53
  8
0
 10
19367.11111616104
 20
8412.171916406314
 30
0.0
  0
VERTEX
  5
AFE54
  8
0
 10
19357.11111616105
 20
8402.17191640628
 30
0.0
  0
VERTEX
  5
AFE55
  8
0
 10
19457.11111616104
 20
8402.17191640628
 30
0.0
  0
VERTEX
  5
AFE56
  8
0
 10
19447.11111616104
 20
8412.171916406314
 30
0.0
  0
SEQEND
  5
B06F9
  8
0
  0
POLYLINE
  5
A6E6C
  8
0
 66
     1
 10
0.0
 20
0.0
 30
0.0
 70
     1
  0
VERTEX
  5
AFE57
  8
0
 10
19497.11111616105
 20
6383.171916406283
 30
0.0
  0
VERTEX
  5
AFE58
  8
0
 10
19497.11111616105
 20
6357.171916406283
 30
0.0
  0
VERTEX
  5
AFE59
  8
0
 10
18527.11111616105
 20
6357.171916406283
 30
0.0
  0
VERTEX
  5
AFE5A
  8
0
 10
18527.11111616105
 20
6383.171916406283
 30
0.0
  0
SEQEND
  5
B06FA
  8
0
  0
POLYLINE
  5
A6E6D
  8
0
 66
     1
 10
0.0
 20
0.0
 30
0.0
 70
     1
  0
VERTEX
  5
AFE5B
  8
0
 10
18497.11111616104
 20
6357.171916406283
 30
0.0
  0
VERTEX
  5
AFE5C
  8
0
 10
18497.11111616104
 20
8357.171916406278
 30
0.0
  0
VERTEX
  5
AFE5D
  8
0
 10
18527.11111616105
 20
8357.171916406278
 30
0.0
  0
VERTEX
  5
AFE5E
  8
0
 10
18527.11111616105
 20
6357.171916406283
 30
0.0
  0
SEQEND
  5
B06FB
  8
0
  0
POLYLINE
  5
A6E6E
  8
0
 66
     1
 10
0.0
 20
0.0
 30
0.0
 70
     1
  0
VERTEX
  5
AFE5F
  8
0
 10
17527.11111616104
 20
6357.171916406283
 30
0.0
  0
VERTEX
  5
AFE60
  8
0
 10
17527.11111616104
 20
6383.171916406283
 30
0.0
  0
VERTEX
  5
AFE61
  8
0
 10
18497.11111616104
 20
6383.171916406283
 30
0.0
  0
VERTEX
  5
AFE62
  8
0
 10
18497.11111616104
 20
6357.171916406283
 30
0.0
  0
SEQEND
  5
B06FC
  8
0
  0
POLYLINE
  5
A6E6F
  8
0
 66
     1
 10
0.0
 20
0.0
 30
0.0
 70
     1
  0
VERTEX
  5
AFE63
  8
0
 10
19497.11111616116
 20
6262.171916406281
 30
0.0
  0
VERTEX
  5
AFE64
  8
0
 10
19497.11111616116
 20
6357.171916406573
 30
0.0
  0
VERTEX
  5
AFE65
  8
0
 10
17527.1111161608
 20
6357.171916406573
 30
0.0
  0
VERTEX
  5
AFE66
  8
0
 10
17527.1111161608
 20
6262.171916406281
 30
0.0
  0
SEQEND
  5
B06FD
  8
0
  0
POLYLINE
  5
A6E70
  8
0
 66
     1
 10
0.0
 20
0.0
 30
0.0
 70
     1
  0
VERTEX
  5
AFE67
  8
0
 10
19527.11111616104
 20
8392.171916406278
 30
0.0
  0
VERTEX
  5
AFE68
  8
0
 10
19527.11111616104
 20
6262.171916406281
 30
0.0
  0
VERTEX
  5
AFE69
  8
0
 10
19497.11111616116
 20
6262.171916406281
 30
0.0
  0
VERTEX
  5
AFE6A
  8
0
 10
19497.11111616116
 20
8392.171916406278
 30
0.0
  0
SEQEND
  5
B06FE
  8
0
  0
POLYLINE
  5
A6E71
  8
0
 66
     1
 10
0.0
 20
0.0
 30
0.0
 70
     1
  0
VERTEX
  5
AFE6B
  8
0
 10
17527.11111616104
 20
8392.171916406278
 30
0.0
  0
VERTEX
  5
AFE6C
  8
0
 10
17527.11111616104
 20
6262.171916406281
 30
0.0
  0
VERTEX
  5
AFE6D
  8
0
 10
17497.11111616106
 20
6262.171916406281
 30
0.0
  0
VERTEX
  5
AFE6E
  8
0
 10
17497.11111616106
 20
8392.171916406278
 30
0.0
  0
SEQEND
  5
B06FF
  8
0
  0
POLYLINE
  5
A6E73
  8
0
 66
     1
 10
0.0
 20
0.0
 30
0.0
 70
     1
  0
VERTEX
  5
AFE6F
  8
0
 10
19497.11111616105
 20
8392.171916406278
 30
0.0
  0
VERTEX
  5
AFE70
  8
0
 10
19497.11111616105
 20
8357.171916406278
 30
0.0
  0
VERTEX
  5
AFE71
  8
0
 10
17527.11111616104
 20
8357.171916406278
 30
0.0
  0
VERTEX
  5
AFE72
  8
0
 10
17527.11111616104
 20
8392.171916406278
 30
0.0
  0
SEQEND
  5
B0700
  8
0
  0
CIRCLE
  5
A6E79
  8
0
 10
19407.11111616104
 20
8434.671916406282
 30
0.0
 40
22.5
  0
CIRCLE
  5
A6E7A
  8
0
 10
19407.11111616104
 20
8434.671916406282
 30
0.0
 40
12.5
  0
LINE
  5
A6E7B
  8
0
 10
19357.11111616105
 20
8402.17191640628
 30
0.0
 11
19457.11111616104
 21
8402.17191640628
 31
0.0
  0
POLYLINE
  5
A6E7C
  8
0
 66
     1
 10
0.0
 20
0.0
 30
0.0
 70
     1
  0
VERTEX
  5
AFE73
  8
0
 10
19337.11111616105
 20
8402.17191640631
 30
0.0
  0
VERTEX
  5
AFE74
  8
0
 10
19477.11111616104
 20
8402.17191640631
 30
0.0
  0
VERTEX
  5
AFE75
  8
0
 10
19477.11111616104
 20
8392.17191640631
 30
0.0
  0
VERTEX
  5
AFE76
  8
0
 10
19337.11111616105
 20
8392.17191640631
 30
0.0
  0
SEQEND
  5
B0701
  8
0
  0
LINE
  5
A6E7D
  8
0
 10
19487.23229158937
 20
2339.036426392835
 30
0.0
 11
19487.23229158937
 21
4313.036426392835
 31
0.0
1001
ACAD
1010
0.0
1020
0.0
1030
0.0
  0
LINE
  5
A6E7E
  8
0
 10
19362.23229158937
 20
2339.036426392835
 30
0.0
 11
19362.23229158937
 21
4313.036426392835
 31
0.0
1001
ACAD
1010
0.0
1020
0.0
1030
0.0
  0
LINE
  5
A6E7F
  8
0
 10
19237.23229158937
 20
2339.036426392835
 30
0.0
 11
19237.23229158937
 21
4313.036426392835
 31
0.0
1001
ACAD
1010
0.0
1020
0.0
1030
0.0
  0
LINE
  5
A6E80
  8
0
 10
19112.23229158937
 20
2339.036426392835
 30
0.0
 11
19112.23229158937
 21
4313.036426392835
 31
0.0
1001
ACAD
1010
0.0
1020
0.0
1030
0.0
  0
LINE
  5
A6E81
  8
0
 10
18987.23229158937
 20
2339.036426392835
 30
0.0
 11
18987.23229158937
 21
4313.036426392835
 31
0.0
1001
ACAD
1010
0.0
1020
0.0
1030
0.0
  0
LINE
  5
A6E82
  8
0
 10
18862.23229158937
 20
2339.036426392835
 30
0.0
 11
18862.23229158937
 21
4313.036426392835
 31
0.0
1001
ACAD
1010
0.0
1020
0.0
1030
0.0
  0
LINE
  5
A6E83
  8
0
 10
18737.23229158937
 20
2339.036426392835
 30
0.0
 11
18737.23229158937
 21
4313.036426392835
 31
0.0
1001
ACAD
1010
0.0
1020
0.0
1030
0.0
  0
LINE
  5
A6E84
  8
0
 10
18612.23229158937
 20
2339.036426392835
 30
0.0
 11
18612.23229158937
 21
4313.036426392835
 31
0.0
1001
ACAD
1010
0.0
1020
0.0
1030
0.0
  0
LINE
  5
A6E85
  8
0
 10
18487.23229158937
 20
2339.036426392835
 30
0.0
 11
18487.23229158937
 21
4313.036426392835
 31
0.0
1001
ACAD
1010
0.0
1020
0.0
1030
0.0
  0
LINE
  5
A6E86
  8
0
 10
18362.23229158937
 20
2339.036426392835
 30
0.0
 11
18362.23229158937
 21
4313.036426392835
 31
0.0
1001
ACAD
1010
0.0
1020
0.0
1030
0.0
  0
LINE
  5
A6E87
  8
0
 10
18237.23229158937
 20
2339.036426392835
 30
0.0
 11
18237.23229158937
 21
4313.036426392835
 31
0.0
1001
ACAD
1010
0.0
1020
0.0
1030
0.0
  0
LINE
  5
A6E88
  8
0
 10
18112.23229158937
 20
2339.036426392835
 30
0.0
 11
18112.23229158937
 21
4313.036426392835
 31
0.0
1001
ACAD
1010
0.0
1020
0.0
1030
0.0
  0
LINE
  5
A6E89
  8
0
 10
17987.23229158937
 20
2339.036426392835
 30
0.0
 11
17987.23229158937
 21
4313.036426392835
 31
0.0
1001
ACAD
1010
0.0
1020
0.0
1030
0.0
  0
LINE
  5
A6E8A
  8
0
 10
17862.23229158937
 20
2339.036426392835
 30
0.0
 11
17862.23229158937
 21
4313.036426392835
 31
0.0
1001
ACAD
1010
0.0
1020
0.0
1030
0.0
  0
LINE
  5
A6E8B
  8
0
 10
17737.23229158937
 20
2339.036426392835
 30
0.0
 11
17737.23229158937
 21
4313.036426392835
 31
0.0
1001
ACAD
1010
0.0
1020
0.0
1030
0.0
  0
LINE
  5
A6E8C
  8
0
 10
17612.23229158937
 20
2339.036426392835
 30
0.0
 11
17612.23229158937
 21
4313.036426392835
 31
0.0
1001
ACAD
1010
0.0
1020
0.0
1030
0.0
  0
LINE
  5
A6E8D
  8
0
 10
17527.11111616107
 20
2379.011226058443
 30
0.0
 11
18497.11111616107
 21
2379.011226058443
 31
0.0
1001
ACAD
1010
0.0
1020
0.0
1030
0.0
  0
LINE
  5
A6E8E
  8
0
 10
18527.11111616106
 20
2379.011226058443
 30
0.0
 11
19497.11111616119
 21
2379.011226058443
 31
0.0
1001
ACAD
1010
0.0
1020
0.0
1030
0.0
  0
LINE
  5
A6E8F
  8
0
 10
17527.11111616107
 20
2504.011226058443
 30
0.0
 11
18497.11111616107
 21
2504.011226058443
 31
0.0
1001
ACAD
1010
0.0
1020
0.0
1030
0.0
  0
LINE
  5
A6E90
  8
0
 10
18527.11111616106
 20
2504.011226058443
 30
0.0
 11
19497.11111616119
 21
2504.011226058443
 31
0.0
1001
ACAD
1010
0.0
1020
0.0
1030
0.0
  0
LINE
  5
A6E91
  8
0
 10
17527.11111616107
 20
2629.011226058443
 30
0.0
 11
18497.11111616107
 21
2629.011226058443
 31
0.0
1001
ACAD
1010
0.0
1020
0.0
1030
0.0
  0
LINE
  5
A6E92
  8
0
 10
18527.11111616106
 20
2629.011226058443
 30
0.0
 11
19497.11111616119
 21
2629.011226058443
 31
0.0
1001
ACAD
1010
0.0
1020
0.0
1030
0.0
  0
LINE
  5
A6E93
  8
0
 10
17527.11111616107
 20
2754.011226058443
 30
0.0
 11
18497.11111616107
 21
2754.011226058443
 31
0.0
1001
ACAD
1010
0.0
1020
0.0
1030
0.0
  0
LINE
  5
A6E94
  8
0
 10
18527.11111616106
 20
2754.011226058443
 30
0.0
 11
19497.11111616119
 21
2754.011226058443
 31
0.0
1001
ACAD
1010
0.0
1020
0.0
1030
0.0
  0
LINE
  5
A6E95
  8
0
 10
17527.11111616107
 20
2879.011226058443
 30
0.0
 11
18497.11111616107
 21
2879.011226058443
 31
0.0
1001
ACAD
1010
0.0
1020
0.0
1030
0.0
  0
LINE
  5
A6E96
  8
0
 10
18527.11111616106
 20
2879.011226058443
 30
0.0
 11
19497.11111616119
 21
2879.011226058443
 31
0.0
1001
ACAD
1010
0.0
1020
0.0
1030
0.0
  0
LINE
  5
A6E97
  8
0
 10
17527.11111616107
 20
3004.011226058443
 30
0.0
 11
18497.11111616107
 21
3004.011226058443
 31
0.0
1001
ACAD
1010
0.0
1020
0.0
1030
0.0
  0
LINE
  5
A6E98
  8
0
 10
18527.11111616106
 20
3004.011226058443
 30
0.0
 11
19497.11111616119
 21
3004.011226058443
 31
0.0
1001
ACAD
1010
0.0
1020
0.0
1030
0.0
  0
LINE
  5
A6E99
  8
0
 10
17527.11111616107
 20
3129.011226058443
 30
0.0
 11
18497.11111616107
 21
3129.011226058443
 31
0.0
1001
ACAD
1010
0.0
1020
0.0
1030
0.0
  0
LINE
  5
A6E9A
  8
0
 10
18527.11111616106
 20
3129.011226058443
 30
0.0
 11
19497.11111616119
 21
3129.011226058443
 31
0.0
1001
ACAD
1010
0.0
1020
0.0
1030
0.0
  0
LINE
  5
A6E9B
  8
0
 10
17527.11111616107
 20
3254.011226058443
 30
0.0
 11
18497.11111616107
 21
3254.011226058443
 31
0.0
1001
ACAD
1010
0.0
1020
0.0
1030
0.0
  0
LINE
  5
A6E9C
  8
0
 10
18527.11111616106
 20
3254.011226058443
 30
0.0
 11
19497.11111616119
 21
3254.011226058443
 31
0.0
1001
ACAD
1010
0.0
1020
0.0
1030
0.0
  0
LINE
  5
A6E9D
  8
0
 10
17527.11111616107
 20
3379.011226058443
 30
0.0
 11
18497.11111616107
 21
3379.011226058443
 31
0.0
1001
ACAD
1010
0.0
1020
0.0
1030
0.0
  0
LINE
  5
A6E9E
  8
0
 10
18527.11111616106
 20
3379.011226058443
 30
0.0
 11
19497.11111616119
 21
3379.011226058443
 31
0.0
1001
ACAD
1010
0.0
1020
0.0
1030
0.0
  0
LINE
  5
A6E9F
  8
0
 10
17527.11111616107
 20
3504.011226058443
 30
0.0
 11
18497.11111616107
 21
3504.011226058443
 31
0.0
1001
ACAD
1010
0.0
1020
0.0
1030
0.0
  0
LINE
  5
A6EA0
  8
0
 10
18527.11111616106
 20
3504.011226058443
 30
0.0
 11
19497.11111616119
 21
3504.011226058443
 31
0.0
1001
ACAD
1010
0.0
1020
0.0
1030
0.0
  0
LINE
  5
A6EA1
  8
0
 10
17527.11111616107
 20
3629.011226058442
 30
0.0
 11
18497.11111616107
 21
3629.011226058442
 31
0.0
1001
ACAD
1010
0.0
1020
0.0
1030
0.0
  0
LINE
  5
A6EA2
  8
0
 10
18527.11111616106
 20
3629.011226058442
 30
0.0
 11
19497.11111616119
 21
3629.011226058442
 31
0.0
1001
ACAD
1010
0.0
1020
0.0
1030
0.0
  0
LINE
  5
A6EA3
  8
0
 10
17527.11111616107
 20
3754.011226058442
 30
0.0
 11
18497.11111616107
 21
3754.011226058442
 31
0.0
1001
ACAD
1010
0.0
1020
0.0
1030
0.0
  0
LINE
  5
A6EA4
  8
0
 10
18527.11111616106
 20
3754.011226058442
 30
0.0
 11
19497.11111616119
 21
3754.011226058442
 31
0.0
1001
ACAD
1010
0.0
1020
0.0
1030
0.0
  0
LINE
  5
A6EA5
  8
0
 10
17527.11111616107
 20
3879.011226058442
 30
0.0
 11
18497.11111616107
 21
3879.011226058442
 31
0.0
1001
ACAD
1010
0.0
1020
0.0
1030
0.0
  0
LINE
  5
A6EA6
  8
0
 10
18527.11111616106
 20
3879.011226058442
 30
0.0
 11
19497.11111616119
 21
3879.011226058442
 31
0.0
1001
ACAD
1010
0.0
1020
0.0
1030
0.0
  0
LINE
  5
A6EA7
  8
0
 10
17527.11111616107
 20
4004.011226058442
 30
0.0
 11
18497.11111616107
 21
4004.011226058442
 31
0.0
1001
ACAD
1010
0.0
1020
0.0
1030
0.0
  0
LINE
  5
A6EA8
  8
0
 10
18527.11111616106
 20
4004.011226058442
 30
0.0
 11
19497.11111616119
 21
4004.011226058442
 31
0.0
1001
ACAD
1010
0.0
1020
0.0
1030
0.0
  0
LINE
  5
A6EA9
  8
0
 10
17527.11111616107
 20
4129.011226058442
 30
0.0
 11
18497.11111616107
 21
4129.011226058442
 31
0.0
1001
ACAD
1010
0.0
1020
0.0
1030
0.0
  0
LINE
  5
A6EAA
  8
0
 10
18527.11111616106
 20
4129.011226058442
 30
0.0
 11
19497.11111616119
 21
4129.011226058442
 31
0.0
1001
ACAD
1010
0.0
1020
0.0
1030
0.0
  0
LINE
  5
A6EAB
  8
0
 10
17527.11111616107
 20
4254.011226058442
 30
0.0
 11
18497.11111616107
 21
4254.011226058442
 31
0.0
1001
ACAD
1010
0.0
1020
0.0
1030
0.0
  0
LINE
  5
A6EAC
  8
0
 10
18527.11111616106
 20
4254.011226058442
 30
0.0
 11
19497.11111616119
 21
4254.011226058442
 31
0.0
1001
ACAD
1010
0.0
1020
0.0
1030
0.0
  0
LINE
  5
A6EAD
  8
0
 10
22732.69473631098
 20
10251.30740641974
 30
0.0
 11
17223.39205753694
 21
10251.30740641974
 31
0.0
  0
POLYLINE
  5
A6EAE
  8
0
 66
     1
 10
0.0
 20
0.0
 30
0.0
 70
     1
  0
VERTEX
  5
AFE77
  8
0
 10
19337.11111616105
 20
16490.44289643322
 30
0.0
  0
VERTEX
  5
AFE78
  8
0
 10
19477.11111616104
 20
16490.44289643322
 30
0.0
  0
VERTEX
  5
AFE79
  8
0
 10
19477.11111616104
 20
16480.44289643322
 30
0.0
  0
VERTEX
  5
AFE7A
  8
0
 10
19337.11111616105
 20
16480.44289643322
 30
0.0
  0
SEQEND
  5
B0702
  8
0
  0
LINE
  5
A6EAF
  8
0
 10
19357.11111616105
 20
16490.44289643319
 30
0.0
 11
19457.11111616104
 21
16490.44289643319
 31
0.0
  0
CIRCLE
  5
A6EB0
  8
0
 10
19407.11111616104
 20
16522.94289643319
 30
0.0
 40
12.5
  0
CIRCLE
  5
A6EB1
  8
0
 10
19407.11111616104
 20
16522.94289643319
 30
0.0
 40
22.5
  0
POLYLINE
  5
A6EB8
  8
0
 66
     1
 10
0.0
 20
0.0
 30
0.0
 70
     1
  0
VERTEX
  5
AFE7B
  8
0
 10
19497.11111616105
 20
16480.44289643319
 30
0.0
  0
VERTEX
  5
AFE7C
  8
0
 10
19497.11111616105
 20
16445.44289643319
 30
0.0
  0
VERTEX
  5
AFE7D
  8
0
 10
17527.11111616104
 20
16445.44289643319
 30
0.0
  0
VERTEX
  5
AFE7E
  8
0
 10
17527.11111616104
 20
16480.44289643319
 30
0.0
  0
SEQEND
  5
B0703
  8
0
  0
POLYLINE
  5
A6EB9
  8
0
 66
     1
 10
0.0
 20
0.0
 30
0.0
 70
     1
  0
VERTEX
  5
AFE7F
  8
0
 10
17527.11111616104
 20
16480.44289643319
 30
0.0
  0
VERTEX
  5
AFE80
  8
0
 10
17527.11111616104
 20
14350.44289643319
 30
0.0
  0
VERTEX
  5
AFE81
  8
0
 10
17497.11111616106
 20
14350.44289643319
 30
0.0
  0
VERTEX
  5
AFE82
  8
0
 10
17497.11111616106
 20
16480.44289643319
 30
0.0
  0
SEQEND
  5
B0704
  8
0
  0
POLYLINE
  5
A6EBA
  8
0
 66
     1
 10
0.0
 20
0.0
 30
0.0
 70
     1
  0
VERTEX
  5
AFE83
  8
0
 10
19527.11111616104
 20
16480.44289643319
 30
0.0
  0
VERTEX
  5
AFE84
  8
0
 10
19527.11111616104
 20
14350.44289643319
 30
0.0
  0
VERTEX
  5
AFE85
  8
0
 10
19497.11111616116
 20
14350.44289643319
 30
0.0
  0
VERTEX
  5
AFE86
  8
0
 10
19497.11111616116
 20
16480.44289643319
 30
0.0
  0
SEQEND
  5
B0705
  8
0
  0
POLYLINE
  5
A6EBB
  8
0
 66
     1
 10
0.0
 20
0.0
 30
0.0
 70
     1
  0
VERTEX
  5
AFE87
  8
0
 10
19497.11111616116
 20
14350.44289643319
 30
0.0
  0
VERTEX
  5
AFE88
  8
0
 10
19497.11111616116
 20
14445.44289643348
 30
0.0
  0
VERTEX
  5
AFE89
  8
0
 10
17527.1111161608
 20
14445.44289643348
 30
0.0
  0
VERTEX
  5
AFE8A
  8
0
 10
17527.1111161608
 20
14350.44289643319
 30
0.0
  0
SEQEND
  5
B0706
  8
0
  0
POLYLINE
  5
A6EBC
  8
0
 66
     1
 10
0.0
 20
0.0
 30
0.0
 70
     1
  0
VERTEX
  5
AFE8B
  8
0
 10
17527.11111616104
 20
14445.44289643319
 30
0.0
  0
VERTEX
  5
AFE8C
  8
0
 10
17527.11111616104
 20
14471.44289643319
 30
0.0
  0
VERTEX
  5
AFE8D
  8
0
 10
18497.11111616104
 20
14471.44289643319
 30
0.0
  0
VERTEX
  5
AFE8E
  8
0
 10
18497.11111616104
 20
14445.44289643319
 30
0.0
  0
SEQEND
  5
B0707
  8
0
  0
POLYLINE
  5
A6EBD
  8
0
 66
     1
 10
0.0
 20
0.0
 30
0.0
 70
     1
  0
VERTEX
  5
AFE8F
  8
0
 10
18497.11111616104
 20
14445.44289643319
 30
0.0
  0
VERTEX
  5
AFE90
  8
0
 10
18497.11111616104
 20
16445.44289643319
 30
0.0
  0
VERTEX
  5
AFE91
  8
0
 10
18527.11111616105
 20
16445.44289643319
 30
0.0
  0
VERTEX
  5
AFE92
  8
0
 10
18527.11111616105
 20
14445.44289643319
 30
0.0
  0
SEQEND
  5
B0708
  8
0
  0
POLYLINE
  5
A6EBE
  8
0
 66
     1
 10
0.0
 20
0.0
 30
0.0
 70
     1
  0
VERTEX
  5
AFE93
  8
0
 10
19497.11111616105
 20
14471.44289643319
 30
0.0
  0
VERTEX
  5
AFE94
  8
0
 10
19497.11111616105
 20
14445.44289643319
 30
0.0
  0
VERTEX
  5
AFE95
  8
0
 10
18527.11111616105
 20
14445.44289643319
 30
0.0
  0
VERTEX
  5
AFE96
  8
0
 10
18527.11111616105
 20
14471.44289643319
 30
0.0
  0
SEQEND
  5
B0709
  8
0
  0
POLYLINE
  5
A6EBF
  8
0
 66
     1
 10
0.0
 20
0.0
 30
0.0
 70
     1
  0
VERTEX
  5
AFE97
  8
0
 10
19497.11111616128
 20
14871.4428964329
 30
0.0
  0
VERTEX
  5
AFE98
  8
0
 10
19497.11111616128
 20
14845.4428964329
 30
0.0
  0
VERTEX
  5
AFE99
  8
0
 10
18527.11111616126
 20
14845.4428964329
 30
0.0
  0
VERTEX
  5
AFE9A
  8
0
 10
18527.11111616126
 20
14871.4428964329
 30
0.0
  0
SEQEND
  5
B070A
  8
0
  0
POLYLINE
  5
A6EC0
  8
0
 66
     1
 10
0.0
 20
0.0
 30
0.0
 70
     1
  0
VERTEX
  5
AFE9B
  8
0
 10
17527.11111616126
 20
14845.4428964329
 30
0.0
  0
VERTEX
  5
AFE9C
  8
0
 10
17527.11111616126
 20
14871.4428964329
 30
0.0
  0
VERTEX
  5
AFE9D
  8
0
 10
18497.11111616128
 20
14871.4428964329
 30
0.0
  0
VERTEX
  5
AFE9E
  8
0
 10
18497.11111616128
 20
14845.4428964329
 30
0.0
  0
SEQEND
  5
B070B
  8
0
  0
POLYLINE
  5
A6EC1
  8
0
 66
     1
 10
0.0
 20
0.0
 30
0.0
 70
     1
  0
VERTEX
  5
AFE9F
  8
0
 10
19497.11111616128
 20
15271.4428964329
 30
0.0
  0
VERTEX
  5
AFEA0
  8
0
 10
19497.11111616128
 20
15245.4428964329
 30
0.0
  0
VERTEX
  5
AFEA1
  8
0
 10
18527.11111616126
 20
15245.4428964329
 30
0.0
  0
VERTEX
  5
AFEA2
  8
0
 10
18527.11111616126
 20
15271.4428964329
 30
0.0
  0
SEQEND
  5
B070C
  8
0
  0
POLYLINE
  5
A6EC2
  8
0
 66
     1
 10
0.0
 20
0.0
 30
0.0
 70
     1
  0
VERTEX
  5
AFEA3
  8
0
 10
17527.11111616126
 20
15245.4428964329
 30
0.0
  0
VERTEX
  5
AFEA4
  8
0
 10
17527.11111616126
 20
15271.4428964329
 30
0.0
  0
VERTEX
  5
AFEA5
  8
0
 10
18497.11111616128
 20
15271.4428964329
 30
0.0
  0
VERTEX
  5
AFEA6
  8
0
 10
18497.11111616128
 20
15245.4428964329
 30
0.0
  0
SEQEND
  5
B070D
  8
0
  0
POLYLINE
  5
A6EC3
  8
0
 66
     1
 10
0.0
 20
0.0
 30
0.0
 70
     1
  0
VERTEX
  5
AFEA7
  8
0
 10
19497.11111616128
 20
15671.4428964329
 30
0.0
  0
VERTEX
  5
AFEA8
  8
0
 10
19497.11111616128
 20
15645.4428964329
 30
0.0
  0
VERTEX
  5
AFEA9
  8
0
 10
18527.11111616126
 20
15645.4428964329
 30
0.0
  0
VERTEX
  5
AFEAA
  8
0
 10
18527.11111616126
 20
15671.4428964329
 30
0.0
  0
SEQEND
  5
B070E
  8
0
  0
POLYLINE
  5
A6EC4
  8
0
 66
     1
 10
0.0
 20
0.0
 30
0.0
 70
     1
  0
VERTEX
  5
AFEAB
  8
0
 10
17527.11111616126
 20
15645.4428964329
 30
0.0
  0
VERTEX
  5
AFEAC
  8
0
 10
17527.11111616126
 20
15671.4428964329
 30
0.0
  0
VERTEX
  5
AFEAD
  8
0
 10
18497.11111616128
 20
15671.4428964329
 30
0.0
  0
VERTEX
  5
AFEAE
  8
0
 10
18497.11111616128
 20
15645.4428964329
 30
0.0
  0
SEQEND
  5
B070F
  8
0
  0
POLYLINE
  5
A6EC5
  8
0
 66
     1
 10
0.0
 20
0.0
 30
0.0
 70
     1
  0
VERTEX
  5
AFEAF
  8
0
 10
19497.11111616128
 20
16071.4428964329
 30
0.0
  0
VERTEX
  5
AFEB0
  8
0
 10
19497.11111616128
 20
16045.4428964329
 30
0.0
  0
VERTEX
  5
AFEB1
  8
0
 10
18527.11111616126
 20
16045.4428964329
 30
0.0
  0
VERTEX
  5
AFEB2
  8
0
 10
18527.11111616126
 20
16071.4428964329
 30
0.0
  0
SEQEND
  5
B0710
  8
0
  0
POLYLINE
  5
A6EC6
  8
0
 66
     1
 10
0.0
 20
0.0
 30
0.0
 70
     1
  0
VERTEX
  5
AFEB3
  8
0
 10
17527.11111616126
 20
16045.4428964329
 30
0.0
  0
VERTEX
  5
AFEB4
  8
0
 10
17527.11111616126
 20
16071.4428964329
 30
0.0
  0
VERTEX
  5
AFEB5
  8
0
 10
18497.11111616128
 20
16071.4428964329
 30
0.0
  0
VERTEX
  5
AFEB6
  8
0
 10
18497.11111616128
 20
16045.4428964329
 30
0.0
  0
SEQEND
  5
B0711
  8
0
  0
POLYLINE
  5
A6EC7
  8
0
 66
     1
 10
0.0
 20
0.0
 30
0.0
 70
     1
  0
VERTEX
  5
AFEB7
  8
0
 10
19429.61111616105
 20
16500.44289643322
 30
0.0
  0
VERTEX
  5
AFEB8
  8
0
 10
19429.61111616105
 20
16522.94289643322
 30
0.0
 42
-1.0
  0
VERTEX
  5
AFEB9
  8
0
 10
19384.61111616105
 20
16522.94289643322
 30
0.0
  0
VERTEX
  5
AFEBA
  8
0
 10
19384.61111616105
 20
16500.44289643319
 30
0.0
  0
VERTEX
  5
AFEBB
  8
0
 10
19367.11111616104
 20
16500.44289643322
 30
0.0
  0
VERTEX
  5
AFEBC
  8
0
 10
19357.11111616105
 20
16490.44289643319
 30
0.0
  0
VERTEX
  5
AFEBD
  8
0
 10
19457.11111616104
 20
16490.44289643319
 30
0.0
  0
VERTEX
  5
AFEBE
  8
0
 10
19447.11111616104
 20
16500.44289643322
 30
0.0
  0
SEQEND
  5
B0712
  8
0
  0
LINE
  5
A6EC8
  8
0
 10
18989.61111616104
 20
14350.44289643319
 30
0.0
 11
18989.61111616104
 21
14325.44289643319
 31
0.0
  0
LINE
  5
A6EC9
  8
0
 10
18989.61111616104
 20
14350.44289643319
 30
0.0
 11
18989.61111616104
 21
14325.44289643319
 31
0.0
  0
LINE
  5
A6ECA
  8
0
 10
19034.61111616104
 20
14325.44289643319
 30
0.0
 11
18989.61111616104
 21
14325.44289643319
 31
0.0
  0
LINE
  5
A6ECB
  8
0
 10
19034.61111616104
 20
14325.44289643319
 30
0.0
 11
18989.61111616104
 21
14325.44289643319
 31
0.0
  0
LINE
  5
A6ECC
  8
0
 10
18999.61111616104
 20
14325.44289643319
 30
0.0
 11
18999.61111616104
 21
14300.44289643319
 31
0.0
  0
LINE
  5
A6ECD
  8
0
 10
18999.61111616104
 20
14325.44289643319
 30
0.0
 11
18999.61111616104
 21
14300.44289643319
 31
0.0
  0
LINE
  5
A6ECE
  8
0
 10
19034.61111616104
 20
14325.44289643319
 30
0.0
 11
18989.61111616104
 21
14325.44289643319
 31
0.0
  0
LINE
  5
A6ECF
  8
0
 10
19034.61111616104
 20
14325.44289643319
 30
0.0
 11
18989.61111616104
 21
14325.44289643319
 31
0.0
  0
LINE
  5
A6ED0
  8
0
 10
18999.61111616104
 20
14325.44289643319
 30
0.0
 11
18999.61111616104
 21
14300.44289643319
 31
0.0
  0
LINE
  5
A6ED1
  8
0
 10
18999.61111616104
 20
14325.44289643319
 30
0.0
 11
18999.61111616104
 21
14300.44289643319
 31
0.0
  0
LINE
  5
A6ED2
  8
0
 10
18989.61111616104
 20
14350.44289643319
 30
0.0
 11
18989.61111616104
 21
14325.44289643319
 31
0.0
  0
LINE
  5
A6ED3
  8
0
 10
18989.61111616104
 20
14350.44289643319
 30
0.0
 11
18989.61111616104
 21
14325.44289643319
 31
0.0
  0
LINE
  5
A6ED4
  8
0
 10
17989.61111616104
 20
14350.44289643319
 30
0.0
 11
17989.61111616104
 21
14325.44289643319
 31
0.0
  0
LINE
  5
A6ED5
  8
0
 10
17989.61111616104
 20
14350.44289643319
 30
0.0
 11
17989.61111616104
 21
14325.44289643319
 31
0.0
  0
LINE
  5
A6ED6
  8
0
 10
18034.61111616105
 20
14325.44289643319
 30
0.0
 11
17989.61111616104
 21
14325.44289643319
 31
0.0
  0
LINE
  5
A6ED7
  8
0
 10
18034.61111616105
 20
14325.44289643319
 30
0.0
 11
17989.61111616104
 21
14325.44289643319
 31
0.0
  0
LINE
  5
A6ED8
  8
0
 10
17999.61111616104
 20
14325.44289643319
 30
0.0
 11
17999.61111616104
 21
14300.44289643319
 31
0.0
  0
LINE
  5
A6ED9
  8
0
 10
17999.61111616104
 20
14325.44289643319
 30
0.0
 11
17999.61111616104
 21
14300.44289643319
 31
0.0
  0
LINE
  5
A6EDA
  8
0
 10
18034.61111616105
 20
14325.44289643319
 30
0.0
 11
17989.61111616104
 21
14325.44289643319
 31
0.0
  0
LINE
  5
A6EDB
  8
0
 10
18034.61111616105
 20
14325.44289643319
 30
0.0
 11
17989.61111616104
 21
14325.44289643319
 31
0.0
  0
LINE
  5
A6EDC
  8
0
 10
17999.61111616104
 20
14325.44289643319
 30
0.0
 11
17999.61111616104
 21
14300.44289643319
 31
0.0
  0
LINE
  5
A6EDD
  8
0
 10
17999.61111616104
 20
14325.44289643319
 30
0.0
 11
17999.61111616104
 21
14300.44289643319
 31
0.0
  0
LINE
  5
A6EDE
  8
0
 10
17989.61111616104
 20
14350.44289643319
 30
0.0
 11
17989.61111616104
 21
14325.44289643319
 31
0.0
  0
LINE
  5
A6EDF
  8
0
 10
17989.61111616104
 20
14350.44289643319
 30
0.0
 11
17989.61111616104
 21
14325.44289643319
 31
0.0
  0
POLYLINE
  5
A6EE0
  8
0
 66
     1
 10
0.0
 20
0.0
 30
0.0
 70
     1
  0
VERTEX
  5
AFEBF
  8
0
 10
18034.61111616105
 20
14350.44289643319
 30
0.0
  0
VERTEX
  5
AFEC0
  8
0
 10
18034.61111616105
 20
14325.44289643319
 30
0.0
  0
VERTEX
  5
AFEC1
  8
0
 10
17989.61111616104
 20
14325.44289643319
 30
0.0
  0
VERTEX
  5
AFEC2
  8
0
 10
17989.61111616104
 20
14350.44289643319
 30
0.0
  0
SEQEND
  5
B0713
  8
0
  0
POLYLINE
  5
A6EE1
  8
0
 66
     1
 10
0.0
 20
0.0
 30
0.0
 70
     1
  0
VERTEX
  5
AFEC3
  8
0
 10
18024.61111616104
 20
14325.44289643319
 30
0.0
  0
VERTEX
  5
AFEC4
  8
0
 10
18024.61111616104
 20
14300.44289643319
 30
0.0
  0
VERTEX
  5
AFEC5
  8
0
 10
17999.61111616104
 20
14300.44289643319
 30
0.0
  0
VERTEX
  5
AFEC6
  8
0
 10
17999.61111616104
 20
14325.44289643319
 30
0.0
  0
SEQEND
  5
B0714
  8
0
  0
LINE
  5
A6EE2
  8
0
 10
18989.61111616104
 20
14350.44289643319
 30
0.0
 11
18989.61111616104
 21
14325.44289643319
 31
0.0
  0
LINE
  5
A6EE3
  8
0
 10
18989.61111616104
 20
14350.44289643319
 30
0.0
 11
18989.61111616104
 21
14325.44289643319
 31
0.0
  0
LINE
  5
A6EE4
  8
0
 10
19034.61111616104
 20
14325.44289643319
 30
0.0
 11
18989.61111616104
 21
14325.44289643319
 31
0.0
  0
LINE
  5
A6EE5
  8
0
 10
19034.61111616104
 20
14325.44289643319
 30
0.0
 11
18989.61111616104
 21
14325.44289643319
 31
0.0
  0
LINE
  5
A6EE6
  8
0
 10
18999.61111616104
 20
14325.44289643319
 30
0.0
 11
18999.61111616104
 21
14300.44289643319
 31
0.0
  0
LINE
  5
A6EE7
  8
0
 10
18999.61111616104
 20
14325.44289643319
 30
0.0
 11
18999.61111616104
 21
14300.44289643319
 31
0.0
  0
LINE
  5
A6EE8
  8
0
 10
19034.61111616104
 20
14325.44289643319
 30
0.0
 11
18989.61111616104
 21
14325.44289643319
 31
0.0
  0
LINE
  5
A6EE9
  8
0
 10
19034.61111616104
 20
14325.44289643319
 30
0.0
 11
18989.61111616104
 21
14325.44289643319
 31
0.0
  0
LINE
  5
A6EEA
  8
0
 10
18999.61111616104
 20
14325.44289643319
 30
0.0
 11
18999.61111616104
 21
14300.44289643319
 31
0.0
  0
LINE
  5
A6EEB
  8
0
 10
18999.61111616104
 20
14325.44289643319
 30
0.0
 11
18999.61111616104
 21
14300.44289643319
 31
0.0
  0
LINE
  5
A6EEC
  8
0
 10
18989.61111616104
 20
14350.44289643319
 30
0.0
 11
18989.61111616104
 21
14325.44289643319
 31
0.0
  0
LINE
  5
A6EED
  8
0
 10
18989.61111616104
 20
14350.44289643319
 30
0.0
 11
18989.61111616104
 21
14325.44289643319
 31
0.0
  0
POLYLINE
  5
A6EEE
  8
0
 66
     1
 10
0.0
 20
0.0
 30
0.0
 70
     1
  0
VERTEX
  5
AFEC7
  8
0
 10
19034.61111616104
 20
14350.44289643319
 30
0.0
  0
VERTEX
  5
AFEC8
  8
0
 10
19034.61111616104
 20
14325.44289643319
 30
0.0
  0
VERTEX
  5
AFEC9
  8
0
 10
18989.61111616104
 20
14325.44289643319
 30
0.0
  0
VERTEX
  5
AFECA
  8
0
 10
18989.61111616104
 20
14350.44289643319
 30
0.0
  0
SEQEND
  5
B0715
  8
0
  0
POLYLINE
  5
A6EEF
  8
0
 66
     1
 10
0.0
 20
0.0
 30
0.0
 70
     1
  0
VERTEX
  5
AFECB
  8
0
 10
19024.61111616105
 20
14325.44289643319
 30
0.0
  0
VERTEX
  5
AFECC
  8
0
 10
19024.61111616105
 20
14300.44289643319
 30
0.0
  0
VERTEX
  5
AFECD
  8
0
 10
18999.61111616104
 20
14300.44289643319
 30
0.0
  0
VERTEX
  5
AFECE
  8
0
 10
18999.61111616104
 20
14325.44289643319
 30
0.0
  0
SEQEND
  5
B0716
  8
0
  0
POLYLINE
  5
A6EF0
  8
0
 66
     1
 10
0.0
 20
0.0
 30
0.0
 70
     1
  0
VERTEX
  5
AFECF
  8
0
 10
19337.11111616106
 20
12446.30740641976
 30
0.0
  0
VERTEX
  5
AFED0
  8
0
 10
19477.11111616106
 20
12446.30740641976
 30
0.0
  0
VERTEX
  5
AFED1
  8
0
 10
19477.11111616106
 20
12436.30740641976
 30
0.0
  0
VERTEX
  5
AFED2
  8
0
 10
19337.11111616106
 20
12436.30740641976
 30
0.0
  0
SEQEND
  5
B0717
  8
0
  0
LINE
  5
A6EF1
  8
0
 10
19357.11111616106
 20
12446.30740641973
 30
0.0
 11
19457.11111616106
 21
12446.30740641973
 31
0.0
  0
CIRCLE
  5
A6EF2
  8
0
 10
19407.11111616106
 20
12478.80740641973
 30
0.0
 40
12.5
  0
CIRCLE
  5
A6EF3
  8
0
 10
19407.11111616106
 20
12478.80740641973
 30
0.0
 40
22.5
  0
POLYLINE
  5
A6EF9
  8
0
 66
     1
 10
0.0
 20
0.0
 30
0.0
 70
     1
  0
VERTEX
  5
AFED3
  8
0
 10
19497.11111616106
 20
12436.30740641973
 30
0.0
  0
VERTEX
  5
AFED4
  8
0
 10
19497.11111616106
 20
12401.30740641973
 30
0.0
  0
VERTEX
  5
AFED5
  8
0
 10
17527.11111616106
 20
12401.30740641973
 30
0.0
  0
VERTEX
  5
AFED6
  8
0
 10
17527.11111616106
 20
12436.30740641973
 30
0.0
  0
SEQEND
  5
B0718
  8
0
  0
POLYLINE
  5
A6EFB
  8
0
 66
     1
 10
0.0
 20
0.0
 30
0.0
 70
     1
  0
VERTEX
  5
AFED7
  8
0
 10
17527.11111616106
 20
12436.30740641973
 30
0.0
  0
VERTEX
  5
AFED8
  8
0
 10
17527.11111616106
 20
10306.30740641973
 30
0.0
  0
VERTEX
  5
AFED9
  8
0
 10
17497.11111616106
 20
10306.30740641973
 30
0.0
  0
VERTEX
  5
AFEDA
  8
0
 10
17497.11111616106
 20
12436.30740641973
 30
0.0
  0
SEQEND
  5
B0719
  8
0
  0
POLYLINE
  5
A6EFC
  8
0
 66
     1
 10
0.0
 20
0.0
 30
0.0
 70
     1
  0
VERTEX
  5
AFEDB
  8
0
 10
19527.11111616106
 20
12436.30740641973
 30
0.0
  0
VERTEX
  5
AFEDC
  8
0
 10
19527.11111616106
 20
10306.30740641973
 30
0.0
  0
VERTEX
  5
AFEDD
  8
0
 10
19497.11111616118
 20
10306.30740641973
 30
0.0
  0
VERTEX
  5
AFEDE
  8
0
 10
19497.11111616118
 20
12436.30740641973
 30
0.0
  0
SEQEND
  5
B071A
  8
0
  0
POLYLINE
  5
A6EFD
  8
0
 66
     1
 10
0.0
 20
0.0
 30
0.0
 70
     1
  0
VERTEX
  5
AFEDF
  8
0
 10
19497.11111616118
 20
10306.30740641973
 30
0.0
  0
VERTEX
  5
AFEE0
  8
0
 10
19497.11111616118
 20
10401.30740642002
 30
0.0
  0
VERTEX
  5
AFEE1
  8
0
 10
17527.11111616081
 20
10401.30740642002
 30
0.0
  0
VERTEX
  5
AFEE2
  8
0
 10
17527.11111616081
 20
10306.30740641973
 30
0.0
  0
SEQEND
  5
B071B
  8
0
  0
POLYLINE
  5
A6EFE
  8
0
 66
     1
 10
0.0
 20
0.0
 30
0.0
 70
     1
  0
VERTEX
  5
AFEE3
  8
0
 10
17527.11111616106
 20
10401.30740641973
 30
0.0
  0
VERTEX
  5
AFEE4
  8
0
 10
17527.11111616106
 20
10427.30740641973
 30
0.0
  0
VERTEX
  5
AFEE5
  8
0
 10
18497.11111616106
 20
10427.30740641973
 30
0.0
  0
VERTEX
  5
AFEE6
  8
0
 10
18497.11111616106
 20
10401.30740641973
 30
0.0
  0
SEQEND
  5
B071C
  8
0
  0
POLYLINE
  5
A6EFF
  8
0
 66
     1
 10
0.0
 20
0.0
 30
0.0
 70
     1
  0
VERTEX
  5
AFEE7
  8
0
 10
18497.11111616106
 20
10401.30740641973
 30
0.0
  0
VERTEX
  5
AFEE8
  8
0
 10
18497.11111616106
 20
12401.30740641973
 30
0.0
  0
VERTEX
  5
AFEE9
  8
0
 10
18527.11111616106
 20
12401.30740641973
 30
0.0
  0
VERTEX
  5
AFEEA
  8
0
 10
18527.11111616106
 20
10401.30740641973
 30
0.0
  0
SEQEND
  5
B071D
  8
0
  0
POLYLINE
  5
A6F00
  8
0
 66
     1
 10
0.0
 20
0.0
 30
0.0
 70
     1
  0
VERTEX
  5
AFEEB
  8
0
 10
19497.11111616106
 20
10427.30740641973
 30
0.0
  0
VERTEX
  5
AFEEC
  8
0
 10
19497.11111616106
 20
10401.30740641973
 30
0.0
  0
VERTEX
  5
AFEED
  8
0
 10
18527.11111616106
 20
10401.30740641973
 30
0.0
  0
VERTEX
  5
AFEEE
  8
0
 10
18527.11111616106
 20
10427.30740641973
 30
0.0
  0
SEQEND
  5
B071E
  8
0
  0
POLYLINE
  5
A6F01
  8
0
 66
     1
 10
0.0
 20
0.0
 30
0.0
 70
     1
  0
VERTEX
  5
AFEEF
  8
0
 10
19497.1111161613
 20
10677.30740641944
 30
0.0
  0
VERTEX
  5
AFEF0
  8
0
 10
19497.1111161613
 20
10651.30740641943
 30
0.0
  0
VERTEX
  5
AFEF1
  8
0
 10
18527.1111161613
 20
10651.30740641943
 30
0.0
  0
VERTEX
  5
AFEF2
  8
0
 10
18527.1111161613
 20
10677.30740641944
 30
0.0
  0
SEQEND
  5
B071F
  8
0
  0
POLYLINE
  5
A6F02
  8
0
 66
     1
 10
0.0
 20
0.0
 30
0.0
 70
     1
  0
VERTEX
  5
AFEF3
  8
0
 10
17527.1111161613
 20
10651.30740641943
 30
0.0
  0
VERTEX
  5
AFEF4
  8
0
 10
17527.1111161613
 20
10677.30740641944
 30
0.0
  0
VERTEX
  5
AFEF5
  8
0
 10
18497.11111616129
 20
10677.30740641944
 30
0.0
  0
VERTEX
  5
AFEF6
  8
0
 10
18497.11111616129
 20
10651.30740641943
 30
0.0
  0
SEQEND
  5
B0720
  8
0
  0
POLYLINE
  5
A6F03
  8
0
 66
     1
 10
0.0
 20
0.0
 30
0.0
 70
     1
  0
VERTEX
  5
AFEF7
  8
0
 10
19497.1111161613
 20
10927.30740641944
 30
0.0
  0
VERTEX
  5
AFEF8
  8
0
 10
19497.1111161613
 20
10901.30740641944
 30
0.0
  0
VERTEX
  5
AFEF9
  8
0
 10
18527.1111161613
 20
10901.30740641944
 30
0.0
  0
VERTEX
  5
AFEFA
  8
0
 10
18527.1111161613
 20
10927.30740641944
 30
0.0
  0
SEQEND
  5
B0721
  8
0
  0
POLYLINE
  5
A6F04
  8
0
 66
     1
 10
0.0
 20
0.0
 30
0.0
 70
     1
  0
VERTEX
  5
AFEFB
  8
0
 10
17527.1111161613
 20
10901.30740641944
 30
0.0
  0
VERTEX
  5
AFEFC
  8
0
 10
17527.1111161613
 20
10927.30740641944
 30
0.0
  0
VERTEX
  5
AFEFD
  8
0
 10
18497.11111616129
 20
10927.30740641944
 30
0.0
  0
VERTEX
  5
AFEFE
  8
0
 10
18497.11111616129
 20
10901.30740641944
 30
0.0
  0
SEQEND
  5
B0722
  8
0
  0
POLYLINE
  5
A6F05
  8
0
 66
     1
 10
0.0
 20
0.0
 30
0.0
 70
     1
  0
VERTEX
  5
AFEFF
  8
0
 10
19497.1111161613
 20
11177.30740641944
 30
0.0
  0
VERTEX
  5
AFF00
  8
0
 10
19497.1111161613
 20
11151.30740641944
 30
0.0
  0
VERTEX
  5
AFF01
  8
0
 10
18527.1111161613
 20
11151.30740641944
 30
0.0
  0
VERTEX
  5
AFF02
  8
0
 10
18527.1111161613
 20
11177.30740641944
 30
0.0
  0
SEQEND
  5
B0723
  8
0
  0
POLYLINE
  5
A6F06
  8
0
 66
     1
 10
0.0
 20
0.0
 30
0.0
 70
     1
  0
VERTEX
  5
AFF03
  8
0
 10
17527.1111161613
 20
11151.30740641944
 30
0.0
  0
VERTEX
  5
AFF04
  8
0
 10
17527.1111161613
 20
11177.30740641944
 30
0.0
  0
VERTEX
  5
AFF05
  8
0
 10
18497.11111616129
 20
11177.30740641944
 30
0.0
  0
VERTEX
  5
AFF06
  8
0
 10
18497.11111616129
 20
11151.30740641944
 30
0.0
  0
SEQEND
  5
B0724
  8
0
  0
POLYLINE
  5
A6F07
  8
0
 66
     1
 10
0.0
 20
0.0
 30
0.0
 70
     1
  0
VERTEX
  5
AFF07
  8
0
 10
19497.1111161613
 20
11427.30740641944
 30
0.0
  0
VERTEX
  5
AFF08
  8
0
 10
19497.1111161613
 20
11401.30740641944
 30
0.0
  0
VERTEX
  5
AFF09
  8
0
 10
18527.1111161613
 20
11401.30740641944
 30
0.0
  0
VERTEX
  5
AFF0A
  8
0
 10
18527.1111161613
 20
11427.30740641944
 30
0.0
  0
SEQEND
  5
B0725
  8
0
  0
POLYLINE
  5
A6F08
  8
0
 66
     1
 10
0.0
 20
0.0
 30
0.0
 70
     1
  0
VERTEX
  5
AFF0B
  8
0
 10
17527.1111161613
 20
11401.30740641944
 30
0.0
  0
VERTEX
  5
AFF0C
  8
0
 10
17527.1111161613
 20
11427.30740641944
 30
0.0
  0
VERTEX
  5
AFF0D
  8
0
 10
18497.11111616129
 20
11427.30740641944
 30
0.0
  0
VERTEX
  5
AFF0E
  8
0
 10
18497.11111616129
 20
11401.30740641944
 30
0.0
  0
SEQEND
  5
B0726
  8
0
  0
POLYLINE
  5
A6F09
  8
0
 66
     1
 10
0.0
 20
0.0
 30
0.0
 70
     1
  0
VERTEX
  5
AFF0F
  8
0
 10
19429.61111616106
 20
12456.30740641976
 30
0.0
  0
VERTEX
  5
AFF10
  8
0
 10
19429.61111616106
 20
12478.80740641976
 30
0.0
 42
-1.0
  0
VERTEX
  5
AFF11
  8
0
 10
19384.61111616106
 20
12478.80740641976
 30
0.0
  0
VERTEX
  5
AFF12
  8
0
 10
19384.61111616106
 20
12456.30740641973
 30
0.0
  0
VERTEX
  5
AFF13
  8
0
 10
19367.11111616106
 20
12456.30740641976
 30
0.0
  0
VERTEX
  5
AFF14
  8
0
 10
19357.11111616106
 20
12446.30740641973
 30
0.0
  0
VERTEX
  5
AFF15
  8
0
 10
19457.11111616106
 20
12446.30740641973
 30
0.0
  0
VERTEX
  5
AFF16
  8
0
 10
19447.11111616106
 20
12456.30740641976
 30
0.0
  0
SEQEND
  5
B0727
  8
0
  0
LINE
  5
A6F0A
  8
0
 10
18989.61111616106
 20
10306.30740641973
 30
0.0
 11
18989.61111616106
 21
10281.30740641973
 31
0.0
  0
LINE
  5
A6F0B
  8
0
 10
18989.61111616106
 20
10306.30740641973
 30
0.0
 11
18989.61111616106
 21
10281.30740641973
 31
0.0
  0
LINE
  5
A6F0C
  8
0
 10
19034.61111616106
 20
10281.30740641973
 30
0.0
 11
18989.61111616106
 21
10281.30740641973
 31
0.0
  0
LINE
  5
A6F0D
  8
0
 10
19034.61111616106
 20
10281.30740641973
 30
0.0
 11
18989.61111616106
 21
10281.30740641973
 31
0.0
  0
LINE
  5
A6F0E
  8
0
 10
18999.61111616106
 20
10281.30740641973
 30
0.0
 11
18999.61111616106
 21
10256.30740641973
 31
0.0
  0
LINE
  5
A6F0F
  8
0
 10
18999.61111616106
 20
10281.30740641973
 30
0.0
 11
18999.61111616106
 21
10256.30740641973
 31
0.0
  0
LINE
  5
A6F10
  8
0
 10
19034.61111616106
 20
10281.30740641973
 30
0.0
 11
18989.61111616106
 21
10281.30740641973
 31
0.0
  0
LINE
  5
A6F11
  8
0
 10
19034.61111616106
 20
10281.30740641973
 30
0.0
 11
18989.61111616106
 21
10281.30740641973
 31
0.0
  0
LINE
  5
A6F12
  8
0
 10
18999.61111616106
 20
10281.30740641973
 30
0.0
 11
18999.61111616106
 21
10256.30740641973
 31
0.0
  0
LINE
  5
A6F13
  8
0
 10
18999.61111616106
 20
10281.30740641973
 30
0.0
 11
18999.61111616106
 21
10256.30740641973
 31
0.0
  0
LINE
  5
A6F14
  8
0
 10
18989.61111616106
 20
10306.30740641973
 30
0.0
 11
18989.61111616106
 21
10281.30740641973
 31
0.0
  0
LINE
  5
A6F15
  8
0
 10
18989.61111616106
 20
10306.30740641973
 30
0.0
 11
18989.61111616106
 21
10281.30740641973
 31
0.0
  0
LINE
  5
A6F16
  8
0
 10
17989.61111616106
 20
10306.30740641973
 30
0.0
 11
17989.61111616106
 21
10281.30740641973
 31
0.0
  0
LINE
  5
A6F17
  8
0
 10
17989.61111616106
 20
10306.30740641973
 30
0.0
 11
17989.61111616106
 21
10281.30740641973
 31
0.0
  0
LINE
  5
A6F18
  8
0
 10
18034.61111616106
 20
10281.30740641973
 30
0.0
 11
17989.61111616106
 21
10281.30740641973
 31
0.0
  0
LINE
  5
A6F19
  8
0
 10
18034.61111616106
 20
10281.30740641973
 30
0.0
 11
17989.61111616106
 21
10281.30740641973
 31
0.0
  0
LINE
  5
A6F1A
  8
0
 10
17999.61111616106
 20
10281.30740641973
 30
0.0
 11
17999.61111616106
 21
10256.30740641973
 31
0.0
  0
LINE
  5
A6F1B
  8
0
 10
17999.61111616106
 20
10281.30740641973
 30
0.0
 11
17999.61111616106
 21
10256.30740641973
 31
0.0
  0
LINE
  5
A6F1C
  8
0
 10
18034.61111616106
 20
10281.30740641973
 30
0.0
 11
17989.61111616106
 21
10281.30740641973
 31
0.0
  0
LINE
  5
A6F1D
  8
0
 10
18034.61111616106
 20
10281.30740641973
 30
0.0
 11
17989.61111616106
 21
10281.30740641973
 31
0.0
  0
LINE
  5
A6F1E
  8
0
 10
17999.61111616106
 20
10281.30740641973
 30
0.0
 11
17999.61111616106
 21
10256.30740641973
 31
0.0
  0
LINE
  5
A6F1F
  8
0
 10
17999.61111616106
 20
10281.30740641973
 30
0.0
 11
17999.61111616106
 21
10256.30740641973
 31
0.0
  0
LINE
  5
A6F20
  8
0
 10
17989.61111616106
 20
10306.30740641973
 30
0.0
 11
17989.61111616106
 21
10281.30740641973
 31
0.0
  0
LINE
  5
A6F21
  8
0
 10
17989.61111616106
 20
10306.30740641973
 30
0.0
 11
17989.61111616106
 21
10281.30740641973
 31
0.0
  0
POLYLINE
  5
A6F22
  8
0
 66
     1
 10
0.0
 20
0.0
 30
0.0
 70
     1
  0
VERTEX
  5
AFF17
  8
0
 10
18034.61111616106
 20
10306.30740641973
 30
0.0
  0
VERTEX
  5
AFF18
  8
0
 10
18034.61111616106
 20
10281.30740641973
 30
0.0
  0
VERTEX
  5
AFF19
  8
0
 10
17989.61111616106
 20
10281.30740641973
 30
0.0
  0
VERTEX
  5
AFF1A
  8
0
 10
17989.61111616106
 20
10306.30740641973
 30
0.0
  0
SEQEND
  5
B0728
  8
0
  0
POLYLINE
  5
A6F23
  8
0
 66
     1
 10
0.0
 20
0.0
 30
0.0
 70
     1
  0
VERTEX
  5
AFF1B
  8
0
 10
18024.61111616106
 20
10281.30740641973
 30
0.0
  0
VERTEX
  5
AFF1C
  8
0
 10
18024.61111616106
 20
10256.30740641973
 30
0.0
  0
VERTEX
  5
AFF1D
  8
0
 10
17999.61111616106
 20
10256.30740641973
 30
0.0
  0
VERTEX
  5
AFF1E
  8
0
 10
17999.61111616106
 20
10281.30740641973
 30
0.0
  0
SEQEND
  5
B0729
  8
0
  0
LINE
  5
A6F24
  8
0
 10
18989.61111616106
 20
10306.30740641973
 30
0.0
 11
18989.61111616106
 21
10281.30740641973
 31
0.0
  0
LINE
  5
A6F25
  8
0
 10
18989.61111616106
 20
10306.30740641973
 30
0.0
 11
18989.61111616106
 21
10281.30740641973
 31
0.0
  0
LINE
  5
A6F26
  8
0
 10
19034.61111616106
 20
10281.30740641973
 30
0.0
 11
18989.61111616106
 21
10281.30740641973
 31
0.0
  0
LINE
  5
A6F27
  8
0
 10
19034.61111616106
 20
10281.30740641973
 30
0.0
 11
18989.61111616106
 21
10281.30740641973
 31
0.0
  0
LINE
  5
A6F28
  8
0
 10
18999.61111616106
 20
10281.30740641973
 30
0.0
 11
18999.61111616106
 21
10256.30740641973
 31
0.0
  0
LINE
  5
A6F29
  8
0
 10
18999.61111616106
 20
10281.30740641973
 30
0.0
 11
18999.61111616106
 21
10256.30740641973
 31
0.0
  0
LINE
  5
A6F2A
  8
0
 10
19034.61111616106
 20
10281.30740641973
 30
0.0
 11
18989.61111616106
 21
10281.30740641973
 31
0.0
  0
LINE
  5
A6F2B
  8
0
 10
19034.61111616106
 20
10281.30740641973
 30
0.0
 11
18989.61111616106
 21
10281.30740641973
 31
0.0
  0
LINE
  5
A6F2C
  8
0
 10
18999.61111616106
 20
10281.30740641973
 30
0.0
 11
18999.61111616106
 21
10256.30740641973
 31
0.0
  0
LINE
  5
A6F2D
  8
0
 10
18999.61111616106
 20
10281.30740641973
 30
0.0
 11
18999.61111616106
 21
10256.30740641973
 31
0.0
  0
LINE
  5
A6F2E
  8
0
 10
18989.61111616106
 20
10306.30740641973
 30
0.0
 11
18989.61111616106
 21
10281.30740641973
 31
0.0
  0
LINE
  5
A6F2F
  8
0
 10
18989.61111616106
 20
10306.30740641973
 30
0.0
 11
18989.61111616106
 21
10281.30740641973
 31
0.0
  0
POLYLINE
  5
A6F30
  8
0
 66
     1
 10
0.0
 20
0.0
 30
0.0
 70
     1
  0
VERTEX
  5
AFF1F
  8
0
 10
19034.61111616106
 20
10306.30740641973
 30
0.0
  0
VERTEX
  5
AFF20
  8
0
 10
19034.61111616106
 20
10281.30740641973
 30
0.0
  0
VERTEX
  5
AFF21
  8
0
 10
18989.61111616106
 20
10281.30740641973
 30
0.0
  0
VERTEX
  5
AFF22
  8
0
 10
18989.61111616106
 20
10306.30740641973
 30
0.0
  0
SEQEND
  5
B072A
  8
0
  0
POLYLINE
  5
A6F31
  8
0
 66
     1
 10
0.0
 20
0.0
 30
0.0
 70
     1
  0
VERTEX
  5
AFF23
  8
0
 10
19024.61111616106
 20
10281.30740641973
 30
0.0
  0
VERTEX
  5
AFF24
  8
0
 10
19024.61111616106
 20
10256.30740641973
 30
0.0
  0
VERTEX
  5
AFF25
  8
0
 10
18999.61111616106
 20
10256.30740641973
 30
0.0
  0
VERTEX
  5
AFF26
  8
0
 10
18999.61111616106
 20
10281.30740641973
 30
0.0
  0
SEQEND
  5
B072B
  8
0
  0
POLYLINE
  5
A6F32
  8
0
 66
     1
 10
0.0
 20
0.0
 30
0.0
 70
     1
  0
VERTEX
  5
AFF27
  8
0
 10
19497.1111161613
 20
11677.30740641944
 30
0.0
  0
VERTEX
  5
AFF28
  8
0
 10
19497.1111161613
 20
11651.30740641944
 30
0.0
  0
VERTEX
  5
AFF29
  8
0
 10
18527.1111161613
 20
11651.30740641944
 30
0.0
  0
VERTEX
  5
AFF2A
  8
0
 10
18527.1111161613
 20
11677.30740641944
 30
0.0
  0
SEQEND
  5
B072C
  8
0
  0
POLYLINE
  5
A6F33
  8
0
 66
     1
 10
0.0
 20
0.0
 30
0.0
 70
     1
  0
VERTEX
  5
AFF2B
  8
0
 10
17527.1111161613
 20
11651.30740641944
 30
0.0
  0
VERTEX
  5
AFF2C
  8
0
 10
17527.1111161613
 20
11677.30740641944
 30
0.0
  0
VERTEX
  5
AFF2D
  8
0
 10
18497.11111616129
 20
11677.30740641944
 30
0.0
  0
VERTEX
  5
AFF2E
  8
0
 10
18497.11111616129
 20
11651.30740641944
 30
0.0
  0
SEQEND
  5
B072D
  8
0
  0
POLYLINE
  5
A6F34
  8
0
 66
     1
 10
0.0
 20
0.0
 30
0.0
 70
     1
  0
VERTEX
  5
AFF2F
  8
0
 10
19497.1111161613
 20
11927.30740641944
 30
0.0
  0
VERTEX
  5
AFF30
  8
0
 10
19497.1111161613
 20
11901.30740641944
 30
0.0
  0
VERTEX
  5
AFF31
  8
0
 10
18527.1111161613
 20
11901.30740641944
 30
0.0
  0
VERTEX
  5
AFF32
  8
0
 10
18527.1111161613
 20
11927.30740641944
 30
0.0
  0
SEQEND
  5
B072E
  8
0
  0
POLYLINE
  5
A6F35
  8
0
 66
     1
 10
0.0
 20
0.0
 30
0.0
 70
     1
  0
VERTEX
  5
AFF33
  8
0
 10
17527.1111161613
 20
11901.30740641944
 30
0.0
  0
VERTEX
  5
AFF34
  8
0
 10
17527.1111161613
 20
11927.30740641944
 30
0.0
  0
VERTEX
  5
AFF35
  8
0
 10
18497.11111616129
 20
11927.30740641944
 30
0.0
  0
VERTEX
  5
AFF36
  8
0
 10
18497.11111616129
 20
11901.30740641944
 30
0.0
  0
SEQEND
  5
B072F
  8
0
  0
POLYLINE
  5
A6F36
  8
0
 66
     1
 10
0.0
 20
0.0
 30
0.0
 70
     1
  0
VERTEX
  5
AFF37
  8
0
 10
19497.1111161613
 20
12177.30740641944
 30
0.0
  0
VERTEX
  5
AFF38
  8
0
 10
19497.1111161613
 20
12151.30740641944
 30
0.0
  0
VERTEX
  5
AFF39
  8
0
 10
18527.1111161613
 20
12151.30740641944
 30
0.0
  0
VERTEX
  5
AFF3A
  8
0
 10
18527.1111161613
 20
12177.30740641944
 30
0.0
  0
SEQEND
  5
B0730
  8
0
  0
POLYLINE
  5
A6F37
  8
0
 66
     1
 10
0.0
 20
0.0
 30
0.0
 70
     1
  0
VERTEX
  5
AFF3B
  8
0
 10
17527.1111161613
 20
12151.30740641944
 30
0.0
  0
VERTEX
  5
AFF3C
  8
0
 10
17527.1111161613
 20
12177.30740641944
 30
0.0
  0
VERTEX
  5
AFF3D
  8
0
 10
18497.11111616129
 20
12177.30740641944
 30
0.0
  0
VERTEX
  5
AFF3E
  8
0
 10
18497.11111616129
 20
12151.30740641944
 30
0.0
  0
SEQEND
  5
B0731
  8
0
  0
POLYLINE
  5
A7374
  8
0
 66
     1
 10
0.0
 20
0.0
 30
0.0
 70
     1
  0
VERTEX
  5
AFF3F
  8
0
 10
17497.11111616106
 20
12436.30740641973
 30
0.0
  0
VERTEX
  5
AFF40
  8
0
 10
17497.11111616106
 20
10306.30740641973
 30
0.0
  0
VERTEX
  5
AFF41
  8
0
 10
17447.11111616106
 20
10306.30740641973
 30
0.0
  0
VERTEX
  5
AFF42
  8
0
 10
17447.11111616106
 20
12436.30740641973
 30
0.0
  0
SEQEND
  5
B0732
  8
0
  0
POLYLINE
  5
A7375
  8
0
 66
     1
 10
0.0
 20
0.0
 30
0.0
 70
     1
  0
VERTEX
  5
AFF43
  8
0
 10
17447.11111616106
 20
11086.30740641973
 30
0.0
  0
VERTEX
  5
AFF44
  8
0
 10
17412.11111616106
 20
11086.30740641973
 30
0.0
  0
VERTEX
  5
AFF45
  8
0
 10
17412.11111616106
 20
11156.30740641973
 30
0.0
  0
VERTEX
  5
AFF46
  8
0
 10
17447.11111616106
 20
11156.30740641973
 30
0.0
  0
SEQEND
  5
B0733
  8
0
  0
CIRCLE
  5
A7376
  8
0
 10
17386.81112646557
 20
11233.15244655204
 30
0.0
 40
21.29998969548594
  0
POLYLINE
  5
A7377
  8
0
 66
     1
 10
0.0
 20
0.0
 30
0.0
 70
     1
  0
VERTEX
  5
AFF47
  8
0
 10
17408.11111616106
 20
11304.82416800182
 30
0.0
  0
VERTEX
  5
AFF48
  8
0
 10
17412.11111616106
 20
11304.82416800182
 30
0.0
  0
VERTEX
  5
AFF49
  8
0
 10
17412.11111616106
 20
10954.9578958327
 30
0.0
  0
VERTEX
  5
AFF4A
  8
0
 10
17408.11111616106
 20
10954.9578958327
 30
0.0
  0
SEQEND
  5
B0734
  8
0
  0
POLYLINE
  5
A7381
  8
0
 66
     1
 10
0.0
 20
0.0
 30
0.0
 70
     1
  0
VERTEX
  5
AFF4B
  8
0
 10
17497.11111616106
 20
16480.44289643319
 30
0.0
  0
VERTEX
  5
AFF4C
  8
0
 10
17497.11111616106
 20
14350.44289643319
 30
0.0
  0
VERTEX
  5
AFF4D
  8
0
 10
17447.11111616106
 20
14350.44289643319
 30
0.0
  0
VERTEX
  5
AFF4E
  8
0
 10
17447.11111616106
 20
16480.44289643319
 30
0.0
  0
SEQEND
  5
B0735
  8
0
  0
POLYLINE
  5
A7398
  8
0
 66
     1
 10
0.0
 20
0.0
 30
0.0
 70
     1
  0
VERTEX
  5
AFF4F
  8
0
 10
17408.11111616106
 20
15348.95965801528
 30
0.0
  0
VERTEX
  5
AFF50
  8
0
 10
17412.11111616106
 20
15348.95965801528
 30
0.0
  0
VERTEX
  5
AFF51
  8
0
 10
17412.11111616106
 20
14999.09338584616
 30
0.0
  0
VERTEX
  5
AFF52
  8
0
 10
17408.11111616106
 20
14999.09338584616
 30
0.0
  0
SEQEND
  5
B0736
  8
0
  0
CIRCLE
  5
A7399
  8
0
 10
17386.81112646556
 20
15277.2879365655
 30
0.0
 40
21.29998969548594
  0
POLYLINE
  5
A739A
  8
0
 66
     1
 10
0.0
 20
0.0
 30
0.0
 70
     1
  0
VERTEX
  5
AFF53
  8
0
 10
17447.11111616106
 20
15130.44289643319
 30
0.0
  0
VERTEX
  5
AFF54
  8
0
 10
17412.11111616106
 20
15130.44289643319
 30
0.0
  0
VERTEX
  5
AFF55
  8
0
 10
17412.11111616106
 20
15200.44289643319
 30
0.0
  0
VERTEX
  5
AFF56
  8
0
 10
17447.11111616106
 20
15200.44289643319
 30
0.0
  0
SEQEND
  5
B0737
  8
0
  0
POLYLINE
  5
A73A3
  8
0
 66
     1
 10
0.0
 20
0.0
 30
0.0
 70
     1
  0
VERTEX
  5
AFF57
  8
0
 10
17497.11111616104
 20
8392.171916406278
 30
0.0
  0
VERTEX
  5
AFF58
  8
0
 10
17497.11111616104
 20
6262.171916406281
 30
0.0
  0
VERTEX
  5
AFF59
  8
0
 10
17447.11111616104
 20
6262.171916406281
 30
0.0
  0
VERTEX
  5
AFF5A
  8
0
 10
17447.11111616104
 20
8392.171916406278
 30
0.0
  0
SEQEND
  5
B0738
  8
0
  0
POLYLINE
  5
A73A4
  8
0
 66
     1
 10
0.0
 20
0.0
 30
0.0
 70
     1
  0
VERTEX
  5
AFF5B
  8
0
 10
17408.11111616104
 20
7260.688677988373
 30
0.0
  0
VERTEX
  5
AFF5C
  8
0
 10
17412.11111616104
 20
7260.688677988373
 30
0.0
  0
VERTEX
  5
AFF5D
  8
0
 10
17412.11111616104
 20
6910.822405819266
 30
0.0
  0
VERTEX
  5
AFF5E
  8
0
 10
17408.11111616104
 20
6910.822405819266
 30
0.0
  0
SEQEND
  5
B0739
  8
0
  0
CIRCLE
  5
A73A5
  8
0
 10
17386.81112646553
 20
7189.016956538598
 30
0.0
 40
21.29998969548594
  0
POLYLINE
  5
A73A6
  8
0
 66
     1
 10
0.0
 20
0.0
 30
0.0
 70
     1
  0
VERTEX
  5
AFF5F
  8
0
 10
17447.11111616104
 20
7042.171916406282
 30
0.0
  0
VERTEX
  5
AFF60
  8
0
 10
17412.11111616104
 20
7042.171916406282
 30
0.0
  0
VERTEX
  5
AFF61
  8
0
 10
17412.11111616104
 20
7112.171916406281
 30
0.0
  0
VERTEX
  5
AFF62
  8
0
 10
17447.11111616104
 20
7112.171916406281
 30
0.0
  0
SEQEND
  5
B073A
  8
0
  0
POLYLINE
  5
A73A7
  8
0
 66
     1
 10
0.0
 20
0.0
 30
0.0
 70
     1
  0
VERTEX
  5
AFF63
  8
0
 10
17497.11111616106
 20
4348.036426392835
 30
0.0
  0
VERTEX
  5
AFF64
  8
0
 10
17497.11111616106
 20
2218.036426392835
 30
0.0
  0
VERTEX
  5
AFF65
  8
0
 10
17447.11111616106
 20
2218.036426392835
 30
0.0
  0
VERTEX
  5
AFF66
  8
0
 10
17447.11111616106
 20
4348.036426392835
 30
0.0
  0
SEQEND
  5
B073B
  8
0
  0
POLYLINE
  5
A73A8
  8
0
 66
     1
 10
0.0
 20
0.0
 30
0.0
 70
     1
  0
VERTEX
  5
AFF67
  8
0
 10
17447.11111616106
 20
2998.036426392835
 30
0.0
  0
VERTEX
  5
AFF68
  8
0
 10
17412.11111616107
 20
2998.036426392835
 30
0.0
  0
VERTEX
  5
AFF69
  8
0
 10
17412.11111616107
 20
3068.036426392835
 30
0.0
  0
VERTEX
  5
AFF6A
  8
0
 10
17447.11111616106
 20
3068.036426392835
 30
0.0
  0
SEQEND
  5
B073C
  8
0
  0
CIRCLE
  5
A73A9
  8
0
 10
17386.81112646556
 20
3144.881466525149
 30
0.0
 40
21.29998969548594
  0
POLYLINE
  5
A73AA
  8
0
 66
     1
 10
0.0
 20
0.0
 30
0.0
 70
     1
  0
VERTEX
  5
AFF6B
  8
0
 10
17408.11111616106
 20
3216.553187974926
 30
0.0
  0
VERTEX
  5
AFF6C
  8
0
 10
17412.11111616107
 20
3216.553187974926
 30
0.0
  0
VERTEX
  5
AFF6D
  8
0
 10
17412.11111616107
 20
2866.686915805818
 30
0.0
  0
VERTEX
  5
AFF6E
  8
0
 10
17408.11111616106
 20
2866.686915805818
 30
0.0
  0
SEQEND
  5
B073D
  8
0
  0
POLYLINE
  5
A976A
  8
0
 66
     1
 10
0.0
 20
0.0
 30
0.0
  0
VERTEX
  5
AFF6F
  8
0
 10
33278.52842564187
 20
2158.036426392835
 30
0.0
  0
VERTEX
  5
AFF70
  8
0
 10
27282.11499852646
 20
2158.036426392835
 30
0.0
  0
SEQEND
  5
B073E
  8
0
  0
POLYLINE
  5
A976E
  8
0
 66
     1
 10
0.0
 20
0.0
 30
0.0
 70
     1
  0
VERTEX
  5
AFF71
  8
0
 10
2344.779423368484
 20
17330.57838644666
 30
0.0
  0
VERTEX
  5
AFF72
  8
0
 10
2694.779423368484
 20
17330.57838644666
 30
0.0
  0
VERTEX
  5
AFF73
  8
0
 10
2694.779423368484
 20
14350.57838644662
 30
0.0
  0
VERTEX
  5
AFF74
  8
0
 10
2344.779423368484
 20
14350.57838644662
 30
0.0
  0
SEQEND
  5
B073F
  8
0
  0
POLYLINE
  5
A976F
  8
0
 66
     1
 10
0.0
 20
0.0
 30
0.0
  0
VERTEX
  5
AFF75
  8
0
 10
2019.779423368484
 20
14295.57838644662
 30
0.0
  0
VERTEX
  5
AFF76
  8
0
 10
3019.779423368484
 20
14295.57838644662
 30
0.0
  0
SEQEND
  5
B0740
  8
0
  0
POLYLINE
  5
A9770
  8
0
 66
     1
 10
0.0
 20
0.0
 30
0.0
  0
VERTEX
  5
AFF77
  8
0
 10
649.6913253720704
 20
14295.57838644662
 30
0.0
  0
VERTEX
  5
AFF78
  8
0
 10
1649.69132537207
 20
14295.57838644662
 30
0.0
  0
SEQEND
  5
B0741
  8
0
  0
POLYLINE
  5
A9771
  8
0
 66
     1
 10
0.0
 20
0.0
 30
0.0
 70
     1
  0
VERTEX
  5
AFF79
  8
0
 10
999.6913253720704
 20
17330.57838644666
 30
0.0
  0
VERTEX
  5
AFF7A
  8
0
 10
1299.69132537207
 20
17330.57838644666
 30
0.0
  0
VERTEX
  5
AFF7B
  8
0
 10
1299.69132537207
 20
14350.57838644662
 30
0.0
  0
VERTEX
  5
AFF7C
  8
0
 10
999.6913253720704
 20
14350.57838644662
 30
0.0
  0
SEQEND
  5
B0742
  8
0
  0
POLYLINE
  5
A9772
  8
0
 66
     1
 10
0.0
 20
0.0
 30
0.0
 70
     1
  0
VERTEX
  5
AFF7D
  8
0
 10
3689.867521364905
 20
17330.57838644666
 30
0.0
  0
VERTEX
  5
AFF7E
  8
0
 10
4089.867521364904
 20
17330.57838644666
 30
0.0
  0
VERTEX
  5
AFF7F
  8
0
 10
4089.867521364904
 20
14350.57838644662
 30
0.0
  0
VERTEX
  5
AFF80
  8
0
 10
3689.867521364905
 20
14350.57838644662
 30
0.0
  0
SEQEND
  5
B0743
  8
0
  0
POLYLINE
  5
A9773
  8
0
 66
     1
 10
0.0
 20
0.0
 30
0.0
  0
VERTEX
  5
AFF81
  8
0
 10
3389.867521364904
 20
14295.57838644662
 30
0.0
  0
VERTEX
  5
AFF82
  8
0
 10
4389.867521364904
 20
14295.57838644662
 30
0.0
  0
SEQEND
  5
B0744
  8
0
  0
POLYLINE
  5
A9774
  8
0
 66
     1
 10
0.0
 20
0.0
 30
0.0
  0
VERTEX
  5
AFF83
  8
0
 10
4759.955619361325
 20
14295.57838644662
 30
0.0
  0
VERTEX
  5
AFF84
  8
0
 10
5759.955619361324
 20
14295.57838644662
 30
0.0
  0
SEQEND
  5
B0745
  8
0
  0
POLYLINE
  5
A9775
  8
0
 66
     1
 10
0.0
 20
0.0
 30
0.0
 70
     1
  0
VERTEX
  5
AFF85
  8
0
 10
5034.955619361325
 20
17330.57838644666
 30
0.0
  0
VERTEX
  5
AFF86
  8
0
 10
5484.955619361326
 20
17330.57838644666
 30
0.0
  0
VERTEX
  5
AFF87
  8
0
 10
5484.955619361326
 20
14350.57838644662
 30
0.0
  0
VERTEX
  5
AFF88
  8
0
 10
5034.955619361325
 20
14350.57838644662
 30
0.0
  0
SEQEND
  5
B0746
  8
0
  0
POLYLINE
  5
A9776
  8
0
 66
     1
 10
0.0
 20
0.0
 30
0.0
 70
     1
  0
VERTEX
  5
AFF89
  8
0
 10
6380.04371735774
 20
17330.57838644666
 30
0.0
  0
VERTEX
  5
AFF8A
  8
0
 10
6880.043717357738
 20
17330.57838644666
 30
0.0
  0
VERTEX
  5
AFF8B
  8
0
 10
6880.043717357738
 20
14350.57838644662
 30
0.0
  0
VERTEX
  5
AFF8C
  8
0
 10
6380.04371735774
 20
14350.57838644662
 30
0.0
  0
SEQEND
  5
B0747
  8
0
  0
POLYLINE
  5
A9777
  8
0
 66
     1
 10
0.0
 20
0.0
 30
0.0
  0
VERTEX
  5
AFF8D
  8
0
 10
6130.04371735774
 20
14295.57838644662
 30
0.0
  0
VERTEX
  5
AFF8E
  8
0
 10
7130.043717357738
 20
14295.57838644662
 30
0.0
  0
SEQEND
  5
B0748
  8
0
  0
POLYLINE
  5
A97BE
  8
0
 66
     1
 10
0.0
 20
0.0
 30
0.0
  0
VERTEX
  5
AFF8F
  8
0
 10
6130.04371735774
 20
10862.44289643317
 30
0.0
  0
VERTEX
  5
AFF90
  8
0
 10
7130.043717357738
 20
10862.44289643317
 30
0.0
  0
SEQEND
  5
B0749
  8
0
  0
POLYLINE
  5
A97BF
  8
0
 66
     1
 10
0.0
 20
0.0
 30
0.0
 70
     1
  0
VERTEX
  5
AFF91
  8
0
 10
6380.04371735774
 20
13747.44289643322
 30
0.0
  0
VERTEX
  5
AFF92
  8
0
 10
6880.043717357738
 20
13747.44289643322
 30
0.0
  0
VERTEX
  5
AFF93
  8
0
 10
6880.043717357738
 20
10917.44289643316
 30
0.0
  0
VERTEX
  5
AFF94
  8
0
 10
6380.04371735774
 20
10917.44289643316
 30
0.0
  0
SEQEND
  5
B074A
  8
0
  0
POLYLINE
  5
A97C0
  8
0
 66
     1
 10
0.0
 20
0.0
 30
0.0
 70
     1
  0
VERTEX
  5
AFF95
  8
0
 10
5034.955619361325
 20
13747.44289643322
 30
0.0
  0
VERTEX
  5
AFF96
  8
0
 10
5484.955619361326
 20
13747.44289643322
 30
0.0
  0
VERTEX
  5
AFF97
  8
0
 10
5484.955619361326
 20
10917.44289643316
 30
0.0
  0
VERTEX
  5
AFF98
  8
0
 10
5034.955619361325
 20
10917.44289643316
 30
0.0
  0
SEQEND
  5
B074B
  8
0
  0
POLYLINE
  5
A97C1
  8
0
 66
     1
 10
0.0
 20
0.0
 30
0.0
  0
VERTEX
  5
AFF99
  8
0
 10
4759.955619361325
 20
10862.44289643317
 30
0.0
  0
VERTEX
  5
AFF9A
  8
0
 10
5759.955619361324
 20
10862.44289643317
 30
0.0
  0
SEQEND
  5
B074C
  8
0
  0
POLYLINE
  5
A97C2
  8
0
 66
     1
 10
0.0
 20
0.0
 30
0.0
  0
VERTEX
  5
AFF9B
  8
0
 10
3389.867521364904
 20
10862.44289643317
 30
0.0
  0
VERTEX
  5
AFF9C
  8
0
 10
4389.867521364904
 20
10862.44289643317
 30
0.0
  0
SEQEND
  5
B074D
  8
0
  0
POLYLINE
  5
A97C3
  8
0
 66
     1
 10
0.0
 20
0.0
 30
0.0
 70
     1
  0
VERTEX
  5
AFF9D
  8
0
 10
3689.867521364905
 20
13747.44289643322
 30
0.0
  0
VERTEX
  5
AFF9E
  8
0
 10
4089.867521364904
 20
13747.44289643322
 30
0.0
  0
VERTEX
  5
AFF9F
  8
0
 10
4089.867521364904
 20
10917.44289643316
 30
0.0
  0
VERTEX
  5
AFFA0
  8
0
 10
3689.867521364905
 20
10917.44289643316
 30
0.0
  0
SEQEND
  5
B074E
  8
0
  0
POLYLINE
  5
A97C4
  8
0
 66
     1
 10
0.0
 20
0.0
 30
0.0
 70
     1
  0
VERTEX
  5
AFFA1
  8
0
 10
999.6913253720704
 20
13747.44289643322
 30
0.0
  0
VERTEX
  5
AFFA2
  8
0
 10
1299.69132537207
 20
13747.44289643322
 30
0.0
  0
VERTEX
  5
AFFA3
  8
0
 10
1299.69132537207
 20
10917.44289643316
 30
0.0
  0
VERTEX
  5
AFFA4
  8
0
 10
999.6913253720704
 20
10917.44289643316
 30
0.0
  0
SEQEND
  5
B074F
  8
0
  0
POLYLINE
  5
A97C5
  8
0
 66
     1
 10
0.0
 20
0.0
 30
0.0
  0
VERTEX
  5
AFFA5
  8
0
 10
649.6913253720704
 20
10862.44289643317
 30
0.0
  0
VERTEX
  5
AFFA6
  8
0
 10
1649.69132537207
 20
10862.44289643317
 30
0.0
  0
SEQEND
  5
B0750
  8
0
  0
POLYLINE
  5
A97C6
  8
0
 66
     1
 10
0.0
 20
0.0
 30
0.0
  0
VERTEX
  5
AFFA7
  8
0
 10
2019.779423368484
 20
10862.44289643317
 30
0.0
  0
VERTEX
  5
AFFA8
  8
0
 10
3019.779423368484
 20
10862.44289643317
 30
0.0
  0
SEQEND
  5
B0751
  8
0
  0
POLYLINE
  5
A97C7
  8
0
 66
     1
 10
0.0
 20
0.0
 30
0.0
 70
     1
  0
VERTEX
  5
AFFA9
  8
0
 10
2344.779423368484
 20
13747.44289643322
 30
0.0
  0
VERTEX
  5
AFFAA
  8
0
 10
2694.779423368484
 20
13747.44289643322
 30
0.0
  0
VERTEX
  5
AFFAB
  8
0
 10
2694.779423368484
 20
10917.44289643316
 30
0.0
  0
VERTEX
  5
AFFAC
  8
0
 10
2344.779423368484
 20
10917.44289643316
 30
0.0
  0
SEQEND
  5
B0752
  8
0
  0
POLYLINE
  5
A97C8
  8
0
 66
     1
 10
0.0
 20
0.0
 30
0.0
 70
     1
  0
VERTEX
  5
AFFAD
  8
0
 10
2344.779423368484
 20
10314.30740641977
 30
0.0
  0
VERTEX
  5
AFFAE
  8
0
 10
2694.779423368484
 20
10314.30740641977
 30
0.0
  0
VERTEX
  5
AFFAF
  8
0
 10
2694.779423368484
 20
7784.307406419728
 30
0.0
  0
VERTEX
  5
AFFB0
  8
0
 10
2344.779423368484
 20
7784.307406419728
 30
0.0
  0
SEQEND
  5
B0753
  8
0
  0
POLYLINE
  5
A97C9
  8
0
 66
     1
 10
0.0
 20
0.0
 30
0.0
  0
VERTEX
  5
AFFB1
  8
0
 10
2019.779423368484
 20
7729.307406419728
 30
0.0
  0
VERTEX
  5
AFFB2
  8
0
 10
3019.779423368484
 20
7729.307406419728
 30
0.0
  0
SEQEND
  5
B0754
  8
0
  0
POLYLINE
  5
A97CA
  8
0
 66
     1
 10
0.0
 20
0.0
 30
0.0
  0
VERTEX
  5
AFFB3
  8
0
 10
649.6913253720704
 20
7729.307406419728
 30
0.0
  0
VERTEX
  5
AFFB4
  8
0
 10
1649.69132537207
 20
7729.307406419728
 30
0.0
  0
SEQEND
  5
B0755
  8
0
  0
POLYLINE
  5
A97CB
  8
0
 66
     1
 10
0.0
 20
0.0
 30
0.0
 70
     1
  0
VERTEX
  5
AFFB5
  8
0
 10
999.6913253720704
 20
10314.30740641977
 30
0.0
  0
VERTEX
  5
AFFB6
  8
0
 10
1299.69132537207
 20
10314.30740641977
 30
0.0
  0
VERTEX
  5
AFFB7
  8
0
 10
1299.69132537207
 20
7784.307406419728
 30
0.0
  0
VERTEX
  5
AFFB8
  8
0
 10
999.6913253720704
 20
7784.307406419728
 30
0.0
  0
SEQEND
  5
B0756
  8
0
  0
POLYLINE
  5
A97CC
  8
0
 66
     1
 10
0.0
 20
0.0
 30
0.0
 70
     1
  0
VERTEX
  5
AFFB9
  8
0
 10
3689.867521364905
 20
10314.30740641977
 30
0.0
  0
VERTEX
  5
AFFBA
  8
0
 10
4089.867521364904
 20
10314.30740641977
 30
0.0
  0
VERTEX
  5
AFFBB
  8
0
 10
4089.867521364904
 20
7784.307406419728
 30
0.0
  0
VERTEX
  5
AFFBC
  8
0
 10
3689.867521364905
 20
7784.307406419728
 30
0.0
  0
SEQEND
  5
B0757
  8
0
  0
POLYLINE
  5
A97CD
  8
0
 66
     1
 10
0.0
 20
0.0
 30
0.0
  0
VERTEX
  5
AFFBD
  8
0
 10
3389.867521364904
 20
7729.307406419728
 30
0.0
  0
VERTEX
  5
AFFBE
  8
0
 10
4389.867521364904
 20
7729.307406419728
 30
0.0
  0
SEQEND
  5
B0758
  8
0
  0
POLYLINE
  5
A97CE
  8
0
 66
     1
 10
0.0
 20
0.0
 30
0.0
  0
VERTEX
  5
AFFBF
  8
0
 10
4759.955619361325
 20
7729.307406419728
 30
0.0
  0
VERTEX
  5
AFFC0
  8
0
 10
5759.955619361324
 20
7729.307406419728
 30
0.0
  0
SEQEND
  5
B0759
  8
0
  0
POLYLINE
  5
A97CF
  8
0
 66
     1
 10
0.0
 20
0.0
 30
0.0
 70
     1
  0
VERTEX
  5
AFFC1
  8
0
 10
5034.955619361325
 20
10314.30740641977
 30
0.0
  0
VERTEX
  5
AFFC2
  8
0
 10
5484.955619361326
 20
10314.30740641977
 30
0.0
  0
VERTEX
  5
AFFC3
  8
0
 10
5484.955619361326
 20
7784.307406419728
 30
0.0
  0
VERTEX
  5
AFFC4
  8
0
 10
5034.955619361325
 20
7784.307406419728
 30
0.0
  0
SEQEND
  5
B075A
  8
0
  0
POLYLINE
  5
A97D0
  8
0
 66
     1
 10
0.0
 20
0.0
 30
0.0
 70
     1
  0
VERTEX
  5
AFFC5
  8
0
 10
6380.04371735774
 20
10314.30740641977
 30
0.0
  0
VERTEX
  5
AFFC6
  8
0
 10
6880.043717357738
 20
10314.30740641977
 30
0.0
  0
VERTEX
  5
AFFC7
  8
0
 10
6880.043717357738
 20
7784.307406419728
 30
0.0
  0
VERTEX
  5
AFFC8
  8
0
 10
6380.04371735774
 20
7784.307406419728
 30
0.0
  0
SEQEND
  5
B075B
  8
0
  0
POLYLINE
  5
A97D1
  8
0
 66
     1
 10
0.0
 20
0.0
 30
0.0
  0
VERTEX
  5
AFFC9
  8
0
 10
6130.04371735774
 20
7729.307406419728
 30
0.0
  0
VERTEX
  5
AFFCA
  8
0
 10
7130.043717357738
 20
7729.307406419728
 30
0.0
  0
SEQEND
  5
B075C
  8
0
  0
POLYLINE
  5
A9818
  8
0
 66
     1
 10
0.0
 20
0.0
 30
0.0
  0
VERTEX
  5
AFFCB
  8
0
 10
6130.04371735774
 20
4896.171916406281
 30
0.0
  0
VERTEX
  5
AFFCC
  8
0
 10
7130.043717357738
 20
4896.171916406281
 30
0.0
  0
SEQEND
  5
B075D
  8
0
  0
POLYLINE
  5
A9819
  8
0
 66
     1
 10
0.0
 20
0.0
 30
0.0
 70
     1
  0
VERTEX
  5
AFFCD
  8
0
 10
6380.04371735774
 20
7181.171916406325
 30
0.0
  0
VERTEX
  5
AFFCE
  8
0
 10
6880.043717357738
 20
7181.171916406325
 30
0.0
  0
VERTEX
  5
AFFCF
  8
0
 10
6880.043717357738
 20
4951.171916406281
 30
0.0
  0
VERTEX
  5
AFFD0
  8
0
 10
6380.04371735774
 20
4951.171916406281
 30
0.0
  0
SEQEND
  5
B075E
  8
0
  0
POLYLINE
  5
A981A
  8
0
 66
     1
 10
0.0
 20
0.0
 30
0.0
 70
     1
  0
VERTEX
  5
AFFD1
  8
0
 10
5034.955619361325
 20
7181.171916406325
 30
0.0
  0
VERTEX
  5
AFFD2
  8
0
 10
5484.955619361326
 20
7181.171916406325
 30
0.0
  0
VERTEX
  5
AFFD3
  8
0
 10
5484.955619361326
 20
4951.171916406281
 30
0.0
  0
VERTEX
  5
AFFD4
  8
0
 10
5034.955619361325
 20
4951.171916406281
 30
0.0
  0
SEQEND
  5
B075F
  8
0
  0
POLYLINE
  5
A981B
  8
0
 66
     1
 10
0.0
 20
0.0
 30
0.0
  0
VERTEX
  5
AFFD5
  8
0
 10
4759.955619361325
 20
4896.171916406281
 30
0.0
  0
VERTEX
  5
AFFD6
  8
0
 10
5759.955619361324
 20
4896.171916406281
 30
0.0
  0
SEQEND
  5
B0760
  8
0
  0
POLYLINE
  5
A981C
  8
0
 66
     1
 10
0.0
 20
0.0
 30
0.0
  0
VERTEX
  5
AFFD7
  8
0
 10
3389.867521364904
 20
4896.171916406281
 30
0.0
  0
VERTEX
  5
AFFD8
  8
0
 10
4389.867521364904
 20
4896.171916406281
 30
0.0
  0
SEQEND
  5
B0761
  8
0
  0
POLYLINE
  5
A981D
  8
0
 66
     1
 10
0.0
 20
0.0
 30
0.0
 70
     1
  0
VERTEX
  5
AFFD9
  8
0
 10
3689.867521364905
 20
7181.171916406325
 30
0.0
  0
VERTEX
  5
AFFDA
  8
0
 10
4089.867521364904
 20
7181.171916406325
 30
0.0
  0
VERTEX
  5
AFFDB
  8
0
 10
4089.867521364904
 20
4951.171916406281
 30
0.0
  0
VERTEX
  5
AFFDC
  8
0
 10
3689.867521364905
 20
4951.171916406281
 30
0.0
  0
SEQEND
  5
B0762
  8
0
  0
POLYLINE
  5
A981E
  8
0
 66
     1
 10
0.0
 20
0.0
 30
0.0
 70
     1
  0
VERTEX
  5
AFFDD
  8
0
 10
999.6913253720704
 20
7181.171916406325
 30
0.0
  0
VERTEX
  5
AFFDE
  8
0
 10
1299.69132537207
 20
7181.171916406325
 30
0.0
  0
VERTEX
  5
AFFDF
  8
0
 10
1299.69132537207
 20
4951.171916406281
 30
0.0
  0
VERTEX
  5
AFFE0
  8
0
 10
999.6913253720704
 20
4951.171916406281
 30
0.0
  0
SEQEND
  5
B0763
  8
0
  0
POLYLINE
  5
A981F
  8
0
 66
     1
 10
0.0
 20
0.0
 30
0.0
  0
VERTEX
  5
AFFE1
  8
0
 10
649.6913253720704
 20
4896.171916406281
 30
0.0
  0
VERTEX
  5
AFFE2
  8
0
 10
1649.69132537207
 20
4896.171916406281
 30
0.0
  0
SEQEND
  5
B0764
  8
0
  0
POLYLINE
  5
A9820
  8
0
 66
     1
 10
0.0
 20
0.0
 30
0.0
  0
VERTEX
  5
AFFE3
  8
0
 10
2019.779423368484
 20
4896.171916406281
 30
0.0
  0
VERTEX
  5
AFFE4
  8
0
 10
3019.779423368484
 20
4896.171916406281
 30
0.0
  0
SEQEND
  5
B0765
  8
0
  0
POLYLINE
  5
A9821
  8
0
 66
     1
 10
0.0
 20
0.0
 30
0.0
 70
     1
  0
VERTEX
  5
AFFE5
  8
0
 10
2344.779423368484
 20
7181.171916406325
 30
0.0
  0
VERTEX
  5
AFFE6
  8
0
 10
2694.779423368484
 20
7181.171916406325
 30
0.0
  0
VERTEX
  5
AFFE7
  8
0
 10
2694.779423368484
 20
4951.171916406281
 30
0.0
  0
VERTEX
  5
AFFE8
  8
0
 10
2344.779423368484
 20
4951.171916406281
 30
0.0
  0
SEQEND
  5
B0766
  8
0
  0
POLYLINE
  5
A9822
  8
0
 66
     1
 10
0.0
 20
0.0
 30
0.0
 70
     1
  0
VERTEX
  5
AFFE9
  8
0
 10
2344.779423368484
 20
4348.036426392877
 30
0.0
  0
VERTEX
  5
AFFEA
  8
0
 10
2694.779423368484
 20
4348.036426392877
 30
0.0
  0
VERTEX
  5
AFFEB
  8
0
 10
2694.779423368484
 20
2218.036426392835
 30
0.0
  0
VERTEX
  5
AFFEC
  8
0
 10
2344.779423368484
 20
2218.036426392835
 30
0.0
  0
SEQEND
  5
B0767
  8
0
  0
POLYLINE
  5
A9823
  8
0
 66
     1
 10
0.0
 20
0.0
 30
0.0
  0
VERTEX
  5
AFFED
  8
0
 10
2019.779423368484
 20
2163.036426392835
 30
0.0
  0
VERTEX
  5
AFFEE
  8
0
 10
3019.779423368484
 20
2163.036426392835
 30
0.0
  0
SEQEND
  5
B0768
  8
0
  0
POLYLINE
  5
A9824
  8
0
 66
     1
 10
0.0
 20
0.0
 30
0.0
  0
VERTEX
  5
AFFEF
  8
0
 10
649.6913253720704
 20
2163.036426392835
 30
0.0
  0
VERTEX
  5
AFFF0
  8
0
 10
1649.69132537207
 20
2163.036426392835
 30
0.0
  0
SEQEND
  5
B0769
  8
0
  0
POLYLINE
  5
A9825
  8
0
 66
     1
 10
0.0
 20
0.0
 30
0.0
 70
     1
  0
VERTEX
  5
AFFF1
  8
0
 10
999.6913253720704
 20
4348.036426392877
 30
0.0
  0
VERTEX
  5
AFFF2
  8
0
 10
1299.69132537207
 20
4348.036426392877
 30
0.0
  0
VERTEX
  5
AFFF3
  8
0
 10
1299.69132537207
 20
2218.036426392835
 30
0.0
  0
VERTEX
  5
AFFF4
  8
0
 10
999.6913253720704
 20
2218.036426392835
 30
0.0
  0
SEQEND
  5
B076A
  8
0
  0
POLYLINE
  5
A9826
  8
0
 66
     1
 10
0.0
 20
0.0
 30
0.0
 70
     1
  0
VERTEX
  5
AFFF5
  8
0
 10
3689.867521364905
 20
4348.036426392877
 30
0.0
  0
VERTEX
  5
AFFF6
  8
0
 10
4089.867521364904
 20
4348.036426392877
 30
0.0
  0
VERTEX
  5
AFFF7
  8
0
 10
4089.867521364904
 20
2218.036426392835
 30
0.0
  0
VERTEX
  5
AFFF8
  8
0
 10
3689.867521364905
 20
2218.036426392835
 30
0.0
  0
SEQEND
  5
B076B
  8
0
  0
POLYLINE
  5
A9827
  8
0
 66
     1
 10
0.0
 20
0.0
 30
0.0
  0
VERTEX
  5
AFFF9
  8
0
 10
3389.867521364904
 20
2163.036426392835
 30
0.0
  0
VERTEX
  5
AFFFA
  8
0
 10
4389.867521364904
 20
2163.036426392835
 30
0.0
  0
SEQEND
  5
B076C
  8
0
  0
POLYLINE
  5
A9828
  8
0
 66
     1
 10
0.0
 20
0.0
 30
0.0
  0
VERTEX
  5
AFFFB
  8
0
 10
4759.955619361325
 20
2163.036426392835
 30
0.0
  0
VERTEX
  5
AFFFC
  8
0
 10
5759.955619361324
 20
2163.036426392835
 30
0.0
  0
SEQEND
  5
B076D
  8
0
  0
POLYLINE
  5
A9829
  8
0
 66
     1
 10
0.0
 20
0.0
 30
0.0
 70
     1
  0
VERTEX
  5
AFFFD
  8
0
 10
5034.955619361325
 20
4348.036426392877
 30
0.0
  0
VERTEX
  5
AFFFE
  8
0
 10
5484.955619361326
 20
4348.036426392877
 30
0.0
  0
VERTEX
  5
AFFFF
  8
0
 10
5484.955619361326
 20
2218.036426392835
 30
0.0
  0
VERTEX
  5
B0000
  8
0
 10
5034.955619361325
 20
2218.036426392835
 30
0.0
  0
SEQEND
  5
B076E
  8
0
  0
POLYLINE
  5
A982A
  8
0
 66
     1
 10
0.0
 20
0.0
 30
0.0
 70
     1
  0
VERTEX
  5
B0001
  8
0
 10
6380.04371735774
 20
4348.036426392877
 30
0.0
  0
VERTEX
  5
B0002
  8
0
 10
6880.043717357738
 20
4348.036426392877
 30
0.0
  0
VERTEX
  5
B0003
  8
0
 10
6880.043717357738
 20
2218.036426392835
 30
0.0
  0
VERTEX
  5
B0004
  8
0
 10
6380.04371735774
 20
2218.036426392835
 30
0.0
  0
SEQEND
  5
B076F
  8
0
  0
POLYLINE
  5
A982B
  8
0
 66
     1
 10
0.0
 20
0.0
 30
0.0
  0
VERTEX
  5
B0005
  8
0
 10
6130.04371735774
 20
2163.036426392835
 30
0.0
  0
VERTEX
  5
B0006
  8
0
 10
7130.043717357738
 20
2163.036426392835
 30
0.0
  0
SEQEND
  5
B0770
  8
0
  0
POLYLINE
  5
A98A4
  8
0
 66
     1
 10
0.0
 20
0.0
 30
0.0
 70
     1
  0
VERTEX
  5
B0007
  8
0
 10
0.0
 20
17955.95716581255
 30
0.0
  0
VERTEX
  5
B0008
  8
0
 10
16000.0
 20
17955.95716581255
 30
0.0
  0
VERTEX
  5
B0009
  8
0
 10
16000.0
 20
1537.657647026935
 30
0.0
  0
VERTEX
  5
B000A
  8
0
 10
0.0
 20
1537.657647026935
 30
0.0
  0
SEQEND
  5
B0771
  8
0
  0
POLYLINE
  5
A98A5
  8
0
 66
     1
 10
0.0
 20
0.0
 30
0.0
 70
     1
  0
VERTEX
  5
B000B
  8
0
 10
16550.0
 20
1537.657647026935
 30
0.0
  0
VERTEX
  5
B000C
  8
0
 10
25825.89773943182
 20
1537.657647026935
 30
0.0
  0
VERTEX
  5
B000D
  8
0
 10
25825.89773943182
 20
17955.95716581255
 30
0.0
  0
VERTEX
  5
B000E
  8
0
 10
16550.0
 20
17955.95716581255
 30
0.0
  0
SEQEND
  5
B0772
  8
0
  0
POLYLINE
  5
A98A6
  8
0
 66
     1
 10
0.0
 20
0.0
 30
0.0
 70
     1
  0
VERTEX
  5
B000F
  8
0
 10
26375.89773943182
 20
1537.657647026935
 30
0.0
  0
VERTEX
  5
B0010
  8
0
 10
34375.89773943181
 20
1537.657647026935
 30
0.0
  0
VERTEX
  5
B0011
  8
0
 10
34375.89773943181
 20
10251.30740641974
 30
0.0
  0
VERTEX
  5
B0012
  8
0
 10
26375.89773943182
 20
10251.30740641974
 30
0.0
  0
SEQEND
  5
B0773
  8
0
  0
POLYLINE
  5
A98D6
  8
0
 66
     1
 10
0.0
 20
0.0
 30
0.0
 70
     1
  0
VERTEX
  5
B0013
  8
0
 10
16550.0
 20
1537.657647026935
 30
0.0
  0
VERTEX
  5
B0014
  8
0
 10
25825.89773943182
 20
1537.657647026935
 30
0.0
  0
VERTEX
  5
B0015
  8
0
 10
25825.89773943182
 20
1837.657647026935
 30
0.0
  0
VERTEX
  5
B0016
  8
0
 10
16550.0
 20
1837.657647026935
 30
0.0
  0
SEQEND
  5
B0774
  8
0
  0
POLYLINE
  5
A98D7
  8
0
 66
     1
 10
0.0
 20
0.0
 30
0.0
 70
     1
  0
VERTEX
  5
B0017
  8
0
 10
26375.89773943182
 20
1537.657647026935
 30
0.0
  0
VERTEX
  5
B0018
  8
0
 10
34375.89773943181
 20
1537.657647026935
 30
0.0
  0
VERTEX
  5
B0019
  8
0
 10
34375.89773943181
 20
1837.657647026935
 30
0.0
  0
VERTEX
  5
B001A
  8
0
 10
26375.89773943182
 20
1837.657647026935
 30
0.0
  0
SEQEND
  5
B0775
  8
0
  0
POLYLINE
  5
A9926
  8
0
 66
     1
 10
0.0
 20
0.0
 30
0.0
 70
     1
  0
VERTEX
  5
B001B
  8
0
 10
-0.000000000007276
 20
1537.657647026935
 30
0.0
  0
VERTEX
  5
B001C
  8
0
 10
16000.0
 20
1537.657647026935
 30
0.0
  0
VERTEX
  5
B001D
  8
0
 10
16000.0
 20
1837.657647026935
 30
0.0
  0
VERTEX
  5
B001E
  8
0
 10
-0.000000000007276
 20
1837.657647026935
 30
0.0
  0
SEQEND
  5
B0776
  8
0
  0
TEXT
  5
A9927
  8
0
 10
3173.906836621409
 20
432.2479967307316
 30
0.0
 40
125.0
  1
Questo disegno è di proprietà di Fantin S.r.l.   
  7
STILE1
 72
     1
 11
5596.525884240456
 21
432.2479967307316
 31
0.0
  0
TEXT
  5
A9928
  8
0
 10
3725.328514243444
 20
778.7322304035333
 30
0.0
 40
125.0
  1
Jordan
  7
STILE1
 72
     1
 11
4032.062145195825
 21
778.7322304035333
 31
0.0
  0
POLYLINE
  5
A9929
  8
0
  6
CONTINUOUS
 66
     1
 10
0.0
 20
0.0
 30
0.0
  0
VERTEX
  5
B001F
  8
0
  6
CONTINUOUS
 10
2006.841552732512
 20
299.9999999999997
 30
0.0
  0
VERTEX
  5
B0020
  8
0
  6
CONTINUOUS
 10
2006.841552732512
 20
687.661092123016
 30
0.0
  0
VERTEX
  5
B0021
  8
0
  6
CONTINUOUS
 10
2108.191094296053
 20
687.661092123016
 30
0.0
 42
-0.316444976687396
  0
VERTEX
  5
B0022
  8
0
  6
CONTINUOUS
 10
2159.138888884337
 20
659.4164767791514
 30
0.0
  0
VERTEX
  5
B0023
  8
0
  6
CONTINUOUS
 10
2259.932047529146
 20
489.3975694442633
 30
0.0
  0
VERTEX
  5
B0024
  8
0
  6
CONTINUOUS
 10
2262.700181747787
 20
489.3975694442633
 30
0.0
  0
VERTEX
  5
B0025
  8
0
  6
CONTINUOUS
 10
2262.700181747787
 20
687.661092123016
 30
0.0
  0
VERTEX
  5
B0026
  8
0
  6
CONTINUOUS
 10
2375.123982746154
 20
687.661092123016
 30
0.0
  0
VERTEX
  5
B0027
  8
0
  6
CONTINUOUS
 10
2375.123982746154
 20
299.9999999999997
 30
0.0
  0
VERTEX
  5
B0028
  8
0
  6
CONTINUOUS
 10
2292.601888021454
 20
299.9999999999997
 30
0.0
 42
-0.312959769389874
  0
VERTEX
  5
B0029
  8
0
  6
CONTINUOUS
 10
2241.654093428515
 20
328.2428927952421
 30
0.0
  0
VERTEX
  5
B002A
  8
0
  6
CONTINUOUS
 10
2122.033487958833
 20
521.5196397574612
 30
0.0
  0
VERTEX
  5
B002B
  8
0
  6
CONTINUOUS
 10
2119.268798828125
 20
521.5196397574612
 30
0.0
  0
VERTEX
  5
B002C
  8
0
  6
CONTINUOUS
 10
2119.268798828125
 20
299.9999999999997
 30
0.0
  0
VERTEX
  5
B002D
  8
0
  6
CONTINUOUS
 10
2006.841552732512
 20
299.9999999999997
 30
0.0
  0
SEQEND
  5
B0777
  8
0
  6
CONTINUOUS
  0
POLYLINE
  5
A992A
  8
0
  6
CONTINUOUS
 66
     1
 10
0.0
 20
0.0
 30
0.0
  0
VERTEX
  5
B002E
  8
0
  6
CONTINUOUS
 10
1030.479098847136
 20
299.9999999999997
 30
0.0
  0
VERTEX
  5
B002F
  8
0
  6
CONTINUOUS
 10
1030.479098847136
 20
687.661092123016
 30
0.0
  0
VERTEX
  5
B0030
  8
0
  6
CONTINUOUS
 10
1131.828640410675
 20
687.661092123016
 30
0.0
 42
-0.316444976687396
  0
VERTEX
  5
B0031
  8
0
  6
CONTINUOUS
 10
1182.776435003616
 20
659.4164767791514
 30
0.0
  0
VERTEX
  5
B0032
  8
0
  6
CONTINUOUS
 10
1283.569593643768
 20
489.3975694442633
 30
0.0
  0
VERTEX
  5
B0033
  8
0
  6
CONTINUOUS
 10
1286.337727867066
 20
489.3975694442633
 30
0.0
  0
VERTEX
  5
B0034
  8
0
  6
CONTINUOUS
 10
1286.337727867066
 20
687.661092123016
 30
0.0
  0
VERTEX
  5
B0035
  8
0
  6
CONTINUOUS
 10
1398.761528860777
 20
687.661092123016
 30
0.0
  0
VERTEX
  5
B0036
  8
0
  6
CONTINUOUS
 10
1398.761528860777
 20
299.9999999999997
 30
0.0
  0
VERTEX
  5
B0037
  8
0
  6
CONTINUOUS
 10
1316.239434136078
 20
299.9999999999997
 30
0.0
 42
-0.312959769389874
  0
VERTEX
  5
B0038
  8
0
  6
CONTINUOUS
 10
1265.29163953848
 20
328.2428927952421
 30
0.0
  0
VERTEX
  5
B0039
  8
0
  6
CONTINUOUS
 10
1145.671034073457
 20
521.5196397574612
 30
0.0
  0
VERTEX
  5
B003A
  8
0
  6
CONTINUOUS
 10
1142.906344942748
 20
521.5196397574612
 30
0.0
  0
VERTEX
  5
B003B
  8
0
  6
CONTINUOUS
 10
1142.906344942748
 20
299.9999999999997
 30
0.0
  0
VERTEX
  5
B003C
  8
0
  6
CONTINUOUS
 10
1030.479098847136
 20
299.9999999999997
 30
0.0
  0
SEQEND
  5
B0778
  8
0
  6
CONTINUOUS
  0
POLYLINE
  5
A992B
  8
0
  6
CONTINUOUS
 66
     1
 10
0.0
 20
0.0
 30
0.0
  0
VERTEX
  5
B003D
  8
0
  6
CONTINUOUS
 10
1783.103271485306
 20
687.6593695743937
 30
0.0
  0
VERTEX
  5
B003E
  8
0
  6
CONTINUOUS
 10
1783.103271485306
 20
596.8363172747192
 30
0.0
  0
VERTEX
  5
B003F
  8
0
  6
CONTINUOUS
 10
1666.80718316231
 20
596.8363172747192
 30
0.0
  0
VERTEX
  5
B0040
  8
0
  6
CONTINUOUS
 10
1666.80718316231
 20
299.9999999999997
 30
0.0
  0
VERTEX
  5
B0041
  8
0
  6
CONTINUOUS
 10
1547.737792972475
 20
299.9999999999997
 30
0.0
  0
VERTEX
  5
B0042
  8
0
  6
CONTINUOUS
 10
1547.737792972475
 20
596.8363172747192
 30
0.0
  0
VERTEX
  5
B0043
  8
0
  6
CONTINUOUS
 10
1434.204671224579
 20
596.8363172747192
 30
0.0
  0
VERTEX
  5
B0044
  8
0
  6
CONTINUOUS
 10
1434.204671224579
 20
687.6593695743937
 30
0.0
  0
VERTEX
  5
B0045
  8
0
  6
CONTINUOUS
 10
1783.103271485306
 20
687.6593695743937
 30
0.0
  0
SEQEND
  5
B0779
  8
0
  6
CONTINUOUS
  0
POLYLINE
  5
A992C
  8
0
  6
CONTINUOUS
 66
     1
 10
0.0
 20
0.0
 30
0.0
 70
     1
  0
VERTEX
  5
B0046
  8
0
  6
CONTINUOUS
 10
1820.206949869171
 20
687.6593695743937
 30
0.0
  0
VERTEX
  5
B0047
  8
0
  6
CONTINUOUS
 10
1939.276340059005
 20
687.6593695743937
 30
0.0
  0
VERTEX
  5
B0048
  8
0
  6
CONTINUOUS
 10
1939.276340059005
 20
299.9999999999997
 30
0.0
  0
VERTEX
  5
B0049
  8
0
  6
CONTINUOUS
 10
1820.206949869171
 20
299.9999999999997
 30
0.0
  0
SEQEND
  5
B077A
  8
0
  6
CONTINUOUS
  0
POLYLINE
  5
A992D
  8
0
  6
CONTINUOUS
 66
     1
 10
0.0
 20
0.0
 30
0.0
  0
VERTEX
  5
B004A
  8
0
  6
CONTINUOUS
 10
605.1458875834936
 20
687.6576470269353
 30
0.0
  0
VERTEX
  5
B004B
  8
0
  6
CONTINUOUS
 10
605.1458875834936
 20
598.4968532994384
 30
0.0
  0
VERTEX
  5
B004C
  8
0
  6
CONTINUOUS
 10
419.0693901898336
 20
598.4968532994384
 30
0.0
  0
VERTEX
  5
B004D
  8
0
  6
CONTINUOUS
 10
419.0693901898336
 20
521.52136230492
 30
0.0
  0
VERTEX
  5
B004E
  8
0
  6
CONTINUOUS
 10
549.2130398191512
 20
521.52136230492
 30
0.0
  0
VERTEX
  5
B004F
  8
0
  6
CONTINUOUS
 10
549.2130398191512
 20
438.4480523003727
 30
0.0
  0
VERTEX
  5
B0050
  8
0
  6
CONTINUOUS
 10
419.0693901898336
 20
438.4480523003727
 30
0.0
  0
VERTEX
  5
B0051
  8
0
  6
CONTINUOUS
 10
419.0693901898336
 20
299.9999999999997
 30
0.0
  0
VERTEX
  5
B0052
  8
0
  6
CONTINUOUS
 10
300.0
 20
299.9999999999997
 30
0.0
  0
VERTEX
  5
B0053
  8
0
  6
CONTINUOUS
 10
300.0
 20
687.6576470269353
 30
0.0
  0
VERTEX
  5
B0054
  8
0
  6
CONTINUOUS
 10
605.1458875834936
 20
687.6576470269353
 30
0.0
  0
SEQEND
  5
B077B
  8
0
  6
CONTINUOUS
  0
POLYLINE
  5
A992E
  8
0
  6
CONTINUOUS
 66
     1
 10
0.0
 20
0.0
 30
0.0
  0
VERTEX
  5
B0055
  8
0
  6
CONTINUOUS
 10
791.2309977225952
 20
580.7787272136192
 30
0.0
  0
VERTEX
  5
B0056
  8
0
  6
CONTINUOUS
 10
824.458943684584
 20
466.6909450956151
 30
0.0
  0
VERTEX
  5
B0057
  8
0
  6
CONTINUOUS
 10
751.9104003906241
 20
466.6909450956151
 30
0.0
  0
VERTEX
  5
B0058
  8
0
  6
CONTINUOUS
 10
785.13834635727
 20
580.7787272136192
 30
0.0
  0
VERTEX
  5
B0059
  8
0
  6
CONTINUOUS
 10
791.2309977225952
 20
580.7787272136192
 30
0.0
  0
SEQEND
  5
B077C
  8
0
  6
CONTINUOUS
  0
POLYLINE
  5
A992F
  8
0
  6
CONTINUOUS
 66
     1
 10
0.0
 20
0.0
 30
0.0
 70
     1
  0
VERTEX
  5
B005A
  8
0
  6
CONTINUOUS
 10
847.7226611692438
 20
383.6228027346076
 30
0.0
  0
VERTEX
  5
B005B
  8
0
  6
CONTINUOUS
 10
847.7226611692438
 20
383.6228027346076
 30
0.0
  0
VERTEX
  5
B005C
  8
0
  6
CONTINUOUS
 10
872.0839436817907
 20
299.9999999999997
 30
0.0
  0
VERTEX
  5
B005D
  8
0
  6
CONTINUOUS
 10
997.8006456140432
 20
299.9999999999997
 30
0.0
  0
VERTEX
  5
B005E
  8
0
  6
CONTINUOUS
 10
880.3917914489284
 20
652.7743326826017
 30
0.0
 42
0.1089385125692126
  0
VERTEX
  5
B005F
  8
0
  6
CONTINUOUS
 10
867.6499316329131
 20
680.4454704024826
 30
0.0
 42
0.1589313772246072
  0
VERTEX
  5
B0060
  8
0
  6
CONTINUOUS
 10
855.6541064428161
 20
687.7303423592817
 30
0.0
 42
0.058673645385263
  0
VERTEX
  5
B0061
  8
0
  6
CONTINUOUS
 10
839.4089355459447
 20
689.3216281465718
 30
0.0
  0
VERTEX
  5
B0062
  8
0
  6
CONTINUOUS
 10
839.4089355459447
 20
689.3216281465718
 30
0.0
  0
VERTEX
  5
B0063
  8
0
  6
CONTINUOUS
 10
744.1606580931694
 20
689.3216281465718
 30
0.0
 42
0.058673645385263
  0
VERTEX
  5
B0064
  8
0
  6
CONTINUOUS
 10
727.9154871962947
 20
687.7303423592817
 30
0.0
 42
0.1589313772246072
  0
VERTEX
  5
B0065
  8
0
  6
CONTINUOUS
 10
715.9196620061985
 20
680.4454704024826
 30
0.0
 42
0.1089385125692126
  0
VERTEX
  5
B0066
  8
0
  6
CONTINUOUS
 10
703.1778021901849
 20
652.7743326826017
 30
0.0
  0
VERTEX
  5
B0067
  8
0
  6
CONTINUOUS
 10
585.768948029726
 20
299.9999999999997
 30
0.0
  0
VERTEX
  5
B0068
  8
0
  6
CONTINUOUS
 10
704.8348931223154
 20
299.9999999999997
 30
0.0
  0
VERTEX
  5
B0069
  8
0
  6
CONTINUOUS
 10
728.6473931185901
 20
383.6228027346076
 30
0.0
  0
SEQEND
  5
B077D
  8
0
  6
CONTINUOUS
  0
TEXT
  5
A9930
  8
0
 10
3484.840736835664
 20
170.1637904425171
 30
0.0
 40
125.0
  1
This drawing is property of Fantin S.r.l. 
  7
STILE1
 72
     1
 11
5499.721689216617
 21
170.1637904425171
 31
0.0
  0
POLYLINE
  5
A9931
  8
0
 66
     1
 10
0.0
 20
0.0
 30
0.0
  0
VERTEX
  5
B006A
  8
0
 10
2675.123982746154
 20
687.661092123016
 30
0.0
  0
VERTEX
  5
B006B
  8
0
 10
8025.371948238463
 20
687.6610921230168
 30
0.0
  0
SEQEND
  5
B077E
  8
0
  0
POLYLINE
  5
A9932
  8
0
 66
     1
 10
0.0
 20
0.0
 30
0.0
 70
     1
  0
VERTEX
  5
B006C
  8
0
 10
0.0
 20
987.6576470269353
 30
0.0
  0
VERTEX
  5
B006D
  8
0
 10
8025.371948238463
 20
987.6576470269353
 30
0.0
  0
VERTEX
  5
B006E
  8
0
 10
8025.371948238463
 20
0.0
 30
0.0
  0
VERTEX
  5
B006F
  8
0
 10
0.0
 20
0.0
 30
0.0
  0
SEQEND
  5
B077F
  8
0
  0
LINE
  5
A9933
  8
0
 10
2675.123982746154
 20
987.6576470269353
 30
0.0
 11
2675.123982746154
 21
0.0
 31
0.0
  0
LINE
  5
A9934
  8
0
 10
5350.247965492308
 20
687.661092123016
 30
0.0
 11
5350.247965492308
 21
987.6576470269353
 31
0.0
  0
TEXT
  5
A9935
  8
0
 10
6252.7084966879
 20
778.7322304035333
 30
0.0
 40
125.0
  1
2022-06
  7
STILE1
 72
     1
 11
6687.604330021233
 21
778.7322304035333
 31
0.0
  0
LINE
  5
A9936
  8
0
 10
8025.371948238463
 20
987.6576470269353
 30
0.0
 11
8025.371948238463
 21
0.0
 31
0.0
  0
TEXT
  5
A9944
  8
0
 10
639.9104241626874
 20
1635.467425269804
 30
0.0
 40
125.0
  1
Static modules / Moduli fissi / Feste Module
  7
STILE1
 72
     1
 11
2899.304025353164
 21
1635.467425269804
 31
0.0
  0
TEXT
  5
A9945
  8
0
 10
8869.377825356363
 20
1635.467425269804
 30
0.0
 40
125.0
  1
Sliding modules / Moduli mobili / Bewegliche Module
  7
STILE1
 72
     1
 11
11509.72380749922
 21
1635.467425269804
 31
0.0
  0
TEXT
  5
A9946
  8
0
 10
16745.50794347793
 20
1635.467425269804
 30
0.0
 40
125.0
  1
Modular Combinations / Componibilità moduli / Zusammensetzbarkeit Module
  7
STILE1
 72
     1
 11
20567.02952085888
 21
1635.467425269804
 31
0.0
  0
TEXT
  5
A9947
  8
0
 10
26595.21520671927
 20
1635.467425269804
 30
0.0
 40
125.0
  1
Examples of compositions / Esempi di composizioni / Kompositionsbeispiele
  7
STILE1
 72
     1
 11
30392.9272602907
 21
1635.467425269804
 31
0.0
  0
LINE
  5
AAA5A
  8
0
 10
22732.69473631098
 20
14295.44289643319
 30
0.0
 11
17223.39205753694
 21
14295.44289643319
 31
0.0
  0
POLYLINE
  5
AAB8E
  8
0
 66
     1
 10
0.0
 20
0.0
 30
0.0
 70
     1
  0
VERTEX
  5
B0070
  8
0
 10
20408.11111616106
 20
3216.553187974926
 30
0.0
  0
VERTEX
  5
B0071
  8
0
 10
20412.11111616107
 20
3216.553187974926
 30
0.0
  0
VERTEX
  5
B0072
  8
0
 10
20412.11111616107
 20
2866.686915805818
 30
0.0
  0
VERTEX
  5
B0073
  8
0
 10
20408.11111616106
 20
2866.686915805818
 30
0.0
  0
SEQEND
  5
B0780
  8
0
  0
CIRCLE
  5
AAB8F
  8
0
 10
20386.81112646556
 20
3144.881466525149
 30
0.0
 40
21.29998969548594
  0
POLYLINE
  5
AAB90
  8
0
 66
     1
 10
0.0
 20
0.0
 30
0.0
 70
     1
  0
VERTEX
  5
B0074
  8
0
 10
20447.11111616106
 20
2998.036426392835
 30
0.0
  0
VERTEX
  5
B0075
  8
0
 10
20412.11111616107
 20
2998.036426392835
 30
0.0
  0
VERTEX
  5
B0076
  8
0
 10
20412.11111616107
 20
3068.036426392835
 30
0.0
  0
VERTEX
  5
B0077
  8
0
 10
20447.11111616106
 20
3068.036426392835
 30
0.0
  0
SEQEND
  5
B0781
  8
0
  0
POLYLINE
  5
AAB91
  8
0
 66
     1
 10
0.0
 20
0.0
 30
0.0
 70
     1
  0
VERTEX
  5
B0078
  8
0
 10
20497.11111616106
 20
4748.036426392835
 30
0.0
  0
VERTEX
  5
B0079
  8
0
 10
20497.11111616106
 20
2218.036426392835
 30
0.0
  0
VERTEX
  5
B007A
  8
0
 10
20447.11111616106
 20
2218.036426392835
 30
0.0
  0
VERTEX
  5
B007B
  8
0
 10
20447.11111616106
 20
4748.036426392835
 30
0.0
  0
SEQEND
  5
B0782
  8
0
  0
POLYLINE
  5
AAB92
  8
0
 66
     1
 10
0.0
 20
0.0
 30
0.0
 70
     1
  0
VERTEX
  5
B007C
  8
0
 10
20447.11111616104
 20
7042.171916406282
 30
0.0
  0
VERTEX
  5
B007D
  8
0
 10
20412.11111616104
 20
7042.171916406282
 30
0.0
  0
VERTEX
  5
B007E
  8
0
 10
20412.11111616104
 20
7112.171916406281
 30
0.0
  0
VERTEX
  5
B007F
  8
0
 10
20447.11111616104
 20
7112.171916406281
 30
0.0
  0
SEQEND
  5
B0783
  8
0
  0
CIRCLE
  5
AAB93
  8
0
 10
20386.81112646553
 20
7189.016956538598
 30
0.0
 40
21.29998969548594
  0
POLYLINE
  5
AAB94
  8
0
 66
     1
 10
0.0
 20
0.0
 30
0.0
 70
     1
  0
VERTEX
  5
B0080
  8
0
 10
20408.11111616104
 20
7260.688677988373
 30
0.0
  0
VERTEX
  5
B0081
  8
0
 10
20412.11111616104
 20
7260.688677988373
 30
0.0
  0
VERTEX
  5
B0082
  8
0
 10
20412.11111616104
 20
6910.822405819266
 30
0.0
  0
VERTEX
  5
B0083
  8
0
 10
20408.11111616104
 20
6910.822405819266
 30
0.0
  0
SEQEND
  5
B0784
  8
0
  0
POLYLINE
  5
AAB95
  8
0
 66
     1
 10
0.0
 20
0.0
 30
0.0
 70
     1
  0
VERTEX
  5
B0084
  8
0
 10
20497.11111616104
 20
8792.171916406282
 30
0.0
  0
VERTEX
  5
B0085
  8
0
 10
20497.11111616104
 20
6262.171916406281
 30
0.0
  0
VERTEX
  5
B0086
  8
0
 10
20447.11111616104
 20
6262.171916406281
 30
0.0
  0
VERTEX
  5
B0087
  8
0
 10
20447.11111616104
 20
8792.171916406282
 30
0.0
  0
SEQEND
  5
B0785
  8
0
  0
POLYLINE
  5
AAB96
  8
0
 66
     1
 10
0.0
 20
0.0
 30
0.0
 70
     1
  0
VERTEX
  5
B0088
  8
0
 10
20447.11111616106
 20
15130.44289643319
 30
0.0
  0
VERTEX
  5
B0089
  8
0
 10
20412.11111616106
 20
15130.44289643319
 30
0.0
  0
VERTEX
  5
B008A
  8
0
 10
20412.11111616106
 20
15200.44289643319
 30
0.0
  0
VERTEX
  5
B008B
  8
0
 10
20447.11111616106
 20
15200.44289643319
 30
0.0
  0
SEQEND
  5
B0786
  8
0
  0
CIRCLE
  5
AAB97
  8
0
 10
20386.81112646556
 20
15277.2879365655
 30
0.0
 40
21.29998969548594
  0
POLYLINE
  5
AAB98
  8
0
 66
     1
 10
0.0
 20
0.0
 30
0.0
 70
     1
  0
VERTEX
  5
B008C
  8
0
 10
20408.11111616106
 20
15348.95965801528
 30
0.0
  0
VERTEX
  5
B008D
  8
0
 10
20412.11111616106
 20
15348.95965801528
 30
0.0
  0
VERTEX
  5
B008E
  8
0
 10
20412.11111616106
 20
14999.09338584616
 30
0.0
  0
VERTEX
  5
B008F
  8
0
 10
20408.11111616106
 20
14999.09338584616
 30
0.0
  0
SEQEND
  5
B0787
  8
0
  0
POLYLINE
  5
AAB99
  8
0
 66
     1
 10
0.0
 20
0.0
 30
0.0
 70
     1
  0
VERTEX
  5
B0090
  8
0
 10
20497.11111616106
 20
16880.44289643319
 30
0.0
  0
VERTEX
  5
B0091
  8
0
 10
20497.11111616106
 20
14350.44289643319
 30
0.0
  0
VERTEX
  5
B0092
  8
0
 10
20447.11111616106
 20
14350.44289643319
 30
0.0
  0
VERTEX
  5
B0093
  8
0
 10
20447.11111616106
 20
16880.44289643319
 30
0.0
  0
SEQEND
  5
B0788
  8
0
  0
POLYLINE
  5
AAB9A
  8
0
 66
     1
 10
0.0
 20
0.0
 30
0.0
 70
     1
  0
VERTEX
  5
B0094
  8
0
 10
20408.11111616106
 20
11304.82416800182
 30
0.0
  0
VERTEX
  5
B0095
  8
0
 10
20412.11111616106
 20
11304.82416800182
 30
0.0
  0
VERTEX
  5
B0096
  8
0
 10
20412.11111616106
 20
10954.9578958327
 30
0.0
  0
VERTEX
  5
B0097
  8
0
 10
20408.11111616106
 20
10954.9578958327
 30
0.0
  0
SEQEND
  5
B0789
  8
0
  0
CIRCLE
  5
AAB9B
  8
0
 10
20386.81112646557
 20
11233.15244655204
 30
0.0
 40
21.29998969548594
  0
POLYLINE
  5
AAB9C
  8
0
 66
     1
 10
0.0
 20
0.0
 30
0.0
 70
     1
  0
VERTEX
  5
B0098
  8
0
 10
20447.11111616106
 20
11086.30740641973
 30
0.0
  0
VERTEX
  5
B0099
  8
0
 10
20412.11111616106
 20
11086.30740641973
 30
0.0
  0
VERTEX
  5
B009A
  8
0
 10
20412.11111616106
 20
11156.30740641973
 30
0.0
  0
VERTEX
  5
B009B
  8
0
 10
20447.11111616106
 20
11156.30740641973
 30
0.0
  0
SEQEND
  5
B078A
  8
0
  0
POLYLINE
  5
AAB9D
  8
0
 66
     1
 10
0.0
 20
0.0
 30
0.0
 70
     1
  0
VERTEX
  5
B009C
  8
0
 10
20497.11111616106
 20
12836.30740641974
 30
0.0
  0
VERTEX
  5
B009D
  8
0
 10
20497.11111616106
 20
10306.30740641973
 30
0.0
  0
VERTEX
  5
B009E
  8
0
 10
20447.11111616106
 20
10306.30740641973
 30
0.0
  0
VERTEX
  5
B009F
  8
0
 10
20447.11111616106
 20
12836.30740641974
 30
0.0
  0
SEQEND
  5
B078B
  8
0
  0
POLYLINE
  5
AAB9E
  8
0
 66
     1
 10
0.0
 20
0.0
 30
0.0
 70
     1
  0
VERTEX
  5
B00A0
  8
0
 10
20527.1111161613
 20
12301.30740641974
 30
0.0
  0
VERTEX
  5
B00A1
  8
0
 10
20527.1111161613
 20
12327.30740641974
 30
0.0
  0
VERTEX
  5
B00A2
  8
0
 10
21497.1111161613
 20
12327.30740641974
 30
0.0
  0
VERTEX
  5
B00A3
  8
0
 10
21497.1111161613
 20
12301.30740641974
 30
0.0
  0
SEQEND
  5
B078C
  8
0
  0
POLYLINE
  5
AAB9F
  8
0
 66
     1
 10
0.0
 20
0.0
 30
0.0
 70
     1
  0
VERTEX
  5
B00A4
  8
0
 10
22497.1111161613
 20
12327.30740641974
 30
0.0
  0
VERTEX
  5
B00A5
  8
0
 10
22497.1111161613
 20
12301.30740641974
 30
0.0
  0
VERTEX
  5
B00A6
  8
0
 10
21527.1111161613
 20
12301.30740641974
 30
0.0
  0
VERTEX
  5
B00A7
  8
0
 10
21527.1111161613
 20
12327.30740641974
 30
0.0
  0
SEQEND
  5
B078D
  8
0
  0
POLYLINE
  5
AABA0
  8
0
 66
     1
 10
0.0
 20
0.0
 30
0.0
 70
     1
  0
VERTEX
  5
B00A8
  8
0
 10
20527.1111161613
 20
12051.30740641974
 30
0.0
  0
VERTEX
  5
B00A9
  8
0
 10
20527.1111161613
 20
12077.30740641974
 30
0.0
  0
VERTEX
  5
B00AA
  8
0
 10
21497.1111161613
 20
12077.30740641974
 30
0.0
  0
VERTEX
  5
B00AB
  8
0
 10
21497.1111161613
 20
12051.30740641974
 30
0.0
  0
SEQEND
  5
B078E
  8
0
  0
POLYLINE
  5
AABA1
  8
0
 66
     1
 10
0.0
 20
0.0
 30
0.0
 70
     1
  0
VERTEX
  5
B00AC
  8
0
 10
22497.1111161613
 20
12077.30740641974
 30
0.0
  0
VERTEX
  5
B00AD
  8
0
 10
22497.1111161613
 20
12051.30740641974
 30
0.0
  0
VERTEX
  5
B00AE
  8
0
 10
21527.1111161613
 20
12051.30740641974
 30
0.0
  0
VERTEX
  5
B00AF
  8
0
 10
21527.1111161613
 20
12077.30740641974
 30
0.0
  0
SEQEND
  5
B078F
  8
0
  0
POLYLINE
  5
AABA2
  8
0
 66
     1
 10
0.0
 20
0.0
 30
0.0
 70
     1
  0
VERTEX
  5
B00B0
  8
0
 10
20527.1111161613
 20
11801.30740641974
 30
0.0
  0
VERTEX
  5
B00B1
  8
0
 10
20527.1111161613
 20
11827.30740641974
 30
0.0
  0
VERTEX
  5
B00B2
  8
0
 10
21497.1111161613
 20
11827.30740641974
 30
0.0
  0
VERTEX
  5
B00B3
  8
0
 10
21497.1111161613
 20
11801.30740641974
 30
0.0
  0
SEQEND
  5
B0790
  8
0
  0
POLYLINE
  5
AABA3
  8
0
 66
     1
 10
0.0
 20
0.0
 30
0.0
 70
     1
  0
VERTEX
  5
B00B4
  8
0
 10
22497.1111161613
 20
11827.30740641974
 30
0.0
  0
VERTEX
  5
B00B5
  8
0
 10
22497.1111161613
 20
11801.30740641974
 30
0.0
  0
VERTEX
  5
B00B6
  8
0
 10
21527.1111161613
 20
11801.30740641974
 30
0.0
  0
VERTEX
  5
B00B7
  8
0
 10
21527.1111161613
 20
11827.30740641974
 30
0.0
  0
SEQEND
  5
B0791
  8
0
  0
POLYLINE
  5
AABA4
  8
0
 66
     1
 10
0.0
 20
0.0
 30
0.0
 70
     1
  0
VERTEX
  5
B00B8
  8
0
 10
22024.61111616106
 20
10281.30740641973
 30
0.0
  0
VERTEX
  5
B00B9
  8
0
 10
22024.61111616106
 20
10256.30740641973
 30
0.0
  0
VERTEX
  5
B00BA
  8
0
 10
21999.61111616106
 20
10256.30740641973
 30
0.0
  0
VERTEX
  5
B00BB
  8
0
 10
21999.61111616106
 20
10281.30740641973
 30
0.0
  0
SEQEND
  5
B0792
  8
0
  0
POLYLINE
  5
AABA5
  8
0
 66
     1
 10
0.0
 20
0.0
 30
0.0
 70
     1
  0
VERTEX
  5
B00BC
  8
0
 10
22034.61111616106
 20
10306.30740641973
 30
0.0
  0
VERTEX
  5
B00BD
  8
0
 10
22034.61111616106
 20
10281.30740641973
 30
0.0
  0
VERTEX
  5
B00BE
  8
0
 10
21989.61111616106
 20
10281.30740641973
 30
0.0
  0
VERTEX
  5
B00BF
  8
0
 10
21989.61111616106
 20
10306.30740641973
 30
0.0
  0
SEQEND
  5
B0793
  8
0
  0
LINE
  5
AABA6
  8
0
 10
21989.61111616106
 20
10306.30740641973
 30
0.0
 11
21989.61111616106
 21
10281.30740641973
 31
0.0
  0
LINE
  5
AABA7
  8
0
 10
21989.61111616106
 20
10306.30740641973
 30
0.0
 11
21989.61111616106
 21
10281.30740641973
 31
0.0
  0
LINE
  5
AABA8
  8
0
 10
21999.61111616106
 20
10281.30740641973
 30
0.0
 11
21999.61111616106
 21
10256.30740641973
 31
0.0
  0
LINE
  5
AABA9
  8
0
 10
21999.61111616106
 20
10281.30740641973
 30
0.0
 11
21999.61111616106
 21
10256.30740641973
 31
0.0
  0
LINE
  5
AABAA
  8
0
 10
22034.61111616106
 20
10281.30740641973
 30
0.0
 11
21989.61111616106
 21
10281.30740641973
 31
0.0
  0
LINE
  5
AABAB
  8
0
 10
22034.61111616106
 20
10281.30740641973
 30
0.0
 11
21989.61111616106
 21
10281.30740641973
 31
0.0
  0
LINE
  5
AABAC
  8
0
 10
21999.61111616106
 20
10281.30740641973
 30
0.0
 11
21999.61111616106
 21
10256.30740641973
 31
0.0
  0
LINE
  5
AABAD
  8
0
 10
21999.61111616106
 20
10281.30740641973
 30
0.0
 11
21999.61111616106
 21
10256.30740641973
 31
0.0
  0
LINE
  5
AABAE
  8
0
 10
22034.61111616106
 20
10281.30740641973
 30
0.0
 11
21989.61111616106
 21
10281.30740641973
 31
0.0
  0
LINE
  5
AABAF
  8
0
 10
22034.61111616106
 20
10281.30740641973
 30
0.0
 11
21989.61111616106
 21
10281.30740641973
 31
0.0
  0
LINE
  5
AABB0
  8
0
 10
21989.61111616106
 20
10306.30740641973
 30
0.0
 11
21989.61111616106
 21
10281.30740641973
 31
0.0
  0
LINE
  5
AABB1
  8
0
 10
21989.61111616106
 20
10306.30740641973
 30
0.0
 11
21989.61111616106
 21
10281.30740641973
 31
0.0
  0
POLYLINE
  5
AABB2
  8
0
 66
     1
 10
0.0
 20
0.0
 30
0.0
 70
     1
  0
VERTEX
  5
B00C0
  8
0
 10
21024.61111616106
 20
10281.30740641973
 30
0.0
  0
VERTEX
  5
B00C1
  8
0
 10
21024.61111616106
 20
10256.30740641973
 30
0.0
  0
VERTEX
  5
B00C2
  8
0
 10
20999.61111616106
 20
10256.30740641973
 30
0.0
  0
VERTEX
  5
B00C3
  8
0
 10
20999.61111616106
 20
10281.30740641973
 30
0.0
  0
SEQEND
  5
B0794
  8
0
  0
POLYLINE
  5
AABB3
  8
0
 66
     1
 10
0.0
 20
0.0
 30
0.0
 70
     1
  0
VERTEX
  5
B00C4
  8
0
 10
21034.61111616106
 20
10306.30740641973
 30
0.0
  0
VERTEX
  5
B00C5
  8
0
 10
21034.61111616106
 20
10281.30740641973
 30
0.0
  0
VERTEX
  5
B00C6
  8
0
 10
20989.61111616106
 20
10281.30740641973
 30
0.0
  0
VERTEX
  5
B00C7
  8
0
 10
20989.61111616106
 20
10306.30740641973
 30
0.0
  0
SEQEND
  5
B0795
  8
0
  0
LINE
  5
AABB4
  8
0
 10
20989.61111616106
 20
10306.30740641973
 30
0.0
 11
20989.61111616106
 21
10281.30740641973
 31
0.0
  0
LINE
  5
AABB5
  8
0
 10
20989.61111616106
 20
10306.30740641973
 30
0.0
 11
20989.61111616106
 21
10281.30740641973
 31
0.0
  0
LINE
  5
AABB6
  8
0
 10
20999.61111616106
 20
10281.30740641973
 30
0.0
 11
20999.61111616106
 21
10256.30740641973
 31
0.0
  0
LINE
  5
AABB7
  8
0
 10
20999.61111616106
 20
10281.30740641973
 30
0.0
 11
20999.61111616106
 21
10256.30740641973
 31
0.0
  0
LINE
  5
AABB8
  8
0
 10
21034.61111616106
 20
10281.30740641973
 30
0.0
 11
20989.61111616106
 21
10281.30740641973
 31
0.0
  0
LINE
  5
AABB9
  8
0
 10
21034.61111616106
 20
10281.30740641973
 30
0.0
 11
20989.61111616106
 21
10281.30740641973
 31
0.0
  0
LINE
  5
AABBA
  8
0
 10
20999.61111616106
 20
10281.30740641973
 30
0.0
 11
20999.61111616106
 21
10256.30740641973
 31
0.0
  0
LINE
  5
AABBB
  8
0
 10
20999.61111616106
 20
10281.30740641973
 30
0.0
 11
20999.61111616106
 21
10256.30740641973
 31
0.0
  0
LINE
  5
AABBC
  8
0
 10
21034.61111616106
 20
10281.30740641973
 30
0.0
 11
20989.61111616106
 21
10281.30740641973
 31
0.0
  0
LINE
  5
AABBD
  8
0
 10
21034.61111616106
 20
10281.30740641973
 30
0.0
 11
20989.61111616106
 21
10281.30740641973
 31
0.0
  0
LINE
  5
AABBE
  8
0
 10
20989.61111616106
 20
10306.30740641973
 30
0.0
 11
20989.61111616106
 21
10281.30740641973
 31
0.0
  0
LINE
  5
AABBF
  8
0
 10
20989.61111616106
 20
10306.30740641973
 30
0.0
 11
20989.61111616106
 21
10281.30740641973
 31
0.0
  0
LINE
  5
AABC0
  8
0
 10
21989.61111616106
 20
10306.30740641973
 30
0.0
 11
21989.61111616106
 21
10281.30740641973
 31
0.0
  0
LINE
  5
AABC1
  8
0
 10
21989.61111616106
 20
10306.30740641973
 30
0.0
 11
21989.61111616106
 21
10281.30740641973
 31
0.0
  0
LINE
  5
AABC2
  8
0
 10
21999.61111616106
 20
10281.30740641973
 30
0.0
 11
21999.61111616106
 21
10256.30740641973
 31
0.0
  0
LINE
  5
AABC3
  8
0
 10
21999.61111616106
 20
10281.30740641973
 30
0.0
 11
21999.61111616106
 21
10256.30740641973
 31
0.0
  0
LINE
  5
AABC4
  8
0
 10
22034.61111616106
 20
10281.30740641973
 30
0.0
 11
21989.61111616106
 21
10281.30740641973
 31
0.0
  0
LINE
  5
AABC5
  8
0
 10
22034.61111616106
 20
10281.30740641973
 30
0.0
 11
21989.61111616106
 21
10281.30740641973
 31
0.0
  0
LINE
  5
AABC6
  8
0
 10
21999.61111616106
 20
10281.30740641973
 30
0.0
 11
21999.61111616106
 21
10256.30740641973
 31
0.0
  0
LINE
  5
AABC7
  8
0
 10
21999.61111616106
 20
10281.30740641973
 30
0.0
 11
21999.61111616106
 21
10256.30740641973
 31
0.0
  0
LINE
  5
AABC8
  8
0
 10
22034.61111616106
 20
10281.30740641973
 30
0.0
 11
21989.61111616106
 21
10281.30740641973
 31
0.0
  0
LINE
  5
AABC9
  8
0
 10
22034.61111616106
 20
10281.30740641973
 30
0.0
 11
21989.61111616106
 21
10281.30740641973
 31
0.0
  0
LINE
  5
AABCA
  8
0
 10
21989.61111616106
 20
10306.30740641973
 30
0.0
 11
21989.61111616106
 21
10281.30740641973
 31
0.0
  0
LINE
  5
AABCB
  8
0
 10
21989.61111616106
 20
10306.30740641973
 30
0.0
 11
21989.61111616106
 21
10281.30740641973
 31
0.0
  0
POLYLINE
  5
AABCC
  8
0
 66
     1
 10
0.0
 20
0.0
 30
0.0
 70
     1
  0
VERTEX
  5
B00C8
  8
0
 10
22429.61111616106
 20
12856.30740641977
 30
0.0
  0
VERTEX
  5
B00C9
  8
0
 10
22429.61111616106
 20
12878.80740641977
 30
0.0
 42
-1.0
  0
VERTEX
  5
B00CA
  8
0
 10
22384.61111616106
 20
12878.80740641977
 30
0.0
  0
VERTEX
  5
B00CB
  8
0
 10
22384.61111616106
 20
12856.30740641974
 30
0.0
  0
VERTEX
  5
B00CC
  8
0
 10
22367.11111616106
 20
12856.30740641977
 30
0.0
  0
VERTEX
  5
B00CD
  8
0
 10
22357.11111616106
 20
12846.30740641974
 30
0.0
  0
VERTEX
  5
B00CE
  8
0
 10
22457.11111616106
 20
12846.30740641974
 30
0.0
  0
VERTEX
  5
B00CF
  8
0
 10
22447.11111616106
 20
12856.30740641977
 30
0.0
  0
SEQEND
  5
B0796
  8
0
  0
POLYLINE
  5
AABCD
  8
0
 66
     1
 10
0.0
 20
0.0
 30
0.0
 70
     1
  0
VERTEX
  5
B00D0
  8
0
 10
20527.1111161613
 20
11551.30740641974
 30
0.0
  0
VERTEX
  5
B00D1
  8
0
 10
20527.1111161613
 20
11577.30740641974
 30
0.0
  0
VERTEX
  5
B00D2
  8
0
 10
21497.1111161613
 20
11577.30740641974
 30
0.0
  0
VERTEX
  5
B00D3
  8
0
 10
21497.1111161613
 20
11551.30740641974
 30
0.0
  0
SEQEND
  5
B0797
  8
0
  0
POLYLINE
  5
AABCE
  8
0
 66
     1
 10
0.0
 20
0.0
 30
0.0
 70
     1
  0
VERTEX
  5
B00D4
  8
0
 10
22497.1111161613
 20
11577.30740641974
 30
0.0
  0
VERTEX
  5
B00D5
  8
0
 10
22497.1111161613
 20
11551.30740641974
 30
0.0
  0
VERTEX
  5
B00D6
  8
0
 10
21527.1111161613
 20
11551.30740641974
 30
0.0
  0
VERTEX
  5
B00D7
  8
0
 10
21527.1111161613
 20
11577.30740641974
 30
0.0
  0
SEQEND
  5
B0798
  8
0
  0
POLYLINE
  5
AABCF
  8
0
 66
     1
 10
0.0
 20
0.0
 30
0.0
 70
     1
  0
VERTEX
  5
B00D8
  8
0
 10
20527.1111161613
 20
11301.30740641974
 30
0.0
  0
VERTEX
  5
B00D9
  8
0
 10
20527.1111161613
 20
11327.30740641974
 30
0.0
  0
VERTEX
  5
B00DA
  8
0
 10
21497.1111161613
 20
11327.30740641974
 30
0.0
  0
VERTEX
  5
B00DB
  8
0
 10
21497.1111161613
 20
11301.30740641974
 30
0.0
  0
SEQEND
  5
B0799
  8
0
  0
POLYLINE
  5
AABD0
  8
0
 66
     1
 10
0.0
 20
0.0
 30
0.0
 70
     1
  0
VERTEX
  5
B00DC
  8
0
 10
22497.1111161613
 20
11327.30740641974
 30
0.0
  0
VERTEX
  5
B00DD
  8
0
 10
22497.1111161613
 20
11301.30740641974
 30
0.0
  0
VERTEX
  5
B00DE
  8
0
 10
21527.1111161613
 20
11301.30740641974
 30
0.0
  0
VERTEX
  5
B00DF
  8
0
 10
21527.1111161613
 20
11327.30740641974
 30
0.0
  0
SEQEND
  5
B079A
  8
0
  0
POLYLINE
  5
AABD1
  8
0
 66
     1
 10
0.0
 20
0.0
 30
0.0
 70
     1
  0
VERTEX
  5
B00E0
  8
0
 10
20527.1111161613
 20
11051.30740641974
 30
0.0
  0
VERTEX
  5
B00E1
  8
0
 10
20527.1111161613
 20
11077.30740641974
 30
0.0
  0
VERTEX
  5
B00E2
  8
0
 10
21497.1111161613
 20
11077.30740641974
 30
0.0
  0
VERTEX
  5
B00E3
  8
0
 10
21497.1111161613
 20
11051.30740641974
 30
0.0
  0
SEQEND
  5
B079B
  8
0
  0
POLYLINE
  5
AABD2
  8
0
 66
     1
 10
0.0
 20
0.0
 30
0.0
 70
     1
  0
VERTEX
  5
B00E4
  8
0
 10
22497.1111161613
 20
11077.30740641974
 30
0.0
  0
VERTEX
  5
B00E5
  8
0
 10
22497.1111161613
 20
11051.30740641974
 30
0.0
  0
VERTEX
  5
B00E6
  8
0
 10
21527.1111161613
 20
11051.30740641974
 30
0.0
  0
VERTEX
  5
B00E7
  8
0
 10
21527.1111161613
 20
11077.30740641974
 30
0.0
  0
SEQEND
  5
B079C
  8
0
  0
POLYLINE
  5
AABD3
  8
0
 66
     1
 10
0.0
 20
0.0
 30
0.0
 70
     1
  0
VERTEX
  5
B00E8
  8
0
 10
20527.1111161613
 20
10801.30740641974
 30
0.0
  0
VERTEX
  5
B00E9
  8
0
 10
20527.1111161613
 20
10827.30740641974
 30
0.0
  0
VERTEX
  5
B00EA
  8
0
 10
21497.1111161613
 20
10827.30740641974
 30
0.0
  0
VERTEX
  5
B00EB
  8
0
 10
21497.1111161613
 20
10801.30740641974
 30
0.0
  0
SEQEND
  5
B079D
  8
0
  0
POLYLINE
  5
AABD4
  8
0
 66
     1
 10
0.0
 20
0.0
 30
0.0
 70
     1
  0
VERTEX
  5
B00EC
  8
0
 10
22497.1111161613
 20
10827.30740641974
 30
0.0
  0
VERTEX
  5
B00ED
  8
0
 10
22497.1111161613
 20
10801.30740641974
 30
0.0
  0
VERTEX
  5
B00EE
  8
0
 10
21527.1111161613
 20
10801.30740641974
 30
0.0
  0
VERTEX
  5
B00EF
  8
0
 10
21527.1111161613
 20
10827.30740641974
 30
0.0
  0
SEQEND
  5
B079E
  8
0
  0
POLYLINE
  5
AABD5
  8
0
 66
     1
 10
0.0
 20
0.0
 30
0.0
 70
     1
  0
VERTEX
  5
B00F0
  8
0
 10
22497.11111616106
 20
10427.30740641973
 30
0.0
  0
VERTEX
  5
B00F1
  8
0
 10
22497.11111616106
 20
10401.30740641973
 30
0.0
  0
VERTEX
  5
B00F2
  8
0
 10
21527.11111616106
 20
10401.30740641973
 30
0.0
  0
VERTEX
  5
B00F3
  8
0
 10
21527.11111616106
 20
10427.30740641973
 30
0.0
  0
SEQEND
  5
B079F
  8
0
  0
POLYLINE
  5
AABD6
  8
0
 66
     1
 10
0.0
 20
0.0
 30
0.0
 70
     1
  0
VERTEX
  5
B00F4
  8
0
 10
21497.11111616106
 20
10401.30740641973
 30
0.0
  0
VERTEX
  5
B00F5
  8
0
 10
21497.11111616106
 20
12801.30740641974
 30
0.0
  0
VERTEX
  5
B00F6
  8
0
 10
21527.11111616106
 20
12801.30740641974
 30
0.0
  0
VERTEX
  5
B00F7
  8
0
 10
21527.11111616106
 20
10401.30740641973
 30
0.0
  0
SEQEND
  5
B07A0
  8
0
  0
POLYLINE
  5
AABD7
  8
0
 66
     1
 10
0.0
 20
0.0
 30
0.0
 70
     1
  0
VERTEX
  5
B00F8
  8
0
 10
20527.11111616106
 20
10401.30740641973
 30
0.0
  0
VERTEX
  5
B00F9
  8
0
 10
20527.11111616106
 20
10427.30740641973
 30
0.0
  0
VERTEX
  5
B00FA
  8
0
 10
21497.11111616106
 20
10427.30740641973
 30
0.0
  0
VERTEX
  5
B00FB
  8
0
 10
21497.11111616106
 20
10401.30740641973
 30
0.0
  0
SEQEND
  5
B07A1
  8
0
  0
POLYLINE
  5
AABD8
  8
0
 66
     1
 10
0.0
 20
0.0
 30
0.0
 70
     1
  0
VERTEX
  5
B00FC
  8
0
 10
22497.11111616119
 20
10306.30740641973
 30
0.0
  0
VERTEX
  5
B00FD
  8
0
 10
22497.11111616119
 20
10401.30740642002
 30
0.0
  0
VERTEX
  5
B00FE
  8
0
 10
20527.11111616081
 20
10401.30740642002
 30
0.0
  0
VERTEX
  5
B00FF
  8
0
 10
20527.11111616081
 20
10306.30740641973
 30
0.0
  0
SEQEND
  5
B07A2
  8
0
  0
POLYLINE
  5
AABD9
  8
0
 66
     1
 10
0.0
 20
0.0
 30
0.0
 70
     1
  0
VERTEX
  5
B0100
  8
0
 10
22527.11111616106
 20
12836.30740641974
 30
0.0
  0
VERTEX
  5
B0101
  8
0
 10
22527.11111616106
 20
10306.30740641973
 30
0.0
  0
VERTEX
  5
B0102
  8
0
 10
22497.11111616119
 20
10306.30740641973
 30
0.0
  0
VERTEX
  5
B0103
  8
0
 10
22497.11111616119
 20
12836.30740641974
 30
0.0
  0
SEQEND
  5
B07A3
  8
0
  0
POLYLINE
  5
AABDA
  8
0
 66
     1
 10
0.0
 20
0.0
 30
0.0
 70
     1
  0
VERTEX
  5
B0104
  8
0
 10
20527.11111616106
 20
12836.30740641974
 30
0.0
  0
VERTEX
  5
B0105
  8
0
 10
20527.11111616106
 20
10306.30740641973
 30
0.0
  0
VERTEX
  5
B0106
  8
0
 10
20497.11111616106
 20
10306.30740641973
 30
0.0
  0
VERTEX
  5
B0107
  8
0
 10
20497.11111616106
 20
12836.30740641974
 30
0.0
  0
SEQEND
  5
B07A4
  8
0
  0
POLYLINE
  5
AABDB
  8
0
 66
     1
 10
0.0
 20
0.0
 30
0.0
 70
     1
  0
VERTEX
  5
B0108
  8
0
 10
22497.11111616106
 20
12836.30740641974
 30
0.0
  0
VERTEX
  5
B0109
  8
0
 10
22497.11111616106
 20
12801.30740641974
 30
0.0
  0
VERTEX
  5
B010A
  8
0
 10
20527.11111616106
 20
12801.30740641974
 30
0.0
  0
VERTEX
  5
B010B
  8
0
 10
20527.11111616106
 20
12836.30740641974
 30
0.0
  0
SEQEND
  5
B07A5
  8
0
  0
CIRCLE
  5
AABDC
  8
0
 10
22407.11111616106
 20
12878.80740641974
 30
0.0
 40
22.5
  0
CIRCLE
  5
AABDD
  8
0
 10
22407.11111616106
 20
12878.80740641974
 30
0.0
 40
12.5
  0
LINE
  5
AABDE
  8
0
 10
22357.11111616106
 20
12846.30740641974
 30
0.0
 11
22457.11111616106
 21
12846.30740641974
 31
0.0
  0
POLYLINE
  5
AABDF
  8
0
 66
     1
 10
0.0
 20
0.0
 30
0.0
 70
     1
  0
VERTEX
  5
B010C
  8
0
 10
22337.11111616106
 20
12846.30740641977
 30
0.0
  0
VERTEX
  5
B010D
  8
0
 10
22477.11111616106
 20
12846.30740641977
 30
0.0
  0
VERTEX
  5
B010E
  8
0
 10
22477.11111616106
 20
12836.30740641977
 30
0.0
  0
VERTEX
  5
B010F
  8
0
 10
22337.11111616106
 20
12836.30740641977
 30
0.0
  0
SEQEND
  5
B07A6
  8
0
  0
POLYLINE
  5
AABE0
  8
0
 66
     1
 10
0.0
 20
0.0
 30
0.0
 70
     1
  0
VERTEX
  5
B0110
  8
0
 10
22024.61111616105
 20
14325.44289643319
 30
0.0
  0
VERTEX
  5
B0111
  8
0
 10
22024.61111616105
 20
14300.44289643319
 30
0.0
  0
VERTEX
  5
B0112
  8
0
 10
21999.61111616104
 20
14300.44289643319
 30
0.0
  0
VERTEX
  5
B0113
  8
0
 10
21999.61111616104
 20
14325.44289643319
 30
0.0
  0
SEQEND
  5
B07A7
  8
0
  0
POLYLINE
  5
AABE1
  8
0
 66
     1
 10
0.0
 20
0.0
 30
0.0
 70
     1
  0
VERTEX
  5
B0114
  8
0
 10
22034.61111616104
 20
14350.44289643319
 30
0.0
  0
VERTEX
  5
B0115
  8
0
 10
22034.61111616104
 20
14325.44289643319
 30
0.0
  0
VERTEX
  5
B0116
  8
0
 10
21989.61111616104
 20
14325.44289643319
 30
0.0
  0
VERTEX
  5
B0117
  8
0
 10
21989.61111616104
 20
14350.44289643319
 30
0.0
  0
SEQEND
  5
B07A8
  8
0
  0
LINE
  5
AABE2
  8
0
 10
21989.61111616104
 20
14350.44289643319
 30
0.0
 11
21989.61111616104
 21
14325.44289643319
 31
0.0
  0
LINE
  5
AABE3
  8
0
 10
21989.61111616104
 20
14350.44289643319
 30
0.0
 11
21989.61111616104
 21
14325.44289643319
 31
0.0
  0
LINE
  5
AABE4
  8
0
 10
21999.61111616104
 20
14325.44289643319
 30
0.0
 11
21999.61111616104
 21
14300.44289643319
 31
0.0
  0
LINE
  5
AABE5
  8
0
 10
21999.61111616104
 20
14325.44289643319
 30
0.0
 11
21999.61111616104
 21
14300.44289643319
 31
0.0
  0
LINE
  5
AABE6
  8
0
 10
22034.61111616104
 20
14325.44289643319
 30
0.0
 11
21989.61111616104
 21
14325.44289643319
 31
0.0
  0
LINE
  5
AABE7
  8
0
 10
22034.61111616104
 20
14325.44289643319
 30
0.0
 11
21989.61111616104
 21
14325.44289643319
 31
0.0
  0
LINE
  5
AABE8
  8
0
 10
21999.61111616104
 20
14325.44289643319
 30
0.0
 11
21999.61111616104
 21
14300.44289643319
 31
0.0
  0
LINE
  5
AABE9
  8
0
 10
21999.61111616104
 20
14325.44289643319
 30
0.0
 11
21999.61111616104
 21
14300.44289643319
 31
0.0
  0
LINE
  5
AABEA
  8
0
 10
22034.61111616104
 20
14325.44289643319
 30
0.0
 11
21989.61111616104
 21
14325.44289643319
 31
0.0
  0
LINE
  5
AABEB
  8
0
 10
22034.61111616104
 20
14325.44289643319
 30
0.0
 11
21989.61111616104
 21
14325.44289643319
 31
0.0
  0
LINE
  5
AABEC
  8
0
 10
21989.61111616104
 20
14350.44289643319
 30
0.0
 11
21989.61111616104
 21
14325.44289643319
 31
0.0
  0
LINE
  5
AABED
  8
0
 10
21989.61111616104
 20
14350.44289643319
 30
0.0
 11
21989.61111616104
 21
14325.44289643319
 31
0.0
  0
POLYLINE
  5
AABEE
  8
0
 66
     1
 10
0.0
 20
0.0
 30
0.0
 70
     1
  0
VERTEX
  5
B0118
  8
0
 10
21024.61111616104
 20
14325.44289643319
 30
0.0
  0
VERTEX
  5
B0119
  8
0
 10
21024.61111616104
 20
14300.44289643319
 30
0.0
  0
VERTEX
  5
B011A
  8
0
 10
20999.61111616104
 20
14300.44289643319
 30
0.0
  0
VERTEX
  5
B011B
  8
0
 10
20999.61111616104
 20
14325.44289643319
 30
0.0
  0
SEQEND
  5
B07A9
  8
0
  0
POLYLINE
  5
AABEF
  8
0
 66
     1
 10
0.0
 20
0.0
 30
0.0
 70
     1
  0
VERTEX
  5
B011C
  8
0
 10
21034.61111616105
 20
14350.44289643319
 30
0.0
  0
VERTEX
  5
B011D
  8
0
 10
21034.61111616105
 20
14325.44289643319
 30
0.0
  0
VERTEX
  5
B011E
  8
0
 10
20989.61111616104
 20
14325.44289643319
 30
0.0
  0
VERTEX
  5
B011F
  8
0
 10
20989.61111616104
 20
14350.44289643319
 30
0.0
  0
SEQEND
  5
B07AA
  8
0
  0
LINE
  5
AABF0
  8
0
 10
20989.61111616104
 20
14350.44289643319
 30
0.0
 11
20989.61111616104
 21
14325.44289643319
 31
0.0
  0
LINE
  5
AABF1
  8
0
 10
20989.61111616104
 20
14350.44289643319
 30
0.0
 11
20989.61111616104
 21
14325.44289643319
 31
0.0
  0
LINE
  5
AABF2
  8
0
 10
20999.61111616104
 20
14325.44289643319
 30
0.0
 11
20999.61111616104
 21
14300.44289643319
 31
0.0
  0
LINE
  5
AABF3
  8
0
 10
20999.61111616104
 20
14325.44289643319
 30
0.0
 11
20999.61111616104
 21
14300.44289643319
 31
0.0
  0
LINE
  5
AABF4
  8
0
 10
21034.61111616105
 20
14325.44289643319
 30
0.0
 11
20989.61111616104
 21
14325.44289643319
 31
0.0
  0
LINE
  5
AABF5
  8
0
 10
21034.61111616105
 20
14325.44289643319
 30
0.0
 11
20989.61111616104
 21
14325.44289643319
 31
0.0
  0
LINE
  5
AABF6
  8
0
 10
20999.61111616104
 20
14325.44289643319
 30
0.0
 11
20999.61111616104
 21
14300.44289643319
 31
0.0
  0
LINE
  5
AABF7
  8
0
 10
20999.61111616104
 20
14325.44289643319
 30
0.0
 11
20999.61111616104
 21
14300.44289643319
 31
0.0
  0
LINE
  5
AABF8
  8
0
 10
21034.61111616105
 20
14325.44289643319
 30
0.0
 11
20989.61111616104
 21
14325.44289643319
 31
0.0
  0
LINE
  5
AABF9
  8
0
 10
21034.61111616105
 20
14325.44289643319
 30
0.0
 11
20989.61111616104
 21
14325.44289643319
 31
0.0
  0
LINE
  5
AABFA
  8
0
 10
20989.61111616104
 20
14350.44289643319
 30
0.0
 11
20989.61111616104
 21
14325.44289643319
 31
0.0
  0
LINE
  5
AABFB
  8
0
 10
20989.61111616104
 20
14350.44289643319
 30
0.0
 11
20989.61111616104
 21
14325.44289643319
 31
0.0
  0
LINE
  5
AABFC
  8
0
 10
21989.61111616104
 20
14350.44289643319
 30
0.0
 11
21989.61111616104
 21
14325.44289643319
 31
0.0
  0
LINE
  5
AABFD
  8
0
 10
21989.61111616104
 20
14350.44289643319
 30
0.0
 11
21989.61111616104
 21
14325.44289643319
 31
0.0
  0
LINE
  5
AABFE
  8
0
 10
21999.61111616104
 20
14325.44289643319
 30
0.0
 11
21999.61111616104
 21
14300.44289643319
 31
0.0
  0
LINE
  5
AABFF
  8
0
 10
21999.61111616104
 20
14325.44289643319
 30
0.0
 11
21999.61111616104
 21
14300.44289643319
 31
0.0
  0
LINE
  5
AAC00
  8
0
 10
22034.61111616104
 20
14325.44289643319
 30
0.0
 11
21989.61111616104
 21
14325.44289643319
 31
0.0
  0
LINE
  5
AAC01
  8
0
 10
22034.61111616104
 20
14325.44289643319
 30
0.0
 11
21989.61111616104
 21
14325.44289643319
 31
0.0
  0
LINE
  5
AAC02
  8
0
 10
21999.61111616104
 20
14325.44289643319
 30
0.0
 11
21999.61111616104
 21
14300.44289643319
 31
0.0
  0
LINE
  5
AAC03
  8
0
 10
21999.61111616104
 20
14325.44289643319
 30
0.0
 11
21999.61111616104
 21
14300.44289643319
 31
0.0
  0
LINE
  5
AAC04
  8
0
 10
22034.61111616104
 20
14325.44289643319
 30
0.0
 11
21989.61111616104
 21
14325.44289643319
 31
0.0
  0
LINE
  5
AAC05
  8
0
 10
22034.61111616104
 20
14325.44289643319
 30
0.0
 11
21989.61111616104
 21
14325.44289643319
 31
0.0
  0
LINE
  5
AAC06
  8
0
 10
21989.61111616104
 20
14350.44289643319
 30
0.0
 11
21989.61111616104
 21
14325.44289643319
 31
0.0
  0
LINE
  5
AAC07
  8
0
 10
21989.61111616104
 20
14350.44289643319
 30
0.0
 11
21989.61111616104
 21
14325.44289643319
 31
0.0
  0
POLYLINE
  5
AAC08
  8
0
 66
     1
 10
0.0
 20
0.0
 30
0.0
 70
     1
  0
VERTEX
  5
B0120
  8
0
 10
22429.61111616105
 20
16900.44289643322
 30
0.0
  0
VERTEX
  5
B0121
  8
0
 10
22429.61111616105
 20
16922.94289643322
 30
0.0
 42
-1.0
  0
VERTEX
  5
B0122
  8
0
 10
22384.61111616105
 20
16922.94289643322
 30
0.0
  0
VERTEX
  5
B0123
  8
0
 10
22384.61111616105
 20
16900.44289643319
 30
0.0
  0
VERTEX
  5
B0124
  8
0
 10
22367.11111616104
 20
16900.44289643322
 30
0.0
  0
VERTEX
  5
B0125
  8
0
 10
22357.11111616105
 20
16890.44289643319
 30
0.0
  0
VERTEX
  5
B0126
  8
0
 10
22457.11111616104
 20
16890.44289643319
 30
0.0
  0
VERTEX
  5
B0127
  8
0
 10
22447.11111616104
 20
16900.44289643322
 30
0.0
  0
SEQEND
  5
B07AB
  8
0
  0
POLYLINE
  5
AAC09
  8
0
 66
     1
 10
0.0
 20
0.0
 30
0.0
 70
     1
  0
VERTEX
  5
B0128
  8
0
 10
20527.11111616126
 20
16045.4428964329
 30
0.0
  0
VERTEX
  5
B0129
  8
0
 10
20527.11111616126
 20
16071.4428964329
 30
0.0
  0
VERTEX
  5
B012A
  8
0
 10
21497.11111616128
 20
16071.4428964329
 30
0.0
  0
VERTEX
  5
B012B
  8
0
 10
21497.11111616128
 20
16045.4428964329
 30
0.0
  0
SEQEND
  5
B07AC
  8
0
  0
POLYLINE
  5
AAC0A
  8
0
 66
     1
 10
0.0
 20
0.0
 30
0.0
 70
     1
  0
VERTEX
  5
B012C
  8
0
 10
22497.11111616128
 20
16071.4428964329
 30
0.0
  0
VERTEX
  5
B012D
  8
0
 10
22497.11111616128
 20
16045.4428964329
 30
0.0
  0
VERTEX
  5
B012E
  8
0
 10
21527.11111616126
 20
16045.4428964329
 30
0.0
  0
VERTEX
  5
B012F
  8
0
 10
21527.11111616126
 20
16071.4428964329
 30
0.0
  0
SEQEND
  5
B07AD
  8
0
  0
POLYLINE
  5
AAC0B
  8
0
 66
     1
 10
0.0
 20
0.0
 30
0.0
 70
     1
  0
VERTEX
  5
B0130
  8
0
 10
20527.11111616126
 20
15645.4428964329
 30
0.0
  0
VERTEX
  5
B0131
  8
0
 10
20527.11111616126
 20
15671.4428964329
 30
0.0
  0
VERTEX
  5
B0132
  8
0
 10
21497.11111616128
 20
15671.4428964329
 30
0.0
  0
VERTEX
  5
B0133
  8
0
 10
21497.11111616128
 20
15645.4428964329
 30
0.0
  0
SEQEND
  5
B07AE
  8
0
  0
POLYLINE
  5
AAC0C
  8
0
 66
     1
 10
0.0
 20
0.0
 30
0.0
 70
     1
  0
VERTEX
  5
B0134
  8
0
 10
22497.11111616128
 20
15671.4428964329
 30
0.0
  0
VERTEX
  5
B0135
  8
0
 10
22497.11111616128
 20
15645.4428964329
 30
0.0
  0
VERTEX
  5
B0136
  8
0
 10
21527.11111616126
 20
15645.4428964329
 30
0.0
  0
VERTEX
  5
B0137
  8
0
 10
21527.11111616126
 20
15671.4428964329
 30
0.0
  0
SEQEND
  5
B07AF
  8
0
  0
POLYLINE
  5
AAC0D
  8
0
 66
     1
 10
0.0
 20
0.0
 30
0.0
 70
     1
  0
VERTEX
  5
B0138
  8
0
 10
20527.11111616126
 20
15245.4428964329
 30
0.0
  0
VERTEX
  5
B0139
  8
0
 10
20527.11111616126
 20
15271.4428964329
 30
0.0
  0
VERTEX
  5
B013A
  8
0
 10
21497.11111616128
 20
15271.4428964329
 30
0.0
  0
VERTEX
  5
B013B
  8
0
 10
21497.11111616128
 20
15245.4428964329
 30
0.0
  0
SEQEND
  5
B07B0
  8
0
  0
POLYLINE
  5
AAC0E
  8
0
 66
     1
 10
0.0
 20
0.0
 30
0.0
 70
     1
  0
VERTEX
  5
B013C
  8
0
 10
22497.11111616128
 20
15271.4428964329
 30
0.0
  0
VERTEX
  5
B013D
  8
0
 10
22497.11111616128
 20
15245.4428964329
 30
0.0
  0
VERTEX
  5
B013E
  8
0
 10
21527.11111616126
 20
15245.4428964329
 30
0.0
  0
VERTEX
  5
B013F
  8
0
 10
21527.11111616126
 20
15271.4428964329
 30
0.0
  0
SEQEND
  5
B07B1
  8
0
  0
POLYLINE
  5
AAC0F
  8
0
 66
     1
 10
0.0
 20
0.0
 30
0.0
 70
     1
  0
VERTEX
  5
B0140
  8
0
 10
20527.11111616126
 20
14845.4428964329
 30
0.0
  0
VERTEX
  5
B0141
  8
0
 10
20527.11111616126
 20
14871.4428964329
 30
0.0
  0
VERTEX
  5
B0142
  8
0
 10
21497.11111616128
 20
14871.4428964329
 30
0.0
  0
VERTEX
  5
B0143
  8
0
 10
21497.11111616128
 20
14845.4428964329
 30
0.0
  0
SEQEND
  5
B07B2
  8
0
  0
POLYLINE
  5
AAC10
  8
0
 66
     1
 10
0.0
 20
0.0
 30
0.0
 70
     1
  0
VERTEX
  5
B0144
  8
0
 10
22497.11111616128
 20
14871.4428964329
 30
0.0
  0
VERTEX
  5
B0145
  8
0
 10
22497.11111616128
 20
14845.4428964329
 30
0.0
  0
VERTEX
  5
B0146
  8
0
 10
21527.11111616126
 20
14845.4428964329
 30
0.0
  0
VERTEX
  5
B0147
  8
0
 10
21527.11111616126
 20
14871.4428964329
 30
0.0
  0
SEQEND
  5
B07B3
  8
0
  0
POLYLINE
  5
AAC11
  8
0
 66
     1
 10
0.0
 20
0.0
 30
0.0
 70
     1
  0
VERTEX
  5
B0148
  8
0
 10
22497.11111616105
 20
14471.44289643319
 30
0.0
  0
VERTEX
  5
B0149
  8
0
 10
22497.11111616105
 20
14445.44289643319
 30
0.0
  0
VERTEX
  5
B014A
  8
0
 10
21527.11111616105
 20
14445.44289643319
 30
0.0
  0
VERTEX
  5
B014B
  8
0
 10
21527.11111616105
 20
14471.44289643319
 30
0.0
  0
SEQEND
  5
B07B4
  8
0
  0
POLYLINE
  5
AAC12
  8
0
 66
     1
 10
0.0
 20
0.0
 30
0.0
 70
     1
  0
VERTEX
  5
B014C
  8
0
 10
21497.11111616104
 20
14445.44289643319
 30
0.0
  0
VERTEX
  5
B014D
  8
0
 10
21497.11111616104
 20
16845.44289643319
 30
0.0
  0
VERTEX
  5
B014E
  8
0
 10
21527.11111616105
 20
16845.44289643319
 30
0.0
  0
VERTEX
  5
B014F
  8
0
 10
21527.11111616105
 20
14445.44289643319
 30
0.0
  0
SEQEND
  5
B07B5
  8
0
  0
POLYLINE
  5
AAC13
  8
0
 66
     1
 10
0.0
 20
0.0
 30
0.0
 70
     1
  0
VERTEX
  5
B0150
  8
0
 10
20527.11111616104
 20
14445.44289643319
 30
0.0
  0
VERTEX
  5
B0151
  8
0
 10
20527.11111616104
 20
14471.44289643319
 30
0.0
  0
VERTEX
  5
B0152
  8
0
 10
21497.11111616104
 20
14471.44289643319
 30
0.0
  0
VERTEX
  5
B0153
  8
0
 10
21497.11111616104
 20
14445.44289643319
 30
0.0
  0
SEQEND
  5
B07B6
  8
0
  0
POLYLINE
  5
AAC14
  8
0
 66
     1
 10
0.0
 20
0.0
 30
0.0
 70
     1
  0
VERTEX
  5
B0154
  8
0
 10
22497.11111616116
 20
14350.44289643319
 30
0.0
  0
VERTEX
  5
B0155
  8
0
 10
22497.11111616116
 20
14445.44289643348
 30
0.0
  0
VERTEX
  5
B0156
  8
0
 10
20527.1111161608
 20
14445.44289643348
 30
0.0
  0
VERTEX
  5
B0157
  8
0
 10
20527.1111161608
 20
14350.44289643319
 30
0.0
  0
SEQEND
  5
B07B7
  8
0
  0
POLYLINE
  5
AAC15
  8
0
 66
     1
 10
0.0
 20
0.0
 30
0.0
 70
     1
  0
VERTEX
  5
B0158
  8
0
 10
22527.11111616104
 20
16880.44289643319
 30
0.0
  0
VERTEX
  5
B0159
  8
0
 10
22527.11111616104
 20
14350.44289643319
 30
0.0
  0
VERTEX
  5
B015A
  8
0
 10
22497.11111616116
 20
14350.44289643319
 30
0.0
  0
VERTEX
  5
B015B
  8
0
 10
22497.11111616116
 20
16880.44289643319
 30
0.0
  0
SEQEND
  5
B07B8
  8
0
  0
POLYLINE
  5
AAC16
  8
0
 66
     1
 10
0.0
 20
0.0
 30
0.0
 70
     1
  0
VERTEX
  5
B015C
  8
0
 10
20527.11111616104
 20
16880.44289643319
 30
0.0
  0
VERTEX
  5
B015D
  8
0
 10
20527.11111616104
 20
14350.44289643319
 30
0.0
  0
VERTEX
  5
B015E
  8
0
 10
20497.11111616106
 20
14350.44289643319
 30
0.0
  0
VERTEX
  5
B015F
  8
0
 10
20497.11111616106
 20
16880.44289643319
 30
0.0
  0
SEQEND
  5
B07B9
  8
0
  0
POLYLINE
  5
AAC17
  8
0
 66
     1
 10
0.0
 20
0.0
 30
0.0
 70
     1
  0
VERTEX
  5
B0160
  8
0
 10
22497.11111616105
 20
16880.44289643319
 30
0.0
  0
VERTEX
  5
B0161
  8
0
 10
22497.11111616105
 20
16845.44289643319
 30
0.0
  0
VERTEX
  5
B0162
  8
0
 10
20527.11111616104
 20
16845.44289643319
 30
0.0
  0
VERTEX
  5
B0163
  8
0
 10
20527.11111616104
 20
16880.44289643319
 30
0.0
  0
SEQEND
  5
B07BA
  8
0
  0
CIRCLE
  5
AAC18
  8
0
 10
22407.11111616104
 20
16922.94289643319
 30
0.0
 40
22.5
  0
CIRCLE
  5
AAC19
  8
0
 10
22407.11111616104
 20
16922.94289643319
 30
0.0
 40
12.5
  0
LINE
  5
AAC1A
  8
0
 10
22357.11111616105
 20
16890.44289643319
 30
0.0
 11
22457.11111616104
 21
16890.44289643319
 31
0.0
  0
POLYLINE
  5
AAC1B
  8
0
 66
     1
 10
0.0
 20
0.0
 30
0.0
 70
     1
  0
VERTEX
  5
B0164
  8
0
 10
22337.11111616105
 20
16890.44289643322
 30
0.0
  0
VERTEX
  5
B0165
  8
0
 10
22477.11111616104
 20
16890.44289643322
 30
0.0
  0
VERTEX
  5
B0166
  8
0
 10
22477.11111616104
 20
16880.44289643322
 30
0.0
  0
VERTEX
  5
B0167
  8
0
 10
22337.11111616105
 20
16880.44289643322
 30
0.0
  0
SEQEND
  5
B07BB
  8
0
  0
LINE
  5
AAC1C
  8
0
 10
21527.11111616107
 20
4254.011226058442
 30
0.0
 11
22497.11111616119
 21
4254.011226058442
 31
0.0
1001
ACAD
1010
0.0
1020
0.0
1030
0.0
  0
LINE
  5
AAC1D
  8
0
 10
20527.11111616107
 20
4254.011226058442
 30
0.0
 11
21497.11111616107
 21
4254.011226058442
 31
0.0
1001
ACAD
1010
0.0
1020
0.0
1030
0.0
  0
LINE
  5
AAC1E
  8
0
 10
21527.11111616107
 20
4129.011226058442
 30
0.0
 11
22497.11111616119
 21
4129.011226058442
 31
0.0
1001
ACAD
1010
0.0
1020
0.0
1030
0.0
  0
LINE
  5
AAC1F
  8
0
 10
20527.11111616107
 20
4129.011226058442
 30
0.0
 11
21497.11111616107
 21
4129.011226058442
 31
0.0
1001
ACAD
1010
0.0
1020
0.0
1030
0.0
  0
LINE
  5
AAC20
  8
0
 10
21527.11111616107
 20
4004.011226058442
 30
0.0
 11
22497.11111616119
 21
4004.011226058442
 31
0.0
1001
ACAD
1010
0.0
1020
0.0
1030
0.0
  0
LINE
  5
AAC21
  8
0
 10
20527.11111616107
 20
4004.011226058442
 30
0.0
 11
21497.11111616107
 21
4004.011226058442
 31
0.0
1001
ACAD
1010
0.0
1020
0.0
1030
0.0
  0
LINE
  5
AAC22
  8
0
 10
21527.11111616107
 20
3879.011226058442
 30
0.0
 11
22497.11111616119
 21
3879.011226058442
 31
0.0
1001
ACAD
1010
0.0
1020
0.0
1030
0.0
  0
LINE
  5
AAC23
  8
0
 10
20527.11111616107
 20
3879.011226058442
 30
0.0
 11
21497.11111616107
 21
3879.011226058442
 31
0.0
1001
ACAD
1010
0.0
1020
0.0
1030
0.0
  0
LINE
  5
AAC24
  8
0
 10
21527.11111616107
 20
3754.011226058442
 30
0.0
 11
22497.11111616119
 21
3754.011226058442
 31
0.0
1001
ACAD
1010
0.0
1020
0.0
1030
0.0
  0
LINE
  5
AAC25
  8
0
 10
20527.11111616107
 20
3754.011226058442
 30
0.0
 11
21497.11111616107
 21
3754.011226058442
 31
0.0
1001
ACAD
1010
0.0
1020
0.0
1030
0.0
  0
LINE
  5
AAC26
  8
0
 10
21527.11111616107
 20
3629.011226058442
 30
0.0
 11
22497.11111616119
 21
3629.011226058442
 31
0.0
1001
ACAD
1010
0.0
1020
0.0
1030
0.0
  0
LINE
  5
AAC27
  8
0
 10
20527.11111616107
 20
3629.011226058442
 30
0.0
 11
21497.11111616107
 21
3629.011226058442
 31
0.0
1001
ACAD
1010
0.0
1020
0.0
1030
0.0
  0
LINE
  5
AAC28
  8
0
 10
21527.11111616107
 20
3504.011226058443
 30
0.0
 11
22497.11111616119
 21
3504.011226058443
 31
0.0
1001
ACAD
1010
0.0
1020
0.0
1030
0.0
  0
LINE
  5
AAC29
  8
0
 10
20527.11111616107
 20
3504.011226058443
 30
0.0
 11
21497.11111616107
 21
3504.011226058443
 31
0.0
1001
ACAD
1010
0.0
1020
0.0
1030
0.0
  0
LINE
  5
AAC2A
  8
0
 10
21527.11111616107
 20
3379.011226058443
 30
0.0
 11
22497.11111616119
 21
3379.011226058443
 31
0.0
1001
ACAD
1010
0.0
1020
0.0
1030
0.0
  0
LINE
  5
AAC2B
  8
0
 10
20527.11111616107
 20
3379.011226058443
 30
0.0
 11
21497.11111616107
 21
3379.011226058443
 31
0.0
1001
ACAD
1010
0.0
1020
0.0
1030
0.0
  0
LINE
  5
AAC2C
  8
0
 10
21527.11111616107
 20
3254.011226058443
 30
0.0
 11
22497.11111616119
 21
3254.011226058443
 31
0.0
1001
ACAD
1010
0.0
1020
0.0
1030
0.0
  0
LINE
  5
AAC2D
  8
0
 10
20527.11111616107
 20
3254.011226058443
 30
0.0
 11
21497.11111616107
 21
3254.011226058443
 31
0.0
1001
ACAD
1010
0.0
1020
0.0
1030
0.0
  0
LINE
  5
AAC2E
  8
0
 10
21527.11111616107
 20
3129.011226058443
 30
0.0
 11
22497.11111616119
 21
3129.011226058443
 31
0.0
1001
ACAD
1010
0.0
1020
0.0
1030
0.0
  0
LINE
  5
AAC2F
  8
0
 10
20527.11111616107
 20
3129.011226058443
 30
0.0
 11
21497.11111616107
 21
3129.011226058443
 31
0.0
1001
ACAD
1010
0.0
1020
0.0
1030
0.0
  0
LINE
  5
AAC30
  8
0
 10
21527.11111616107
 20
3004.011226058443
 30
0.0
 11
22497.11111616119
 21
3004.011226058443
 31
0.0
1001
ACAD
1010
0.0
1020
0.0
1030
0.0
  0
LINE
  5
AAC31
  8
0
 10
20527.11111616107
 20
3004.011226058443
 30
0.0
 11
21497.11111616107
 21
3004.011226058443
 31
0.0
1001
ACAD
1010
0.0
1020
0.0
1030
0.0
  0
LINE
  5
AAC32
  8
0
 10
21527.11111616107
 20
2879.011226058443
 30
0.0
 11
22497.11111616119
 21
2879.011226058443
 31
0.0
1001
ACAD
1010
0.0
1020
0.0
1030
0.0
  0
LINE
  5
AAC33
  8
0
 10
20527.11111616107
 20
2879.011226058443
 30
0.0
 11
21497.11111616107
 21
2879.011226058443
 31
0.0
1001
ACAD
1010
0.0
1020
0.0
1030
0.0
  0
LINE
  5
AAC34
  8
0
 10
21527.11111616107
 20
2754.011226058443
 30
0.0
 11
22497.11111616119
 21
2754.011226058443
 31
0.0
1001
ACAD
1010
0.0
1020
0.0
1030
0.0
  0
LINE
  5
AAC35
  8
0
 10
20527.11111616107
 20
2754.011226058443
 30
0.0
 11
21497.11111616107
 21
2754.011226058443
 31
0.0
1001
ACAD
1010
0.0
1020
0.0
1030
0.0
  0
LINE
  5
AAC36
  8
0
 10
21527.11111616107
 20
2629.011226058443
 30
0.0
 11
22497.11111616119
 21
2629.011226058443
 31
0.0
1001
ACAD
1010
0.0
1020
0.0
1030
0.0
  0
LINE
  5
AAC37
  8
0
 10
20527.11111616107
 20
2629.011226058443
 30
0.0
 11
21497.11111616107
 21
2629.011226058443
 31
0.0
1001
ACAD
1010
0.0
1020
0.0
1030
0.0
  0
LINE
  5
AAC38
  8
0
 10
21527.11111616107
 20
2504.011226058443
 30
0.0
 11
22497.11111616119
 21
2504.011226058443
 31
0.0
1001
ACAD
1010
0.0
1020
0.0
1030
0.0
  0
LINE
  5
AAC39
  8
0
 10
20527.11111616107
 20
2504.011226058443
 30
0.0
 11
21497.11111616107
 21
2504.011226058443
 31
0.0
1001
ACAD
1010
0.0
1020
0.0
1030
0.0
  0
LINE
  5
AAC3A
  8
0
 10
21527.11111616107
 20
2379.011226058443
 30
0.0
 11
22497.11111616119
 21
2379.011226058443
 31
0.0
1001
ACAD
1010
0.0
1020
0.0
1030
0.0
  0
LINE
  5
AAC3B
  8
0
 10
20527.11111616107
 20
2379.011226058443
 30
0.0
 11
21497.11111616107
 21
2379.011226058443
 31
0.0
1001
ACAD
1010
0.0
1020
0.0
1030
0.0
  0
LINE
  5
AAC3C
  8
0
 10
20612.23229158937
 20
2339.036426392835
 30
0.0
 11
20612.23229158937
 21
4713.036426392835
 31
0.0
1001
ACAD
1010
0.0
1020
0.0
1030
0.0
  0
LINE
  5
AAC3D
  8
0
 10
20737.23229158937
 20
2339.036426392835
 30
0.0
 11
20737.23229158937
 21
4713.036426392835
 31
0.0
1001
ACAD
1010
0.0
1020
0.0
1030
0.0
  0
LINE
  5
AAC3E
  8
0
 10
20862.23229158937
 20
2339.036426392835
 30
0.0
 11
20862.23229158937
 21
4713.036426392835
 31
0.0
1001
ACAD
1010
0.0
1020
0.0
1030
0.0
  0
LINE
  5
AAC3F
  8
0
 10
20987.23229158937
 20
2339.036426392835
 30
0.0
 11
20987.23229158937
 21
4713.036426392835
 31
0.0
1001
ACAD
1010
0.0
1020
0.0
1030
0.0
  0
LINE
  5
AAC40
  8
0
 10
21112.23229158937
 20
2339.036426392835
 30
0.0
 11
21112.23229158937
 21
4713.036426392835
 31
0.0
1001
ACAD
1010
0.0
1020
0.0
1030
0.0
  0
LINE
  5
AAC41
  8
0
 10
21237.23229158937
 20
2339.036426392835
 30
0.0
 11
21237.23229158937
 21
4713.036426392835
 31
0.0
1001
ACAD
1010
0.0
1020
0.0
1030
0.0
  0
LINE
  5
AAC42
  8
0
 10
21362.23229158937
 20
2339.036426392835
 30
0.0
 11
21362.23229158937
 21
4713.036426392835
 31
0.0
1001
ACAD
1010
0.0
1020
0.0
1030
0.0
  0
LINE
  5
AAC43
  8
0
 10
21487.23229158937
 20
2339.036426392835
 30
0.0
 11
21487.23229158937
 21
4713.036426392835
 31
0.0
1001
ACAD
1010
0.0
1020
0.0
1030
0.0
  0
LINE
  5
AAC44
  8
0
 10
21612.23229158937
 20
2339.036426392835
 30
0.0
 11
21612.23229158937
 21
4713.036426392835
 31
0.0
1001
ACAD
1010
0.0
1020
0.0
1030
0.0
  0
LINE
  5
AAC45
  8
0
 10
21737.23229158937
 20
2339.036426392835
 30
0.0
 11
21737.23229158937
 21
4713.036426392835
 31
0.0
1001
ACAD
1010
0.0
1020
0.0
1030
0.0
  0
LINE
  5
AAC46
  8
0
 10
21862.23229158937
 20
2339.036426392835
 30
0.0
 11
21862.23229158937
 21
4713.036426392835
 31
0.0
1001
ACAD
1010
0.0
1020
0.0
1030
0.0
  0
LINE
  5
AAC47
  8
0
 10
21987.23229158937
 20
2339.036426392835
 30
0.0
 11
21987.23229158937
 21
4713.036426392835
 31
0.0
1001
ACAD
1010
0.0
1020
0.0
1030
0.0
  0
LINE
  5
AAC48
  8
0
 10
22112.23229158937
 20
2339.036426392835
 30
0.0
 11
22112.23229158937
 21
4713.036426392835
 31
0.0
1001
ACAD
1010
0.0
1020
0.0
1030
0.0
  0
LINE
  5
AAC49
  8
0
 10
22237.23229158937
 20
2339.036426392835
 30
0.0
 11
22237.23229158937
 21
4713.036426392835
 31
0.0
1001
ACAD
1010
0.0
1020
0.0
1030
0.0
  0
LINE
  5
AAC4A
  8
0
 10
22362.23229158939
 20
2339.036426392835
 30
0.0
 11
22362.23229158939
 21
4713.036426392835
 31
0.0
1001
ACAD
1010
0.0
1020
0.0
1030
0.0
  0
LINE
  5
AAC4B
  8
0
 10
22487.23229158937
 20
2339.036426392835
 30
0.0
 11
22487.23229158937
 21
4713.036426392835
 31
0.0
1001
ACAD
1010
0.0
1020
0.0
1030
0.0
  0
POLYLINE
  5
AAC4C
  8
0
 66
     1
 10
0.0
 20
0.0
 30
0.0
 70
     1
  0
VERTEX
  5
B0168
  8
0
 10
22337.11111616105
 20
8802.171916406312
 30
0.0
  0
VERTEX
  5
B0169
  8
0
 10
22477.11111616104
 20
8802.171916406312
 30
0.0
  0
VERTEX
  5
B016A
  8
0
 10
22477.11111616104
 20
8792.17191640631
 30
0.0
  0
VERTEX
  5
B016B
  8
0
 10
22337.11111616105
 20
8792.17191640631
 30
0.0
  0
SEQEND
  5
B07BC
  8
0
  0
LINE
  5
AAC4D
  8
0
 10
22357.11111616105
 20
8802.171916406278
 30
0.0
 11
22457.11111616104
 21
8802.171916406278
 31
0.0
  0
CIRCLE
  5
AAC4E
  8
0
 10
22407.11111616104
 20
8834.671916406278
 30
0.0
 40
12.5
  0
CIRCLE
  5
AAC4F
  8
0
 10
22407.11111616104
 20
8834.671916406278
 30
0.0
 40
22.5
  0
POLYLINE
  5
AAC50
  8
0
 66
     1
 10
0.0
 20
0.0
 30
0.0
 70
     1
  0
VERTEX
  5
B016C
  8
0
 10
22497.11111616105
 20
8792.171916406282
 30
0.0
  0
VERTEX
  5
B016D
  8
0
 10
22497.11111616105
 20
8757.171916406282
 30
0.0
  0
VERTEX
  5
B016E
  8
0
 10
20527.11111616104
 20
8757.171916406282
 30
0.0
  0
VERTEX
  5
B016F
  8
0
 10
20527.11111616104
 20
8792.171916406282
 30
0.0
  0
SEQEND
  5
B07BD
  8
0
  0
POLYLINE
  5
AAC51
  8
0
 66
     1
 10
0.0
 20
0.0
 30
0.0
 70
     1
  0
VERTEX
  5
B0170
  8
0
 10
20527.11111616104
 20
8792.171916406282
 30
0.0
  0
VERTEX
  5
B0171
  8
0
 10
20527.11111616104
 20
6262.171916406281
 30
0.0
  0
VERTEX
  5
B0172
  8
0
 10
20497.11111616106
 20
6262.171916406281
 30
0.0
  0
VERTEX
  5
B0173
  8
0
 10
20497.11111616106
 20
8792.171916406282
 30
0.0
  0
SEQEND
  5
B07BE
  8
0
  0
POLYLINE
  5
AAC52
  8
0
 66
     1
 10
0.0
 20
0.0
 30
0.0
 70
     1
  0
VERTEX
  5
B0174
  8
0
 10
22527.11111616104
 20
8792.171916406282
 30
0.0
  0
VERTEX
  5
B0175
  8
0
 10
22527.11111616104
 20
6262.171916406281
 30
0.0
  0
VERTEX
  5
B0176
  8
0
 10
22497.11111616116
 20
6262.171916406281
 30
0.0
  0
VERTEX
  5
B0177
  8
0
 10
22497.11111616116
 20
8792.171916406282
 30
0.0
  0
SEQEND
  5
B07BF
  8
0
  0
POLYLINE
  5
AAC53
  8
0
 66
     1
 10
0.0
 20
0.0
 30
0.0
 70
     1
  0
VERTEX
  5
B0178
  8
0
 10
22497.11111616116
 20
6262.171916406281
 30
0.0
  0
VERTEX
  5
B0179
  8
0
 10
22497.11111616116
 20
6357.171916406573
 30
0.0
  0
VERTEX
  5
B017A
  8
0
 10
20527.1111161608
 20
6357.171916406573
 30
0.0
  0
VERTEX
  5
B017B
  8
0
 10
20527.1111161608
 20
6262.171916406281
 30
0.0
  0
SEQEND
  5
B07C0
  8
0
  0
POLYLINE
  5
AAC54
  8
0
 66
     1
 10
0.0
 20
0.0
 30
0.0
 70
     1
  0
VERTEX
  5
B017C
  8
0
 10
20527.11111616104
 20
6357.171916406283
 30
0.0
  0
VERTEX
  5
B017D
  8
0
 10
20527.11111616104
 20
6383.171916406283
 30
0.0
  0
VERTEX
  5
B017E
  8
0
 10
21497.11111616104
 20
6383.171916406283
 30
0.0
  0
VERTEX
  5
B017F
  8
0
 10
21497.11111616104
 20
6357.171916406283
 30
0.0
  0
SEQEND
  5
B07C1
  8
0
  0
POLYLINE
  5
AAC55
  8
0
 66
     1
 10
0.0
 20
0.0
 30
0.0
 70
     1
  0
VERTEX
  5
B0180
  8
0
 10
21497.11111616104
 20
6357.171916406283
 30
0.0
  0
VERTEX
  5
B0181
  8
0
 10
21497.11111616104
 20
8757.171916406282
 30
0.0
  0
VERTEX
  5
B0182
  8
0
 10
21527.11111616105
 20
8757.171916406282
 30
0.0
  0
VERTEX
  5
B0183
  8
0
 10
21527.11111616105
 20
6357.171916406283
 30
0.0
  0
SEQEND
  5
B07C2
  8
0
  0
POLYLINE
  5
AAC56
  8
0
 66
     1
 10
0.0
 20
0.0
 30
0.0
 70
     1
  0
VERTEX
  5
B0184
  8
0
 10
22497.11111616105
 20
6383.171916406283
 30
0.0
  0
VERTEX
  5
B0185
  8
0
 10
22497.11111616105
 20
6357.171916406283
 30
0.0
  0
VERTEX
  5
B0186
  8
0
 10
21527.11111616105
 20
6357.171916406283
 30
0.0
  0
VERTEX
  5
B0187
  8
0
 10
21527.11111616105
 20
6383.171916406283
 30
0.0
  0
SEQEND
  5
B07C3
  8
0
  0
POLYLINE
  5
AAC57
  8
0
 66
     1
 10
0.0
 20
0.0
 30
0.0
 70
     1
  0
VERTEX
  5
B0188
  8
0
 10
22429.61111616105
 20
8812.17191640631
 30
0.0
  0
VERTEX
  5
B0189
  8
0
 10
22429.61111616105
 20
8834.67191640631
 30
0.0
 42
-1.0
  0
VERTEX
  5
B018A
  8
0
 10
22384.61111616105
 20
8834.67191640631
 30
0.0
  0
VERTEX
  5
B018B
  8
0
 10
22384.61111616105
 20
8812.171916406278
 30
0.0
  0
VERTEX
  5
B018C
  8
0
 10
22367.11111616104
 20
8812.17191640631
 30
0.0
  0
VERTEX
  5
B018D
  8
0
 10
22357.11111616105
 20
8802.171916406278
 30
0.0
  0
VERTEX
  5
B018E
  8
0
 10
22457.11111616104
 20
8802.171916406278
 30
0.0
  0
VERTEX
  5
B018F
  8
0
 10
22447.11111616104
 20
8812.17191640631
 30
0.0
  0
SEQEND
  5
B07C4
  8
0
  0
LINE
  5
AAC58
  8
0
 10
21989.61111616104
 20
6262.171916406281
 30
0.0
 11
21989.61111616104
 21
6237.171916406282
 31
0.0
  0
LINE
  5
AAC59
  8
0
 10
21989.61111616104
 20
6262.171916406281
 30
0.0
 11
21989.61111616104
 21
6237.171916406282
 31
0.0
  0
LINE
  5
AAC5A
  8
0
 10
22034.61111616104
 20
6237.171916406282
 30
0.0
 11
21989.61111616104
 21
6237.171916406282
 31
0.0
  0
LINE
  5
AAC5B
  8
0
 10
22034.61111616104
 20
6237.171916406282
 30
0.0
 11
21989.61111616104
 21
6237.171916406282
 31
0.0
  0
LINE
  5
AAC5C
  8
0
 10
21999.61111616104
 20
6237.171916406282
 30
0.0
 11
21999.61111616104
 21
6212.171916406282
 31
0.0
  0
LINE
  5
AAC5D
  8
0
 10
21999.61111616104
 20
6237.171916406282
 30
0.0
 11
21999.61111616104
 21
6212.171916406282
 31
0.0
  0
LINE
  5
AAC5E
  8
0
 10
22034.61111616104
 20
6237.171916406282
 30
0.0
 11
21989.61111616104
 21
6237.171916406282
 31
0.0
  0
LINE
  5
AAC5F
  8
0
 10
22034.61111616104
 20
6237.171916406282
 30
0.0
 11
21989.61111616104
 21
6237.171916406282
 31
0.0
  0
LINE
  5
AAC60
  8
0
 10
21999.61111616104
 20
6237.171916406282
 30
0.0
 11
21999.61111616104
 21
6212.171916406282
 31
0.0
  0
LINE
  5
AAC61
  8
0
 10
21999.61111616104
 20
6237.171916406282
 30
0.0
 11
21999.61111616104
 21
6212.171916406282
 31
0.0
  0
LINE
  5
AAC62
  8
0
 10
21989.61111616104
 20
6262.171916406281
 30
0.0
 11
21989.61111616104
 21
6237.171916406282
 31
0.0
  0
LINE
  5
AAC63
  8
0
 10
21989.61111616104
 20
6262.171916406281
 30
0.0
 11
21989.61111616104
 21
6237.171916406282
 31
0.0
  0
LINE
  5
AAC64
  8
0
 10
20989.61111616104
 20
6262.171916406281
 30
0.0
 11
20989.61111616104
 21
6237.171916406282
 31
0.0
  0
LINE
  5
AAC65
  8
0
 10
20989.61111616104
 20
6262.171916406281
 30
0.0
 11
20989.61111616104
 21
6237.171916406282
 31
0.0
  0
LINE
  5
AAC66
  8
0
 10
21034.61111616105
 20
6237.171916406282
 30
0.0
 11
20989.61111616104
 21
6237.171916406282
 31
0.0
  0
LINE
  5
AAC67
  8
0
 10
21034.61111616105
 20
6237.171916406282
 30
0.0
 11
20989.61111616104
 21
6237.171916406282
 31
0.0
  0
LINE
  5
AAC68
  8
0
 10
20999.61111616104
 20
6237.171916406282
 30
0.0
 11
20999.61111616104
 21
6212.171916406282
 31
0.0
  0
LINE
  5
AAC69
  8
0
 10
20999.61111616104
 20
6237.171916406282
 30
0.0
 11
20999.61111616104
 21
6212.171916406282
 31
0.0
  0
LINE
  5
AAC6A
  8
0
 10
21034.61111616105
 20
6237.171916406282
 30
0.0
 11
20989.61111616104
 21
6237.171916406282
 31
0.0
  0
LINE
  5
AAC6B
  8
0
 10
21034.61111616105
 20
6237.171916406282
 30
0.0
 11
20989.61111616104
 21
6237.171916406282
 31
0.0
  0
LINE
  5
AAC6C
  8
0
 10
20999.61111616104
 20
6237.171916406282
 30
0.0
 11
20999.61111616104
 21
6212.171916406282
 31
0.0
  0
LINE
  5
AAC6D
  8
0
 10
20999.61111616104
 20
6237.171916406282
 30
0.0
 11
20999.61111616104
 21
6212.171916406282
 31
0.0
  0
LINE
  5
AAC6E
  8
0
 10
20989.61111616104
 20
6262.171916406281
 30
0.0
 11
20989.61111616104
 21
6237.171916406282
 31
0.0
  0
LINE
  5
AAC6F
  8
0
 10
20989.61111616104
 20
6262.171916406281
 30
0.0
 11
20989.61111616104
 21
6237.171916406282
 31
0.0
  0
POLYLINE
  5
AAC70
  8
0
 66
     1
 10
0.0
 20
0.0
 30
0.0
 70
     1
  0
VERTEX
  5
B0190
  8
0
 10
21034.61111616105
 20
6262.171916406281
 30
0.0
  0
VERTEX
  5
B0191
  8
0
 10
21034.61111616105
 20
6237.171916406282
 30
0.0
  0
VERTEX
  5
B0192
  8
0
 10
20989.61111616104
 20
6237.171916406282
 30
0.0
  0
VERTEX
  5
B0193
  8
0
 10
20989.61111616104
 20
6262.171916406281
 30
0.0
  0
SEQEND
  5
B07C5
  8
0
  0
POLYLINE
  5
AAC71
  8
0
 66
     1
 10
0.0
 20
0.0
 30
0.0
 70
     1
  0
VERTEX
  5
B0194
  8
0
 10
21024.61111616104
 20
6237.171916406282
 30
0.0
  0
VERTEX
  5
B0195
  8
0
 10
21024.61111616104
 20
6212.171916406282
 30
0.0
  0
VERTEX
  5
B0196
  8
0
 10
20999.61111616104
 20
6212.171916406282
 30
0.0
  0
VERTEX
  5
B0197
  8
0
 10
20999.61111616104
 20
6237.171916406282
 30
0.0
  0
SEQEND
  5
B07C6
  8
0
  0
LINE
  5
AAC72
  8
0
 10
21989.61111616104
 20
6262.171916406281
 30
0.0
 11
21989.61111616104
 21
6237.171916406282
 31
0.0
  0
LINE
  5
AAC73
  8
0
 10
21989.61111616104
 20
6262.171916406281
 30
0.0
 11
21989.61111616104
 21
6237.171916406282
 31
0.0
  0
LINE
  5
AAC74
  8
0
 10
22034.61111616104
 20
6237.171916406282
 30
0.0
 11
21989.61111616104
 21
6237.171916406282
 31
0.0
  0
LINE
  5
AAC75
  8
0
 10
22034.61111616104
 20
6237.171916406282
 30
0.0
 11
21989.61111616104
 21
6237.171916406282
 31
0.0
  0
LINE
  5
AAC76
  8
0
 10
21999.61111616104
 20
6237.171916406282
 30
0.0
 11
21999.61111616104
 21
6212.171916406282
 31
0.0
  0
LINE
  5
AAC77
  8
0
 10
21999.61111616104
 20
6237.171916406282
 30
0.0
 11
21999.61111616104
 21
6212.171916406282
 31
0.0
  0
LINE
  5
AAC78
  8
0
 10
22034.61111616104
 20
6237.171916406282
 30
0.0
 11
21989.61111616104
 21
6237.171916406282
 31
0.0
  0
LINE
  5
AAC79
  8
0
 10
22034.61111616104
 20
6237.171916406282
 30
0.0
 11
21989.61111616104
 21
6237.171916406282
 31
0.0
  0
LINE
  5
AAC7A
  8
0
 10
21999.61111616104
 20
6237.171916406282
 30
0.0
 11
21999.61111616104
 21
6212.171916406282
 31
0.0
  0
LINE
  5
AAC7B
  8
0
 10
21999.61111616104
 20
6237.171916406282
 30
0.0
 11
21999.61111616104
 21
6212.171916406282
 31
0.0
  0
LINE
  5
AAC7C
  8
0
 10
21989.61111616104
 20
6262.171916406281
 30
0.0
 11
21989.61111616104
 21
6237.171916406282
 31
0.0
  0
LINE
  5
AAC7D
  8
0
 10
21989.61111616104
 20
6262.171916406281
 30
0.0
 11
21989.61111616104
 21
6237.171916406282
 31
0.0
  0
POLYLINE
  5
AAC7E
  8
0
 66
     1
 10
0.0
 20
0.0
 30
0.0
 70
     1
  0
VERTEX
  5
B0198
  8
0
 10
22034.61111616104
 20
6262.171916406281
 30
0.0
  0
VERTEX
  5
B0199
  8
0
 10
22034.61111616104
 20
6237.171916406282
 30
0.0
  0
VERTEX
  5
B019A
  8
0
 10
21989.61111616104
 20
6237.171916406282
 30
0.0
  0
VERTEX
  5
B019B
  8
0
 10
21989.61111616104
 20
6262.171916406281
 30
0.0
  0
SEQEND
  5
B07C7
  8
0
  0
POLYLINE
  5
AAC7F
  8
0
 66
     1
 10
0.0
 20
0.0
 30
0.0
 70
     1
  0
VERTEX
  5
B019C
  8
0
 10
22024.61111616105
 20
6237.171916406282
 30
0.0
  0
VERTEX
  5
B019D
  8
0
 10
22024.61111616105
 20
6212.171916406282
 30
0.0
  0
VERTEX
  5
B019E
  8
0
 10
21999.61111616104
 20
6212.171916406282
 30
0.0
  0
VERTEX
  5
B019F
  8
0
 10
21999.61111616104
 20
6237.171916406282
 30
0.0
  0
SEQEND
  5
B07C8
  8
0
  0
POLYLINE
  5
AAC80
  8
0
 66
     1
 10
0.0
 20
0.0
 30
0.0
 70
     1
  0
VERTEX
  5
B01A0
  8
0
 10
22337.11111616107
 20
4758.036426392864
 30
0.0
  0
VERTEX
  5
B01A1
  8
0
 10
22477.11111616108
 20
4758.036426392864
 30
0.0
  0
VERTEX
  5
B01A2
  8
0
 10
22477.11111616108
 20
4748.036426392864
 30
0.0
  0
VERTEX
  5
B01A3
  8
0
 10
22337.11111616107
 20
4748.036426392864
 30
0.0
  0
SEQEND
  5
B07C9
  8
0
  0
LINE
  5
AAC81
  8
0
 10
22357.11111616108
 20
4758.036426392835
 30
0.0
 11
22457.11111616107
 21
4758.036426392835
 31
0.0
  0
CIRCLE
  5
AAC82
  8
0
 10
22407.11111616108
 20
4790.536426392833
 30
0.0
 40
12.5
  0
CIRCLE
  5
AAC83
  8
0
 10
22407.11111616108
 20
4790.536426392833
 30
0.0
 40
22.5
  0
POLYLINE
  5
AAC84
  8
0
 66
     1
 10
0.0
 20
0.0
 30
0.0
 70
     1
  0
VERTEX
  5
B01A4
  8
0
 10
22497.11111616107
 20
4748.036426392835
 30
0.0
  0
VERTEX
  5
B01A5
  8
0
 10
22497.11111616107
 20
4713.036426392835
 30
0.0
  0
VERTEX
  5
B01A6
  8
0
 10
20527.11111616107
 20
4713.036426392835
 30
0.0
  0
VERTEX
  5
B01A7
  8
0
 10
20527.11111616107
 20
4748.036426392835
 30
0.0
  0
SEQEND
  5
B07CA
  8
0
  0
POLYLINE
  5
AAC85
  8
0
 66
     1
 10
0.0
 20
0.0
 30
0.0
 70
     1
  0
VERTEX
  5
B01A8
  8
0
 10
20527.11111616107
 20
4748.036426392835
 30
0.0
  0
VERTEX
  5
B01A9
  8
0
 10
20527.11111616107
 20
2218.036426392835
 30
0.0
  0
VERTEX
  5
B01AA
  8
0
 10
20497.11111616107
 20
2218.036426392835
 30
0.0
  0
VERTEX
  5
B01AB
  8
0
 10
20497.11111616107
 20
4748.036426392835
 30
0.0
  0
SEQEND
  5
B07CB
  8
0
  0
POLYLINE
  5
AAC86
  8
0
 66
     1
 10
0.0
 20
0.0
 30
0.0
 70
     1
  0
VERTEX
  5
B01AC
  8
0
 10
22527.11111616108
 20
4748.036426392835
 30
0.0
  0
VERTEX
  5
B01AD
  8
0
 10
22527.11111616108
 20
2218.036426392835
 30
0.0
  0
VERTEX
  5
B01AE
  8
0
 10
22497.11111616119
 20
2218.036426392835
 30
0.0
  0
VERTEX
  5
B01AF
  8
0
 10
22497.11111616119
 20
4748.036426392835
 30
0.0
  0
SEQEND
  5
B07CC
  8
0
  0
POLYLINE
  5
AAC87
  8
0
 66
     1
 10
0.0
 20
0.0
 30
0.0
 70
     1
  0
VERTEX
  5
B01B0
  8
0
 10
22497.11111616119
 20
2218.036426392835
 30
0.0
  0
VERTEX
  5
B01B1
  8
0
 10
22497.11111616119
 20
2313.036426393126
 30
0.0
  0
VERTEX
  5
B01B2
  8
0
 10
20527.11111616084
 20
2313.036426393126
 30
0.0
  0
VERTEX
  5
B01B3
  8
0
 10
20527.11111616084
 20
2218.036426392835
 30
0.0
  0
SEQEND
  5
B07CD
  8
0
  0
POLYLINE
  5
AAC88
  8
0
 66
     1
 10
0.0
 20
0.0
 30
0.0
 70
     1
  0
VERTEX
  5
B01B4
  8
0
 10
20527.11111616107
 20
2313.036426392835
 30
0.0
  0
VERTEX
  5
B01B5
  8
0
 10
20527.11111616107
 20
2339.036426392835
 30
0.0
  0
VERTEX
  5
B01B6
  8
0
 10
21497.11111616107
 20
2339.036426392835
 30
0.0
  0
VERTEX
  5
B01B7
  8
0
 10
21497.11111616107
 20
2313.036426392835
 30
0.0
  0
SEQEND
  5
B07CE
  8
0
  0
POLYLINE
  5
AAC89
  8
0
 66
     1
 10
0.0
 20
0.0
 30
0.0
 70
     1
  0
VERTEX
  5
B01B8
  8
0
 10
21497.11111616107
 20
2313.036426392835
 30
0.0
  0
VERTEX
  5
B01B9
  8
0
 10
21497.11111616107
 20
4713.036426392835
 30
0.0
  0
VERTEX
  5
B01BA
  8
0
 10
21527.11111616107
 20
4713.036426392835
 30
0.0
  0
VERTEX
  5
B01BB
  8
0
 10
21527.11111616107
 20
2313.036426392835
 30
0.0
  0
SEQEND
  5
B07CF
  8
0
  0
POLYLINE
  5
AAC8A
  8
0
 66
     1
 10
0.0
 20
0.0
 30
0.0
 70
     1
  0
VERTEX
  5
B01BC
  8
0
 10
22497.11111616107
 20
2339.036426392835
 30
0.0
  0
VERTEX
  5
B01BD
  8
0
 10
22497.11111616107
 20
2313.036426392835
 30
0.0
  0
VERTEX
  5
B01BE
  8
0
 10
21527.11111616107
 20
2313.036426392835
 30
0.0
  0
VERTEX
  5
B01BF
  8
0
 10
21527.11111616107
 20
2339.036426392835
 30
0.0
  0
SEQEND
  5
B07D0
  8
0
  0
POLYLINE
  5
AAC8B
  8
0
 66
     1
 10
0.0
 20
0.0
 30
0.0
 70
     1
  0
VERTEX
  5
B01C0
  8
0
 10
22429.61111616108
 20
4768.036426392865
 30
0.0
  0
VERTEX
  5
B01C1
  8
0
 10
22429.61111616108
 20
4790.536426392864
 30
0.0
 42
-1.0
  0
VERTEX
  5
B01C2
  8
0
 10
22384.61111616107
 20
4790.536426392864
 30
0.0
  0
VERTEX
  5
B01C3
  8
0
 10
22384.61111616107
 20
4768.036426392835
 30
0.0
  0
VERTEX
  5
B01C4
  8
0
 10
22367.11111616108
 20
4768.036426392865
 30
0.0
  0
VERTEX
  5
B01C5
  8
0
 10
22357.11111616108
 20
4758.036426392835
 30
0.0
  0
VERTEX
  5
B01C6
  8
0
 10
22457.11111616107
 20
4758.036426392835
 30
0.0
  0
VERTEX
  5
B01C7
  8
0
 10
22447.11111616108
 20
4768.036426392865
 30
0.0
  0
SEQEND
  5
B07D1
  8
0
  0
LINE
  5
AAC8C
  8
0
 10
21989.61111616107
 20
2218.036426392835
 30
0.0
 11
21989.61111616107
 21
2193.036426392835
 31
0.0
  0
LINE
  5
AAC8D
  8
0
 10
21989.61111616107
 20
2218.036426392835
 30
0.0
 11
21989.61111616107
 21
2193.036426392835
 31
0.0
  0
LINE
  5
AAC8E
  8
0
 10
22034.61111616108
 20
2193.036426392835
 30
0.0
 11
21989.61111616107
 21
2193.036426392835
 31
0.0
  0
LINE
  5
AAC8F
  8
0
 10
22034.61111616108
 20
2193.036426392835
 30
0.0
 11
21989.61111616107
 21
2193.036426392835
 31
0.0
  0
LINE
  5
AAC90
  8
0
 10
21999.61111616107
 20
2193.036426392835
 30
0.0
 11
21999.61111616107
 21
2168.036426392835
 31
0.0
  0
LINE
  5
AAC91
  8
0
 10
21999.61111616107
 20
2193.036426392835
 30
0.0
 11
21999.61111616107
 21
2168.036426392835
 31
0.0
  0
LINE
  5
AAC92
  8
0
 10
22034.61111616108
 20
2193.036426392835
 30
0.0
 11
21989.61111616107
 21
2193.036426392835
 31
0.0
  0
LINE
  5
AAC93
  8
0
 10
22034.61111616108
 20
2193.036426392835
 30
0.0
 11
21989.61111616107
 21
2193.036426392835
 31
0.0
  0
LINE
  5
AAC94
  8
0
 10
21999.61111616107
 20
2193.036426392835
 30
0.0
 11
21999.61111616107
 21
2168.036426392835
 31
0.0
  0
LINE
  5
AAC95
  8
0
 10
21999.61111616107
 20
2193.036426392835
 30
0.0
 11
21999.61111616107
 21
2168.036426392835
 31
0.0
  0
LINE
  5
AAC96
  8
0
 10
21989.61111616107
 20
2218.036426392835
 30
0.0
 11
21989.61111616107
 21
2193.036426392835
 31
0.0
  0
LINE
  5
AAC97
  8
0
 10
21989.61111616107
 20
2218.036426392835
 30
0.0
 11
21989.61111616107
 21
2193.036426392835
 31
0.0
  0
LINE
  5
AAC98
  8
0
 10
20989.61111616107
 20
2218.036426392835
 30
0.0
 11
20989.61111616107
 21
2193.036426392835
 31
0.0
  0
LINE
  5
AAC99
  8
0
 10
20989.61111616107
 20
2218.036426392835
 30
0.0
 11
20989.61111616107
 21
2193.036426392835
 31
0.0
  0
LINE
  5
AAC9A
  8
0
 10
21034.61111616107
 20
2193.036426392835
 30
0.0
 11
20989.61111616107
 21
2193.036426392835
 31
0.0
  0
LINE
  5
AAC9B
  8
0
 10
21034.61111616107
 20
2193.036426392835
 30
0.0
 11
20989.61111616107
 21
2193.036426392835
 31
0.0
  0
LINE
  5
AAC9C
  8
0
 10
20999.61111616107
 20
2193.036426392835
 30
0.0
 11
20999.61111616107
 21
2168.036426392835
 31
0.0
  0
LINE
  5
AAC9D
  8
0
 10
20999.61111616107
 20
2193.036426392835
 30
0.0
 11
20999.61111616107
 21
2168.036426392835
 31
0.0
  0
LINE
  5
AAC9E
  8
0
 10
21034.61111616107
 20
2193.036426392835
 30
0.0
 11
20989.61111616107
 21
2193.036426392835
 31
0.0
  0
LINE
  5
AAC9F
  8
0
 10
21034.61111616107
 20
2193.036426392835
 30
0.0
 11
20989.61111616107
 21
2193.036426392835
 31
0.0
  0
LINE
  5
AACA0
  8
0
 10
20999.61111616107
 20
2193.036426392835
 30
0.0
 11
20999.61111616107
 21
2168.036426392835
 31
0.0
  0
LINE
  5
AACA1
  8
0
 10
20999.61111616107
 20
2193.036426392835
 30
0.0
 11
20999.61111616107
 21
2168.036426392835
 31
0.0
  0
LINE
  5
AACA2
  8
0
 10
20989.61111616107
 20
2218.036426392835
 30
0.0
 11
20989.61111616107
 21
2193.036426392835
 31
0.0
  0
LINE
  5
AACA3
  8
0
 10
20989.61111616107
 20
2218.036426392835
 30
0.0
 11
20989.61111616107
 21
2193.036426392835
 31
0.0
  0
POLYLINE
  5
AACA4
  8
0
 66
     1
 10
0.0
 20
0.0
 30
0.0
 70
     1
  0
VERTEX
  5
B01C8
  8
0
 10
21034.61111616107
 20
2218.036426392835
 30
0.0
  0
VERTEX
  5
B01C9
  8
0
 10
21034.61111616107
 20
2193.036426392835
 30
0.0
  0
VERTEX
  5
B01CA
  8
0
 10
20989.61111616107
 20
2193.036426392835
 30
0.0
  0
VERTEX
  5
B01CB
  8
0
 10
20989.61111616107
 20
2218.036426392835
 30
0.0
  0
SEQEND
  5
B07D2
  8
0
  0
POLYLINE
  5
AACA5
  8
0
 66
     1
 10
0.0
 20
0.0
 30
0.0
 70
     1
  0
VERTEX
  5
B01CC
  8
0
 10
21024.61111616107
 20
2193.036426392835
 30
0.0
  0
VERTEX
  5
B01CD
  8
0
 10
21024.61111616107
 20
2168.036426392835
 30
0.0
  0
VERTEX
  5
B01CE
  8
0
 10
20999.61111616107
 20
2168.036426392835
 30
0.0
  0
VERTEX
  5
B01CF
  8
0
 10
20999.61111616107
 20
2193.036426392835
 30
0.0
  0
SEQEND
  5
B07D3
  8
0
  0
LINE
  5
AACA6
  8
0
 10
21989.61111616107
 20
2218.036426392835
 30
0.0
 11
21989.61111616107
 21
2193.036426392835
 31
0.0
  0
LINE
  5
AACA7
  8
0
 10
21989.61111616107
 20
2218.036426392835
 30
0.0
 11
21989.61111616107
 21
2193.036426392835
 31
0.0
  0
LINE
  5
AACA8
  8
0
 10
22034.61111616108
 20
2193.036426392835
 30
0.0
 11
21989.61111616107
 21
2193.036426392835
 31
0.0
  0
LINE
  5
AACA9
  8
0
 10
22034.61111616108
 20
2193.036426392835
 30
0.0
 11
21989.61111616107
 21
2193.036426392835
 31
0.0
  0
LINE
  5
AACAA
  8
0
 10
21999.61111616107
 20
2193.036426392835
 30
0.0
 11
21999.61111616107
 21
2168.036426392835
 31
0.0
  0
LINE
  5
AACAB
  8
0
 10
21999.61111616107
 20
2193.036426392835
 30
0.0
 11
21999.61111616107
 21
2168.036426392835
 31
0.0
  0
LINE
  5
AACAC
  8
0
 10
22034.61111616108
 20
2193.036426392835
 30
0.0
 11
21989.61111616107
 21
2193.036426392835
 31
0.0
  0
LINE
  5
AACAD
  8
0
 10
22034.61111616108
 20
2193.036426392835
 30
0.0
 11
21989.61111616107
 21
2193.036426392835
 31
0.0
  0
LINE
  5
AACAE
  8
0
 10
21999.61111616107
 20
2193.036426392835
 30
0.0
 11
21999.61111616107
 21
2168.036426392835
 31
0.0
  0
LINE
  5
AACAF
  8
0
 10
21999.61111616107
 20
2193.036426392835
 30
0.0
 11
21999.61111616107
 21
2168.036426392835
 31
0.0
  0
LINE
  5
AACB0
  8
0
 10
21989.61111616107
 20
2218.036426392835
 30
0.0
 11
21989.61111616107
 21
2193.036426392835
 31
0.0
  0
LINE
  5
AACB1
  8
0
 10
21989.61111616107
 20
2218.036426392835
 30
0.0
 11
21989.61111616107
 21
2193.036426392835
 31
0.0
  0
POLYLINE
  5
AACB2
  8
0
 66
     1
 10
0.0
 20
0.0
 30
0.0
 70
     1
  0
VERTEX
  5
B01D0
  8
0
 10
22034.61111616108
 20
2218.036426392835
 30
0.0
  0
VERTEX
  5
B01D1
  8
0
 10
22034.61111616108
 20
2193.036426392835
 30
0.0
  0
VERTEX
  5
B01D2
  8
0
 10
21989.61111616107
 20
2193.036426392835
 30
0.0
  0
VERTEX
  5
B01D3
  8
0
 10
21989.61111616107
 20
2218.036426392835
 30
0.0
  0
SEQEND
  5
B07D4
  8
0
  0
POLYLINE
  5
AACB3
  8
0
 66
     1
 10
0.0
 20
0.0
 30
0.0
 70
     1
  0
VERTEX
  5
B01D4
  8
0
 10
22024.61111616107
 20
2193.036426392835
 30
0.0
  0
VERTEX
  5
B01D5
  8
0
 10
22024.61111616107
 20
2168.036426392835
 30
0.0
  0
VERTEX
  5
B01D6
  8
0
 10
21999.61111616107
 20
2168.036426392835
 30
0.0
  0
VERTEX
  5
B01D7
  8
0
 10
21999.61111616107
 20
2193.036426392835
 30
0.0
  0
SEQEND
  5
B07D5
  8
0
  0
POLYLINE
  5
AACB4
  8
0
 66
     1
 10
0.0
 20
0.0
 30
0.0
  0
VERTEX
  5
B01D8
  8
0
 10
22527.11111616104
 20
14295.44289643319
 30
0.0
  0
VERTEX
  5
B01D9
  8
0
 10
22432.11111616104
 20
14325.44289643319
 30
0.0
  0
VERTEX
  5
B01DA
  8
0
 10
22024.61111616105
 20
14325.44289643319
 30
0.0
  0
VERTEX
  5
B01DB
  8
0
 10
22024.61111616105
 20
14300.44289643319
 30
0.0
  0
VERTEX
  5
B01DC
  8
0
 10
21999.61111616104
 20
14300.44289643319
 30
0.0
  0
VERTEX
  5
B01DD
  8
0
 10
21999.61111616104
 20
14325.44289643319
 30
0.0
  0
VERTEX
  5
B01DE
  8
0
 10
21999.61111616104
 20
14325.44289643319
 30
0.0
  0
VERTEX
  5
B01DF
  8
0
 10
21024.61111616104
 20
14325.44289643319
 30
0.0
  0
VERTEX
  5
B01E0
  8
0
 10
21024.61111616104
 20
14300.44289643319
 30
0.0
  0
VERTEX
  5
B01E1
  8
0
 10
20999.61111616104
 20
14300.44289643319
 30
0.0
  0
VERTEX
  5
B01E2
  8
0
 10
20999.61111616104
 20
14325.44289643319
 30
0.0
  0
VERTEX
  5
B01E3
  8
0
 10
20527.11111616104
 20
14325.44289643319
 30
0.0
  0
VERTEX
  5
B01E4
  8
0
 10
20432.11111616104
 20
14295.44289643319
 30
0.0
  0
VERTEX
  5
B01E5
  8
0
 10
22527.11111616104
 20
14295.44289643319
 30
0.0
  0
SEQEND
  5
B07D6
  8
0
  0
POLYLINE
  5
AACB5
  8
0
 66
     1
 10
0.0
 20
0.0
 30
0.0
  0
VERTEX
  5
B01E6
  8
0
 10
22527.11111616106
 20
10251.30740641973
 30
0.0
  0
VERTEX
  5
B01E7
  8
0
 10
22432.11111616106
 20
10281.30740641973
 30
0.0
  0
VERTEX
  5
B01E8
  8
0
 10
22024.61111616106
 20
10281.30740641973
 30
0.0
  0
VERTEX
  5
B01E9
  8
0
 10
22024.61111616106
 20
10256.30740641973
 30
0.0
  0
VERTEX
  5
B01EA
  8
0
 10
21999.61111616106
 20
10256.30740641973
 30
0.0
  0
VERTEX
  5
B01EB
  8
0
 10
21999.61111616106
 20
10281.30740641973
 30
0.0
  0
VERTEX
  5
B01EC
  8
0
 10
21999.61111616106
 20
10281.30740641973
 30
0.0
  0
VERTEX
  5
B01ED
  8
0
 10
21024.61111616106
 20
10281.30740641973
 30
0.0
  0
VERTEX
  5
B01EE
  8
0
 10
21024.61111616106
 20
10256.30740641973
 30
0.0
  0
VERTEX
  5
B01EF
  8
0
 10
20999.61111616106
 20
10256.30740641973
 30
0.0
  0
VERTEX
  5
B01F0
  8
0
 10
20999.61111616106
 20
10281.30740641973
 30
0.0
  0
VERTEX
  5
B01F1
  8
0
 10
20527.11111616106
 20
10281.30740641973
 30
0.0
  0
VERTEX
  5
B01F2
  8
0
 10
20432.11111616106
 20
10251.30740641973
 30
0.0
  0
VERTEX
  5
B01F3
  8
0
 10
22527.11111616106
 20
10251.30740641973
 30
0.0
  0
SEQEND
  5
B07D7
  8
0
  0
POLYLINE
  5
AACB6
  8
0
 66
     1
 10
0.0
 20
0.0
 30
0.0
  0
VERTEX
  5
B01F4
  8
0
 10
22527.11111616104
 20
6207.171916406283
 30
0.0
  0
VERTEX
  5
B01F5
  8
0
 10
22432.11111616104
 20
6237.171916406282
 30
0.0
  0
VERTEX
  5
B01F6
  8
0
 10
22024.61111616105
 20
6237.171916406282
 30
0.0
  0
VERTEX
  5
B01F7
  8
0
 10
22024.61111616105
 20
6212.171916406282
 30
0.0
  0
VERTEX
  5
B01F8
  8
0
 10
21999.61111616104
 20
6212.171916406282
 30
0.0
  0
VERTEX
  5
B01F9
  8
0
 10
21999.61111616104
 20
6237.171916406282
 30
0.0
  0
VERTEX
  5
B01FA
  8
0
 10
21999.61111616104
 20
6237.171916406282
 30
0.0
  0
VERTEX
  5
B01FB
  8
0
 10
21024.61111616104
 20
6237.171916406282
 30
0.0
  0
VERTEX
  5
B01FC
  8
0
 10
21024.61111616104
 20
6212.171916406282
 30
0.0
  0
VERTEX
  5
B01FD
  8
0
 10
20999.61111616104
 20
6212.171916406282
 30
0.0
  0
VERTEX
  5
B01FE
  8
0
 10
20999.61111616104
 20
6237.171916406282
 30
0.0
  0
VERTEX
  5
B01FF
  8
0
 10
20527.11111616104
 20
6237.171916406282
 30
0.0
  0
VERTEX
  5
B0200
  8
0
 10
20432.11111616104
 20
6207.171916406283
 30
0.0
  0
VERTEX
  5
B0201
  8
0
 10
22527.11111616104
 20
6207.171916406283
 30
0.0
  0
SEQEND
  5
B07D8
  8
0
  0
POLYLINE
  5
AACB7
  8
0
 66
     1
 10
0.0
 20
0.0
 30
0.0
  0
VERTEX
  5
B0202
  8
0
 10
22527.11111616108
 20
2163.036426392835
 30
0.0
  0
VERTEX
  5
B0203
  8
0
 10
22432.11111616107
 20
2193.036426392835
 30
0.0
  0
VERTEX
  5
B0204
  8
0
 10
22024.61111616106
 20
2193.036426392835
 30
0.0
  0
VERTEX
  5
B0205
  8
0
 10
22024.61111616106
 20
2168.036426392835
 30
0.0
  0
VERTEX
  5
B0206
  8
0
 10
21999.61111616106
 20
2168.036426392835
 30
0.0
  0
VERTEX
  5
B0207
  8
0
 10
21999.61111616106
 20
2193.036426392835
 30
0.0
  0
VERTEX
  5
B0208
  8
0
 10
21999.61111616106
 20
2193.036426392835
 30
0.0
  0
VERTEX
  5
B0209
  8
0
 10
21024.61111616107
 20
2193.036426392835
 30
0.0
  0
VERTEX
  5
B020A
  8
0
 10
21024.61111616107
 20
2168.036426392835
 30
0.0
  0
VERTEX
  5
B020B
  8
0
 10
20999.61111616106
 20
2168.036426392835
 30
0.0
  0
VERTEX
  5
B020C
  8
0
 10
20999.61111616106
 20
2193.036426392835
 30
0.0
  0
VERTEX
  5
B020D
  8
0
 10
20527.11111616106
 20
2193.036426392835
 30
0.0
  0
VERTEX
  5
B020E
  8
0
 10
20432.11111616107
 20
2163.036426392835
 30
0.0
  0
VERTEX
  5
B020F
  8
0
 10
22527.11111616108
 20
2163.036426392835
 30
0.0
  0
SEQEND
  5
B07D9
  8
0
  0
POLYLINE
  5
AACB8
  8
0
 66
     1
 10
0.0
 20
0.0
 30
0.0
 70
     1
  0
VERTEX
  5
B0210
  8
0
 10
22497.11111616128
 20
6783.171916405992
 30
0.0
  0
VERTEX
  5
B0211
  8
0
 10
22497.11111616128
 20
6757.171916405993
 30
0.0
  0
VERTEX
  5
B0212
  8
0
 10
21527.11111616126
 20
6757.171916405993
 30
0.0
  0
VERTEX
  5
B0213
  8
0
 10
21527.11111616126
 20
6783.171916405992
 30
0.0
  0
SEQEND
  5
B07DA
  8
0
  0
POLYLINE
  5
AACB9
  8
0
 66
     1
 10
0.0
 20
0.0
 30
0.0
 70
     1
  0
VERTEX
  5
B0214
  8
0
 10
22497.11111616128
 20
7183.171916405992
 30
0.0
  0
VERTEX
  5
B0215
  8
0
 10
22497.11111616128
 20
7157.171916405992
 30
0.0
  0
VERTEX
  5
B0216
  8
0
 10
21527.11111616126
 20
7157.171916405992
 30
0.0
  0
VERTEX
  5
B0217
  8
0
 10
21527.11111616126
 20
7183.171916405992
 30
0.0
  0
SEQEND
  5
B07DB
  8
0
  0
POLYLINE
  5
AACBA
  8
0
 66
     1
 10
0.0
 20
0.0
 30
0.0
 70
     1
  0
VERTEX
  5
B0218
  8
0
 10
20527.11111616126
 20
6757.171916405993
 30
0.0
  0
VERTEX
  5
B0219
  8
0
 10
20527.11111616126
 20
6783.171916405992
 30
0.0
  0
VERTEX
  5
B021A
  8
0
 10
21497.11111616128
 20
6783.171916405992
 30
0.0
  0
VERTEX
  5
B021B
  8
0
 10
21497.11111616128
 20
6757.171916405993
 30
0.0
  0
SEQEND
  5
B07DC
  8
0
  0
POLYLINE
  5
AACBB
  8
0
 66
     1
 10
0.0
 20
0.0
 30
0.0
 70
     1
  0
VERTEX
  5
B021C
  8
0
 10
20527.11111616126
 20
7157.171916405992
 30
0.0
  0
VERTEX
  5
B021D
  8
0
 10
20527.11111616126
 20
7183.171916405992
 30
0.0
  0
VERTEX
  5
B021E
  8
0
 10
21497.11111616128
 20
7183.171916405992
 30
0.0
  0
VERTEX
  5
B021F
  8
0
 10
21497.11111616128
 20
7157.171916405992
 30
0.0
  0
SEQEND
  5
B07DD
  8
0
  0
POLYLINE
  5
AACBC
  8
CLOTHES_RAIL
 66
     1
 10
0.0
 20
0.0
 30
0.0
 70
     1
  0
VERTEX
  5
B0220
  8
CLOTHES_RAIL
 10
22497.11111616126
 20
8109.671916405988
 30
0.0
  0
VERTEX
  5
B0221
  8
CLOTHES_RAIL
 10
22497.11111616126
 20
8083.671916405988
 30
0.0
  0
VERTEX
  5
B0222
  8
CLOTHES_RAIL
 10
21527.11111616126
 20
8083.671916405988
 30
0.0
  0
VERTEX
  5
B0223
  8
CLOTHES_RAIL
 10
21527.11111616126
 20
8109.671916405988
 30
0.0
  0
SEQEND
  5
B07DE
  8
CLOTHES_RAIL
  0
POLYLINE
  5
AACBD
  8
0
 66
     1
 10
0.0
 20
0.0
 30
0.0
 70
     1
  0
VERTEX
  5
B0224
  8
0
 10
22497.11111616126
 20
8183.171916405992
 30
0.0
  0
VERTEX
  5
B0225
  8
0
 10
22497.11111616126
 20
8157.171916405991
 30
0.0
  0
VERTEX
  5
B0226
  8
0
 10
21527.11111616126
 20
8157.171916405991
 30
0.0
  0
VERTEX
  5
B0227
  8
0
 10
21527.11111616126
 20
8183.171916405992
 30
0.0
  0
SEQEND
  5
B07DF
  8
0
  0
POLYLINE
  5
AACBE
  8
CLOTHES_RAIL
 66
     1
 10
0.0
 20
0.0
 30
0.0
 70
     1
  0
VERTEX
  5
B0228
  8
CLOTHES_RAIL
 10
20527.11111616078
 20
8109.671916405988
 30
0.0
  0
VERTEX
  5
B0229
  8
CLOTHES_RAIL
 10
20527.11111616078
 20
8083.671916405988
 30
0.0
  0
VERTEX
  5
B022A
  8
CLOTHES_RAIL
 10
21497.11111616078
 20
8083.671916405988
 30
0.0
  0
VERTEX
  5
B022B
  8
CLOTHES_RAIL
 10
21497.11111616078
 20
8109.671916405988
 30
0.0
  0
SEQEND
  5
B07E0
  8
CLOTHES_RAIL
  0
POLYLINE
  5
AACBF
  8
0
 66
     1
 10
0.0
 20
0.0
 30
0.0
 70
     1
  0
VERTEX
  5
B022C
  8
0
 10
20527.11111616126
 20
8157.171916405991
 30
0.0
  0
VERTEX
  5
B022D
  8
0
 10
20527.11111616126
 20
8183.171916405992
 30
0.0
  0
VERTEX
  5
B022E
  8
0
 10
21497.11111616126
 20
8183.171916405992
 30
0.0
  0
VERTEX
  5
B022F
  8
0
 10
21497.11111616126
 20
8157.171916405991
 30
0.0
  0
SEQEND
  5
B07E1
  8
0
  0
LINE
  5
AACD7
  8
0
 10
21527.11111616107
 20
4629.011226058442
 30
0.0
 11
22497.11111616119
 21
4629.011226058442
 31
0.0
1001
ACAD
1010
0.0
1020
0.0
1030
0.0
  0
LINE
  5
AACD8
  8
0
 10
21527.11111616107
 20
4504.011226058442
 30
0.0
 11
22497.11111616119
 21
4504.011226058442
 31
0.0
1001
ACAD
1010
0.0
1020
0.0
1030
0.0
  0
LINE
  5
AACD9
  8
0
 10
21527.11111616107
 20
4379.011226058442
 30
0.0
 11
22497.11111616119
 21
4379.011226058442
 31
0.0
1001
ACAD
1010
0.0
1020
0.0
1030
0.0
  0
LINE
  5
AACDA
  8
0
 10
21497.11111616107
 20
4379.011226058442
 30
0.0
 11
20527.11111616094
 21
4379.011226058442
 31
0.0
1001
ACAD
1010
0.0
1020
0.0
1030
0.0
  0
LINE
  5
AACDB
  8
0
 10
21497.11111616107
 20
4504.011226058442
 30
0.0
 11
20527.11111616094
 21
4504.011226058442
 31
0.0
1001
ACAD
1010
0.0
1020
0.0
1030
0.0
  0
LINE
  5
AACDC
  8
0
 10
21497.11111616107
 20
4629.011226058442
 30
0.0
 11
20527.11111616094
 21
4629.011226058442
 31
0.0
1001
ACAD
1010
0.0
1020
0.0
1030
0.0
  0
POLYLINE
  5
AACE3
  8
0
 66
     1
 10
0.0
 20
0.0
 30
0.0
 70
     1
  0
VERTEX
  5
B0230
  8
0
 10
22497.11111616126
 20
8483.17191640599
 30
0.0
  0
VERTEX
  5
B0231
  8
0
 10
22497.11111616126
 20
8457.171916405992
 30
0.0
  0
VERTEX
  5
B0232
  8
0
 10
21527.11111616126
 20
8457.171916405992
 30
0.0
  0
VERTEX
  5
B0233
  8
0
 10
21527.11111616126
 20
8483.17191640599
 30
0.0
  0
SEQEND
  5
B07E2
  8
0
  0
POLYLINE
  5
AACE4
  8
0
 66
     1
 10
0.0
 20
0.0
 30
0.0
 70
     1
  0
VERTEX
  5
B0234
  8
0
 10
20527.11111616127
 20
8457.171916405992
 30
0.0
  0
VERTEX
  5
B0235
  8
0
 10
20527.11111616127
 20
8483.17191640599
 30
0.0
  0
VERTEX
  5
B0236
  8
0
 10
21497.11111616127
 20
8483.17191640599
 30
0.0
  0
VERTEX
  5
B0237
  8
0
 10
21497.11111616127
 20
8457.171916405992
 30
0.0
  0
SEQEND
  5
B07E3
  8
0
  0
POLYLINE
  5
AACE5
  8
0
 66
     1
 10
0.0
 20
0.0
 30
0.0
 70
     1
  0
VERTEX
  5
B0238
  8
0
 10
22497.1111161613
 20
12577.30740641974
 30
0.0
  0
VERTEX
  5
B0239
  8
0
 10
22497.1111161613
 20
12551.30740641974
 30
0.0
  0
VERTEX
  5
B023A
  8
0
 10
21527.1111161613
 20
12551.30740641974
 30
0.0
  0
VERTEX
  5
B023B
  8
0
 10
21527.1111161613
 20
12577.30740641974
 30
0.0
  0
SEQEND
  5
B07E4
  8
0
  0
POLYLINE
  5
AACE7
  8
0
 66
     1
 10
0.0
 20
0.0
 30
0.0
 70
     1
  0
VERTEX
  5
B023C
  8
0
 10
20527.1111161613
 20
12551.30740641974
 30
0.0
  0
VERTEX
  5
B023D
  8
0
 10
20527.1111161613
 20
12577.30740641974
 30
0.0
  0
VERTEX
  5
B023E
  8
0
 10
21497.1111161613
 20
12577.30740641974
 30
0.0
  0
VERTEX
  5
B023F
  8
0
 10
21497.1111161613
 20
12551.30740641974
 30
0.0
  0
SEQEND
  5
B07E5
  8
0
  0
POLYLINE
  5
AACE9
  8
0
 66
     1
 10
0.0
 20
0.0
 30
0.0
 70
     1
  0
VERTEX
  5
B0240
  8
0
 10
22497.11111616128
 20
16471.4428964329
 30
0.0
  0
VERTEX
  5
B0241
  8
0
 10
22497.11111616128
 20
16445.4428964329
 30
0.0
  0
VERTEX
  5
B0242
  8
0
 10
21527.11111616126
 20
16445.4428964329
 30
0.0
  0
VERTEX
  5
B0243
  8
0
 10
21527.11111616126
 20
16471.4428964329
 30
0.0
  0
SEQEND
  5
B07E6
  8
0
  0
POLYLINE
  5
AACEB
  8
0
 66
     1
 10
0.0
 20
0.0
 30
0.0
 70
     1
  0
VERTEX
  5
B0244
  8
0
 10
20527.11111616126
 20
16445.4428964329
 30
0.0
  0
VERTEX
  5
B0245
  8
0
 10
20527.11111616126
 20
16471.4428964329
 30
0.0
  0
VERTEX
  5
B0246
  8
0
 10
21497.11111616128
 20
16471.4428964329
 30
0.0
  0
VERTEX
  5
B0247
  8
0
 10
21497.11111616128
 20
16445.4428964329
 30
0.0
  0
SEQEND
  5
B07E7
  8
0
  0
POLYLINE
  5
AAD25
  8
0
 66
     1
 10
0.0
 20
0.0
 30
0.0
  0
VERTEX
  5
B0248
  8
0
 10
24141.98945446307
 20
2163.036426392835
 30
0.0
  0
VERTEX
  5
B0249
  8
0
 10
25138.40288157848
 20
2163.036426392835
 30
0.0
  0
SEQEND
  5
B07E8
  8
0
  0
POLYLINE
  5
AAD6E
  8
0
 66
     1
 10
0.0
 20
0.0
 30
0.0
  0
VERTEX
  5
B024A
  8
0
 10
33278.52842564187
 20
6202.171916406282
 30
0.0
  0
VERTEX
  5
B024B
  8
0
 10
27282.11499852646
 20
6202.171916406282
 30
0.0
  0
SEQEND
  5
B07E9
  8
0
  0
POLYLINE
  5
ABFC8
  8
0
 66
     1
 10
0.0
 20
0.0
 30
0.0
  0
VERTEX
  5
B024C
  8
0
 10
8870.219913350578
 20
14295.57838644662
 30
0.0
  0
VERTEX
  5
B024D
  8
0
 10
9870.21991335058
 20
14295.57838644662
 30
0.0
  0
SEQEND
  5
B07EA
  8
0
  0
POLYLINE
  5
ABFC9
  8
0
 66
     1
 10
0.0
 20
0.0
 30
0.0
  0
VERTEX
  5
B024E
  8
0
 10
10240.30801134699
 20
14295.57838644662
 30
0.0
  0
VERTEX
  5
B024F
  8
0
 10
11240.30801134699
 20
14295.57838644662
 30
0.0
  0
SEQEND
  5
B07EB
  8
0
  0
POLYLINE
  5
ABFCA
  8
0
 66
     1
 10
0.0
 20
0.0
 30
0.0
  0
VERTEX
  5
B0250
  8
0
 10
11610.3961093434
 20
14295.57838644662
 30
0.0
  0
VERTEX
  5
B0251
  8
0
 10
12610.3961093434
 20
14295.57838644662
 30
0.0
  0
SEQEND
  5
B07EC
  8
0
  0
POLYLINE
  5
ABFCB
  8
0
 66
     1
 10
0.0
 20
0.0
 30
0.0
  0
VERTEX
  5
B0252
  8
0
 10
12980.48420733981
 20
14295.57838644662
 30
0.0
  0
VERTEX
  5
B0253
  8
0
 10
13980.48420733982
 20
14295.57838644662
 30
0.0
  0
SEQEND
  5
B07ED
  8
0
  0
POLYLINE
  5
ABFCC
  8
0
 66
     1
 10
0.0
 20
0.0
 30
0.0
  0
VERTEX
  5
B0254
  8
0
 10
14350.57230533624
 20
14295.57838644662
 30
0.0
  0
VERTEX
  5
B0255
  8
0
 10
15350.57230533624
 20
14295.57838644662
 30
0.0
  0
SEQEND
  5
B07EE
  8
0
  0
CIRCLE
  5
ABFCD
  8
0
 10
10651.71039822468
 20
15289.76098349778
 30
0.0
 40
26.6188882392234
  0
ARC
  5
ABFCE
  8
0
 10
10536.1599818095
 20
15174.17053875211
 30
0.0
 40
174.9416628924599
 50
53.15109948308578
 51
36.86874516371485
  0
ARC
  5
ABFCF
  8
0
 10
10536.09104268925
 20
15174.15647879051
 30
0.0
 40
152.0954421879083
 50
53.7437419628992
 51
36.24889815847135
  0
POLYLINE
  5
ABFD0
  8
0
 66
     1
 10
0.0
 20
0.0
 30
0.0
 70
     1
  0
VERTEX
  5
B0256
  8
0
 10
10690.5184469161
 20
14350.57838644662
 30
0.0
  0
VERTEX
  5
B0257
  8
0
 10
10435.82190603173
 20
14350.57838644662
 30
0.0
  0
VERTEX
  5
B0258
  8
0
 10
10435.82190603173
 20
15030.8636793043
 30
0.0
 42
0.4500709718572363
  0
VERTEX
  5
B0259
  8
0
 10
10690.5184469161
 20
15091.84162727199
 30
0.0
  0
VERTEX
  5
B025A
  8
0
 10
10690.5184469161
 20
14350.57838644662
 30
0.0
  0
SEQEND
  5
B07EF
  8
0
  0
POLYLINE
  5
ABFD1
  8
0
 66
     1
 10
0.0
 20
0.0
 30
0.0
  0
VERTEX
  5
B025B
  8
0
 10
10390.30801134699
 20
15270.77171953056
 30
0.0
 42
-0.4313481873912146
  0
VERTEX
  5
B025C
  8
0
 10
10641.07368393607
 20
15314.16232608862
 30
0.0
 42
-0.6814225353586246
  0
VERTEX
  5
B025D
  8
0
 10
10676.11542342489
 20
15279.13272136003
 30
0.0
 42
-0.2912012462252227
  0
VERTEX
  5
B025E
  8
0
 10
10690.5184469161
 20
15091.84162727202
 30
0.0
  0
VERTEX
  5
B025F
  8
0
 10
10690.5184469161
 20
14350.57838644662
 30
0.0
  0
VERTEX
  5
B0260
  8
0
 10
11090.30801134699
 20
14350.57838644662
 30
0.0
  0
VERTEX
  5
B0261
  8
0
 10
11090.30801134699
 20
17330.57838644666
 30
0.0
  0
VERTEX
  5
B0262
  8
0
 10
10390.30801134699
 20
17330.57838644666
 30
0.0
  0
VERTEX
  5
B0263
  8
0
 10
10390.30801134699
 20
15270.77171953056
 30
0.0
  0
SEQEND
  5
B07F0
  8
0
  0
POLYLINE
  5
ABFD2
  8
0
 66
     1
 10
0.0
 20
0.0
 30
0.0
  0
VERTEX
  5
B0264
  8
0
 10
10435.82190603173
 20
15030.8636793043
 30
0.0
  0
VERTEX
  5
B0265
  8
0
 10
10435.82190603173
 20
14350.57838644662
 30
0.0
  0
VERTEX
  5
B0266
  8
0
 10
10390.30801134699
 20
14350.57838644662
 30
0.0
  0
VERTEX
  5
B0267
  8
0
 10
10390.30801134699
 20
15077.56935797367
 30
0.0
 42
0.0940184742794634
  0
VERTEX
  5
B0268
  8
0
 10
10435.82190603173
 20
15030.8636793043
 30
0.0
 42
0.0940184742794634
  0
SEQEND
  5
B07F1
  8
0
  0
POLYLINE
  5
ABFD3
  8
0
 66
     1
 10
0.0
 20
0.0
 30
0.0
  0
VERTEX
  5
B0269
  8
0
 10
9115.733808035322
 20
15030.8636793043
 30
0.0
  0
VERTEX
  5
B026A
  8
0
 10
9115.733808035322
 20
14350.57838644662
 30
0.0
  0
VERTEX
  5
B026B
  8
0
 10
9070.219913350578
 20
14350.57838644662
 30
0.0
  0
VERTEX
  5
B026C
  8
0
 10
9070.219913350578
 20
15077.56935797367
 30
0.0
 42
0.0940184742794634
  0
VERTEX
  5
B026D
  8
0
 10
9115.733808035322
 20
15030.8636793043
 30
0.0
 42
0.0940184742794634
  0
SEQEND
  5
B07F2
  8
0
  0
POLYLINE
  5
ABFD4
  8
0
 66
     1
 10
0.0
 20
0.0
 30
0.0
  0
VERTEX
  5
B026E
  8
0
 10
9070.219913350578
 20
15270.77171953056
 30
0.0
 42
-0.4313481873912146
  0
VERTEX
  5
B026F
  8
0
 10
9320.985585939648
 20
15314.16232608862
 30
0.0
 42
-0.6814225353586246
  0
VERTEX
  5
B0270
  8
0
 10
9356.027325428484
 20
15279.13272136003
 30
0.0
 42
-0.2912012462252227
  0
VERTEX
  5
B0271
  8
0
 10
9370.430348919692
 20
15091.84162727202
 30
0.0
  0
VERTEX
  5
B0272
  8
0
 10
9370.430348919692
 20
14350.57838644662
 30
0.0
  0
VERTEX
  5
B0273
  8
0
 10
9670.219913350578
 20
14350.57838644662
 30
0.0
  0
VERTEX
  5
B0274
  8
0
 10
9670.219913350578
 20
17330.57838644666
 30
0.0
  0
VERTEX
  5
B0275
  8
0
 10
9070.219913350578
 20
17330.57838644666
 30
0.0
  0
VERTEX
  5
B0276
  8
0
 10
9070.219913350578
 20
15270.77171953056
 30
0.0
  0
SEQEND
  5
B07F3
  8
0
  0
POLYLINE
  5
ABFD5
  8
0
 66
     1
 10
0.0
 20
0.0
 30
0.0
 70
     1
  0
VERTEX
  5
B0277
  8
0
 10
9370.430348919692
 20
14350.57838644662
 30
0.0
  0
VERTEX
  5
B0278
  8
0
 10
9115.733808035322
 20
14350.57838644662
 30
0.0
  0
VERTEX
  5
B0279
  8
0
 10
9115.733808035322
 20
15030.8636793043
 30
0.0
 42
0.4500709718572363
  0
VERTEX
  5
B027A
  8
0
 10
9370.430348919692
 20
15091.84162727199
 30
0.0
  0
VERTEX
  5
B027B
  8
0
 10
9370.430348919692
 20
14350.57838644662
 30
0.0
  0
SEQEND
  5
B07F4
  8
0
  0
ARC
  5
ABFD6
  8
0
 10
9216.00294469284
 20
15174.15647879051
 30
0.0
 40
152.0954421879083
 50
53.7437419628992
 51
36.24889815847135
  0
ARC
  5
ABFD7
  8
0
 10
9216.07188381307
 20
15174.17053875211
 30
0.0
 40
174.9416628924599
 50
53.15109948308578
 51
36.86874516371485
  0
CIRCLE
  5
ABFD8
  8
0
 10
9331.622300228248
 20
15289.76098349778
 30
0.0
 40
26.6188882392234
  0
CIRCLE
  5
ABFD9
  8
0
 10
11971.79849622109
 20
15289.76098349778
 30
0.0
 40
26.6188882392234
  0
ARC
  5
ABFDA
  8
0
 10
11856.24807980591
 20
15174.17053875211
 30
0.0
 40
174.9416628924599
 50
53.15109948308578
 51
36.86874516371485
  0
ARC
  5
ABFDB
  8
0
 10
11856.17914068568
 20
15174.15647879051
 30
0.0
 40
152.0954421879083
 50
53.7437419628992
 51
36.24889815847135
  0
POLYLINE
  5
ABFDC
  8
0
 66
     1
 10
0.0
 20
0.0
 30
0.0
 70
     1
  0
VERTEX
  5
B027C
  8
0
 10
12010.60654491253
 20
14350.57838644662
 30
0.0
  0
VERTEX
  5
B027D
  8
0
 10
11755.91000402815
 20
14350.57838644662
 30
0.0
  0
VERTEX
  5
B027E
  8
0
 10
11755.91000402815
 20
15030.8636793043
 30
0.0
 42
0.4500709718572363
  0
VERTEX
  5
B027F
  8
0
 10
12010.60654491253
 20
15091.84162727199
 30
0.0
  0
VERTEX
  5
B0280
  8
0
 10
12010.60654491253
 20
14350.57838644662
 30
0.0
  0
SEQEND
  5
B07F5
  8
0
  0
POLYLINE
  5
ABFDD
  8
0
 66
     1
 10
0.0
 20
0.0
 30
0.0
  0
VERTEX
  5
B0281
  8
0
 10
11710.3961093434
 20
15270.77171953056
 30
0.0
 42
-0.4313481873912146
  0
VERTEX
  5
B0282
  8
0
 10
11961.16178193249
 20
15314.16232608862
 30
0.0
 42
-0.6814225353586246
  0
VERTEX
  5
B0283
  8
0
 10
11996.20352142131
 20
15279.13272136003
 30
0.0
 42
-0.2912012462252227
  0
VERTEX
  5
B0284
  8
0
 10
12010.60654491253
 20
15091.84162727202
 30
0.0
  0
VERTEX
  5
B0285
  8
0
 10
12010.60654491253
 20
14350.57838644662
 30
0.0
  0
VERTEX
  5
B0286
  8
0
 10
12510.3961093434
 20
14350.57838644662
 30
0.0
  0
VERTEX
  5
B0287
  8
0
 10
12510.3961093434
 20
17330.57838644666
 30
0.0
  0
VERTEX
  5
B0288
  8
0
 10
11710.3961093434
 20
17330.57838644666
 30
0.0
  0
VERTEX
  5
B0289
  8
0
 10
11710.3961093434
 20
15270.77171953056
 30
0.0
  0
SEQEND
  5
B07F6
  8
0
  0
POLYLINE
  5
ABFDE
  8
0
 66
     1
 10
0.0
 20
0.0
 30
0.0
  0
VERTEX
  5
B028A
  8
0
 10
11755.91000402815
 20
15030.8636793043
 30
0.0
  0
VERTEX
  5
B028B
  8
0
 10
11755.91000402815
 20
14350.57838644662
 30
0.0
  0
VERTEX
  5
B028C
  8
0
 10
11710.3961093434
 20
14350.57838644662
 30
0.0
  0
VERTEX
  5
B028D
  8
0
 10
11710.3961093434
 20
15077.56935797367
 30
0.0
 42
0.0940184742794634
  0
VERTEX
  5
B028E
  8
0
 10
11755.91000402815
 20
15030.8636793043
 30
0.0
 42
0.0940184742794634
  0
SEQEND
  5
B07F7
  8
0
  0
POLYLINE
  5
ABFDF
  8
0
 66
     1
 10
0.0
 20
0.0
 30
0.0
  0
VERTEX
  5
B028F
  8
0
 10
13075.99810202457
 20
15030.8636793043
 30
0.0
  0
VERTEX
  5
B0290
  8
0
 10
13075.99810202457
 20
14350.57838644662
 30
0.0
  0
VERTEX
  5
B0291
  8
0
 10
13030.48420733982
 20
14350.57838644662
 30
0.0
  0
VERTEX
  5
B0292
  8
0
 10
13030.48420733982
 20
15077.56935797367
 30
0.0
 42
0.0940184742794634
  0
VERTEX
  5
B0293
  8
0
 10
13075.99810202457
 20
15030.8636793043
 30
0.0
 42
0.0940184742794634
  0
SEQEND
  5
B07F8
  8
0
  0
POLYLINE
  5
ABFE0
  8
0
 66
     1
 10
0.0
 20
0.0
 30
0.0
  0
VERTEX
  5
B0294
  8
0
 10
13030.48420733982
 20
15270.77171953056
 30
0.0
 42
-0.4313481873912146
  0
VERTEX
  5
B0295
  8
0
 10
13281.2498799289
 20
15314.16232608862
 30
0.0
 42
-0.6814225353586246
  0
VERTEX
  5
B0296
  8
0
 10
13316.29161941774
 20
15279.13272136003
 30
0.0
 42
-0.2912012462252227
  0
VERTEX
  5
B0297
  8
0
 10
13330.69464290894
 20
15091.84162727202
 30
0.0
  0
VERTEX
  5
B0298
  8
0
 10
13330.69464290894
 20
14350.57838644662
 30
0.0
  0
VERTEX
  5
B0299
  8
0
 10
13930.48420733982
 20
14350.57838644662
 30
0.0
  0
VERTEX
  5
B029A
  8
0
 10
13930.48420733982
 20
17330.57838644666
 30
0.0
  0
VERTEX
  5
B029B
  8
0
 10
13030.48420733982
 20
17330.57838644666
 30
0.0
  0
VERTEX
  5
B029C
  8
0
 10
13030.48420733982
 20
15270.77171953056
 30
0.0
  0
SEQEND
  5
B07F9
  8
0
  0
POLYLINE
  5
ABFE1
  8
0
 66
     1
 10
0.0
 20
0.0
 30
0.0
 70
     1
  0
VERTEX
  5
B029D
  8
0
 10
13330.69464290894
 20
14350.57838644662
 30
0.0
  0
VERTEX
  5
B029E
  8
0
 10
13075.99810202457
 20
14350.57838644662
 30
0.0
  0
VERTEX
  5
B029F
  8
0
 10
13075.99810202457
 20
15030.8636793043
 30
0.0
 42
0.4500709718572363
  0
VERTEX
  5
B02A0
  8
0
 10
13330.69464290894
 20
15091.84162727199
 30
0.0
  0
VERTEX
  5
B02A1
  8
0
 10
13330.69464290894
 20
14350.57838644662
 30
0.0
  0
SEQEND
  5
B07FA
  8
0
  0
ARC
  5
ABFE2
  8
0
 10
13176.26723868209
 20
15174.15647879051
 30
0.0
 40
152.0954421879083
 50
53.7437419628992
 51
36.24889815847135
  0
ARC
  5
ABFE3
  8
0
 10
13176.33617780232
 20
15174.17053875211
 30
0.0
 40
174.9416628924599
 50
53.15109948308578
 51
36.86874516371485
  0
CIRCLE
  5
ABFE4
  8
0
 10
13291.8865942175
 20
15289.76098349778
 30
0.0
 40
26.6188882392234
  0
CIRCLE
  5
ABFE5
  8
0
 10
14611.97469221391
 20
15289.76098349778
 30
0.0
 40
26.6188882392234
  0
ARC
  5
ABFE6
  8
0
 10
14496.42427579875
 20
15174.17053875211
 30
0.0
 40
174.9416628924599
 50
53.15109948308578
 51
36.86874516371485
  0
ARC
  5
ABFE7
  8
0
 10
14496.3553366785
 20
15174.15647879051
 30
0.0
 40
152.0954421879083
 50
53.7437419628992
 51
36.24889815847135
  0
POLYLINE
  5
ABFE8
  8
0
 66
     1
 10
0.0
 20
0.0
 30
0.0
 70
     1
  0
VERTEX
  5
B02A2
  8
0
 10
14650.78274090535
 20
14350.57838644662
 30
0.0
  0
VERTEX
  5
B02A3
  8
0
 10
14396.08620002099
 20
14350.57838644662
 30
0.0
  0
VERTEX
  5
B02A4
  8
0
 10
14396.08620002099
 20
15030.8636793043
 30
0.0
 42
0.4500709718572363
  0
VERTEX
  5
B02A5
  8
0
 10
14650.78274090535
 20
15091.84162727199
 30
0.0
  0
VERTEX
  5
B02A6
  8
0
 10
14650.78274090535
 20
14350.57838644662
 30
0.0
  0
SEQEND
  5
B07FB
  8
0
  0
POLYLINE
  5
ABFE9
  8
0
 66
     1
 10
0.0
 20
0.0
 30
0.0
  0
VERTEX
  5
B02A7
  8
0
 10
14350.57230533624
 20
15270.77171953056
 30
0.0
 42
-0.4313481873912146
  0
VERTEX
  5
B02A8
  8
0
 10
14601.33797792533
 20
15314.16232608862
 30
0.0
 42
-0.6814225353586246
  0
VERTEX
  5
B02A9
  8
0
 10
14636.37971741414
 20
15279.13272136003
 30
0.0
 42
-0.2912012462252227
  0
VERTEX
  5
B02AA
  8
0
 10
14650.78274090535
 20
15091.84162727202
 30
0.0
  0
VERTEX
  5
B02AB
  8
0
 10
14650.78274090535
 20
14350.57838644662
 30
0.0
  0
VERTEX
  5
B02AC
  8
0
 10
15350.57230533624
 20
14350.57838644662
 30
0.0
  0
VERTEX
  5
B02AD
  8
0
 10
15350.57230533624
 20
17330.57838644666
 30
0.0
  0
VERTEX
  5
B02AE
  8
0
 10
14350.57230533624
 20
17330.57838644666
 30
0.0
  0
VERTEX
  5
B02AF
  8
0
 10
14350.57230533624
 20
15270.77171953056
 30
0.0
  0
SEQEND
  5
B07FC
  8
0
  0
POLYLINE
  5
ABFEA
  8
0
 66
     1
 10
0.0
 20
0.0
 30
0.0
  0
VERTEX
  5
B02B0
  8
0
 10
14396.08620002099
 20
15030.8636793043
 30
0.0
  0
VERTEX
  5
B02B1
  8
0
 10
14396.08620002099
 20
14350.57838644662
 30
0.0
  0
VERTEX
  5
B02B2
  8
0
 10
14350.57230533624
 20
14350.57838644662
 30
0.0
  0
VERTEX
  5
B02B3
  8
0
 10
14350.57230533624
 20
15077.56935797367
 30
0.0
 42
0.0940184742794634
  0
VERTEX
  5
B02B4
  8
0
 10
14396.08620002099
 20
15030.8636793043
 30
0.0
 42
0.0940184742794634
  0
SEQEND
  5
B07FD
  8
0
  0
POLYLINE
  5
ABFEB
  8
0
 66
     1
 10
0.0
 20
0.0
 30
0.0
  0
VERTEX
  5
B02B5
  8
0
 10
14396.08620002099
 20
11597.72818929085
 30
0.0
  0
VERTEX
  5
B02B6
  8
0
 10
14396.08620002099
 20
10917.44289643316
 30
0.0
  0
VERTEX
  5
B02B7
  8
0
 10
14350.57230533624
 20
10917.44289643316
 30
0.0
  0
VERTEX
  5
B02B8
  8
0
 10
14350.57230533624
 20
11644.43386796022
 30
0.0
 42
0.0940184742794634
  0
VERTEX
  5
B02B9
  8
0
 10
14396.08620002099
 20
11597.72818929085
 30
0.0
 42
0.0940184742794634
  0
SEQEND
  5
B07FE
  8
0
  0
POLYLINE
  5
ABFEC
  8
0
 66
     1
 10
0.0
 20
0.0
 30
0.0
  0
VERTEX
  5
B02BA
  8
0
 10
14350.57230533624
 20
11837.63622951711
 30
0.0
 42
-0.4313481873912146
  0
VERTEX
  5
B02BB
  8
0
 10
14601.33797792533
 20
11881.02683607518
 30
0.0
 42
-0.6814225353586246
  0
VERTEX
  5
B02BC
  8
0
 10
14636.37971741414
 20
11845.99723134658
 30
0.0
 42
-0.2912012462252227
  0
VERTEX
  5
B02BD
  8
0
 10
14650.78274090535
 20
11658.70613725857
 30
0.0
  0
VERTEX
  5
B02BE
  8
0
 10
14650.78274090535
 20
10917.44289643316
 30
0.0
  0
VERTEX
  5
B02BF
  8
0
 10
15350.57230533624
 20
10917.44289643316
 30
0.0
  0
VERTEX
  5
B02C0
  8
0
 10
15350.57230533624
 20
13747.44289643322
 30
0.0
  0
VERTEX
  5
B02C1
  8
0
 10
14350.57230533624
 20
13747.44289643322
 30
0.0
  0
VERTEX
  5
B02C2
  8
0
 10
14350.57230533624
 20
11837.63622951711
 30
0.0
  0
SEQEND
  5
B07FF
  8
0
  0
POLYLINE
  5
ABFED
  8
0
 66
     1
 10
0.0
 20
0.0
 30
0.0
 70
     1
  0
VERTEX
  5
B02C3
  8
0
 10
14650.78274090535
 20
10917.44289643316
 30
0.0
  0
VERTEX
  5
B02C4
  8
0
 10
14396.08620002099
 20
10917.44289643316
 30
0.0
  0
VERTEX
  5
B02C5
  8
0
 10
14396.08620002099
 20
11597.72818929085
 30
0.0
 42
0.4500709718572363
  0
VERTEX
  5
B02C6
  8
0
 10
14650.78274090535
 20
11658.70613725854
 30
0.0
  0
VERTEX
  5
B02C7
  8
0
 10
14650.78274090535
 20
10917.44289643316
 30
0.0
  0
SEQEND
  5
B0800
  8
0
  0
ARC
  5
ABFEE
  8
0
 10
14496.3553366785
 20
11741.02098877708
 30
0.0
 40
152.0954421879083
 50
53.7437419628992
 51
36.24889815847135
  0
ARC
  5
ABFEF
  8
0
 10
14496.42427579875
 20
11741.03504873867
 30
0.0
 40
174.9416628924599
 50
53.15109948308578
 51
36.86874516371485
  0
CIRCLE
  5
ABFF0
  8
0
 10
14611.97469221391
 20
11856.62549348433
 30
0.0
 40
26.6188882392234
  0
CIRCLE
  5
ABFF1
  8
0
 10
13291.8865942175
 20
11856.62549348433
 30
0.0
 40
26.6188882392234
  0
ARC
  5
ABFF2
  8
0
 10
13176.33617780232
 20
11741.03504873867
 30
0.0
 40
174.9416628924599
 50
53.15109948308578
 51
36.86874516371485
  0
ARC
  5
ABFF3
  8
0
 10
13176.26723868209
 20
11741.02098877708
 30
0.0
 40
152.0954421879083
 50
53.7437419628992
 51
36.24889815847135
  0
POLYLINE
  5
ABFF4
  8
0
 66
     1
 10
0.0
 20
0.0
 30
0.0
 70
     1
  0
VERTEX
  5
B02C8
  8
0
 10
13330.69464290894
 20
10917.44289643316
 30
0.0
  0
VERTEX
  5
B02C9
  8
0
 10
13075.99810202457
 20
10917.44289643316
 30
0.0
  0
VERTEX
  5
B02CA
  8
0
 10
13075.99810202457
 20
11597.72818929085
 30
0.0
 42
0.4500709718572363
  0
VERTEX
  5
B02CB
  8
0
 10
13330.69464290894
 20
11658.70613725854
 30
0.0
  0
VERTEX
  5
B02CC
  8
0
 10
13330.69464290894
 20
10917.44289643316
 30
0.0
  0
SEQEND
  5
B0801
  8
0
  0
POLYLINE
  5
ABFF5
  8
0
 66
     1
 10
0.0
 20
0.0
 30
0.0
  0
VERTEX
  5
B02CD
  8
0
 10
13030.48420733982
 20
11837.63622951711
 30
0.0
 42
-0.4313481873912146
  0
VERTEX
  5
B02CE
  8
0
 10
13281.2498799289
 20
11881.02683607518
 30
0.0
 42
-0.6814225353586246
  0
VERTEX
  5
B02CF
  8
0
 10
13316.29161941774
 20
11845.99723134658
 30
0.0
 42
-0.2912012462252227
  0
VERTEX
  5
B02D0
  8
0
 10
13330.69464290894
 20
11658.70613725857
 30
0.0
  0
VERTEX
  5
B02D1
  8
0
 10
13330.69464290894
 20
10917.44289643316
 30
0.0
  0
VERTEX
  5
B02D2
  8
0
 10
13930.48420733982
 20
10917.44289643316
 30
0.0
  0
VERTEX
  5
B02D3
  8
0
 10
13930.48420733982
 20
13747.44289643322
 30
0.0
  0
VERTEX
  5
B02D4
  8
0
 10
13030.48420733982
 20
13747.44289643322
 30
0.0
  0
VERTEX
  5
B02D5
  8
0
 10
13030.48420733982
 20
11837.63622951711
 30
0.0
  0
SEQEND
  5
B0802
  8
0
  0
POLYLINE
  5
ABFF6
  8
0
 66
     1
 10
0.0
 20
0.0
 30
0.0
  0
VERTEX
  5
B02D6
  8
0
 10
13075.99810202457
 20
11597.72818929085
 30
0.0
  0
VERTEX
  5
B02D7
  8
0
 10
13075.99810202457
 20
10917.44289643316
 30
0.0
  0
VERTEX
  5
B02D8
  8
0
 10
13030.48420733982
 20
10917.44289643316
 30
0.0
  0
VERTEX
  5
B02D9
  8
0
 10
13030.48420733982
 20
11644.43386796022
 30
0.0
 42
0.0940184742794634
  0
VERTEX
  5
B02DA
  8
0
 10
13075.99810202457
 20
11597.72818929085
 30
0.0
 42
0.0940184742794634
  0
SEQEND
  5
B0803
  8
0
  0
POLYLINE
  5
ABFF7
  8
0
 66
     1
 10
0.0
 20
0.0
 30
0.0
  0
VERTEX
  5
B02DB
  8
0
 10
11755.91000402815
 20
11597.72818929085
 30
0.0
  0
VERTEX
  5
B02DC
  8
0
 10
11755.91000402815
 20
10917.44289643316
 30
0.0
  0
VERTEX
  5
B02DD
  8
0
 10
11710.3961093434
 20
10917.44289643316
 30
0.0
  0
VERTEX
  5
B02DE
  8
0
 10
11710.3961093434
 20
11644.43386796022
 30
0.0
 42
0.0940184742794634
  0
VERTEX
  5
B02DF
  8
0
 10
11755.91000402815
 20
11597.72818929085
 30
0.0
 42
0.0940184742794634
  0
SEQEND
  5
B0804
  8
0
  0
POLYLINE
  5
ABFF8
  8
0
 66
     1
 10
0.0
 20
0.0
 30
0.0
  0
VERTEX
  5
B02E0
  8
0
 10
11710.3961093434
 20
11837.63622951711
 30
0.0
 42
-0.4313481873912146
  0
VERTEX
  5
B02E1
  8
0
 10
11961.16178193249
 20
11881.02683607518
 30
0.0
 42
-0.6814225353586246
  0
VERTEX
  5
B02E2
  8
0
 10
11996.20352142131
 20
11845.99723134658
 30
0.0
 42
-0.2912012462252227
  0
VERTEX
  5
B02E3
  8
0
 10
12010.60654491253
 20
11658.70613725857
 30
0.0
  0
VERTEX
  5
B02E4
  8
0
 10
12010.60654491253
 20
10917.44289643316
 30
0.0
  0
VERTEX
  5
B02E5
  8
0
 10
12510.3961093434
 20
10917.44289643316
 30
0.0
  0
VERTEX
  5
B02E6
  8
0
 10
12510.3961093434
 20
13747.44289643322
 30
0.0
  0
VERTEX
  5
B02E7
  8
0
 10
11710.3961093434
 20
13747.44289643322
 30
0.0
  0
VERTEX
  5
B02E8
  8
0
 10
11710.3961093434
 20
11837.63622951711
 30
0.0
  0
SEQEND
  5
B0805
  8
0
  0
POLYLINE
  5
ABFF9
  8
0
 66
     1
 10
0.0
 20
0.0
 30
0.0
 70
     1
  0
VERTEX
  5
B02E9
  8
0
 10
12010.60654491253
 20
10917.44289643316
 30
0.0
  0
VERTEX
  5
B02EA
  8
0
 10
11755.91000402815
 20
10917.44289643316
 30
0.0
  0
VERTEX
  5
B02EB
  8
0
 10
11755.91000402815
 20
11597.72818929085
 30
0.0
 42
0.4500709718572363
  0
VERTEX
  5
B02EC
  8
0
 10
12010.60654491253
 20
11658.70613725854
 30
0.0
  0
VERTEX
  5
B02ED
  8
0
 10
12010.60654491253
 20
10917.44289643316
 30
0.0
  0
SEQEND
  5
B0806
  8
0
  0
ARC
  5
ABFFA
  8
0
 10
11856.17914068568
 20
11741.02098877708
 30
0.0
 40
152.0954421879083
 50
53.7437419628992
 51
36.24889815847135
  0
ARC
  5
ABFFB
  8
0
 10
11856.24807980591
 20
11741.03504873867
 30
0.0
 40
174.9416628924599
 50
53.15109948308578
 51
36.86874516371485
  0
CIRCLE
  5
ABFFC
  8
0
 10
11971.79849622109
 20
11856.62549348433
 30
0.0
 40
26.6188882392234
  0
CIRCLE
  5
ABFFD
  8
0
 10
9331.622300228248
 20
11856.62549348433
 30
0.0
 40
26.6188882392234
  0
ARC
  5
ABFFE
  8
0
 10
9216.07188381307
 20
11741.03504873867
 30
0.0
 40
174.9416628924599
 50
53.15109948308578
 51
36.86874516371485
  0
ARC
  5
ABFFF
  8
0
 10
9216.00294469284
 20
11741.02098877708
 30
0.0
 40
152.0954421879083
 50
53.7437419628992
 51
36.24889815847135
  0
POLYLINE
  5
AC000
  8
0
 66
     1
 10
0.0
 20
0.0
 30
0.0
 70
     1
  0
VERTEX
  5
B02EE
  8
0
 10
9370.430348919692
 20
10917.44289643316
 30
0.0
  0
VERTEX
  5
B02EF
  8
0
 10
9115.733808035322
 20
10917.44289643316
 30
0.0
  0
VERTEX
  5
B02F0
  8
0
 10
9115.733808035322
 20
11597.72818929085
 30
0.0
 42
0.4500709718572363
  0
VERTEX
  5
B02F1
  8
0
 10
9370.430348919692
 20
11658.70613725854
 30
0.0
  0
VERTEX
  5
B02F2
  8
0
 10
9370.430348919692
 20
10917.44289643316
 30
0.0
  0
SEQEND
  5
B0807
  8
0
  0
POLYLINE
  5
AC001
  8
0
 66
     1
 10
0.0
 20
0.0
 30
0.0
  0
VERTEX
  5
B02F3
  8
0
 10
9070.219913350578
 20
11837.63622951711
 30
0.0
 42
-0.4313481873912146
  0
VERTEX
  5
B02F4
  8
0
 10
9320.985585939648
 20
11881.02683607518
 30
0.0
 42
-0.6814225353586246
  0
VERTEX
  5
B02F5
  8
0
 10
9356.027325428484
 20
11845.99723134658
 30
0.0
 42
-0.2912012462252227
  0
VERTEX
  5
B02F6
  8
0
 10
9370.430348919692
 20
11658.70613725857
 30
0.0
  0
VERTEX
  5
B02F7
  8
0
 10
9370.430348919692
 20
10917.44289643316
 30
0.0
  0
VERTEX
  5
B02F8
  8
0
 10
9670.219913350578
 20
10917.44289643316
 30
0.0
  0
VERTEX
  5
B02F9
  8
0
 10
9670.219913350578
 20
13747.44289643322
 30
0.0
  0
VERTEX
  5
B02FA
  8
0
 10
9070.219913350578
 20
13747.44289643322
 30
0.0
  0
VERTEX
  5
B02FB
  8
0
 10
9070.219913350578
 20
11837.63622951711
 30
0.0
  0
SEQEND
  5
B0808
  8
0
  0
POLYLINE
  5
AC002
  8
0
 66
     1
 10
0.0
 20
0.0
 30
0.0
  0
VERTEX
  5
B02FC
  8
0
 10
9115.733808035322
 20
11597.72818929085
 30
0.0
  0
VERTEX
  5
B02FD
  8
0
 10
9115.733808035322
 20
10917.44289643316
 30
0.0
  0
VERTEX
  5
B02FE
  8
0
 10
9070.219913350578
 20
10917.44289643316
 30
0.0
  0
VERTEX
  5
B02FF
  8
0
 10
9070.219913350578
 20
11644.43386796022
 30
0.0
 42
0.0940184742794634
  0
VERTEX
  5
B0300
  8
0
 10
9115.733808035322
 20
11597.72818929085
 30
0.0
 42
0.0940184742794634
  0
SEQEND
  5
B0809
  8
0
  0
POLYLINE
  5
AC003
  8
0
 66
     1
 10
0.0
 20
0.0
 30
0.0
  0
VERTEX
  5
B0301
  8
0
 10
10435.82190603173
 20
11597.72818929085
 30
0.0
  0
VERTEX
  5
B0302
  8
0
 10
10435.82190603173
 20
10917.44289643316
 30
0.0
  0
VERTEX
  5
B0303
  8
0
 10
10390.30801134699
 20
10917.44289643316
 30
0.0
  0
VERTEX
  5
B0304
  8
0
 10
10390.30801134699
 20
11644.43386796022
 30
0.0
 42
0.0940184742794634
  0
VERTEX
  5
B0305
  8
0
 10
10435.82190603173
 20
11597.72818929085
 30
0.0
 42
0.0940184742794634
  0
SEQEND
  5
B080A
  8
0
  0
POLYLINE
  5
AC004
  8
0
 66
     1
 10
0.0
 20
0.0
 30
0.0
  0
VERTEX
  5
B0306
  8
0
 10
10390.30801134699
 20
11837.63622951711
 30
0.0
 42
-0.4313481873912146
  0
VERTEX
  5
B0307
  8
0
 10
10641.07368393607
 20
11881.02683607518
 30
0.0
 42
-0.6814225353586246
  0
VERTEX
  5
B0308
  8
0
 10
10676.11542342489
 20
11845.99723134658
 30
0.0
 42
-0.2912012462252227
  0
VERTEX
  5
B0309
  8
0
 10
10690.5184469161
 20
11658.70613725857
 30
0.0
  0
VERTEX
  5
B030A
  8
0
 10
10690.5184469161
 20
10917.44289643316
 30
0.0
  0
VERTEX
  5
B030B
  8
0
 10
11090.30801134699
 20
10917.44289643316
 30
0.0
  0
VERTEX
  5
B030C
  8
0
 10
11090.30801134699
 20
13747.44289643322
 30
0.0
  0
VERTEX
  5
B030D
  8
0
 10
10390.30801134699
 20
13747.44289643322
 30
0.0
  0
VERTEX
  5
B030E
  8
0
 10
10390.30801134699
 20
11837.63622951711
 30
0.0
  0
SEQEND
  5
B080B
  8
0
  0
POLYLINE
  5
AC005
  8
0
 66
     1
 10
0.0
 20
0.0
 30
0.0
 70
     1
  0
VERTEX
  5
B030F
  8
0
 10
10690.5184469161
 20
10917.44289643316
 30
0.0
  0
VERTEX
  5
B0310
  8
0
 10
10435.82190603173
 20
10917.44289643316
 30
0.0
  0
VERTEX
  5
B0311
  8
0
 10
10435.82190603173
 20
11597.72818929085
 30
0.0
 42
0.4500709718572363
  0
VERTEX
  5
B0312
  8
0
 10
10690.5184469161
 20
11658.70613725854
 30
0.0
  0
VERTEX
  5
B0313
  8
0
 10
10690.5184469161
 20
10917.44289643316
 30
0.0
  0
SEQEND
  5
B080C
  8
0
  0
ARC
  5
AC006
  8
0
 10
10536.09104268925
 20
11741.02098877708
 30
0.0
 40
152.0954421879083
 50
53.7437419628992
 51
36.24889815847135
  0
ARC
  5
AC007
  8
0
 10
10536.1599818095
 20
11741.03504873867
 30
0.0
 40
174.9416628924599
 50
53.15109948308578
 51
36.86874516371485
  0
CIRCLE
  5
AC008
  8
0
 10
10651.71039822468
 20
11856.62549348433
 30
0.0
 40
26.6188882392234
  0
POLYLINE
  5
AC009
  8
0
 66
     1
 10
0.0
 20
0.0
 30
0.0
  0
VERTEX
  5
B0314
  8
0
 10
14350.57230533624
 20
10862.44289643317
 30
0.0
  0
VERTEX
  5
B0315
  8
0
 10
15350.57230533624
 20
10862.44289643317
 30
0.0
  0
SEQEND
  5
B080D
  8
0
  0
POLYLINE
  5
AC00A
  8
0
 66
     1
 10
0.0
 20
0.0
 30
0.0
  0
VERTEX
  5
B0316
  8
0
 10
12980.48420733981
 20
10862.44289643317
 30
0.0
  0
VERTEX
  5
B0317
  8
0
 10
13980.48420733982
 20
10862.44289643317
 30
0.0
  0
SEQEND
  5
B080E
  8
0
  0
POLYLINE
  5
AC00B
  8
0
 66
     1
 10
0.0
 20
0.0
 30
0.0
  0
VERTEX
  5
B0318
  8
0
 10
11610.3961093434
 20
10862.44289643317
 30
0.0
  0
VERTEX
  5
B0319
  8
0
 10
12610.3961093434
 20
10862.44289643317
 30
0.0
  0
SEQEND
  5
B080F
  8
0
  0
POLYLINE
  5
AC00C
  8
0
 66
     1
 10
0.0
 20
0.0
 30
0.0
  0
VERTEX
  5
B031A
  8
0
 10
10240.30801134699
 20
10862.44289643317
 30
0.0
  0
VERTEX
  5
B031B
  8
0
 10
11240.30801134699
 20
10862.44289643317
 30
0.0
  0
SEQEND
  5
B0810
  8
0
  0
POLYLINE
  5
AC00D
  8
0
 66
     1
 10
0.0
 20
0.0
 30
0.0
  0
VERTEX
  5
B031C
  8
0
 10
8870.219913350578
 20
10862.44289643317
 30
0.0
  0
VERTEX
  5
B031D
  8
0
 10
9870.21991335058
 20
10862.44289643317
 30
0.0
  0
SEQEND
  5
B0811
  8
0
  0
POLYLINE
  5
AC00E
  8
0
 66
     1
 10
0.0
 20
0.0
 30
0.0
  0
VERTEX
  5
B031E
  8
0
 10
8870.219913350578
 20
7729.307406419728
 30
0.0
  0
VERTEX
  5
B031F
  8
0
 10
9870.21991335058
 20
7729.307406419728
 30
0.0
  0
SEQEND
  5
B0812
  8
0
  0
POLYLINE
  5
AC00F
  8
0
 66
     1
 10
0.0
 20
0.0
 30
0.0
  0
VERTEX
  5
B0320
  8
0
 10
10240.30801134699
 20
7729.307406419728
 30
0.0
  0
VERTEX
  5
B0321
  8
0
 10
11240.30801134699
 20
7729.307406419728
 30
0.0
  0
SEQEND
  5
B0813
  8
0
  0
POLYLINE
  5
AC010
  8
0
 66
     1
 10
0.0
 20
0.0
 30
0.0
  0
VERTEX
  5
B0322
  8
0
 10
11610.3961093434
 20
7729.307406419728
 30
0.0
  0
VERTEX
  5
B0323
  8
0
 10
12610.3961093434
 20
7729.307406419728
 30
0.0
  0
SEQEND
  5
B0814
  8
0
  0
POLYLINE
  5
AC011
  8
0
 66
     1
 10
0.0
 20
0.0
 30
0.0
  0
VERTEX
  5
B0324
  8
0
 10
12980.48420733981
 20
7729.307406419728
 30
0.0
  0
VERTEX
  5
B0325
  8
0
 10
13980.48420733982
 20
7729.307406419728
 30
0.0
  0
SEQEND
  5
B0815
  8
0
  0
POLYLINE
  5
AC012
  8
0
 66
     1
 10
0.0
 20
0.0
 30
0.0
  0
VERTEX
  5
B0326
  8
0
 10
14350.57230533624
 20
7729.307406419728
 30
0.0
  0
VERTEX
  5
B0327
  8
0
 10
15350.57230533624
 20
7729.307406419728
 30
0.0
  0
SEQEND
  5
B0816
  8
0
  0
CIRCLE
  5
AC013
  8
0
 10
10651.71039822468
 20
8723.490003470883
 30
0.0
 40
26.6188882392234
  0
ARC
  5
AC014
  8
0
 10
10536.1599818095
 20
8607.89955872522
 30
0.0
 40
174.9416628924599
 50
53.15109948308578
 51
36.86874516371485
  0
ARC
  5
AC015
  8
0
 10
10536.09104268925
 20
8607.88549876363
 30
0.0
 40
152.0954421879083
 50
53.7437419628992
 51
36.24889815847135
  0
POLYLINE
  5
AC016
  8
0
 66
     1
 10
0.0
 20
0.0
 30
0.0
 70
     1
  0
VERTEX
  5
B0328
  8
0
 10
10690.5184469161
 20
7784.307406419728
 30
0.0
  0
VERTEX
  5
B0329
  8
0
 10
10435.82190603173
 20
7784.307406419728
 30
0.0
  0
VERTEX
  5
B032A
  8
0
 10
10435.82190603173
 20
8464.592699277404
 30
0.0
 42
0.4500709718572363
  0
VERTEX
  5
B032B
  8
0
 10
10690.5184469161
 20
8525.570647245098
 30
0.0
  0
VERTEX
  5
B032C
  8
0
 10
10690.5184469161
 20
7784.307406419728
 30
0.0
  0
SEQEND
  5
B0817
  8
0
  0
POLYLINE
  5
AC017
  8
0
 66
     1
 10
0.0
 20
0.0
 30
0.0
  0
VERTEX
  5
B032D
  8
0
 10
10390.30801134699
 20
8704.500739503666
 30
0.0
 42
-0.4313481873912146
  0
VERTEX
  5
B032E
  8
0
 10
10641.07368393607
 20
8747.891346061733
 30
0.0
 42
-0.6814225353586246
  0
VERTEX
  5
B032F
  8
0
 10
10676.11542342489
 20
8712.86174133314
 30
0.0
 42
-0.2912012462252227
  0
VERTEX
  5
B0330
  8
0
 10
10690.5184469161
 20
8525.570647245124
 30
0.0
  0
VERTEX
  5
B0331
  8
0
 10
10690.5184469161
 20
7784.307406419728
 30
0.0
  0
VERTEX
  5
B0332
  8
0
 10
11090.30801134699
 20
7784.307406419728
 30
0.0
  0
VERTEX
  5
B0333
  8
0
 10
11090.30801134699
 20
10314.30740641977
 30
0.0
  0
VERTEX
  5
B0334
  8
0
 10
10390.30801134699
 20
10314.30740641977
 30
0.0
  0
VERTEX
  5
B0335
  8
0
 10
10390.30801134699
 20
8704.500739503666
 30
0.0
  0
SEQEND
  5
B0818
  8
0
  0
POLYLINE
  5
AC018
  8
0
 66
     1
 10
0.0
 20
0.0
 30
0.0
  0
VERTEX
  5
B0336
  8
0
 10
10435.82190603173
 20
8464.592699277404
 30
0.0
  0
VERTEX
  5
B0337
  8
0
 10
10435.82190603173
 20
7784.307406419728
 30
0.0
  0
VERTEX
  5
B0338
  8
0
 10
10390.30801134699
 20
7784.307406419728
 30
0.0
  0
VERTEX
  5
B0339
  8
0
 10
10390.30801134699
 20
8511.298377946776
 30
0.0
 42
0.0940184742794634
  0
VERTEX
  5
B033A
  8
0
 10
10435.82190603173
 20
8464.592699277404
 30
0.0
 42
0.0940184742794634
  0
SEQEND
  5
B0819
  8
0
  0
POLYLINE
  5
AC019
  8
0
 66
     1
 10
0.0
 20
0.0
 30
0.0
  0
VERTEX
  5
B033B
  8
0
 10
9115.733808035322
 20
8464.592699277404
 30
0.0
  0
VERTEX
  5
B033C
  8
0
 10
9115.733808035322
 20
7784.307406419728
 30
0.0
  0
VERTEX
  5
B033D
  8
0
 10
9070.219913350578
 20
7784.307406419728
 30
0.0
  0
VERTEX
  5
B033E
  8
0
 10
9070.219913350578
 20
8511.298377946776
 30
0.0
 42
0.0940184742794634
  0
VERTEX
  5
B033F
  8
0
 10
9115.733808035322
 20
8464.592699277404
 30
0.0
 42
0.0940184742794634
  0
SEQEND
  5
B081A
  8
0
  0
POLYLINE
  5
AC01A
  8
0
 66
     1
 10
0.0
 20
0.0
 30
0.0
  0
VERTEX
  5
B0340
  8
0
 10
9070.219913350578
 20
8704.500739503666
 30
0.0
 42
-0.4313481873912146
  0
VERTEX
  5
B0341
  8
0
 10
9320.985585939648
 20
8747.891346061733
 30
0.0
 42
-0.6814225353586246
  0
VERTEX
  5
B0342
  8
0
 10
9356.027325428484
 20
8712.86174133314
 30
0.0
 42
-0.2912012462252227
  0
VERTEX
  5
B0343
  8
0
 10
9370.430348919692
 20
8525.570647245124
 30
0.0
  0
VERTEX
  5
B0344
  8
0
 10
9370.430348919692
 20
7784.307406419728
 30
0.0
  0
VERTEX
  5
B0345
  8
0
 10
9670.219913350578
 20
7784.307406419728
 30
0.0
  0
VERTEX
  5
B0346
  8
0
 10
9670.219913350578
 20
10314.30740641977
 30
0.0
  0
VERTEX
  5
B0347
  8
0
 10
9070.219913350578
 20
10314.30740641977
 30
0.0
  0
VERTEX
  5
B0348
  8
0
 10
9070.219913350578
 20
8704.500739503666
 30
0.0
  0
SEQEND
  5
B081B
  8
0
  0
POLYLINE
  5
AC01B
  8
0
 66
     1
 10
0.0
 20
0.0
 30
0.0
 70
     1
  0
VERTEX
  5
B0349
  8
0
 10
9370.430348919692
 20
7784.307406419728
 30
0.0
  0
VERTEX
  5
B034A
  8
0
 10
9115.733808035322
 20
7784.307406419728
 30
0.0
  0
VERTEX
  5
B034B
  8
0
 10
9115.733808035322
 20
8464.592699277404
 30
0.0
 42
0.4500709718572363
  0
VERTEX
  5
B034C
  8
0
 10
9370.430348919692
 20
8525.570647245098
 30
0.0
  0
VERTEX
  5
B034D
  8
0
 10
9370.430348919692
 20
7784.307406419728
 30
0.0
  0
SEQEND
  5
B081C
  8
0
  0
ARC
  5
AC01C
  8
0
 10
9216.00294469284
 20
8607.88549876363
 30
0.0
 40
152.0954421879083
 50
53.7437419628992
 51
36.24889815847135
  0
ARC
  5
AC01D
  8
0
 10
9216.07188381307
 20
8607.89955872522
 30
0.0
 40
174.9416628924599
 50
53.15109948308578
 51
36.86874516371485
  0
CIRCLE
  5
AC01E
  8
0
 10
9331.622300228248
 20
8723.490003470883
 30
0.0
 40
26.6188882392234
  0
CIRCLE
  5
AC01F
  8
0
 10
11971.79849622109
 20
8723.490003470883
 30
0.0
 40
26.6188882392234
  0
ARC
  5
AC020
  8
0
 10
11856.24807980591
 20
8607.89955872522
 30
0.0
 40
174.9416628924599
 50
53.15109948308578
 51
36.86874516371485
  0
ARC
  5
AC021
  8
0
 10
11856.17914068568
 20
8607.88549876363
 30
0.0
 40
152.0954421879083
 50
53.7437419628992
 51
36.24889815847135
  0
POLYLINE
  5
AC022
  8
0
 66
     1
 10
0.0
 20
0.0
 30
0.0
 70
     1
  0
VERTEX
  5
B034E
  8
0
 10
12010.60654491253
 20
7784.307406419728
 30
0.0
  0
VERTEX
  5
B034F
  8
0
 10
11755.91000402815
 20
7784.307406419728
 30
0.0
  0
VERTEX
  5
B0350
  8
0
 10
11755.91000402815
 20
8464.592699277404
 30
0.0
 42
0.4500709718572363
  0
VERTEX
  5
B0351
  8
0
 10
12010.60654491253
 20
8525.570647245098
 30
0.0
  0
VERTEX
  5
B0352
  8
0
 10
12010.60654491253
 20
7784.307406419728
 30
0.0
  0
SEQEND
  5
B081D
  8
0
  0
POLYLINE
  5
AC023
  8
0
 66
     1
 10
0.0
 20
0.0
 30
0.0
  0
VERTEX
  5
B0353
  8
0
 10
11710.3961093434
 20
8704.500739503666
 30
0.0
 42
-0.4313481873912146
  0
VERTEX
  5
B0354
  8
0
 10
11961.16178193249
 20
8747.891346061733
 30
0.0
 42
-0.6814225353586246
  0
VERTEX
  5
B0355
  8
0
 10
11996.20352142131
 20
8712.86174133314
 30
0.0
 42
-0.2912012462252227
  0
VERTEX
  5
B0356
  8
0
 10
12010.60654491253
 20
8525.570647245124
 30
0.0
  0
VERTEX
  5
B0357
  8
0
 10
12010.60654491253
 20
7784.307406419728
 30
0.0
  0
VERTEX
  5
B0358
  8
0
 10
12510.3961093434
 20
7784.307406419728
 30
0.0
  0
VERTEX
  5
B0359
  8
0
 10
12510.3961093434
 20
10314.30740641977
 30
0.0
  0
VERTEX
  5
B035A
  8
0
 10
11710.3961093434
 20
10314.30740641977
 30
0.0
  0
VERTEX
  5
B035B
  8
0
 10
11710.3961093434
 20
8704.500739503666
 30
0.0
  0
SEQEND
  5
B081E
  8
0
  0
POLYLINE
  5
AC024
  8
0
 66
     1
 10
0.0
 20
0.0
 30
0.0
  0
VERTEX
  5
B035C
  8
0
 10
11755.91000402815
 20
8464.592699277404
 30
0.0
  0
VERTEX
  5
B035D
  8
0
 10
11755.91000402815
 20
7784.307406419728
 30
0.0
  0
VERTEX
  5
B035E
  8
0
 10
11710.3961093434
 20
7784.307406419728
 30
0.0
  0
VERTEX
  5
B035F
  8
0
 10
11710.3961093434
 20
8511.298377946776
 30
0.0
 42
0.0940184742794634
  0
VERTEX
  5
B0360
  8
0
 10
11755.91000402815
 20
8464.592699277404
 30
0.0
 42
0.0940184742794634
  0
SEQEND
  5
B081F
  8
0
  0
POLYLINE
  5
AC025
  8
0
 66
     1
 10
0.0
 20
0.0
 30
0.0
  0
VERTEX
  5
B0361
  8
0
 10
13075.99810202457
 20
8464.592699277404
 30
0.0
  0
VERTEX
  5
B0362
  8
0
 10
13075.99810202457
 20
7784.307406419728
 30
0.0
  0
VERTEX
  5
B0363
  8
0
 10
13030.48420733982
 20
7784.307406419728
 30
0.0
  0
VERTEX
  5
B0364
  8
0
 10
13030.48420733982
 20
8511.298377946776
 30
0.0
 42
0.0940184742794634
  0
VERTEX
  5
B0365
  8
0
 10
13075.99810202457
 20
8464.592699277404
 30
0.0
 42
0.0940184742794634
  0
SEQEND
  5
B0820
  8
0
  0
POLYLINE
  5
AC026
  8
0
 66
     1
 10
0.0
 20
0.0
 30
0.0
  0
VERTEX
  5
B0366
  8
0
 10
13030.48420733982
 20
8704.500739503666
 30
0.0
 42
-0.4313481873912146
  0
VERTEX
  5
B0367
  8
0
 10
13281.2498799289
 20
8747.891346061733
 30
0.0
 42
-0.6814225353586246
  0
VERTEX
  5
B0368
  8
0
 10
13316.29161941774
 20
8712.86174133314
 30
0.0
 42
-0.2912012462252227
  0
VERTEX
  5
B0369
  8
0
 10
13330.69464290894
 20
8525.570647245124
 30
0.0
  0
VERTEX
  5
B036A
  8
0
 10
13330.69464290894
 20
7784.307406419728
 30
0.0
  0
VERTEX
  5
B036B
  8
0
 10
13930.48420733982
 20
7784.307406419728
 30
0.0
  0
VERTEX
  5
B036C
  8
0
 10
13930.48420733982
 20
10314.30740641977
 30
0.0
  0
VERTEX
  5
B036D
  8
0
 10
13030.48420733982
 20
10314.30740641977
 30
0.0
  0
VERTEX
  5
B036E
  8
0
 10
13030.48420733982
 20
8704.500739503666
 30
0.0
  0
SEQEND
  5
B0821
  8
0
  0
POLYLINE
  5
AC027
  8
0
 66
     1
 10
0.0
 20
0.0
 30
0.0
 70
     1
  0
VERTEX
  5
B036F
  8
0
 10
13330.69464290894
 20
7784.307406419728
 30
0.0
  0
VERTEX
  5
B0370
  8
0
 10
13075.99810202457
 20
7784.307406419728
 30
0.0
  0
VERTEX
  5
B0371
  8
0
 10
13075.99810202457
 20
8464.592699277404
 30
0.0
 42
0.4500709718572363
  0
VERTEX
  5
B0372
  8
0
 10
13330.69464290894
 20
8525.570647245098
 30
0.0
  0
VERTEX
  5
B0373
  8
0
 10
13330.69464290894
 20
7784.307406419728
 30
0.0
  0
SEQEND
  5
B0822
  8
0
  0
ARC
  5
AC028
  8
0
 10
13176.26723868209
 20
8607.88549876363
 30
0.0
 40
152.0954421879083
 50
53.7437419628992
 51
36.24889815847135
  0
ARC
  5
AC029
  8
0
 10
13176.33617780232
 20
8607.89955872522
 30
0.0
 40
174.9416628924599
 50
53.15109948308578
 51
36.86874516371485
  0
CIRCLE
  5
AC02A
  8
0
 10
13291.8865942175
 20
8723.490003470883
 30
0.0
 40
26.6188882392234
  0
CIRCLE
  5
AC02B
  8
0
 10
14611.97469221391
 20
8723.490003470883
 30
0.0
 40
26.6188882392234
  0
ARC
  5
AC02C
  8
0
 10
14496.42427579875
 20
8607.89955872522
 30
0.0
 40
174.9416628924599
 50
53.15109948308578
 51
36.86874516371485
  0
ARC
  5
AC02D
  8
0
 10
14496.3553366785
 20
8607.88549876363
 30
0.0
 40
152.0954421879083
 50
53.7437419628992
 51
36.24889815847135
  0
POLYLINE
  5
AC02E
  8
0
 66
     1
 10
0.0
 20
0.0
 30
0.0
 70
     1
  0
VERTEX
  5
B0374
  8
0
 10
14650.78274090535
 20
7784.307406419728
 30
0.0
  0
VERTEX
  5
B0375
  8
0
 10
14396.08620002099
 20
7784.307406419728
 30
0.0
  0
VERTEX
  5
B0376
  8
0
 10
14396.08620002099
 20
8464.592699277404
 30
0.0
 42
0.4500709718572363
  0
VERTEX
  5
B0377
  8
0
 10
14650.78274090535
 20
8525.570647245098
 30
0.0
  0
VERTEX
  5
B0378
  8
0
 10
14650.78274090535
 20
7784.307406419728
 30
0.0
  0
SEQEND
  5
B0823
  8
0
  0
POLYLINE
  5
AC02F
  8
0
 66
     1
 10
0.0
 20
0.0
 30
0.0
  0
VERTEX
  5
B0379
  8
0
 10
14350.57230533624
 20
8704.500739503666
 30
0.0
 42
-0.4313481873912146
  0
VERTEX
  5
B037A
  8
0
 10
14601.33797792533
 20
8747.891346061733
 30
0.0
 42
-0.6814225353586246
  0
VERTEX
  5
B037B
  8
0
 10
14636.37971741414
 20
8712.86174133314
 30
0.0
 42
-0.2912012462252227
  0
VERTEX
  5
B037C
  8
0
 10
14650.78274090535
 20
8525.570647245124
 30
0.0
  0
VERTEX
  5
B037D
  8
0
 10
14650.78274090535
 20
7784.307406419728
 30
0.0
  0
VERTEX
  5
B037E
  8
0
 10
15350.57230533624
 20
7784.307406419728
 30
0.0
  0
VERTEX
  5
B037F
  8
0
 10
15350.57230533624
 20
10314.30740641977
 30
0.0
  0
VERTEX
  5
B0380
  8
0
 10
14350.57230533624
 20
10314.30740641977
 30
0.0
  0
VERTEX
  5
B0381
  8
0
 10
14350.57230533624
 20
8704.500739503666
 30
0.0
  0
SEQEND
  5
B0824
  8
0
  0
POLYLINE
  5
AC030
  8
0
 66
     1
 10
0.0
 20
0.0
 30
0.0
  0
VERTEX
  5
B0382
  8
0
 10
14396.08620002099
 20
8464.592699277404
 30
0.0
  0
VERTEX
  5
B0383
  8
0
 10
14396.08620002099
 20
7784.307406419728
 30
0.0
  0
VERTEX
  5
B0384
  8
0
 10
14350.57230533624
 20
7784.307406419728
 30
0.0
  0
VERTEX
  5
B0385
  8
0
 10
14350.57230533624
 20
8511.298377946776
 30
0.0
 42
0.0940184742794634
  0
VERTEX
  5
B0386
  8
0
 10
14396.08620002099
 20
8464.592699277404
 30
0.0
 42
0.0940184742794634
  0
SEQEND
  5
B0825
  8
0
  0
POLYLINE
  5
AC031
  8
0
 66
     1
 10
0.0
 20
0.0
 30
0.0
  0
VERTEX
  5
B0387
  8
0
 10
14396.08620002099
 20
5631.457209263957
 30
0.0
  0
VERTEX
  5
B0388
  8
0
 10
14396.08620002099
 20
4951.171916406281
 30
0.0
  0
VERTEX
  5
B0389
  8
0
 10
14350.57230533624
 20
4951.171916406281
 30
0.0
  0
VERTEX
  5
B038A
  8
0
 10
14350.57230533624
 20
5678.162887933329
 30
0.0
 42
0.0940184742794634
  0
VERTEX
  5
B038B
  8
0
 10
14396.08620002099
 20
5631.457209263957
 30
0.0
 42
0.0940184742794634
  0
SEQEND
  5
B0826
  8
0
  0
POLYLINE
  5
AC032
  8
0
 66
     1
 10
0.0
 20
0.0
 30
0.0
  0
VERTEX
  5
B038C
  8
0
 10
14350.57230533624
 20
5871.36524949022
 30
0.0
 42
-0.4313481873912146
  0
VERTEX
  5
B038D
  8
0
 10
14601.33797792533
 20
5914.755856048287
 30
0.0
 42
-0.6814225353586246
  0
VERTEX
  5
B038E
  8
0
 10
14636.37971741414
 20
5879.726251319691
 30
0.0
 42
-0.2912012462252227
  0
VERTEX
  5
B038F
  8
0
 10
14650.78274090535
 20
5692.435157231681
 30
0.0
  0
VERTEX
  5
B0390
  8
0
 10
14650.78274090535
 20
4951.171916406281
 30
0.0
  0
VERTEX
  5
B0391
  8
0
 10
15350.57230533624
 20
4951.171916406281
 30
0.0
  0
VERTEX
  5
B0392
  8
0
 10
15350.57230533624
 20
7181.171916406325
 30
0.0
  0
VERTEX
  5
B0393
  8
0
 10
14350.57230533624
 20
7181.171916406325
 30
0.0
  0
VERTEX
  5
B0394
  8
0
 10
14350.57230533624
 20
5871.36524949022
 30
0.0
  0
SEQEND
  5
B0827
  8
0
  0
POLYLINE
  5
AC033
  8
0
 66
     1
 10
0.0
 20
0.0
 30
0.0
 70
     1
  0
VERTEX
  5
B0395
  8
0
 10
14650.78274090535
 20
4951.171916406281
 30
0.0
  0
VERTEX
  5
B0396
  8
0
 10
14396.08620002099
 20
4951.171916406281
 30
0.0
  0
VERTEX
  5
B0397
  8
0
 10
14396.08620002099
 20
5631.457209263957
 30
0.0
 42
0.4500709718572363
  0
VERTEX
  5
B0398
  8
0
 10
14650.78274090535
 20
5692.435157231652
 30
0.0
  0
VERTEX
  5
B0399
  8
0
 10
14650.78274090535
 20
4951.171916406281
 30
0.0
  0
SEQEND
  5
B0828
  8
0
  0
ARC
  5
AC034
  8
0
 10
14496.3553366785
 20
5774.750008750183
 30
0.0
 40
152.0954421879083
 50
53.7437419628992
 51
36.24889815847135
  0
ARC
  5
AC035
  8
0
 10
14496.42427579875
 20
5774.764068711775
 30
0.0
 40
174.9416628924599
 50
53.15109948308578
 51
36.86874516371485
  0
CIRCLE
  5
AC036
  8
0
 10
14611.97469221391
 20
5890.354513457438
 30
0.0
 40
26.6188882392234
  0
CIRCLE
  5
AC037
  8
0
 10
13291.8865942175
 20
5890.354513457438
 30
0.0
 40
26.6188882392234
  0
ARC
  5
AC038
  8
0
 10
13176.33617780232
 20
5774.764068711775
 30
0.0
 40
174.9416628924599
 50
53.15109948308578
 51
36.86874516371485
  0
ARC
  5
AC039
  8
0
 10
13176.26723868209
 20
5774.750008750183
 30
0.0
 40
152.0954421879083
 50
53.7437419628992
 51
36.24889815847135
  0
POLYLINE
  5
AC03A
  8
0
 66
     1
 10
0.0
 20
0.0
 30
0.0
 70
     1
  0
VERTEX
  5
B039A
  8
0
 10
13330.69464290894
 20
4951.171916406281
 30
0.0
  0
VERTEX
  5
B039B
  8
0
 10
13075.99810202457
 20
4951.171916406281
 30
0.0
  0
VERTEX
  5
B039C
  8
0
 10
13075.99810202457
 20
5631.457209263957
 30
0.0
 42
0.4500709718572363
  0
VERTEX
  5
B039D
  8
0
 10
13330.69464290894
 20
5692.435157231652
 30
0.0
  0
VERTEX
  5
B039E
  8
0
 10
13330.69464290894
 20
4951.171916406281
 30
0.0
  0
SEQEND
  5
B0829
  8
0
  0
POLYLINE
  5
AC03B
  8
0
 66
     1
 10
0.0
 20
0.0
 30
0.0
  0
VERTEX
  5
B039F
  8
0
 10
13030.48420733982
 20
5871.36524949022
 30
0.0
 42
-0.4313481873912146
  0
VERTEX
  5
B03A0
  8
0
 10
13281.2498799289
 20
5914.755856048287
 30
0.0
 42
-0.6814225353586246
  0
VERTEX
  5
B03A1
  8
0
 10
13316.29161941774
 20
5879.726251319691
 30
0.0
 42
-0.2912012462252227
  0
VERTEX
  5
B03A2
  8
0
 10
13330.69464290894
 20
5692.435157231681
 30
0.0
  0
VERTEX
  5
B03A3
  8
0
 10
13330.69464290894
 20
4951.171916406281
 30
0.0
  0
VERTEX
  5
B03A4
  8
0
 10
13930.48420733982
 20
4951.171916406281
 30
0.0
  0
VERTEX
  5
B03A5
  8
0
 10
13930.48420733982
 20
7181.171916406325
 30
0.0
  0
VERTEX
  5
B03A6
  8
0
 10
13030.48420733982
 20
7181.171916406325
 30
0.0
  0
VERTEX
  5
B03A7
  8
0
 10
13030.48420733982
 20
5871.36524949022
 30
0.0
  0
SEQEND
  5
B082A
  8
0
  0
POLYLINE
  5
AC03C
  8
0
 66
     1
 10
0.0
 20
0.0
 30
0.0
  0
VERTEX
  5
B03A8
  8
0
 10
13075.99810202457
 20
5631.457209263957
 30
0.0
  0
VERTEX
  5
B03A9
  8
0
 10
13075.99810202457
 20
4951.171916406281
 30
0.0
  0
VERTEX
  5
B03AA
  8
0
 10
13030.48420733982
 20
4951.171916406281
 30
0.0
  0
VERTEX
  5
B03AB
  8
0
 10
13030.48420733982
 20
5678.162887933329
 30
0.0
 42
0.0940184742794634
  0
VERTEX
  5
B03AC
  8
0
 10
13075.99810202457
 20
5631.457209263957
 30
0.0
 42
0.0940184742794634
  0
SEQEND
  5
B082B
  8
0
  0
POLYLINE
  5
AC03D
  8
0
 66
     1
 10
0.0
 20
0.0
 30
0.0
  0
VERTEX
  5
B03AD
  8
0
 10
11755.91000402815
 20
5631.457209263957
 30
0.0
  0
VERTEX
  5
B03AE
  8
0
 10
11755.91000402815
 20
4951.171916406281
 30
0.0
  0
VERTEX
  5
B03AF
  8
0
 10
11710.3961093434
 20
4951.171916406281
 30
0.0
  0
VERTEX
  5
B03B0
  8
0
 10
11710.3961093434
 20
5678.162887933329
 30
0.0
 42
0.0940184742794634
  0
VERTEX
  5
B03B1
  8
0
 10
11755.91000402815
 20
5631.457209263957
 30
0.0
 42
0.0940184742794634
  0
SEQEND
  5
B082C
  8
0
  0
POLYLINE
  5
AC03E
  8
0
 66
     1
 10
0.0
 20
0.0
 30
0.0
  0
VERTEX
  5
B03B2
  8
0
 10
11710.3961093434
 20
5871.36524949022
 30
0.0
 42
-0.4313481873912146
  0
VERTEX
  5
B03B3
  8
0
 10
11961.16178193249
 20
5914.755856048287
 30
0.0
 42
-0.6814225353586246
  0
VERTEX
  5
B03B4
  8
0
 10
11996.20352142131
 20
5879.726251319691
 30
0.0
 42
-0.2912012462252227
  0
VERTEX
  5
B03B5
  8
0
 10
12010.60654491253
 20
5692.435157231681
 30
0.0
  0
VERTEX
  5
B03B6
  8
0
 10
12010.60654491253
 20
4951.171916406281
 30
0.0
  0
VERTEX
  5
B03B7
  8
0
 10
12510.3961093434
 20
4951.171916406281
 30
0.0
  0
VERTEX
  5
B03B8
  8
0
 10
12510.3961093434
 20
7181.171916406325
 30
0.0
  0
VERTEX
  5
B03B9
  8
0
 10
11710.3961093434
 20
7181.171916406325
 30
0.0
  0
VERTEX
  5
B03BA
  8
0
 10
11710.3961093434
 20
5871.36524949022
 30
0.0
  0
SEQEND
  5
B082D
  8
0
  0
POLYLINE
  5
AC03F
  8
0
 66
     1
 10
0.0
 20
0.0
 30
0.0
 70
     1
  0
VERTEX
  5
B03BB
  8
0
 10
12010.60654491253
 20
4951.171916406281
 30
0.0
  0
VERTEX
  5
B03BC
  8
0
 10
11755.91000402815
 20
4951.171916406281
 30
0.0
  0
VERTEX
  5
B03BD
  8
0
 10
11755.91000402815
 20
5631.457209263957
 30
0.0
 42
0.4500709718572363
  0
VERTEX
  5
B03BE
  8
0
 10
12010.60654491253
 20
5692.435157231652
 30
0.0
  0
VERTEX
  5
B03BF
  8
0
 10
12010.60654491253
 20
4951.171916406281
 30
0.0
  0
SEQEND
  5
B082E
  8
0
  0
ARC
  5
AC040
  8
0
 10
11856.17914068568
 20
5774.750008750183
 30
0.0
 40
152.0954421879083
 50
53.7437419628992
 51
36.24889815847135
  0
ARC
  5
AC041
  8
0
 10
11856.24807980591
 20
5774.764068711775
 30
0.0
 40
174.9416628924599
 50
53.15109948308578
 51
36.86874516371485
  0
CIRCLE
  5
AC042
  8
0
 10
11971.79849622109
 20
5890.354513457438
 30
0.0
 40
26.6188882392234
  0
CIRCLE
  5
AC043
  8
0
 10
9331.622300228248
 20
5890.354513457438
 30
0.0
 40
26.6188882392234
  0
ARC
  5
AC044
  8
0
 10
9216.07188381307
 20
5774.764068711775
 30
0.0
 40
174.9416628924599
 50
53.15109948308578
 51
36.86874516371485
  0
ARC
  5
AC045
  8
0
 10
9216.00294469284
 20
5774.750008750183
 30
0.0
 40
152.0954421879083
 50
53.7437419628992
 51
36.24889815847135
  0
POLYLINE
  5
AC046
  8
0
 66
     1
 10
0.0
 20
0.0
 30
0.0
 70
     1
  0
VERTEX
  5
B03C0
  8
0
 10
9370.430348919692
 20
4951.171916406281
 30
0.0
  0
VERTEX
  5
B03C1
  8
0
 10
9115.733808035322
 20
4951.171916406281
 30
0.0
  0
VERTEX
  5
B03C2
  8
0
 10
9115.733808035322
 20
5631.457209263957
 30
0.0
 42
0.4500709718572363
  0
VERTEX
  5
B03C3
  8
0
 10
9370.430348919692
 20
5692.435157231652
 30
0.0
  0
VERTEX
  5
B03C4
  8
0
 10
9370.430348919692
 20
4951.171916406281
 30
0.0
  0
SEQEND
  5
B082F
  8
0
  0
POLYLINE
  5
AC047
  8
0
 66
     1
 10
0.0
 20
0.0
 30
0.0
  0
VERTEX
  5
B03C5
  8
0
 10
9070.219913350578
 20
5871.36524949022
 30
0.0
 42
-0.4313481873912146
  0
VERTEX
  5
B03C6
  8
0
 10
9320.985585939648
 20
5914.755856048287
 30
0.0
 42
-0.6814225353586246
  0
VERTEX
  5
B03C7
  8
0
 10
9356.027325428484
 20
5879.726251319691
 30
0.0
 42
-0.2912012462252227
  0
VERTEX
  5
B03C8
  8
0
 10
9370.430348919692
 20
5692.435157231681
 30
0.0
  0
VERTEX
  5
B03C9
  8
0
 10
9370.430348919692
 20
4951.171916406281
 30
0.0
  0
VERTEX
  5
B03CA
  8
0
 10
9670.219913350578
 20
4951.171916406281
 30
0.0
  0
VERTEX
  5
B03CB
  8
0
 10
9670.219913350578
 20
7181.171916406325
 30
0.0
  0
VERTEX
  5
B03CC
  8
0
 10
9070.219913350578
 20
7181.171916406325
 30
0.0
  0
VERTEX
  5
B03CD
  8
0
 10
9070.219913350578
 20
5871.36524949022
 30
0.0
  0
SEQEND
  5
B0830
  8
0
  0
POLYLINE
  5
AC048
  8
0
 66
     1
 10
0.0
 20
0.0
 30
0.0
  0
VERTEX
  5
B03CE
  8
0
 10
9115.733808035322
 20
5631.457209263957
 30
0.0
  0
VERTEX
  5
B03CF
  8
0
 10
9115.733808035322
 20
4951.171916406281
 30
0.0
  0
VERTEX
  5
B03D0
  8
0
 10
9070.219913350578
 20
4951.171916406281
 30
0.0
  0
VERTEX
  5
B03D1
  8
0
 10
9070.219913350578
 20
5678.162887933329
 30
0.0
 42
0.0940184742794634
  0
VERTEX
  5
B03D2
  8
0
 10
9115.733808035322
 20
5631.457209263957
 30
0.0
 42
0.0940184742794634
  0
SEQEND
  5
B0831
  8
0
  0
POLYLINE
  5
AC049
  8
0
 66
     1
 10
0.0
 20
0.0
 30
0.0
  0
VERTEX
  5
B03D3
  8
0
 10
10435.82190603173
 20
5631.457209263957
 30
0.0
  0
VERTEX
  5
B03D4
  8
0
 10
10435.82190603173
 20
4951.171916406281
 30
0.0
  0
VERTEX
  5
B03D5
  8
0
 10
10390.30801134699
 20
4951.171916406281
 30
0.0
  0
VERTEX
  5
B03D6
  8
0
 10
10390.30801134699
 20
5678.162887933329
 30
0.0
 42
0.0940184742794634
  0
VERTEX
  5
B03D7
  8
0
 10
10435.82190603173
 20
5631.457209263957
 30
0.0
 42
0.0940184742794634
  0
SEQEND
  5
B0832
  8
0
  0
POLYLINE
  5
AC04A
  8
0
 66
     1
 10
0.0
 20
0.0
 30
0.0
  0
VERTEX
  5
B03D8
  8
0
 10
10390.30801134699
 20
5871.36524949022
 30
0.0
 42
-0.4313481873912146
  0
VERTEX
  5
B03D9
  8
0
 10
10641.07368393607
 20
5914.755856048287
 30
0.0
 42
-0.6814225353586246
  0
VERTEX
  5
B03DA
  8
0
 10
10676.11542342489
 20
5879.726251319691
 30
0.0
 42
-0.2912012462252227
  0
VERTEX
  5
B03DB
  8
0
 10
10690.5184469161
 20
5692.435157231681
 30
0.0
  0
VERTEX
  5
B03DC
  8
0
 10
10690.5184469161
 20
4951.171916406281
 30
0.0
  0
VERTEX
  5
B03DD
  8
0
 10
11090.30801134699
 20
4951.171916406281
 30
0.0
  0
VERTEX
  5
B03DE
  8
0
 10
11090.30801134699
 20
7181.171916406325
 30
0.0
  0
VERTEX
  5
B03DF
  8
0
 10
10390.30801134699
 20
7181.171916406325
 30
0.0
  0
VERTEX
  5
B03E0
  8
0
 10
10390.30801134699
 20
5871.36524949022
 30
0.0
  0
SEQEND
  5
B0833
  8
0
  0
POLYLINE
  5
AC04B
  8
0
 66
     1
 10
0.0
 20
0.0
 30
0.0
 70
     1
  0
VERTEX
  5
B03E1
  8
0
 10
10690.5184469161
 20
4951.171916406281
 30
0.0
  0
VERTEX
  5
B03E2
  8
0
 10
10435.82190603173
 20
4951.171916406281
 30
0.0
  0
VERTEX
  5
B03E3
  8
0
 10
10435.82190603173
 20
5631.457209263957
 30
0.0
 42
0.4500709718572363
  0
VERTEX
  5
B03E4
  8
0
 10
10690.5184469161
 20
5692.435157231652
 30
0.0
  0
VERTEX
  5
B03E5
  8
0
 10
10690.5184469161
 20
4951.171916406281
 30
0.0
  0
SEQEND
  5
B0834
  8
0
  0
ARC
  5
AC04C
  8
0
 10
10536.09104268925
 20
5774.750008750183
 30
0.0
 40
152.0954421879083
 50
53.7437419628992
 51
36.24889815847135
  0
ARC
  5
AC04D
  8
0
 10
10536.1599818095
 20
5774.764068711775
 30
0.0
 40
174.9416628924599
 50
53.15109948308578
 51
36.86874516371485
  0
CIRCLE
  5
AC04E
  8
0
 10
10651.71039822468
 20
5890.354513457438
 30
0.0
 40
26.6188882392234
  0
POLYLINE
  5
AC04F
  8
0
 66
     1
 10
0.0
 20
0.0
 30
0.0
  0
VERTEX
  5
B03E6
  8
0
 10
14350.57230533624
 20
4896.171916406281
 30
0.0
  0
VERTEX
  5
B03E7
  8
0
 10
15350.57230533624
 20
4896.171916406281
 30
0.0
  0
SEQEND
  5
B0835
  8
0
  0
POLYLINE
  5
AC050
  8
0
 66
     1
 10
0.0
 20
0.0
 30
0.0
  0
VERTEX
  5
B03E8
  8
0
 10
12980.48420733981
 20
4896.171916406281
 30
0.0
  0
VERTEX
  5
B03E9
  8
0
 10
13980.48420733982
 20
4896.171916406281
 30
0.0
  0
SEQEND
  5
B0836
  8
0
  0
POLYLINE
  5
AC051
  8
0
 66
     1
 10
0.0
 20
0.0
 30
0.0
  0
VERTEX
  5
B03EA
  8
0
 10
11610.3961093434
 20
4896.171916406281
 30
0.0
  0
VERTEX
  5
B03EB
  8
0
 10
12610.3961093434
 20
4896.171916406281
 30
0.0
  0
SEQEND
  5
B0837
  8
0
  0
POLYLINE
  5
AC052
  8
0
 66
     1
 10
0.0
 20
0.0
 30
0.0
  0
VERTEX
  5
B03EC
  8
0
 10
10240.30801134699
 20
4896.171916406281
 30
0.0
  0
VERTEX
  5
B03ED
  8
0
 10
11240.30801134699
 20
4896.171916406281
 30
0.0
  0
SEQEND
  5
B0838
  8
0
  0
POLYLINE
  5
AC053
  8
0
 66
     1
 10
0.0
 20
0.0
 30
0.0
  0
VERTEX
  5
B03EE
  8
0
 10
8870.219913350578
 20
4896.171916406281
 30
0.0
  0
VERTEX
  5
B03EF
  8
0
 10
9870.21991335058
 20
4896.171916406281
 30
0.0
  0
SEQEND
  5
B0839
  8
0
  0
POLYLINE
  5
AC054
  8
0
 66
     1
 10
0.0
 20
0.0
 30
0.0
  0
VERTEX
  5
B03F0
  8
0
 10
8870.219913350578
 20
2163.036426392835
 30
0.0
  0
VERTEX
  5
B03F1
  8
0
 10
9870.21991335058
 20
2163.036426392835
 30
0.0
  0
SEQEND
  5
B083A
  8
0
  0
POLYLINE
  5
AC055
  8
0
 66
     1
 10
0.0
 20
0.0
 30
0.0
  0
VERTEX
  5
B03F2
  8
0
 10
10240.30801134699
 20
2163.036426392835
 30
0.0
  0
VERTEX
  5
B03F3
  8
0
 10
11240.30801134699
 20
2163.036426392835
 30
0.0
  0
SEQEND
  5
B083B
  8
0
  0
POLYLINE
  5
AC056
  8
0
 66
     1
 10
0.0
 20
0.0
 30
0.0
  0
VERTEX
  5
B03F4
  8
0
 10
11610.3961093434
 20
2163.036426392835
 30
0.0
  0
VERTEX
  5
B03F5
  8
0
 10
12610.3961093434
 20
2163.036426392835
 30
0.0
  0
SEQEND
  5
B083C
  8
0
  0
POLYLINE
  5
AC057
  8
0
 66
     1
 10
0.0
 20
0.0
 30
0.0
  0
VERTEX
  5
B03F6
  8
0
 10
12980.48420733981
 20
2163.036426392835
 30
0.0
  0
VERTEX
  5
B03F7
  8
0
 10
13980.48420733982
 20
2163.036426392835
 30
0.0
  0
SEQEND
  5
B083D
  8
0
  0
POLYLINE
  5
AC058
  8
0
 66
     1
 10
0.0
 20
0.0
 30
0.0
  0
VERTEX
  5
B03F8
  8
0
 10
14350.57230533624
 20
2163.036426392835
 30
0.0
  0
VERTEX
  5
B03F9
  8
0
 10
15350.57230533624
 20
2163.036426392835
 30
0.0
  0
SEQEND
  5
B083E
  8
0
  0
CIRCLE
  5
AC059
  8
0
 10
10651.71039822468
 20
3157.219023443992
 30
0.0
 40
26.6188882392234
  0
ARC
  5
AC05A
  8
0
 10
10536.1599818095
 20
3041.628578698328
 30
0.0
 40
174.9416628924599
 50
53.15109948308578
 51
36.86874516371485
  0
ARC
  5
AC05B
  8
0
 10
10536.09104268925
 20
3041.614518736737
 30
0.0
 40
152.0954421879083
 50
53.7437419628992
 51
36.24889815847135
  0
POLYLINE
  5
AC05C
  8
0
 66
     1
 10
0.0
 20
0.0
 30
0.0
 70
     1
  0
VERTEX
  5
B03FA
  8
0
 10
10690.5184469161
 20
2218.036426392835
 30
0.0
  0
VERTEX
  5
B03FB
  8
0
 10
10435.82190603173
 20
2218.036426392835
 30
0.0
  0
VERTEX
  5
B03FC
  8
0
 10
10435.82190603173
 20
2898.321719250511
 30
0.0
 42
0.4500709718572363
  0
VERTEX
  5
B03FD
  8
0
 10
10690.5184469161
 20
2959.299667218207
 30
0.0
  0
VERTEX
  5
B03FE
  8
0
 10
10690.5184469161
 20
2218.036426392835
 30
0.0
  0
SEQEND
  5
B083F
  8
0
  0
POLYLINE
  5
AC05D
  8
0
 66
     1
 10
0.0
 20
0.0
 30
0.0
  0
VERTEX
  5
B03FF
  8
0
 10
10390.30801134699
 20
3138.229759476774
 30
0.0
 42
-0.4313481873912146
  0
VERTEX
  5
B0400
  8
0
 10
10641.07368393607
 20
3181.62036603484
 30
0.0
 42
-0.6814225353586246
  0
VERTEX
  5
B0401
  8
0
 10
10676.11542342489
 20
3146.590761306244
 30
0.0
 42
-0.2912012462252227
  0
VERTEX
  5
B0402
  8
0
 10
10690.5184469161
 20
2959.299667218235
 30
0.0
  0
VERTEX
  5
B0403
  8
0
 10
10690.5184469161
 20
2218.036426392835
 30
0.0
  0
VERTEX
  5
B0404
  8
0
 10
11090.30801134699
 20
2218.036426392835
 30
0.0
  0
VERTEX
  5
B0405
  8
0
 10
11090.30801134699
 20
4348.036426392877
 30
0.0
  0
VERTEX
  5
B0406
  8
0
 10
10390.30801134699
 20
4348.036426392877
 30
0.0
  0
VERTEX
  5
B0407
  8
0
 10
10390.30801134699
 20
3138.229759476774
 30
0.0
  0
SEQEND
  5
B0840
  8
0
  0
POLYLINE
  5
AC05E
  8
0
 66
     1
 10
0.0
 20
0.0
 30
0.0
  0
VERTEX
  5
B0408
  8
0
 10
10435.82190603173
 20
2898.321719250511
 30
0.0
  0
VERTEX
  5
B0409
  8
0
 10
10435.82190603173
 20
2218.036426392835
 30
0.0
  0
VERTEX
  5
B040A
  8
0
 10
10390.30801134699
 20
2218.036426392835
 30
0.0
  0
VERTEX
  5
B040B
  8
0
 10
10390.30801134699
 20
2945.027397919883
 30
0.0
 42
0.0940184742794634
  0
VERTEX
  5
B040C
  8
0
 10
10435.82190603173
 20
2898.321719250511
 30
0.0
 42
0.0940184742794634
  0
SEQEND
  5
B0841
  8
0
  0
POLYLINE
  5
AC05F
  8
0
 66
     1
 10
0.0
 20
0.0
 30
0.0
  0
VERTEX
  5
B040D
  8
0
 10
9115.733808035322
 20
2898.321719250511
 30
0.0
  0
VERTEX
  5
B040E
  8
0
 10
9115.733808035322
 20
2218.036426392835
 30
0.0
  0
VERTEX
  5
B040F
  8
0
 10
9070.219913350578
 20
2218.036426392835
 30
0.0
  0
VERTEX
  5
B0410
  8
0
 10
9070.219913350578
 20
2945.027397919883
 30
0.0
 42
0.0940184742794634
  0
VERTEX
  5
B0411
  8
0
 10
9115.733808035322
 20
2898.321719250511
 30
0.0
 42
0.0940184742794634
  0
SEQEND
  5
B0842
  8
0
  0
POLYLINE
  5
AC060
  8
0
 66
     1
 10
0.0
 20
0.0
 30
0.0
  0
VERTEX
  5
B0412
  8
0
 10
9070.219913350578
 20
3138.229759476774
 30
0.0
 42
-0.4313481873912146
  0
VERTEX
  5
B0413
  8
0
 10
9320.985585939648
 20
3181.62036603484
 30
0.0
 42
-0.6814225353586246
  0
VERTEX
  5
B0414
  8
0
 10
9356.027325428484
 20
3146.590761306244
 30
0.0
 42
-0.2912012462252227
  0
VERTEX
  5
B0415
  8
0
 10
9370.430348919692
 20
2959.299667218235
 30
0.0
  0
VERTEX
  5
B0416
  8
0
 10
9370.430348919692
 20
2218.036426392835
 30
0.0
  0
VERTEX
  5
B0417
  8
0
 10
9670.219913350578
 20
2218.036426392835
 30
0.0
  0
VERTEX
  5
B0418
  8
0
 10
9670.219913350578
 20
4348.036426392877
 30
0.0
  0
VERTEX
  5
B0419
  8
0
 10
9070.219913350578
 20
4348.036426392877
 30
0.0
  0
VERTEX
  5
B041A
  8
0
 10
9070.219913350578
 20
3138.229759476774
 30
0.0
  0
SEQEND
  5
B0843
  8
0
  0
POLYLINE
  5
AC061
  8
0
 66
     1
 10
0.0
 20
0.0
 30
0.0
 70
     1
  0
VERTEX
  5
B041B
  8
0
 10
9370.430348919692
 20
2218.036426392835
 30
0.0
  0
VERTEX
  5
B041C
  8
0
 10
9115.733808035322
 20
2218.036426392835
 30
0.0
  0
VERTEX
  5
B041D
  8
0
 10
9115.733808035322
 20
2898.321719250511
 30
0.0
 42
0.4500709718572363
  0
VERTEX
  5
B041E
  8
0
 10
9370.430348919692
 20
2959.299667218207
 30
0.0
  0
VERTEX
  5
B041F
  8
0
 10
9370.430348919692
 20
2218.036426392835
 30
0.0
  0
SEQEND
  5
B0844
  8
0
  0
ARC
  5
AC062
  8
0
 10
9216.00294469284
 20
3041.614518736737
 30
0.0
 40
152.0954421879083
 50
53.7437419628992
 51
36.24889815847135
  0
ARC
  5
AC063
  8
0
 10
9216.07188381307
 20
3041.628578698328
 30
0.0
 40
174.9416628924599
 50
53.15109948308578
 51
36.86874516371485
  0
CIRCLE
  5
AC064
  8
0
 10
9331.622300228248
 20
3157.219023443992
 30
0.0
 40
26.6188882392234
  0
CIRCLE
  5
AC065
  8
0
 10
11971.79849622109
 20
3157.219023443992
 30
0.0
 40
26.6188882392234
  0
ARC
  5
AC066
  8
0
 10
11856.24807980591
 20
3041.628578698328
 30
0.0
 40
174.9416628924599
 50
53.15109948308578
 51
36.86874516371485
  0
ARC
  5
AC067
  8
0
 10
11856.17914068568
 20
3041.614518736737
 30
0.0
 40
152.0954421879083
 50
53.7437419628992
 51
36.24889815847135
  0
POLYLINE
  5
AC068
  8
0
 66
     1
 10
0.0
 20
0.0
 30
0.0
 70
     1
  0
VERTEX
  5
B0420
  8
0
 10
12010.60654491253
 20
2218.036426392835
 30
0.0
  0
VERTEX
  5
B0421
  8
0
 10
11755.91000402815
 20
2218.036426392835
 30
0.0
  0
VERTEX
  5
B0422
  8
0
 10
11755.91000402815
 20
2898.321719250511
 30
0.0
 42
0.4500709718572363
  0
VERTEX
  5
B0423
  8
0
 10
12010.60654491253
 20
2959.299667218207
 30
0.0
  0
VERTEX
  5
B0424
  8
0
 10
12010.60654491253
 20
2218.036426392835
 30
0.0
  0
SEQEND
  5
B0845
  8
0
  0
POLYLINE
  5
AC069
  8
0
 66
     1
 10
0.0
 20
0.0
 30
0.0
  0
VERTEX
  5
B0425
  8
0
 10
11710.3961093434
 20
3138.229759476774
 30
0.0
 42
-0.4313481873912146
  0
VERTEX
  5
B0426
  8
0
 10
11961.16178193249
 20
3181.62036603484
 30
0.0
 42
-0.6814225353586246
  0
VERTEX
  5
B0427
  8
0
 10
11996.20352142131
 20
3146.590761306244
 30
0.0
 42
-0.2912012462252227
  0
VERTEX
  5
B0428
  8
0
 10
12010.60654491253
 20
2959.299667218235
 30
0.0
  0
VERTEX
  5
B0429
  8
0
 10
12010.60654491253
 20
2218.036426392835
 30
0.0
  0
VERTEX
  5
B042A
  8
0
 10
12510.3961093434
 20
2218.036426392835
 30
0.0
  0
VERTEX
  5
B042B
  8
0
 10
12510.3961093434
 20
4348.036426392877
 30
0.0
  0
VERTEX
  5
B042C
  8
0
 10
11710.3961093434
 20
4348.036426392877
 30
0.0
  0
VERTEX
  5
B042D
  8
0
 10
11710.3961093434
 20
3138.229759476774
 30
0.0
  0
SEQEND
  5
B0846
  8
0
  0
POLYLINE
  5
AC06A
  8
0
 66
     1
 10
0.0
 20
0.0
 30
0.0
  0
VERTEX
  5
B042E
  8
0
 10
11755.91000402815
 20
2898.321719250511
 30
0.0
  0
VERTEX
  5
B042F
  8
0
 10
11755.91000402815
 20
2218.036426392835
 30
0.0
  0
VERTEX
  5
B0430
  8
0
 10
11710.3961093434
 20
2218.036426392835
 30
0.0
  0
VERTEX
  5
B0431
  8
0
 10
11710.3961093434
 20
2945.027397919883
 30
0.0
 42
0.0940184742794634
  0
VERTEX
  5
B0432
  8
0
 10
11755.91000402815
 20
2898.321719250511
 30
0.0
 42
0.0940184742794634
  0
SEQEND
  5
B0847
  8
0
  0
POLYLINE
  5
AC06B
  8
0
 66
     1
 10
0.0
 20
0.0
 30
0.0
  0
VERTEX
  5
B0433
  8
0
 10
13075.99810202457
 20
2898.321719250511
 30
0.0
  0
VERTEX
  5
B0434
  8
0
 10
13075.99810202457
 20
2218.036426392835
 30
0.0
  0
VERTEX
  5
B0435
  8
0
 10
13030.48420733982
 20
2218.036426392835
 30
0.0
  0
VERTEX
  5
B0436
  8
0
 10
13030.48420733982
 20
2945.027397919883
 30
0.0
 42
0.0940184742794634
  0
VERTEX
  5
B0437
  8
0
 10
13075.99810202457
 20
2898.321719250511
 30
0.0
 42
0.0940184742794634
  0
SEQEND
  5
B0848
  8
0
  0
POLYLINE
  5
AC06C
  8
0
 66
     1
 10
0.0
 20
0.0
 30
0.0
  0
VERTEX
  5
B0438
  8
0
 10
13030.48420733982
 20
3138.229759476774
 30
0.0
 42
-0.4313481873912146
  0
VERTEX
  5
B0439
  8
0
 10
13281.2498799289
 20
3181.62036603484
 30
0.0
 42
-0.6814225353586246
  0
VERTEX
  5
B043A
  8
0
 10
13316.29161941774
 20
3146.590761306244
 30
0.0
 42
-0.2912012462252227
  0
VERTEX
  5
B043B
  8
0
 10
13330.69464290894
 20
2959.299667218235
 30
0.0
  0
VERTEX
  5
B043C
  8
0
 10
13330.69464290894
 20
2218.036426392835
 30
0.0
  0
VERTEX
  5
B043D
  8
0
 10
13930.48420733982
 20
2218.036426392835
 30
0.0
  0
VERTEX
  5
B043E
  8
0
 10
13930.48420733982
 20
4348.036426392877
 30
0.0
  0
VERTEX
  5
B043F
  8
0
 10
13030.48420733982
 20
4348.036426392877
 30
0.0
  0
VERTEX
  5
B0440
  8
0
 10
13030.48420733982
 20
3138.229759476774
 30
0.0
  0
SEQEND
  5
B0849
  8
0
  0
POLYLINE
  5
AC06D
  8
0
 66
     1
 10
0.0
 20
0.0
 30
0.0
 70
     1
  0
VERTEX
  5
B0441
  8
0
 10
13330.69464290894
 20
2218.036426392835
 30
0.0
  0
VERTEX
  5
B0442
  8
0
 10
13075.99810202457
 20
2218.036426392835
 30
0.0
  0
VERTEX
  5
B0443
  8
0
 10
13075.99810202457
 20
2898.321719250511
 30
0.0
 42
0.4500709718572363
  0
VERTEX
  5
B0444
  8
0
 10
13330.69464290894
 20
2959.299667218207
 30
0.0
  0
VERTEX
  5
B0445
  8
0
 10
13330.69464290894
 20
2218.036426392835
 30
0.0
  0
SEQEND
  5
B084A
  8
0
  0
ARC
  5
AC06E
  8
0
 10
13176.26723868209
 20
3041.614518736737
 30
0.0
 40
152.0954421879083
 50
53.7437419628992
 51
36.24889815847135
  0
ARC
  5
AC06F
  8
0
 10
13176.33617780232
 20
3041.628578698328
 30
0.0
 40
174.9416628924599
 50
53.15109948308578
 51
36.86874516371485
  0
CIRCLE
  5
AC070
  8
0
 10
13291.8865942175
 20
3157.219023443992
 30
0.0
 40
26.6188882392234
  0
CIRCLE
  5
AC071
  8
0
 10
14611.97469221391
 20
3157.219023443992
 30
0.0
 40
26.6188882392234
  0
ARC
  5
AC072
  8
0
 10
14496.42427579875
 20
3041.628578698328
 30
0.0
 40
174.9416628924599
 50
53.15109948308578
 51
36.86874516371485
  0
ARC
  5
AC073
  8
0
 10
14496.3553366785
 20
3041.614518736737
 30
0.0
 40
152.0954421879083
 50
53.7437419628992
 51
36.24889815847135
  0
POLYLINE
  5
AC074
  8
0
 66
     1
 10
0.0
 20
0.0
 30
0.0
 70
     1
  0
VERTEX
  5
B0446
  8
0
 10
14650.78274090535
 20
2218.036426392835
 30
0.0
  0
VERTEX
  5
B0447
  8
0
 10
14396.08620002099
 20
2218.036426392835
 30
0.0
  0
VERTEX
  5
B0448
  8
0
 10
14396.08620002099
 20
2898.321719250511
 30
0.0
 42
0.4500709718572363
  0
VERTEX
  5
B0449
  8
0
 10
14650.78274090535
 20
2959.299667218207
 30
0.0
  0
VERTEX
  5
B044A
  8
0
 10
14650.78274090535
 20
2218.036426392835
 30
0.0
  0
SEQEND
  5
B084B
  8
0
  0
POLYLINE
  5
AC075
  8
0
 66
     1
 10
0.0
 20
0.0
 30
0.0
  0
VERTEX
  5
B044B
  8
0
 10
14350.57230533624
 20
3138.229759476774
 30
0.0
 42
-0.4313481873912146
  0
VERTEX
  5
B044C
  8
0
 10
14601.33797792533
 20
3181.62036603484
 30
0.0
 42
-0.6814225353586246
  0
VERTEX
  5
B044D
  8
0
 10
14636.37971741414
 20
3146.590761306244
 30
0.0
 42
-0.2912012462252227
  0
VERTEX
  5
B044E
  8
0
 10
14650.78274090535
 20
2959.299667218235
 30
0.0
  0
VERTEX
  5
B044F
  8
0
 10
14650.78274090535
 20
2218.036426392835
 30
0.0
  0
VERTEX
  5
B0450
  8
0
 10
15350.57230533624
 20
2218.036426392835
 30
0.0
  0
VERTEX
  5
B0451
  8
0
 10
15350.57230533624
 20
4348.036426392877
 30
0.0
  0
VERTEX
  5
B0452
  8
0
 10
14350.57230533624
 20
4348.036426392877
 30
0.0
  0
VERTEX
  5
B0453
  8
0
 10
14350.57230533624
 20
3138.229759476774
 30
0.0
  0
SEQEND
  5
B084C
  8
0
  0
POLYLINE
  5
AC076
  8
0
 66
     1
 10
0.0
 20
0.0
 30
0.0
  0
VERTEX
  5
B0454
  8
0
 10
14396.08620002099
 20
2898.321719250511
 30
0.0
  0
VERTEX
  5
B0455
  8
0
 10
14396.08620002099
 20
2218.036426392835
 30
0.0
  0
VERTEX
  5
B0456
  8
0
 10
14350.57230533624
 20
2218.036426392835
 30
0.0
  0
VERTEX
  5
B0457
  8
0
 10
14350.57230533624
 20
2945.027397919883
 30
0.0
 42
0.0940184742794634
  0
VERTEX
  5
B0458
  8
0
 10
14396.08620002099
 20
2898.321719250511
 30
0.0
 42
0.0940184742794634
  0
SEQEND
  5
B084D
  8
0
  0
CIRCLE
  5
AC077
  8
0
 10
23606.97841422533
 20
3157.219023443992
 30
0.0
 40
26.6188882392234
  0
ARC
  5
AC078
  8
0
 10
23491.42799781014
 20
3041.628578698328
 30
0.0
 40
174.9416628924599
 50
53.15109948308578
 51
36.86874516371485
  0
ARC
  5
AC079
  8
0
 10
23491.35905868991
 20
3041.614518736737
 30
0.0
 40
152.0954421879083
 50
53.7437419628992
 51
36.24889815847135
  0
POLYLINE
  5
AC07A
  8
0
 66
     1
 10
0.0
 20
0.0
 30
0.0
 70
     1
  0
VERTEX
  5
B0459
  8
0
 10
23645.78646291676
 20
2218.036426392835
 30
0.0
  0
VERTEX
  5
B045A
  8
0
 10
23391.08992203239
 20
2218.036426392835
 30
0.0
  0
VERTEX
  5
B045B
  8
0
 10
23391.08992203239
 20
2898.321719250511
 30
0.0
 42
0.4500709718572363
  0
VERTEX
  5
B045C
  8
0
 10
23645.78646291676
 20
2959.299667218207
 30
0.0
  0
VERTEX
  5
B045D
  8
0
 10
23645.78646291676
 20
2218.036426392835
 30
0.0
  0
SEQEND
  5
B084E
  8
0
  0
POLYLINE
  5
AC07B
  8
0
 66
     1
 10
0.0
 20
0.0
 30
0.0
  0
VERTEX
  5
B045E
  8
0
 10
23345.57602734765
 20
3138.229759476774
 30
0.0
 42
-0.4313481873912146
  0
VERTEX
  5
B045F
  8
0
 10
23596.34169993672
 20
3181.62036603484
 30
0.0
 42
-0.6814225353586246
  0
VERTEX
  5
B0460
  8
0
 10
23631.38343942555
 20
3146.590761306244
 30
0.0
 42
-0.2912012462252227
  0
VERTEX
  5
B0461
  8
0
 10
23645.78646291676
 20
2959.299667218235
 30
0.0
  0
VERTEX
  5
B0462
  8
0
 10
23645.78646291676
 20
2218.036426392835
 30
0.0
  0
VERTEX
  5
B0463
  8
0
 10
23945.57602734765
 20
2218.036426392835
 30
0.0
  0
VERTEX
  5
B0464
  8
0
 10
23945.57602734765
 20
4348.036426392877
 30
0.0
  0
VERTEX
  5
B0465
  8
0
 10
23345.57602734765
 20
4348.036426392877
 30
0.0
  0
VERTEX
  5
B0466
  8
0
 10
23345.57602734765
 20
3138.229759476774
 30
0.0
  0
SEQEND
  5
B084F
  8
0
  0
POLYLINE
  5
AC07C
  8
0
 66
     1
 10
0.0
 20
0.0
 30
0.0
  0
VERTEX
  5
B0467
  8
0
 10
23391.08992203239
 20
2898.321719250511
 30
0.0
  0
VERTEX
  5
B0468
  8
0
 10
23391.08992203239
 20
2218.036426392835
 30
0.0
  0
VERTEX
  5
B0469
  8
0
 10
23345.57602734765
 20
2218.036426392835
 30
0.0
  0
VERTEX
  5
B046A
  8
0
 10
23345.57602734765
 20
2945.027397919883
 30
0.0
 42
0.0940184742794634
  0
VERTEX
  5
B046B
  8
0
 10
23391.08992203239
 20
2898.321719250511
 30
0.0
 42
0.0940184742794634
  0
SEQEND
  5
B0850
  8
0
  0
POLYLINE
  5
AC07D
  8
0
 66
     1
 10
0.0
 20
0.0
 30
0.0
  0
VERTEX
  5
B046C
  8
0
 10
23145.57602734765
 20
2163.036426392835
 30
0.0
  0
VERTEX
  5
B046D
  8
0
 10
24145.57602734765
 20
2163.036426392835
 30
0.0
  0
SEQEND
  5
B0851
  8
0
  0
POLYLINE
  5
AC07E
  8
0
 66
     1
 10
0.0
 20
0.0
 30
0.0
  0
VERTEX
  5
B046E
  8
0
 10
24384.35808571135
 20
2898.321719250511
 30
0.0
  0
VERTEX
  5
B046F
  8
0
 10
24384.35808571135
 20
2218.036426392835
 30
0.0
  0
VERTEX
  5
B0470
  8
0
 10
24338.8441910266
 20
2218.036426392835
 30
0.0
  0
VERTEX
  5
B0471
  8
0
 10
24338.8441910266
 20
2945.027397919883
 30
0.0
 42
0.0940184742794634
  0
VERTEX
  5
B0472
  8
0
 10
24384.35808571135
 20
2898.321719250511
 30
0.0
 42
0.0940184742794634
  0
SEQEND
  5
B0852
  8
0
  0
POLYLINE
  5
AC07F
  8
0
 66
     1
 10
0.0
 20
0.0
 30
0.0
  0
VERTEX
  5
B0473
  8
0
 10
24338.8441910266
 20
3138.229759476774
 30
0.0
 42
-0.4313481873912146
  0
VERTEX
  5
B0474
  8
0
 10
24589.60986361568
 20
3181.62036603484
 30
0.0
 42
-0.6814225353586246
  0
VERTEX
  5
B0475
  8
0
 10
24624.65160310451
 20
3146.590761306244
 30
0.0
 42
-0.2912012462252227
  0
VERTEX
  5
B0476
  8
0
 10
24639.05462659571
 20
2959.299667218235
 30
0.0
  0
VERTEX
  5
B0477
  8
0
 10
24639.05462659571
 20
2218.036426392835
 30
0.0
  0
VERTEX
  5
B0478
  8
0
 10
24938.8441910266
 20
2218.036426392835
 30
0.0
  0
VERTEX
  5
B0479
  8
0
 10
24938.8441910266
 20
4748.036426392877
 30
0.0
  0
VERTEX
  5
B047A
  8
0
 10
24338.8441910266
 20
4748.036426392877
 30
0.0
  0
VERTEX
  5
B047B
  8
0
 10
24338.8441910266
 20
3138.229759476774
 30
0.0
  0
SEQEND
  5
B0853
  8
0
  0
POLYLINE
  5
AC080
  8
0
 66
     1
 10
0.0
 20
0.0
 30
0.0
 70
     1
  0
VERTEX
  5
B047C
  8
0
 10
24639.05462659571
 20
2218.036426392835
 30
0.0
  0
VERTEX
  5
B047D
  8
0
 10
24384.35808571135
 20
2218.036426392835
 30
0.0
  0
VERTEX
  5
B047E
  8
0
 10
24384.35808571135
 20
2898.321719250511
 30
0.0
 42
0.4500709718572363
  0
VERTEX
  5
B047F
  8
0
 10
24639.05462659571
 20
2959.299667218207
 30
0.0
  0
VERTEX
  5
B0480
  8
0
 10
24639.05462659571
 20
2218.036426392835
 30
0.0
  0
SEQEND
  5
B0854
  8
0
  0
ARC
  5
AC081
  8
0
 10
24484.62722236886
 20
3041.614518736737
 30
0.0
 40
152.0954421879083
 50
53.7437419628992
 51
36.24889815847135
  0
ARC
  5
AC082
  8
0
 10
24484.69616148909
 20
3041.628578698328
 30
0.0
 40
174.9416628924599
 50
53.15109948308578
 51
36.86874516371485
  0
CIRCLE
  5
AC083
  8
0
 10
24600.24657790427
 20
3157.219023443992
 30
0.0
 40
26.6188882392234
  0
CIRCLE
  5
AC09F
  8
0
 10
24600.24657790427
 20
7201.354513457438
 30
0.0
 40
26.6188882392234
  0
ARC
  5
AC0A0
  8
0
 10
24484.69616148909
 20
7085.764068711775
 30
0.0
 40
174.9416628924599
 50
53.15109948308578
 51
36.86874516371485
  0
ARC
  5
AC0A1
  8
0
 10
24484.62722236886
 20
7085.750008750183
 30
0.0
 40
152.0954421879083
 50
53.7437419628992
 51
36.24889815847135
  0
POLYLINE
  5
AC0A2
  8
0
 66
     1
 10
0.0
 20
0.0
 30
0.0
 70
     1
  0
VERTEX
  5
B0481
  8
0
 10
24639.05462659571
 20
6262.171916406281
 30
0.0
  0
VERTEX
  5
B0482
  8
0
 10
24384.35808571135
 20
6262.171916406281
 30
0.0
  0
VERTEX
  5
B0483
  8
0
 10
24384.35808571135
 20
6942.457209263958
 30
0.0
 42
0.4500709718572363
  0
VERTEX
  5
B0484
  8
0
 10
24639.05462659571
 20
7003.435157231653
 30
0.0
  0
VERTEX
  5
B0485
  8
0
 10
24639.05462659571
 20
6262.171916406281
 30
0.0
  0
SEQEND
  5
B0855
  8
0
  0
POLYLINE
  5
AC0A3
  8
0
 66
     1
 10
0.0
 20
0.0
 30
0.0
  0
VERTEX
  5
B0486
  8
0
 10
24338.8441910266
 20
7182.365249490221
 30
0.0
 42
-0.4313481873912146
  0
VERTEX
  5
B0487
  8
0
 10
24589.60986361568
 20
7225.755856048285
 30
0.0
 42
-0.6814225353586246
  0
VERTEX
  5
B0488
  8
0
 10
24624.65160310451
 20
7190.726251319691
 30
0.0
 42
-0.2912012462252227
  0
VERTEX
  5
B0489
  8
0
 10
24639.05462659571
 20
7003.435157231681
 30
0.0
  0
VERTEX
  5
B048A
  8
0
 10
24639.05462659571
 20
6262.171916406281
 30
0.0
  0
VERTEX
  5
B048B
  8
0
 10
24938.8441910266
 20
6262.171916406281
 30
0.0
  0
VERTEX
  5
B048C
  8
0
 10
24938.8441910266
 20
8792.171916406323
 30
0.0
  0
VERTEX
  5
B048D
  8
0
 10
24338.8441910266
 20
8792.171916406323
 30
0.0
  0
VERTEX
  5
B048E
  8
0
 10
24338.8441910266
 20
7182.365249490221
 30
0.0
  0
SEQEND
  5
B0856
  8
0
  0
POLYLINE
  5
AC0A4
  8
0
 66
     1
 10
0.0
 20
0.0
 30
0.0
  0
VERTEX
  5
B048F
  8
0
 10
24384.35808571135
 20
6942.457209263958
 30
0.0
  0
VERTEX
  5
B0490
  8
0
 10
24384.35808571135
 20
6262.171916406281
 30
0.0
  0
VERTEX
  5
B0491
  8
0
 10
24338.8441910266
 20
6262.171916406281
 30
0.0
  0
VERTEX
  5
B0492
  8
0
 10
24338.8441910266
 20
6989.162887933328
 30
0.0
 42
0.0940184742794634
  0
VERTEX
  5
B0493
  8
0
 10
24384.35808571135
 20
6942.457209263958
 30
0.0
 42
0.0940184742794634
  0
SEQEND
  5
B0857
  8
0
  0
POLYLINE
  5
AC0A5
  8
0
 66
     1
 10
0.0
 20
0.0
 30
0.0
  0
VERTEX
  5
B0494
  8
0
 10
23145.57602734765
 20
6207.171916406282
 30
0.0
  0
VERTEX
  5
B0495
  8
0
 10
24145.57602734765
 20
6207.171916406282
 30
0.0
  0
SEQEND
  5
B0858
  8
0
  0
POLYLINE
  5
AC0A6
  8
0
 66
     1
 10
0.0
 20
0.0
 30
0.0
  0
VERTEX
  5
B0496
  8
0
 10
23391.08992203239
 20
6942.457209263958
 30
0.0
  0
VERTEX
  5
B0497
  8
0
 10
23391.08992203239
 20
6262.171916406281
 30
0.0
  0
VERTEX
  5
B0498
  8
0
 10
23345.57602734765
 20
6262.171916406281
 30
0.0
  0
VERTEX
  5
B0499
  8
0
 10
23345.57602734765
 20
6989.162887933328
 30
0.0
 42
0.0940184742794634
  0
VERTEX
  5
B049A
  8
0
 10
23391.08992203239
 20
6942.457209263958
 30
0.0
 42
0.0940184742794634
  0
SEQEND
  5
B0859
  8
0
  0
POLYLINE
  5
AC0A7
  8
0
 66
     1
 10
0.0
 20
0.0
 30
0.0
  0
VERTEX
  5
B049B
  8
0
 10
23345.57602734765
 20
7182.365249490221
 30
0.0
 42
-0.4313481873912146
  0
VERTEX
  5
B049C
  8
0
 10
23596.34169993672
 20
7225.755856048285
 30
0.0
 42
-0.6814225353586246
  0
VERTEX
  5
B049D
  8
0
 10
23631.38343942555
 20
7190.726251319691
 30
0.0
 42
-0.2912012462252227
  0
VERTEX
  5
B049E
  8
0
 10
23645.78646291676
 20
7003.435157231681
 30
0.0
  0
VERTEX
  5
B049F
  8
0
 10
23645.78646291676
 20
6262.171916406281
 30
0.0
  0
VERTEX
  5
B04A0
  8
0
 10
23945.57602734765
 20
6262.171916406281
 30
0.0
  0
VERTEX
  5
B04A1
  8
0
 10
23945.57602734765
 20
8392.171916406323
 30
0.0
  0
VERTEX
  5
B04A2
  8
0
 10
23345.57602734765
 20
8392.171916406323
 30
0.0
  0
VERTEX
  5
B04A3
  8
0
 10
23345.57602734765
 20
7182.365249490221
 30
0.0
  0
SEQEND
  5
B085A
  8
0
  0
POLYLINE
  5
AC0A8
  8
0
 66
     1
 10
0.0
 20
0.0
 30
0.0
 70
     1
  0
VERTEX
  5
B04A4
  8
0
 10
23645.78646291676
 20
6262.171916406281
 30
0.0
  0
VERTEX
  5
B04A5
  8
0
 10
23391.08992203239
 20
6262.171916406281
 30
0.0
  0
VERTEX
  5
B04A6
  8
0
 10
23391.08992203239
 20
6942.457209263958
 30
0.0
 42
0.4500709718572363
  0
VERTEX
  5
B04A7
  8
0
 10
23645.78646291676
 20
7003.435157231653
 30
0.0
  0
VERTEX
  5
B04A8
  8
0
 10
23645.78646291676
 20
6262.171916406281
 30
0.0
  0
SEQEND
  5
B085B
  8
0
  0
ARC
  5
AC0A9
  8
0
 10
23491.35905868991
 20
7085.750008750183
 30
0.0
 40
152.0954421879083
 50
53.7437419628992
 51
36.24889815847135
  0
ARC
  5
AC0AA
  8
0
 10
23491.42799781014
 20
7085.764068711775
 30
0.0
 40
174.9416628924599
 50
53.15109948308578
 51
36.86874516371485
  0
CIRCLE
  5
AC0AB
  8
0
 10
23606.97841422533
 20
7201.354513457438
 30
0.0
 40
26.6188882392234
  0
POLYLINE
  5
AC0AC
  8
0
 66
     1
 10
0.0
 20
0.0
 30
0.0
  0
VERTEX
  5
B04A9
  8
0
 10
24141.98945446307
 20
6207.171916406282
 30
0.0
  0
VERTEX
  5
B04AA
  8
0
 10
25138.40288157848
 20
6207.171916406282
 30
0.0
  0
SEQEND
  5
B085C
  8
0
  0
POLYLINE
  5
AC0AD
  8
0
 66
     1
 10
0.0
 20
0.0
 30
0.0
  0
VERTEX
  5
B04AB
  8
0
 10
24141.98945446307
 20
6207.171916406282
 30
0.0
  0
VERTEX
  5
B04AC
  8
0
 10
23145.57602734765
 20
6207.171916406282
 30
0.0
  0
SEQEND
  5
B085D
  8
0
  0
POLYLINE
  5
AC0AE
  8
0
 66
     1
 10
0.0
 20
0.0
 30
0.0
  0
VERTEX
  5
B04AD
  8
0
 10
24141.98945446307
 20
14295.44289643319
 30
0.0
  0
VERTEX
  5
B04AE
  8
0
 10
23145.57602734765
 20
14295.44289643319
 30
0.0
  0
SEQEND
  5
B085E
  8
0
  0
POLYLINE
  5
AC0AF
  8
0
 66
     1
 10
0.0
 20
0.0
 30
0.0
  0
VERTEX
  5
B04AF
  8
0
 10
24141.98945446307
 20
14295.44289643319
 30
0.0
  0
VERTEX
  5
B04B0
  8
0
 10
25138.40288157848
 20
14295.44289643319
 30
0.0
  0
SEQEND
  5
B085F
  8
0
  0
CIRCLE
  5
AC0B0
  8
0
 10
23606.97841422533
 20
15289.62549348434
 30
0.0
 40
26.6188882392234
  0
ARC
  5
AC0B1
  8
0
 10
23491.42799781014
 20
15174.03504873868
 30
0.0
 40
174.9416628924599
 50
53.15109948308578
 51
36.86874516371485
  0
ARC
  5
AC0B2
  8
0
 10
23491.35905868991
 20
15174.02098877709
 30
0.0
 40
152.0954421879083
 50
53.7437419628992
 51
36.24889815847135
  0
POLYLINE
  5
AC0B3
  8
0
 66
     1
 10
0.0
 20
0.0
 30
0.0
 70
     1
  0
VERTEX
  5
B04B1
  8
0
 10
23645.78646291676
 20
14350.44289643319
 30
0.0
  0
VERTEX
  5
B04B2
  8
0
 10
23391.08992203239
 20
14350.44289643319
 30
0.0
  0
VERTEX
  5
B04B3
  8
0
 10
23391.08992203239
 20
15030.72818929086
 30
0.0
 42
0.4500709718572363
  0
VERTEX
  5
B04B4
  8
0
 10
23645.78646291676
 20
15091.70613725856
 30
0.0
  0
VERTEX
  5
B04B5
  8
0
 10
23645.78646291676
 20
14350.44289643319
 30
0.0
  0
SEQEND
  5
B0860
  8
0
  0
POLYLINE
  5
AC0B4
  8
0
 66
     1
 10
0.0
 20
0.0
 30
0.0
  0
VERTEX
  5
B04B6
  8
0
 10
23345.57602734765
 20
15270.63622951712
 30
0.0
 42
-0.4313481873912146
  0
VERTEX
  5
B04B7
  8
0
 10
23596.34169993672
 20
15314.02683607519
 30
0.0
 42
-0.6814225353586246
  0
VERTEX
  5
B04B8
  8
0
 10
23631.38343942555
 20
15278.9972313466
 30
0.0
 42
-0.2912012462252227
  0
VERTEX
  5
B04B9
  8
0
 10
23645.78646291676
 20
15091.70613725858
 30
0.0
  0
VERTEX
  5
B04BA
  8
0
 10
23645.78646291676
 20
14350.44289643319
 30
0.0
  0
VERTEX
  5
B04BB
  8
0
 10
23945.57602734765
 20
14350.44289643319
 30
0.0
  0
VERTEX
  5
B04BC
  8
0
 10
23945.57602734765
 20
16480.44289643323
 30
0.0
  0
VERTEX
  5
B04BD
  8
0
 10
23345.57602734765
 20
16480.44289643323
 30
0.0
  0
VERTEX
  5
B04BE
  8
0
 10
23345.57602734765
 20
15270.63622951712
 30
0.0
  0
SEQEND
  5
B0861
  8
0
  0
POLYLINE
  5
AC0B5
  8
0
 66
     1
 10
0.0
 20
0.0
 30
0.0
  0
VERTEX
  5
B04BF
  8
0
 10
23391.08992203239
 20
15030.72818929086
 30
0.0
  0
VERTEX
  5
B04C0
  8
0
 10
23391.08992203239
 20
14350.44289643319
 30
0.0
  0
VERTEX
  5
B04C1
  8
0
 10
23345.57602734765
 20
14350.44289643319
 30
0.0
  0
VERTEX
  5
B04C2
  8
0
 10
23345.57602734765
 20
15077.43386796023
 30
0.0
 42
0.0940184742794634
  0
VERTEX
  5
B04C3
  8
0
 10
23391.08992203239
 20
15030.72818929086
 30
0.0
 42
0.0940184742794634
  0
SEQEND
  5
B0862
  8
0
  0
POLYLINE
  5
AC0B6
  8
0
 66
     1
 10
0.0
 20
0.0
 30
0.0
  0
VERTEX
  5
B04C4
  8
0
 10
23145.57602734765
 20
14295.44289643319
 30
0.0
  0
VERTEX
  5
B04C5
  8
0
 10
24145.57602734765
 20
14295.44289643319
 30
0.0
  0
SEQEND
  5
B0863
  8
0
  0
POLYLINE
  5
AC0B7
  8
0
 66
     1
 10
0.0
 20
0.0
 30
0.0
  0
VERTEX
  5
B04C6
  8
0
 10
24384.35808571135
 20
15030.72818929086
 30
0.0
  0
VERTEX
  5
B04C7
  8
0
 10
24384.35808571135
 20
14350.44289643319
 30
0.0
  0
VERTEX
  5
B04C8
  8
0
 10
24338.8441910266
 20
14350.44289643319
 30
0.0
  0
VERTEX
  5
B04C9
  8
0
 10
24338.8441910266
 20
15077.43386796023
 30
0.0
 42
0.0940184742794634
  0
VERTEX
  5
B04CA
  8
0
 10
24384.35808571135
 20
15030.72818929086
 30
0.0
 42
0.0940184742794634
  0
SEQEND
  5
B0864
  8
0
  0
POLYLINE
  5
AC0B8
  8
0
 66
     1
 10
0.0
 20
0.0
 30
0.0
  0
VERTEX
  5
B04CB
  8
0
 10
24338.8441910266
 20
15270.63622951712
 30
0.0
 42
-0.4313481873912146
  0
VERTEX
  5
B04CC
  8
0
 10
24589.60986361568
 20
15314.02683607519
 30
0.0
 42
-0.6814225353586246
  0
VERTEX
  5
B04CD
  8
0
 10
24624.65160310451
 20
15278.9972313466
 30
0.0
 42
-0.2912012462252227
  0
VERTEX
  5
B04CE
  8
0
 10
24639.05462659571
 20
15091.70613725858
 30
0.0
  0
VERTEX
  5
B04CF
  8
0
 10
24639.05462659571
 20
14350.44289643319
 30
0.0
  0
VERTEX
  5
B04D0
  8
0
 10
24938.8441910266
 20
14350.44289643319
 30
0.0
  0
VERTEX
  5
B04D1
  8
0
 10
24938.8441910266
 20
16880.44289643323
 30
0.0
  0
VERTEX
  5
B04D2
  8
0
 10
24338.8441910266
 20
16880.44289643323
 30
0.0
  0
VERTEX
  5
B04D3
  8
0
 10
24338.8441910266
 20
15270.63622951712
 30
0.0
  0
SEQEND
  5
B0865
  8
0
  0
POLYLINE
  5
AC0B9
  8
0
 66
     1
 10
0.0
 20
0.0
 30
0.0
 70
     1
  0
VERTEX
  5
B04D4
  8
0
 10
24639.05462659571
 20
14350.44289643319
 30
0.0
  0
VERTEX
  5
B04D5
  8
0
 10
24384.35808571135
 20
14350.44289643319
 30
0.0
  0
VERTEX
  5
B04D6
  8
0
 10
24384.35808571135
 20
15030.72818929086
 30
0.0
 42
0.4500709718572363
  0
VERTEX
  5
B04D7
  8
0
 10
24639.05462659571
 20
15091.70613725856
 30
0.0
  0
VERTEX
  5
B04D8
  8
0
 10
24639.05462659571
 20
14350.44289643319
 30
0.0
  0
SEQEND
  5
B0866
  8
0
  0
ARC
  5
AC0BA
  8
0
 10
24484.62722236886
 20
15174.02098877709
 30
0.0
 40
152.0954421879083
 50
53.7437419628992
 51
36.24889815847135
  0
ARC
  5
AC0BB
  8
0
 10
24484.69616148909
 20
15174.03504873868
 30
0.0
 40
174.9416628924599
 50
53.15109948308578
 51
36.86874516371485
  0
CIRCLE
  5
AC0BC
  8
0
 10
24600.24657790427
 20
15289.62549348434
 30
0.0
 40
26.6188882392234
  0
CIRCLE
  5
AC0BD
  8
0
 10
24600.24657790427
 20
11245.49000347089
 30
0.0
 40
26.6188882392234
  0
ARC
  5
AC0BE
  8
0
 10
24484.69616148909
 20
11129.89955872523
 30
0.0
 40
174.9416628924599
 50
53.15109948308578
 51
36.86874516371485
  0
ARC
  5
AC0BF
  8
0
 10
24484.62722236886
 20
11129.88549876364
 30
0.0
 40
152.0954421879083
 50
53.7437419628992
 51
36.24889815847135
  0
POLYLINE
  5
AC0C0
  8
0
 66
     1
 10
0.0
 20
0.0
 30
0.0
 70
     1
  0
VERTEX
  5
B04D9
  8
0
 10
24639.05462659571
 20
10306.30740641974
 30
0.0
  0
VERTEX
  5
B04DA
  8
0
 10
24384.35808571135
 20
10306.30740641974
 30
0.0
  0
VERTEX
  5
B04DB
  8
0
 10
24384.35808571135
 20
10986.59269927741
 30
0.0
 42
0.4500709718572363
  0
VERTEX
  5
B04DC
  8
0
 10
24639.05462659571
 20
11047.57064724511
 30
0.0
  0
VERTEX
  5
B04DD
  8
0
 10
24639.05462659571
 20
10306.30740641974
 30
0.0
  0
SEQEND
  5
B0867
  8
0
  0
POLYLINE
  5
AC0C1
  8
0
 66
     1
 10
0.0
 20
0.0
 30
0.0
  0
VERTEX
  5
B04DE
  8
0
 10
24338.8441910266
 20
11226.50073950368
 30
0.0
 42
-0.4313481873912146
  0
VERTEX
  5
B04DF
  8
0
 10
24589.60986361568
 20
11269.89134606174
 30
0.0
 42
-0.6814225353586246
  0
VERTEX
  5
B04E0
  8
0
 10
24624.65160310451
 20
11234.86174133315
 30
0.0
 42
-0.2912012462252227
  0
VERTEX
  5
B04E1
  8
0
 10
24639.05462659571
 20
11047.57064724514
 30
0.0
  0
VERTEX
  5
B04E2
  8
0
 10
24639.05462659571
 20
10306.30740641974
 30
0.0
  0
VERTEX
  5
B04E3
  8
0
 10
24938.8441910266
 20
10306.30740641974
 30
0.0
  0
VERTEX
  5
B04E4
  8
0
 10
24938.8441910266
 20
12836.30740641978
 30
0.0
  0
VERTEX
  5
B04E5
  8
0
 10
24338.8441910266
 20
12836.30740641978
 30
0.0
  0
VERTEX
  5
B04E6
  8
0
 10
24338.8441910266
 20
11226.50073950368
 30
0.0
  0
SEQEND
  5
B0868
  8
0
  0
POLYLINE
  5
AC0C2
  8
0
 66
     1
 10
0.0
 20
0.0
 30
0.0
  0
VERTEX
  5
B04E7
  8
0
 10
24384.35808571135
 20
10986.59269927741
 30
0.0
  0
VERTEX
  5
B04E8
  8
0
 10
24384.35808571135
 20
10306.30740641974
 30
0.0
  0
VERTEX
  5
B04E9
  8
0
 10
24338.8441910266
 20
10306.30740641974
 30
0.0
  0
VERTEX
  5
B04EA
  8
0
 10
24338.8441910266
 20
11033.29837794679
 30
0.0
 42
0.0940184742794634
  0
VERTEX
  5
B04EB
  8
0
 10
24384.35808571135
 20
10986.59269927741
 30
0.0
 42
0.0940184742794634
  0
SEQEND
  5
B0869
  8
0
  0
POLYLINE
  5
AC0C3
  8
0
 66
     1
 10
0.0
 20
0.0
 30
0.0
  0
VERTEX
  5
B04EC
  8
0
 10
23145.57602734765
 20
10251.30740641974
 30
0.0
  0
VERTEX
  5
B04ED
  8
0
 10
24145.57602734765
 20
10251.30740641974
 30
0.0
  0
SEQEND
  5
B086A
  8
0
  0
POLYLINE
  5
AC0C4
  8
0
 66
     1
 10
0.0
 20
0.0
 30
0.0
  0
VERTEX
  5
B04EE
  8
0
 10
23391.08992203239
 20
10986.59269927741
 30
0.0
  0
VERTEX
  5
B04EF
  8
0
 10
23391.08992203239
 20
10306.30740641974
 30
0.0
  0
VERTEX
  5
B04F0
  8
0
 10
23345.57602734765
 20
10306.30740641974
 30
0.0
  0
VERTEX
  5
B04F1
  8
0
 10
23345.57602734765
 20
11033.29837794679
 30
0.0
 42
0.0940184742794634
  0
VERTEX
  5
B04F2
  8
0
 10
23391.08992203239
 20
10986.59269927741
 30
0.0
 42
0.0940184742794634
  0
SEQEND
  5
B086B
  8
0
  0
POLYLINE
  5
AC0C5
  8
0
 66
     1
 10
0.0
 20
0.0
 30
0.0
  0
VERTEX
  5
B04F3
  8
0
 10
23345.57602734765
 20
11226.50073950368
 30
0.0
 42
-0.4313481873912146
  0
VERTEX
  5
B04F4
  8
0
 10
23596.34169993672
 20
11269.89134606174
 30
0.0
 42
-0.6814225353586246
  0
VERTEX
  5
B04F5
  8
0
 10
23631.38343942555
 20
11234.86174133315
 30
0.0
 42
-0.2912012462252227
  0
VERTEX
  5
B04F6
  8
0
 10
23645.78646291676
 20
11047.57064724514
 30
0.0
  0
VERTEX
  5
B04F7
  8
0
 10
23645.78646291676
 20
10306.30740641974
 30
0.0
  0
VERTEX
  5
B04F8
  8
0
 10
23945.57602734765
 20
10306.30740641974
 30
0.0
  0
VERTEX
  5
B04F9
  8
0
 10
23945.57602734765
 20
12436.30740641978
 30
0.0
  0
VERTEX
  5
B04FA
  8
0
 10
23345.57602734765
 20
12436.30740641978
 30
0.0
  0
VERTEX
  5
B04FB
  8
0
 10
23345.57602734765
 20
11226.50073950368
 30
0.0
  0
SEQEND
  5
B086C
  8
0
  0
POLYLINE
  5
AC0C6
  8
0
 66
     1
 10
0.0
 20
0.0
 30
0.0
 70
     1
  0
VERTEX
  5
B04FC
  8
0
 10
23645.78646291676
 20
10306.30740641974
 30
0.0
  0
VERTEX
  5
B04FD
  8
0
 10
23391.08992203239
 20
10306.30740641974
 30
0.0
  0
VERTEX
  5
B04FE
  8
0
 10
23391.08992203239
 20
10986.59269927741
 30
0.0
 42
0.4500709718572363
  0
VERTEX
  5
B04FF
  8
0
 10
23645.78646291676
 20
11047.57064724511
 30
0.0
  0
VERTEX
  5
B0500
  8
0
 10
23645.78646291676
 20
10306.30740641974
 30
0.0
  0
SEQEND
  5
B086D
  8
0
  0
ARC
  5
AC0C7
  8
0
 10
23491.35905868991
 20
11129.88549876364
 30
0.0
 40
152.0954421879083
 50
53.7437419628992
 51
36.24889815847135
  0
ARC
  5
AC0C8
  8
0
 10
23491.42799781014
 20
11129.89955872523
 30
0.0
 40
174.9416628924599
 50
53.15109948308578
 51
36.86874516371485
  0
CIRCLE
  5
AC0C9
  8
0
 10
23606.97841422533
 20
11245.49000347089
 30
0.0
 40
26.6188882392234
  0
POLYLINE
  5
AC0CA
  8
0
 66
     1
 10
0.0
 20
0.0
 30
0.0
  0
VERTEX
  5
B0501
  8
0
 10
24141.98945446307
 20
10251.30740641974
 30
0.0
  0
VERTEX
  5
B0502
  8
0
 10
25138.40288157848
 20
10251.30740641974
 30
0.0
  0
SEQEND
  5
B086E
  8
0
  0
POLYLINE
  5
AC0CB
  8
0
 66
     1
 10
0.0
 20
0.0
 30
0.0
  0
VERTEX
  5
B0503
  8
0
 10
24141.98945446307
 20
10251.30740641974
 30
0.0
  0
VERTEX
  5
B0504
  8
0
 10
23145.57602734765
 20
10251.30740641974
 30
0.0
  0
SEQEND
  5
B086F
  8
0
  0
POLYLINE
  5
AC0CE
  8
0
 66
     1
 10
0.0
 20
0.0
 30
0.0
  0
VERTEX
  5
B0505
  8
0
 10
27527.1875837631
 20
2893.321719250511
 30
0.0
  0
VERTEX
  5
B0506
  8
0
 10
27527.1875837631
 20
2213.036426392835
 30
0.0
  0
VERTEX
  5
B0507
  8
0
 10
27481.67368907836
 20
2213.036426392835
 30
0.0
  0
VERTEX
  5
B0508
  8
0
 10
27481.67368907836
 20
2940.027397919883
 30
0.0
 42
0.0940184742794634
  0
VERTEX
  5
B0509
  8
0
 10
27527.1875837631
 20
2893.321719250511
 30
0.0
 42
0.0940184742794634
  0
SEQEND
  5
B0870
  8
0
  0
POLYLINE
  5
AC0CF
  8
0
 66
     1
 10
0.0
 20
0.0
 30
0.0
  0
VERTEX
  5
B050A
  8
0
 10
27481.67368907836
 20
3133.229759476774
 30
0.0
 42
-0.4313481873912146
  0
VERTEX
  5
B050B
  8
0
 10
27732.43936166743
 20
3176.62036603484
 30
0.0
 42
-0.6814225353586246
  0
VERTEX
  5
B050C
  8
0
 10
27767.48110115626
 20
3141.590761306244
 30
0.0
 42
-0.2912012462252227
  0
VERTEX
  5
B050D
  8
0
 10
27781.88412464747
 20
2954.299667218235
 30
0.0
  0
VERTEX
  5
B050E
  8
0
 10
27781.88412464747
 20
2213.036426392835
 30
0.0
  0
VERTEX
  5
B050F
  8
0
 10
28081.67368907836
 20
2213.036426392835
 30
0.0
  0
VERTEX
  5
B0510
  8
0
 10
28081.67368907836
 20
4343.036426392877
 30
0.0
  0
VERTEX
  5
B0511
  8
0
 10
27481.67368907836
 20
4343.036426392877
 30
0.0
  0
VERTEX
  5
B0512
  8
0
 10
27481.67368907836
 20
3133.229759476774
 30
0.0
  0
SEQEND
  5
B0871
  8
0
  0
POLYLINE
  5
AC0D0
  8
0
 66
     1
 10
0.0
 20
0.0
 30
0.0
 70
     1
  0
VERTEX
  5
B0513
  8
0
 10
27781.88412464747
 20
2213.036426392835
 30
0.0
  0
VERTEX
  5
B0514
  8
0
 10
27527.1875837631
 20
2213.036426392835
 30
0.0
  0
VERTEX
  5
B0515
  8
0
 10
27527.1875837631
 20
2893.321719250511
 30
0.0
 42
0.4500709718572363
  0
VERTEX
  5
B0516
  8
0
 10
27781.88412464747
 20
2954.299667218207
 30
0.0
  0
VERTEX
  5
B0517
  8
0
 10
27781.88412464747
 20
2213.036426392835
 30
0.0
  0
SEQEND
  5
B0872
  8
0
  0
ARC
  5
AC0D1
  8
0
 10
27627.45672042062
 20
3036.614518736737
 30
0.0
 40
152.0954421879083
 50
53.7437419628992
 51
36.24889815847135
  0
ARC
  5
AC0D2
  8
0
 10
27627.52565954085
 20
3036.628578698328
 30
0.0
 40
174.9416628924599
 50
53.15109948308578
 51
36.86874516371485
  0
CIRCLE
  5
AC0D3
  8
0
 10
27743.07607595603
 20
3152.219023443992
 30
0.0
 40
26.6188882392234
  0
CIRCLE
  5
AC0D4
  8
0
 10
29143.28651152515
 20
3152.219023443992
 30
0.0
 40
26.6188882392234
  0
ARC
  5
AC0D5
  8
0
 10
29027.73609510997
 20
3036.628578698328
 30
0.0
 40
174.9416628924599
 50
53.15109948308578
 51
36.86874516371485
  0
ARC
  5
AC0D6
  8
0
 10
29027.66715598974
 20
3036.614518736737
 30
0.0
 40
152.0954421879083
 50
53.7437419628992
 51
36.24889815847135
  0
POLYLINE
  5
AC0D7
  8
0
 66
     1
 10
0.0
 20
0.0
 30
0.0
 70
     1
  0
VERTEX
  5
B0518
  8
0
 10
29182.09456021659
 20
2213.036426392835
 30
0.0
  0
VERTEX
  5
B0519
  8
0
 10
28927.39801933223
 20
2213.036426392835
 30
0.0
  0
VERTEX
  5
B051A
  8
0
 10
28927.39801933223
 20
2893.321719250511
 30
0.0
 42
0.4500709718572363
  0
VERTEX
  5
B051B
  8
0
 10
29182.09456021659
 20
2954.299667218207
 30
0.0
  0
VERTEX
  5
B051C
  8
0
 10
29182.09456021659
 20
2213.036426392835
 30
0.0
  0
SEQEND
  5
B0873
  8
0
  0
POLYLINE
  5
AC0D8
  8
0
 66
     1
 10
0.0
 20
0.0
 30
0.0
  0
VERTEX
  5
B051D
  8
0
 10
28881.88412464748
 20
3133.229759476774
 30
0.0
 42
-0.4313481873912146
  0
VERTEX
  5
B051E
  8
0
 10
29132.64979723655
 20
3176.62036603484
 30
0.0
 42
-0.6814225353586246
  0
VERTEX
  5
B051F
  8
0
 10
29167.69153672539
 20
3141.590761306244
 30
0.0
 42
-0.2912012462252227
  0
VERTEX
  5
B0520
  8
0
 10
29182.09456021659
 20
2954.299667218235
 30
0.0
  0
VERTEX
  5
B0521
  8
0
 10
29182.09456021659
 20
2213.036426392835
 30
0.0
  0
VERTEX
  5
B0522
  8
0
 10
29481.88412464748
 20
2213.036426392835
 30
0.0
  0
VERTEX
  5
B0523
  8
0
 10
29481.88412464748
 20
4343.036426392877
 30
0.0
  0
VERTEX
  5
B0524
  8
0
 10
28881.88412464748
 20
4343.036426392877
 30
0.0
  0
VERTEX
  5
B0525
  8
0
 10
28881.88412464748
 20
3133.229759476774
 30
0.0
  0
SEQEND
  5
B0874
  8
0
  0
POLYLINE
  5
AC0D9
  8
0
 66
     1
 10
0.0
 20
0.0
 30
0.0
  0
VERTEX
  5
B0526
  8
0
 10
28927.39801933223
 20
2893.321719250511
 30
0.0
  0
VERTEX
  5
B0527
  8
0
 10
28927.39801933223
 20
2213.036426392835
 30
0.0
  0
VERTEX
  5
B0528
  8
0
 10
28881.88412464748
 20
2213.036426392835
 30
0.0
  0
VERTEX
  5
B0529
  8
0
 10
28881.88412464748
 20
2940.027397919883
 30
0.0
 42
0.0940184742794634
  0
VERTEX
  5
B052A
  8
0
 10
28927.39801933223
 20
2893.321719250511
 30
0.0
 42
0.0940184742794634
  0
SEQEND
  5
B0875
  8
0
  0
POLYLINE
  5
AC0DA
  8
0
 66
     1
 10
0.0
 20
0.0
 30
0.0
  0
VERTEX
  5
B052B
  8
0
 10
29527.39801933223
 20
2893.321719250511
 30
0.0
  0
VERTEX
  5
B052C
  8
0
 10
29527.39801933223
 20
2213.036426392835
 30
0.0
  0
VERTEX
  5
B052D
  8
0
 10
29481.88412464748
 20
2213.036426392835
 30
0.0
  0
VERTEX
  5
B052E
  8
0
 10
29481.88412464748
 20
2940.027397919883
 30
0.0
 42
0.0940184742794634
  0
VERTEX
  5
B052F
  8
0
 10
29527.39801933223
 20
2893.321719250511
 30
0.0
 42
0.0940184742794634
  0
SEQEND
  5
B0876
  8
0
  0
POLYLINE
  5
AC0DB
  8
0
 66
     1
 10
0.0
 20
0.0
 30
0.0
  0
VERTEX
  5
B0530
  8
0
 10
29481.88412464748
 20
3133.229759476774
 30
0.0
 42
-0.4313481873912146
  0
VERTEX
  5
B0531
  8
0
 10
29732.64979723655
 20
3176.62036603484
 30
0.0
 42
-0.6814225353586246
  0
VERTEX
  5
B0532
  8
0
 10
29767.69153672539
 20
3141.590761306244
 30
0.0
 42
-0.2912012462252227
  0
VERTEX
  5
B0533
  8
0
 10
29782.09456021659
 20
2954.299667218235
 30
0.0
  0
VERTEX
  5
B0534
  8
0
 10
29782.09456021659
 20
2213.036426392835
 30
0.0
  0
VERTEX
  5
B0535
  8
0
 10
30081.88412464748
 20
2213.036426392835
 30
0.0
  0
VERTEX
  5
B0536
  8
0
 10
30081.88412464748
 20
4343.036426392877
 30
0.0
  0
VERTEX
  5
B0537
  8
0
 10
29481.88412464748
 20
4343.036426392877
 30
0.0
  0
VERTEX
  5
B0538
  8
0
 10
29481.88412464748
 20
3133.229759476774
 30
0.0
  0
SEQEND
  5
B0877
  8
0
  0
POLYLINE
  5
AC0DC
  8
0
 66
     1
 10
0.0
 20
0.0
 30
0.0
 70
     1
  0
VERTEX
  5
B0539
  8
0
 10
29782.09456021659
 20
2213.036426392835
 30
0.0
  0
VERTEX
  5
B053A
  8
0
 10
29527.39801933223
 20
2213.036426392835
 30
0.0
  0
VERTEX
  5
B053B
  8
0
 10
29527.39801933223
 20
2893.321719250511
 30
0.0
 42
0.4500709718572363
  0
VERTEX
  5
B053C
  8
0
 10
29782.09456021659
 20
2954.299667218207
 30
0.0
  0
VERTEX
  5
B053D
  8
0
 10
29782.09456021659
 20
2213.036426392835
 30
0.0
  0
SEQEND
  5
B0878
  8
0
  0
ARC
  5
AC0DD
  8
0
 10
29627.66715598974
 20
3036.614518736737
 30
0.0
 40
152.0954421879083
 50
53.7437419628992
 51
36.24889815847135
  0
ARC
  5
AC0DE
  8
0
 10
29627.73609510998
 20
3036.628578698328
 30
0.0
 40
174.9416628924599
 50
53.15109948308578
 51
36.86874516371485
  0
CIRCLE
  5
AC0DF
  8
0
 10
29743.28651152515
 20
3152.219023443992
 30
0.0
 40
26.6188882392234
  0
POLYLINE
  5
AC0E6
  8
0
 66
     1
 10
0.0
 20
0.0
 30
0.0
  0
VERTEX
  5
B053E
  8
0
 10
30127.39801933223
 20
2893.321719250511
 30
0.0
  0
VERTEX
  5
B053F
  8
0
 10
30127.39801933223
 20
2213.036426392835
 30
0.0
  0
VERTEX
  5
B0540
  8
0
 10
30081.88412464748
 20
2213.036426392835
 30
0.0
  0
VERTEX
  5
B0541
  8
0
 10
30081.88412464748
 20
2940.027397919883
 30
0.0
 42
0.0940184742794634
  0
VERTEX
  5
B0542
  8
0
 10
30127.39801933223
 20
2893.321719250511
 30
0.0
 42
0.0940184742794634
  0
SEQEND
  5
B0879
  8
0
  0
POLYLINE
  5
AC0E7
  8
0
 66
     1
 10
0.0
 20
0.0
 30
0.0
  0
VERTEX
  5
B0543
  8
0
 10
30081.88412464748
 20
3133.229759476774
 30
0.0
 42
-0.4313481873912146
  0
VERTEX
  5
B0544
  8
0
 10
30332.64979723655
 20
3176.62036603484
 30
0.0
 42
-0.6814225353586246
  0
VERTEX
  5
B0545
  8
0
 10
30367.69153672539
 20
3141.590761306244
 30
0.0
 42
-0.2912012462252227
  0
VERTEX
  5
B0546
  8
0
 10
30382.09456021659
 20
2954.299667218235
 30
0.0
  0
VERTEX
  5
B0547
  8
0
 10
30382.09456021659
 20
2213.036426392835
 30
0.0
  0
VERTEX
  5
B0548
  8
0
 10
30681.88412464748
 20
2213.036426392835
 30
0.0
  0
VERTEX
  5
B0549
  8
0
 10
30681.88412464748
 20
4343.036426392877
 30
0.0
  0
VERTEX
  5
B054A
  8
0
 10
30081.88412464748
 20
4343.036426392877
 30
0.0
  0
VERTEX
  5
B054B
  8
0
 10
30081.88412464748
 20
3133.229759476774
 30
0.0
  0
SEQEND
  5
B087A
  8
0
  0
POLYLINE
  5
AC0E8
  8
0
 66
     1
 10
0.0
 20
0.0
 30
0.0
 70
     1
  0
VERTEX
  5
B054C
  8
0
 10
30382.09456021659
 20
2213.036426392835
 30
0.0
  0
VERTEX
  5
B054D
  8
0
 10
30127.39801933223
 20
2213.036426392835
 30
0.0
  0
VERTEX
  5
B054E
  8
0
 10
30127.39801933223
 20
2893.321719250511
 30
0.0
 42
0.4500709718572363
  0
VERTEX
  5
B054F
  8
0
 10
30382.09456021659
 20
2954.299667218207
 30
0.0
  0
VERTEX
  5
B0550
  8
0
 10
30382.09456021659
 20
2213.036426392835
 30
0.0
  0
SEQEND
  5
B087B
  8
0
  0
ARC
  5
AC0E9
  8
0
 10
30227.66715598974
 20
3036.614518736737
 30
0.0
 40
152.0954421879083
 50
53.7437419628992
 51
36.24889815847135
  0
ARC
  5
AC0EA
  8
0
 10
30227.73609510998
 20
3036.628578698328
 30
0.0
 40
174.9416628924599
 50
53.15109948308578
 51
36.86874516371485
  0
CIRCLE
  5
AC0EB
  8
0
 10
30343.28651152515
 20
3152.219023443992
 30
0.0
 40
26.6188882392234
  0
CIRCLE
  5
ACF98
  8
0
 10
30343.28651152515
 20
7196.354513457437
 30
0.0
 40
26.6188882392234
  0
ARC
  5
ACF99
  8
0
 10
30227.73609510998
 20
7080.764068711776
 30
0.0
 40
174.9416628924599
 50
53.15109948308578
 51
36.86874516371485
  0
ARC
  5
ACF9A
  8
0
 10
30227.66715598974
 20
7080.750008750183
 30
0.0
 40
152.0954421879083
 50
53.7437419628992
 51
36.24889815847135
  0
POLYLINE
  5
ACF9B
  8
0
 66
     1
 10
0.0
 20
0.0
 30
0.0
 70
     1
  0
VERTEX
  5
B0551
  8
0
 10
30382.09456021659
 20
6257.171916406282
 30
0.0
  0
VERTEX
  5
B0552
  8
0
 10
30127.39801933223
 20
6257.171916406282
 30
0.0
  0
VERTEX
  5
B0553
  8
0
 10
30127.39801933223
 20
6937.457209263958
 30
0.0
 42
0.4500709718572363
  0
VERTEX
  5
B0554
  8
0
 10
30382.09456021659
 20
6998.435157231654
 30
0.0
  0
VERTEX
  5
B0555
  8
0
 10
30382.09456021659
 20
6257.171916406282
 30
0.0
  0
SEQEND
  5
B087C
  8
0
  0
POLYLINE
  5
ACF9C
  8
0
 66
     1
 10
0.0
 20
0.0
 30
0.0
  0
VERTEX
  5
B0556
  8
0
 10
30081.88412464748
 20
7177.365249490219
 30
0.0
 42
-0.4313481873912146
  0
VERTEX
  5
B0557
  8
0
 10
30332.64979723655
 20
7220.755856048285
 30
0.0
 42
-0.6814225353586246
  0
VERTEX
  5
B0558
  8
0
 10
30367.69153672539
 20
7185.726251319692
 30
0.0
 42
-0.2912012462252227
  0
VERTEX
  5
B0559
  8
0
 10
30382.09456021659
 20
6998.435157231681
 30
0.0
  0
VERTEX
  5
B055A
  8
0
 10
30382.09456021659
 20
6257.171916406282
 30
0.0
  0
VERTEX
  5
B055B
  8
0
 10
30681.88412464748
 20
6257.171916406282
 30
0.0
  0
VERTEX
  5
B055C
  8
0
 10
30681.88412464748
 20
8787.171916406325
 30
0.0
  0
VERTEX
  5
B055D
  8
0
 10
30081.88412464748
 20
8787.171916406325
 30
0.0
  0
VERTEX
  5
B055E
  8
0
 10
30081.88412464748
 20
7177.365249490219
 30
0.0
  0
SEQEND
  5
B087D
  8
0
  0
POLYLINE
  5
ACF9D
  8
0
 66
     1
 10
0.0
 20
0.0
 30
0.0
  0
VERTEX
  5
B055F
  8
0
 10
30127.39801933223
 20
6937.457209263958
 30
0.0
  0
VERTEX
  5
B0560
  8
0
 10
30127.39801933223
 20
6257.171916406282
 30
0.0
  0
VERTEX
  5
B0561
  8
0
 10
30081.88412464748
 20
6257.171916406282
 30
0.0
  0
VERTEX
  5
B0562
  8
0
 10
30081.88412464748
 20
6984.162887933329
 30
0.0
 42
0.0940184742794634
  0
VERTEX
  5
B0563
  8
0
 10
30127.39801933223
 20
6937.457209263958
 30
0.0
 42
0.0940184742794634
  0
SEQEND
  5
B087E
  8
0
  0
CIRCLE
  5
ACF9E
  8
0
 10
29743.28651152515
 20
7196.354513457437
 30
0.0
 40
26.6188882392234
  0
ARC
  5
ACF9F
  8
0
 10
29627.73609510998
 20
7080.764068711776
 30
0.0
 40
174.9416628924599
 50
53.15109948308578
 51
36.86874516371485
  0
ARC
  5
ACFA0
  8
0
 10
29627.66715598974
 20
7080.750008750183
 30
0.0
 40
152.0954421879083
 50
53.7437419628992
 51
36.24889815847135
  0
POLYLINE
  5
ACFA1
  8
0
 66
     1
 10
0.0
 20
0.0
 30
0.0
 70
     1
  0
VERTEX
  5
B0564
  8
0
 10
29782.09456021659
 20
6257.171916406282
 30
0.0
  0
VERTEX
  5
B0565
  8
0
 10
29527.39801933223
 20
6257.171916406282
 30
0.0
  0
VERTEX
  5
B0566
  8
0
 10
29527.39801933223
 20
6937.457209263958
 30
0.0
 42
0.4500709718572363
  0
VERTEX
  5
B0567
  8
0
 10
29782.09456021659
 20
6998.435157231654
 30
0.0
  0
VERTEX
  5
B0568
  8
0
 10
29782.09456021659
 20
6257.171916406282
 30
0.0
  0
SEQEND
  5
B087F
  8
0
  0
POLYLINE
  5
ACFA2
  8
0
 66
     1
 10
0.0
 20
0.0
 30
0.0
  0
VERTEX
  5
B0569
  8
0
 10
29481.88412464748
 20
7177.365249490219
 30
0.0
 42
-0.4313481873912146
  0
VERTEX
  5
B056A
  8
0
 10
29732.64979723655
 20
7220.755856048285
 30
0.0
 42
-0.6814225353586246
  0
VERTEX
  5
B056B
  8
0
 10
29767.69153672539
 20
7185.726251319692
 30
0.0
 42
-0.2912012462252227
  0
VERTEX
  5
B056C
  8
0
 10
29782.09456021659
 20
6998.435157231681
 30
0.0
  0
VERTEX
  5
B056D
  8
0
 10
29782.09456021659
 20
6257.171916406282
 30
0.0
  0
VERTEX
  5
B056E
  8
0
 10
30081.88412464748
 20
6257.171916406282
 30
0.0
  0
VERTEX
  5
B056F
  8
0
 10
30081.88412464748
 20
8787.171916406325
 30
0.0
  0
VERTEX
  5
B0570
  8
0
 10
29481.88412464748
 20
8787.171916406325
 30
0.0
  0
VERTEX
  5
B0571
  8
0
 10
29481.88412464748
 20
7177.365249490219
 30
0.0
  0
SEQEND
  5
B0880
  8
0
  0
POLYLINE
  5
ACFA3
  8
0
 66
     1
 10
0.0
 20
0.0
 30
0.0
  0
VERTEX
  5
B0572
  8
0
 10
29527.39801933223
 20
6937.457209263958
 30
0.0
  0
VERTEX
  5
B0573
  8
0
 10
29527.39801933223
 20
6257.171916406282
 30
0.0
  0
VERTEX
  5
B0574
  8
0
 10
29481.88412464748
 20
6257.171916406282
 30
0.0
  0
VERTEX
  5
B0575
  8
0
 10
29481.88412464748
 20
6984.162887933329
 30
0.0
 42
0.0940184742794634
  0
VERTEX
  5
B0576
  8
0
 10
29527.39801933223
 20
6937.457209263958
 30
0.0
 42
0.0940184742794634
  0
SEQEND
  5
B0881
  8
0
  0
POLYLINE
  5
ACFA4
  8
0
 66
     1
 10
0.0
 20
0.0
 30
0.0
  0
VERTEX
  5
B0577
  8
0
 10
28927.39801933223
 20
6937.457209263958
 30
0.0
  0
VERTEX
  5
B0578
  8
0
 10
28927.39801933223
 20
6257.171916406282
 30
0.0
  0
VERTEX
  5
B0579
  8
0
 10
28881.88412464748
 20
6257.171916406282
 30
0.0
  0
VERTEX
  5
B057A
  8
0
 10
28881.88412464748
 20
6984.162887933329
 30
0.0
 42
0.0940184742794634
  0
VERTEX
  5
B057B
  8
0
 10
28927.39801933223
 20
6937.457209263958
 30
0.0
 42
0.0940184742794634
  0
SEQEND
  5
B0882
  8
0
  0
POLYLINE
  5
ACFA5
  8
0
 66
     1
 10
0.0
 20
0.0
 30
0.0
  0
VERTEX
  5
B057C
  8
0
 10
28881.88412464748
 20
7177.365249490219
 30
0.0
 42
-0.4313481873912146
  0
VERTEX
  5
B057D
  8
0
 10
29132.64979723655
 20
7220.755856048285
 30
0.0
 42
-0.6814225353586246
  0
VERTEX
  5
B057E
  8
0
 10
29167.69153672539
 20
7185.726251319692
 30
0.0
 42
-0.2912012462252227
  0
VERTEX
  5
B057F
  8
0
 10
29182.09456021659
 20
6998.435157231681
 30
0.0
  0
VERTEX
  5
B0580
  8
0
 10
29182.09456021659
 20
6257.171916406282
 30
0.0
  0
VERTEX
  5
B0581
  8
0
 10
29481.88412464748
 20
6257.171916406282
 30
0.0
  0
VERTEX
  5
B0582
  8
0
 10
29481.88412464748
 20
8787.171916406325
 30
0.0
  0
VERTEX
  5
B0583
  8
0
 10
28881.88412464748
 20
8787.171916406325
 30
0.0
  0
VERTEX
  5
B0584
  8
0
 10
28881.88412464748
 20
7177.365249490219
 30
0.0
  0
SEQEND
  5
B0883
  8
0
  0
POLYLINE
  5
ACFA6
  8
0
 66
     1
 10
0.0
 20
0.0
 30
0.0
 70
     1
  0
VERTEX
  5
B0585
  8
0
 10
29182.09456021659
 20
6257.171916406282
 30
0.0
  0
VERTEX
  5
B0586
  8
0
 10
28927.39801933223
 20
6257.171916406282
 30
0.0
  0
VERTEX
  5
B0587
  8
0
 10
28927.39801933223
 20
6937.457209263958
 30
0.0
 42
0.4500709718572363
  0
VERTEX
  5
B0588
  8
0
 10
29182.09456021659
 20
6998.435157231654
 30
0.0
  0
VERTEX
  5
B0589
  8
0
 10
29182.09456021659
 20
6257.171916406282
 30
0.0
  0
SEQEND
  5
B0884
  8
0
  0
ARC
  5
ACFA7
  8
0
 10
29027.66715598974
 20
7080.750008750183
 30
0.0
 40
152.0954421879083
 50
53.7437419628992
 51
36.24889815847135
  0
ARC
  5
ACFA8
  8
0
 10
29027.73609510997
 20
7080.764068711776
 30
0.0
 40
174.9416628924599
 50
53.15109948308578
 51
36.86874516371485
  0
CIRCLE
  5
ACFA9
  8
0
 10
29143.28651152515
 20
7196.354513457437
 30
0.0
 40
26.6188882392234
  0
CIRCLE
  5
ACFAA
  8
0
 10
27743.07607595603
 20
7196.354513457437
 30
0.0
 40
26.6188882392234
  0
ARC
  5
ACFAB
  8
0
 10
27627.52565954085
 20
7080.764068711776
 30
0.0
 40
174.9416628924599
 50
53.15109948308578
 51
36.86874516371485
  0
ARC
  5
ACFAC
  8
0
 10
27627.45672042062
 20
7080.750008750183
 30
0.0
 40
152.0954421879083
 50
53.7437419628992
 51
36.24889815847135
  0
POLYLINE
  5
ACFAD
  8
0
 66
     1
 10
0.0
 20
0.0
 30
0.0
 70
     1
  0
VERTEX
  5
B058A
  8
0
 10
27781.88412464747
 20
6257.171916406282
 30
0.0
  0
VERTEX
  5
B058B
  8
0
 10
27527.1875837631
 20
6257.171916406282
 30
0.0
  0
VERTEX
  5
B058C
  8
0
 10
27527.1875837631
 20
6937.457209263958
 30
0.0
 42
0.4500709718572363
  0
VERTEX
  5
B058D
  8
0
 10
27781.88412464747
 20
6998.435157231654
 30
0.0
  0
VERTEX
  5
B058E
  8
0
 10
27781.88412464747
 20
6257.171916406282
 30
0.0
  0
SEQEND
  5
B0885
  8
0
  0
POLYLINE
  5
ACFAE
  8
0
 66
     1
 10
0.0
 20
0.0
 30
0.0
  0
VERTEX
  5
B058F
  8
0
 10
27481.67368907836
 20
7177.365249490219
 30
0.0
 42
-0.4313481873912146
  0
VERTEX
  5
B0590
  8
0
 10
27732.43936166743
 20
7220.755856048285
 30
0.0
 42
-0.6814225353586246
  0
VERTEX
  5
B0591
  8
0
 10
27767.48110115626
 20
7185.726251319692
 30
0.0
 42
-0.2912012462252227
  0
VERTEX
  5
B0592
  8
0
 10
27781.88412464747
 20
6998.435157231681
 30
0.0
  0
VERTEX
  5
B0593
  8
0
 10
27781.88412464747
 20
6257.171916406282
 30
0.0
  0
VERTEX
  5
B0594
  8
0
 10
28081.67368907836
 20
6257.171916406282
 30
0.0
  0
VERTEX
  5
B0595
  8
0
 10
28081.67368907836
 20
8787.171916406325
 30
0.0
  0
VERTEX
  5
B0596
  8
0
 10
27481.67368907836
 20
8787.171916406325
 30
0.0
  0
VERTEX
  5
B0597
  8
0
 10
27481.67368907836
 20
7177.365249490219
 30
0.0
  0
SEQEND
  5
B0886
  8
0
  0
POLYLINE
  5
ACFAF
  8
0
 66
     1
 10
0.0
 20
0.0
 30
0.0
  0
VERTEX
  5
B0598
  8
0
 10
27527.1875837631
 20
6937.457209263958
 30
0.0
  0
VERTEX
  5
B0599
  8
0
 10
27527.1875837631
 20
6257.171916406282
 30
0.0
  0
VERTEX
  5
B059A
  8
0
 10
27481.67368907836
 20
6257.171916406282
 30
0.0
  0
VERTEX
  5
B059B
  8
0
 10
27481.67368907836
 20
6984.162887933329
 30
0.0
 42
0.0940184742794634
  0
VERTEX
  5
B059C
  8
0
 10
27527.1875837631
 20
6937.457209263958
 30
0.0
 42
0.0940184742794634
  0
SEQEND
  5
B0887
  8
0
  0
CIRCLE
  5
ACFB0
  8
0
 10
30943.28651152515
 20
7196.354513457437
 30
0.0
 40
26.6188882392234
  0
ARC
  5
ACFB1
  8
0
 10
30827.73609510997
 20
7080.764068711776
 30
0.0
 40
174.9416628924599
 50
53.15109948308578
 51
36.86874516371485
  0
ARC
  5
ACFB2
  8
0
 10
30827.66715598974
 20
7080.750008750183
 30
0.0
 40
152.0954421879083
 50
53.7437419628992
 51
36.24889815847135
  0
POLYLINE
  5
ACFB3
  8
0
 66
     1
 10
0.0
 20
0.0
 30
0.0
 70
     1
  0
VERTEX
  5
B059D
  8
0
 10
30982.09456021659
 20
6257.171916406282
 30
0.0
  0
VERTEX
  5
B059E
  8
0
 10
30727.39801933222
 20
6257.171916406282
 30
0.0
  0
VERTEX
  5
B059F
  8
0
 10
30727.39801933222
 20
6937.457209263958
 30
0.0
 42
0.4500709718572363
  0
VERTEX
  5
B05A0
  8
0
 10
30982.09456021659
 20
6998.435157231654
 30
0.0
  0
VERTEX
  5
B05A1
  8
0
 10
30982.09456021659
 20
6257.171916406282
 30
0.0
  0
SEQEND
  5
B0888
  8
0
  0
POLYLINE
  5
ACFB4
  8
0
 66
     1
 10
0.0
 20
0.0
 30
0.0
  0
VERTEX
  5
B05A2
  8
0
 10
30681.88412464748
 20
7177.365249490219
 30
0.0
 42
-0.4313481873912146
  0
VERTEX
  5
B05A3
  8
0
 10
30932.64979723655
 20
7220.755856048285
 30
0.0
 42
-0.6814225353586246
  0
VERTEX
  5
B05A4
  8
0
 10
30967.69153672539
 20
7185.726251319692
 30
0.0
 42
-0.2912012462252227
  0
VERTEX
  5
B05A5
  8
0
 10
30982.09456021659
 20
6998.435157231681
 30
0.0
  0
VERTEX
  5
B05A6
  8
0
 10
30982.09456021659
 20
6257.171916406282
 30
0.0
  0
VERTEX
  5
B05A7
  8
0
 10
31281.88412464748
 20
6257.171916406282
 30
0.0
  0
VERTEX
  5
B05A8
  8
0
 10
31281.88412464748
 20
8787.171916406325
 30
0.0
  0
VERTEX
  5
B05A9
  8
0
 10
30681.88412464748
 20
8787.171916406325
 30
0.0
  0
VERTEX
  5
B05AA
  8
0
 10
30681.88412464748
 20
7177.365249490219
 30
0.0
  0
SEQEND
  5
B0889
  8
0
  0
POLYLINE
  5
ACFB5
  8
0
 66
     1
 10
0.0
 20
0.0
 30
0.0
  0
VERTEX
  5
B05AB
  8
0
 10
30727.39801933222
 20
6937.457209263958
 30
0.0
  0
VERTEX
  5
B05AC
  8
0
 10
30727.39801933222
 20
6257.171916406282
 30
0.0
  0
VERTEX
  5
B05AD
  8
0
 10
30681.88412464748
 20
6257.171916406282
 30
0.0
  0
VERTEX
  5
B05AE
  8
0
 10
30681.88412464748
 20
6984.162887933329
 30
0.0
 42
0.0940184742794634
  0
VERTEX
  5
B05AF
  8
0
 10
30727.39801933222
 20
6937.457209263958
 30
0.0
 42
0.0940184742794634
  0
SEQEND
  5
B088A
  8
0
  0
POLYLINE
  5
ACFB6
  8
0
 66
     1
 10
0.0
 20
0.0
 30
0.0
  0
VERTEX
  5
B05B0
  8
0
 10
31327.39801933222
 20
6937.457209263958
 30
0.0
  0
VERTEX
  5
B05B1
  8
0
 10
31327.39801933222
 20
6257.171916406282
 30
0.0
  0
VERTEX
  5
B05B2
  8
0
 10
31281.88412464748
 20
6257.171916406282
 30
0.0
  0
VERTEX
  5
B05B3
  8
0
 10
31281.88412464748
 20
6984.162887933329
 30
0.0
 42
0.0940184742794634
  0
VERTEX
  5
B05B4
  8
0
 10
31327.39801933222
 20
6937.457209263958
 30
0.0
 42
0.0940184742794634
  0
SEQEND
  5
B088B
  8
0
  0
POLYLINE
  5
ACFB7
  8
0
 66
     1
 10
0.0
 20
0.0
 30
0.0
  0
VERTEX
  5
B05B5
  8
0
 10
31281.88412464748
 20
7177.365249490219
 30
0.0
 42
-0.4313481873912146
  0
VERTEX
  5
B05B6
  8
0
 10
31532.64979723656
 20
7220.755856048285
 30
0.0
 42
-0.6814225353586246
  0
VERTEX
  5
B05B7
  8
0
 10
31567.69153672539
 20
7185.726251319692
 30
0.0
 42
-0.2912012462252227
  0
VERTEX
  5
B05B8
  8
0
 10
31582.09456021659
 20
6998.435157231681
 30
0.0
  0
VERTEX
  5
B05B9
  8
0
 10
31582.09456021659
 20
6257.171916406282
 30
0.0
  0
VERTEX
  5
B05BA
  8
0
 10
31881.88412464748
 20
6257.171916406282
 30
0.0
  0
VERTEX
  5
B05BB
  8
0
 10
31881.88412464748
 20
8787.171916406325
 30
0.0
  0
VERTEX
  5
B05BC
  8
0
 10
31281.88412464748
 20
8787.171916406325
 30
0.0
  0
VERTEX
  5
B05BD
  8
0
 10
31281.88412464748
 20
7177.365249490219
 30
0.0
  0
SEQEND
  5
B088C
  8
0
  0
POLYLINE
  5
ACFB8
  8
0
 66
     1
 10
0.0
 20
0.0
 30
0.0
 70
     1
  0
VERTEX
  5
B05BE
  8
0
 10
31582.09456021659
 20
6257.171916406282
 30
0.0
  0
VERTEX
  5
B05BF
  8
0
 10
31327.39801933222
 20
6257.171916406282
 30
0.0
  0
VERTEX
  5
B05C0
  8
0
 10
31327.39801933222
 20
6937.457209263958
 30
0.0
 42
0.4500709718572363
  0
VERTEX
  5
B05C1
  8
0
 10
31582.09456021659
 20
6998.435157231654
 30
0.0
  0
VERTEX
  5
B05C2
  8
0
 10
31582.09456021659
 20
6257.171916406282
 30
0.0
  0
SEQEND
  5
B088D
  8
0
  0
ARC
  5
ACFB9
  8
0
 10
31427.66715598974
 20
7080.750008750183
 30
0.0
 40
152.0954421879083
 50
53.7437419628992
 51
36.24889815847135
  0
ARC
  5
ACFBA
  8
0
 10
31427.73609510997
 20
7080.764068711776
 30
0.0
 40
174.9416628924599
 50
53.15109948308578
 51
36.86874516371485
  0
CIRCLE
  5
ACFBB
  8
0
 10
31543.28651152515
 20
7196.354513457437
 30
0.0
 40
26.6188882392234
  0
POLYLINE
  5
ACFBC
  8
0
 66
     1
 10
0.0
 20
0.0
 30
0.0
  0
VERTEX
  5
B05C3
  8
0
 10
31927.39801933222
 20
6937.457209263958
 30
0.0
  0
VERTEX
  5
B05C4
  8
0
 10
31927.39801933222
 20
6257.171916406282
 30
0.0
  0
VERTEX
  5
B05C5
  8
0
 10
31881.88412464748
 20
6257.171916406282
 30
0.0
  0
VERTEX
  5
B05C6
  8
0
 10
31881.88412464748
 20
6984.162887933329
 30
0.0
 42
0.0940184742794634
  0
VERTEX
  5
B05C7
  8
0
 10
31927.39801933222
 20
6937.457209263958
 30
0.0
 42
0.0940184742794634
  0
SEQEND
  5
B088E
  8
0
  0
POLYLINE
  5
ACFBD
  8
0
 66
     1
 10
0.0
 20
0.0
 30
0.0
  0
VERTEX
  5
B05C8
  8
0
 10
31881.88412464748
 20
7177.365249490219
 30
0.0
 42
-0.4313481873912146
  0
VERTEX
  5
B05C9
  8
0
 10
32132.64979723656
 20
7220.755856048285
 30
0.0
 42
-0.6814225353586246
  0
VERTEX
  5
B05CA
  8
0
 10
32167.69153672539
 20
7185.726251319692
 30
0.0
 42
-0.2912012462252227
  0
VERTEX
  5
B05CB
  8
0
 10
32182.09456021659
 20
6998.435157231681
 30
0.0
  0
VERTEX
  5
B05CC
  8
0
 10
32182.09456021659
 20
6257.171916406282
 30
0.0
  0
VERTEX
  5
B05CD
  8
0
 10
32481.88412464748
 20
6257.171916406282
 30
0.0
  0
VERTEX
  5
B05CE
  8
0
 10
32481.88412464748
 20
8787.171916406325
 30
0.0
  0
VERTEX
  5
B05CF
  8
0
 10
31881.88412464748
 20
8787.171916406325
 30
0.0
  0
VERTEX
  5
B05D0
  8
0
 10
31881.88412464748
 20
7177.365249490219
 30
0.0
  0
SEQEND
  5
B088F
  8
0
  0
POLYLINE
  5
ACFBE
  8
0
 66
     1
 10
0.0
 20
0.0
 30
0.0
 70
     1
  0
VERTEX
  5
B05D1
  8
0
 10
32182.09456021659
 20
6257.171916406282
 30
0.0
  0
VERTEX
  5
B05D2
  8
0
 10
31927.39801933222
 20
6257.171916406282
 30
0.0
  0
VERTEX
  5
B05D3
  8
0
 10
31927.39801933222
 20
6937.457209263958
 30
0.0
 42
0.4500709718572363
  0
VERTEX
  5
B05D4
  8
0
 10
32182.09456021659
 20
6998.435157231654
 30
0.0
  0
VERTEX
  5
B05D5
  8
0
 10
32182.09456021659
 20
6257.171916406282
 30
0.0
  0
SEQEND
  5
B0890
  8
0
  0
ARC
  5
ACFBF
  8
0
 10
32027.66715598974
 20
7080.750008750183
 30
0.0
 40
152.0954421879083
 50
53.7437419628992
 51
36.24889815847135
  0
ARC
  5
ACFC0
  8
0
 10
32027.73609510997
 20
7080.764068711776
 30
0.0
 40
174.9416628924599
 50
53.15109948308578
 51
36.86874516371485
  0
CIRCLE
  5
ACFC1
  8
0
 10
32143.28651152515
 20
7196.354513457437
 30
0.0
 40
26.6188882392234
  0
VIEWPORT
  5
4E
 67
     1
  8
0
 10
0.0
 20
0.0
 30
0.0
 40
851.2853464419466
 41
428.7008504942788
 68
     1
 69
     1
1001
ACAD
1000
MVIEW
1002
{
1070
    16
1010
0.0
1020
0.0
1030
0.0
1010
0.0
1020
0.0
1030
1.0
1040
0.0
1040
428.7008504942788
1040
5438.728388405139
1040
103.0511397757678
1040
50.0
1040
0.0
1040
0.0
1070
    16
1070
   100
1070
     1
1070
     1
1070
     0
1070
     0
1070
     0
1070
     0
1040
0.0
1040
0.0
1040
0.0
1040
1.0
1040
1.0
1040
0.0
1040
0.0
1070
     0
1002
{
1002
}
1002
}
  0
TEXT
  5
6A0D
 67
     1
  8
CLOTHES_RAIL
 10
1166.029996061232
 20
36.51875448083099
 30
0.0
 40
1.6
  1

  7
STILE1
 72
     1
 11
1166.029996061232
 21
36.51875448083099
 31
0.0
  0
TEXT
  5
220D4
 67
     1
  8
CLOTHES_RAIL
 10
1075.854083628048
 20
54.2187253812249
 30
0.0
 40
1.504
  1

  7
STILE4
  0
TEXT
  5
220D5
 67
     1
  8
0
 10
1099.486943584454
 20
54.27519572975143
 30
0.0
 40
1.296
  1

  7
STILE1
 72
     1
 11
1099.486943584454
 21
54.27519572975143
 31
0.0
  0
TEXT
  5
220D7
 67
     1
  8
0
 10
1163.382376406764
 20
54.27519572975143
 30
0.0
 40
1.296
  1

  7
STILE1
 72
     1
 11
1163.382376406764
 21
54.27519572975143
 31
0.0
  0
VIEWPORT
  5
7996C
 67
     1
  8
RETE
 10
5724.75813952323
 20
94.80832444904343
 30
0.0
 40
191.5
 41
236.132465228796
 68
     2
 69
     2
1001
ACAD
1000
MVIEW
1002
{
1070
    16
1010
167108.1207671265
1020
-11328.71929700901
1030
0.0
1010
0.0
1020
0.0
1030
1.0
1040
0.0
1040
5903.311630719954
1040
215823.6079317253
1040
34568.76605440148
1040
50.0
1040
0.0
1040
0.0
1070
    16
1070
   100
1070
     1
1070
     1
1070
     0
1070
     0
1070
     0
1070
     0
1040
0.0
1040
0.0
1040
0.0
1040
1.0
1040
1.0
1040
0.0
1040
0.0
1070
     0
1002
{
1002
}
1002
}
  0
LINE
  5
97E00
 67
     1
  8
RIPIANI
 10
5820.50813952323
 20
24.42642567457204
 30
0.0
 11
5820.50813952323
 21
-45.57357432542768
 31
0.0
  0
LINE
  5
97E05
 67
     1
  8
0
 10
5650.50813952323
 20
-38.07357432542761
 30
0.0
 11
5673.88152325309
 21
-38.07357432542762
 31
0.0
  0
LINE
  5
97E06
 67
     1
  8
RIPIANI
 10
5650.50813952323
 20
-45.57357432542761
 30
0.0
 11
5820.50813952323
 21
-45.57357432542768
 31
0.0
  0
TEXT
  5
97E0E
 67
     1
  8
0
 10
5660.24129088937
 20
-44.53779677976007
 30
0.0
 40
1.689599999999999
  1
.DWG
  7
STILE4
  0
LINE
  5
97E3C
 67
     1
  8
RIPIANI
 10
5628.50813952323
 20
-41.82357432542767
 30
0.0
 11
5673.88152325309
 21
-41.82357432542771
 31
0.0
  0
TEXT
  5
97E47
 67
     1
  8
CLOTHES_RAIL
 10
5702.521198378377
 20
-33.21312498230677
 30
0.0
 40
2.5
  1
MOBILE SHELVING SYSTEM MODEL "VELA/BINARIA"
  7
STILE1
 72
     1
 11
5750.257433497425
 21
-33.21312498230677
 31
0.0
  0
TEXT
  5
97E48
 67
     1
  8
CLOTHES_RAIL
 10
5723.58890671171
 20
-40.71312498230677
 30
0.0
 40
2.5
  1
WARDROBE CONFIGURATIONS
  7
STILE1
 72
     1
 11
5750.257433497425
 21
-40.71312498230677
 31
0.0
  0
TEXT
  5
97E56
 67
     1
  8
0
 10
5635.619679721409
 20
-44.53779677976007
 30
0.0
 40
1.689599999999999
  1
BINARIA-VELA-WR
  7
STILE4
  0
POLYLINE
  5
97E5B
 67
     1
  8
CLOTHES_RAIL
  6
CONTINUOUS
 66
     1
 10
0.0
 20
0.0
 30
0.0
 70
   128
  0
VERTEX
  5
B05D6
 67
     1
  8
CLOTHES_RAIL
  6
CONTINUOUS
 10
5664.319098491812
 20
-36.22039648048771
 30
0.0
  0
VERTEX
  5
B05D7
 67
     1
  8
CLOTHES_RAIL
  6
CONTINUOUS
 10
5664.319098491812
 20
-28.46717463803993
 30
0.0
  0
VERTEX
  5
B05D8
 67
     1
  8
CLOTHES_RAIL
  6
CONTINUOUS
 10
5666.346089322976
 20
-28.46717463803993
 30
0.0
 42
-0.316444976687396
  0
VERTEX
  5
B05D9
 67
     1
  8
CLOTHES_RAIL
  6
CONTINUOUS
 10
5667.365045214904
 20
-29.03206694489745
 30
0.0
  0
VERTEX
  5
B05DA
 67
     1
  8
CLOTHES_RAIL
  6
CONTINUOUS
 10
5669.380908387647
 20
-32.43244509159917
 30
0.0
  0
VERTEX
  5
B05DB
 67
     1
  8
CLOTHES_RAIL
  6
CONTINUOUS
 10
5669.436271072108
 20
-32.43244509159917
 30
0.0
  0
VERTEX
  5
B05DC
 67
     1
  8
CLOTHES_RAIL
  6
CONTINUOUS
 10
5669.436271072108
 20
-28.46717463803993
 30
0.0
  0
VERTEX
  5
B05DD
 67
     1
  8
CLOTHES_RAIL
  6
CONTINUOUS
 10
5671.684747092073
 20
-28.46717463803993
 30
0.0
  0
VERTEX
  5
B05DE
 67
     1
  8
CLOTHES_RAIL
  6
CONTINUOUS
 10
5671.684747092073
 20
-36.22039648048771
 30
0.0
  0
VERTEX
  5
B05DF
 67
     1
  8
CLOTHES_RAIL
  6
CONTINUOUS
 10
5670.034305197542
 20
-36.22039648048771
 30
0.0
 42
-0.312959769389874
  0
VERTEX
  5
B05E0
 67
     1
  8
CLOTHES_RAIL
  6
CONTINUOUS
 10
5669.015349305614
 20
-35.65553862458513
 30
0.0
  0
VERTEX
  5
B05E1
 67
     1
  8
CLOTHES_RAIL
  6
CONTINUOUS
 10
5666.62293719624
 20
-31.7900036853489
 30
0.0
  0
VERTEX
  5
B05E2
 67
     1
  8
CLOTHES_RAIL
  6
CONTINUOUS
 10
5666.567643413688
 20
-31.7900036853489
 30
0.0
  0
VERTEX
  5
B05E3
 67
     1
  8
CLOTHES_RAIL
  6
CONTINUOUS
 10
5666.567643413688
 20
-36.22039648048771
 30
0.0
  0
VERTEX
  5
B05E4
 67
     1
  8
CLOTHES_RAIL
  6
CONTINUOUS
 10
5664.319098491812
 20
-36.22039648048771
 30
0.0
  0
SEQEND
  5
B0891
 67
     1
  8
CLOTHES_RAIL
  6
CONTINUOUS
  0
POLYLINE
  5
97E5C
 67
     1
  8
CLOTHES_RAIL
  6
CONTINUOUS
 66
     1
 10
0.0
 20
0.0
 30
0.0
 70
   128
  0
VERTEX
  5
B05E5
 67
     1
  8
CLOTHES_RAIL
  6
CONTINUOUS
 10
5644.791849414121
 20
-36.22039648048771
 30
0.0
  0
VERTEX
  5
B05E6
 67
     1
  8
CLOTHES_RAIL
  6
CONTINUOUS
 10
5644.791849414121
 20
-28.46717463803993
 30
0.0
  0
VERTEX
  5
B05E7
 67
     1
  8
CLOTHES_RAIL
  6
CONTINUOUS
 10
5646.818840245284
 20
-28.46717463803993
 30
0.0
 42
-0.316444976687396
  0
VERTEX
  5
B05E8
 67
     1
  8
CLOTHES_RAIL
  6
CONTINUOUS
 10
5647.837796137212
 20
-29.03206694489745
 30
0.0
  0
VERTEX
  5
B05E9
 67
     1
  8
CLOTHES_RAIL
  6
CONTINUOUS
 10
5649.853659309954
 20
-32.43244509159917
 30
0.0
  0
VERTEX
  5
B05EA
 67
     1
  8
CLOTHES_RAIL
  6
CONTINUOUS
 10
5649.909021994417
 20
-32.43244509159917
 30
0.0
  0
VERTEX
  5
B05EB
 67
     1
  8
CLOTHES_RAIL
  6
CONTINUOUS
 10
5649.909021994417
 20
-28.46717463803993
 30
0.0
  0
VERTEX
  5
B05EC
 67
     1
  8
CLOTHES_RAIL
  6
CONTINUOUS
 10
5652.157498014382
 20
-28.46717463803993
 30
0.0
  0
VERTEX
  5
B05ED
 67
     1
  8
CLOTHES_RAIL
  6
CONTINUOUS
 10
5652.157498014382
 20
-36.22039648048771
 30
0.0
  0
VERTEX
  5
B05EE
 67
     1
  8
CLOTHES_RAIL
  6
CONTINUOUS
 10
5650.50705611985
 20
-36.22039648048771
 30
0.0
 42
-0.312959769389874
  0
VERTEX
  5
B05EF
 67
     1
  8
CLOTHES_RAIL
  6
CONTINUOUS
 10
5649.488100227923
 20
-35.65553862458513
 30
0.0
  0
VERTEX
  5
B05F0
 67
     1
  8
CLOTHES_RAIL
  6
CONTINUOUS
 10
5647.095688118549
 20
-31.7900036853489
 30
0.0
  0
VERTEX
  5
B05F1
 67
     1
  8
CLOTHES_RAIL
  6
CONTINUOUS
 10
5647.040394335996
 20
-31.7900036853489
 30
0.0
  0
VERTEX
  5
B05F2
 67
     1
  8
CLOTHES_RAIL
  6
CONTINUOUS
 10
5647.040394335996
 20
-36.22039648048771
 30
0.0
  0
VERTEX
  5
B05F3
 67
     1
  8
CLOTHES_RAIL
  6
CONTINUOUS
 10
5644.791849414121
 20
-36.22039648048771
 30
0.0
  0
SEQEND
  5
B0892
 67
     1
  8
CLOTHES_RAIL
  6
CONTINUOUS
  0
POLYLINE
  5
97E5D
 67
     1
  8
CLOTHES_RAIL
  6
CONTINUOUS
 66
     1
 10
0.0
 20
0.0
 30
0.0
 70
   128
  0
VERTEX
  5
B05F4
 67
     1
  8
CLOTHES_RAIL
  6
CONTINUOUS
 10
5659.844332866811
 20
-28.46720908899488
 30
0.0
  0
VERTEX
  5
B05F5
 67
     1
  8
CLOTHES_RAIL
  6
CONTINUOUS
 10
5659.844332866811
 20
-30.28367013500196
 30
0.0
  0
VERTEX
  5
B05F6
 67
     1
  8
CLOTHES_RAIL
  6
CONTINUOUS
 10
5657.518411100318
 20
-30.28367013500196
 30
0.0
  0
VERTEX
  5
B05F7
 67
     1
  8
CLOTHES_RAIL
  6
CONTINUOUS
 10
5657.518411100318
 20
-36.22039648048771
 30
0.0
  0
VERTEX
  5
B05F8
 67
     1
  8
CLOTHES_RAIL
  6
CONTINUOUS
 10
5655.1370232965
 20
-36.22039648048771
 30
0.0
  0
VERTEX
  5
B05F9
 67
     1
  8
CLOTHES_RAIL
  6
CONTINUOUS
 10
5655.1370232965
 20
-30.28367013500196
 30
0.0
  0
VERTEX
  5
B05FA
 67
     1
  8
CLOTHES_RAIL
  6
CONTINUOUS
 10
5652.866360861604
 20
-30.28367013500196
 30
0.0
  0
VERTEX
  5
B05FB
 67
     1
  8
CLOTHES_RAIL
  6
CONTINUOUS
 10
5652.866360861604
 20
-28.46720908899488
 30
0.0
  0
VERTEX
  5
B05FC
 67
     1
  8
CLOTHES_RAIL
  6
CONTINUOUS
 10
5659.844332866811
 20
-28.46720908899488
 30
0.0
  0
SEQEND
  5
B0893
 67
     1
  8
CLOTHES_RAIL
  6
CONTINUOUS
  0
POLYLINE
  5
97E5E
 67
     1
  8
CLOTHES_RAIL
  6
CONTINUOUS
 66
     1
 10
0.0
 20
0.0
 30
0.0
 70
     1
  0
VERTEX
  5
B05FD
 67
     1
  8
CLOTHES_RAIL
  6
CONTINUOUS
 10
5660.586406434521
 20
-28.46720908899488
 30
0.0
  0
VERTEX
  5
B05FE
 67
     1
  8
CLOTHES_RAIL
  6
CONTINUOUS
 10
5662.967794238341
 20
-28.46720908899488
 30
0.0
  0
VERTEX
  5
B05FF
 67
     1
  8
CLOTHES_RAIL
  6
CONTINUOUS
 10
5662.967794238341
 20
-36.22039648048771
 30
0.0
  0
VERTEX
  5
B0600
 67
     1
  8
CLOTHES_RAIL
  6
CONTINUOUS
 10
5660.586406434521
 20
-36.22039648048771
 30
0.0
  0
SEQEND
  5
B0894
 67
     1
  8
CLOTHES_RAIL
  6
CONTINUOUS
  0
POLYLINE
  5
97E5F
 67
     1
  8
CLOTHES_RAIL
  6
CONTINUOUS
 66
     1
 10
0.0
 20
0.0
 30
0.0
 70
   128
  0
VERTEX
  5
B0601
 67
     1
  8
CLOTHES_RAIL
  6
CONTINUOUS
 10
5636.28518518886
 20
-28.46724353994973
 30
0.0
  0
VERTEX
  5
B0602
 67
     1
  8
CLOTHES_RAIL
  6
CONTINUOUS
 10
5636.28518518886
 20
-30.25045941451572
 30
0.0
  0
VERTEX
  5
B0603
 67
     1
  8
CLOTHES_RAIL
  6
CONTINUOUS
 10
5632.563655240943
 20
-30.25045941451572
 30
0.0
  0
VERTEX
  5
B0604
 67
     1
  8
CLOTHES_RAIL
  6
CONTINUOUS
 10
5632.563655240943
 20
-31.78996923439411
 30
0.0
  0
VERTEX
  5
B0605
 67
     1
  8
CLOTHES_RAIL
  6
CONTINUOUS
 10
5635.166528233565
 20
-31.78996923439411
 30
0.0
  0
VERTEX
  5
B0606
 67
     1
  8
CLOTHES_RAIL
  6
CONTINUOUS
 10
5635.166528233565
 20
-33.45143543448086
 30
0.0
  0
VERTEX
  5
B0607
 67
     1
  8
CLOTHES_RAIL
  6
CONTINUOUS
 10
5632.563655240943
 20
-33.45143543448086
 30
0.0
  0
VERTEX
  5
B0608
 67
     1
  8
CLOTHES_RAIL
  6
CONTINUOUS
 10
5632.563655240943
 20
-36.22039648048771
 30
0.0
  0
VERTEX
  5
B0609
 67
     1
  8
CLOTHES_RAIL
  6
CONTINUOUS
 10
5630.182267437125
 20
-36.22039648048771
 30
0.0
  0
VERTEX
  5
B060A
 67
     1
  8
CLOTHES_RAIL
  6
CONTINUOUS
 10
5630.182267437125
 20
-28.46724353994973
 30
0.0
  0
VERTEX
  5
B060B
 67
     1
  8
CLOTHES_RAIL
  6
CONTINUOUS
 10
5636.28518518886
 20
-28.46724353994973
 30
0.0
  0
SEQEND
  5
B0895
 67
     1
  8
CLOTHES_RAIL
  6
CONTINUOUS
  0
POLYLINE
  5
97E60
 67
     1
  8
CLOTHES_RAIL
  6
CONTINUOUS
 66
     1
 10
0.0
 20
0.0
 30
0.0
 70
   128
  0
VERTEX
  5
B060C
 67
     1
  8
CLOTHES_RAIL
  6
CONTINUOUS
 10
5640.006887391551
 20
-30.60482193621716
 30
0.0
  0
VERTEX
  5
B060D
 67
     1
  8
CLOTHES_RAIL
  6
CONTINUOUS
 10
5640.671446310823
 20
-32.88657757857812
 30
0.0
  0
VERTEX
  5
B060E
 67
     1
  8
CLOTHES_RAIL
  6
CONTINUOUS
 10
5639.220475444938
 20
-32.88657757857812
 30
0.0
  0
VERTEX
  5
B060F
 67
     1
  8
CLOTHES_RAIL
  6
CONTINUOUS
 10
5639.885034364208
 20
-30.60482193621716
 30
0.0
  0
VERTEX
  5
B0610
 67
     1
  8
CLOTHES_RAIL
  6
CONTINUOUS
 10
5640.006887391551
 20
-30.60482193621716
 30
0.0
  0
SEQEND
  5
B0896
 67
     1
  8
CLOTHES_RAIL
  6
CONTINUOUS
  0
POLYLINE
  5
97E61
 67
     1
  8
CLOTHES_RAIL
  6
CONTINUOUS
 66
     1
 10
0.0
 20
0.0
 30
0.0
 70
   129
  0
VERTEX
  5
B0611
 67
     1
  8
CLOTHES_RAIL
  6
CONTINUOUS
 10
5641.136720660441
 20
-34.54794042580057
 30
0.0
  0
VERTEX
  5
B0612
 67
     1
  8
CLOTHES_RAIL
  6
CONTINUOUS
 10
5641.136720660441
 20
-34.54794042580057
 30
0.0
  0
VERTEX
  5
B0613
 67
     1
  8
CLOTHES_RAIL
  6
CONTINUOUS
 10
5641.623946310821
 20
-36.22039648048771
 30
0.0
  0
VERTEX
  5
B0614
 67
     1
  8
CLOTHES_RAIL
  6
CONTINUOUS
 10
5644.13828034945
 20
-36.22039648048771
 30
0.0
  0
VERTEX
  5
B0615
 67
     1
  8
CLOTHES_RAIL
  6
CONTINUOUS
 10
5641.790103266118
 20
-29.16490982684213
 30
0.0
 42
0.1089385125692126
  0
VERTEX
  5
B0616
 67
     1
  8
CLOTHES_RAIL
  6
CONTINUOUS
 10
5641.535266069767
 20
-28.61148707243616
 30
0.0
 42
0.1589313772246072
  0
VERTEX
  5
B0617
 67
     1
  8
CLOTHES_RAIL
  6
CONTINUOUS
 10
5641.295349565985
 20
-28.46578963330632
 30
0.0
 42
0.058673645385263
  0
VERTEX
  5
B0618
 67
     1
  8
CLOTHES_RAIL
  6
CONTINUOUS
 10
5640.970446148061
 20
-28.43396391755392
 30
0.0
  0
VERTEX
  5
B0619
 67
     1
  8
CLOTHES_RAIL
  6
CONTINUOUS
 10
5640.970446148061
 20
-28.43396391755392
 30
0.0
  0
VERTEX
  5
B061A
 67
     1
  8
CLOTHES_RAIL
  6
CONTINUOUS
 10
5639.065480599017
 20
-28.43396391755392
 30
0.0
 42
0.058673645385263
  0
VERTEX
  5
B061B
 67
     1
  8
CLOTHES_RAIL
  6
CONTINUOUS
 10
5638.740577181096
 20
-28.46578963330632
 30
0.0
 42
0.1589313772246072
  0
VERTEX
  5
B061C
 67
     1
  8
CLOTHES_RAIL
  6
CONTINUOUS
 10
5638.500660677312
 20
-28.61148707243616
 30
0.0
 42
0.1089385125692126
  0
VERTEX
  5
B061D
 67
     1
  8
CLOTHES_RAIL
  6
CONTINUOUS
 10
5638.245823480962
 20
-29.16490982684213
 30
0.0
  0
VERTEX
  5
B061E
 67
     1
  8
CLOTHES_RAIL
  6
CONTINUOUS
 10
5635.89764639763
 20
-36.22039648048771
 30
0.0
  0
VERTEX
  5
B061F
 67
     1
  8
CLOTHES_RAIL
  6
CONTINUOUS
 10
5638.278965299539
 20
-36.22039648048771
 30
0.0
  0
VERTEX
  5
B0620
 67
     1
  8
CLOTHES_RAIL
  6
CONTINUOUS
 10
5638.755215299539
 20
-34.54794042580057
 30
0.0
  0
SEQEND
  5
B0897
 67
     1
  8
CLOTHES_RAIL
  6
CONTINUOUS
  0
POLYLINE
  5
9F317
 67
     1
  8
RIPIANI
 66
     1
 10
0.0
 20
0.0
 30
0.0
 70
     1
  0
VERTEX
  5
B0621
 67
     1
  8
RIPIANI
 10
5628.50813952323
 20
-45.57357432542768
 30
0.0
  0
VERTEX
  5
B0622
 67
     1
  8
RIPIANI
 10
5628.50813952323
 20
216.4264256745723
 30
0.0
  0
VERTEX
  5
B0623
 67
     1
  8
RIPIANI
 10
5820.50813952323
 20
216.4264256745723
 30
0.0
  0
VERTEX
  5
B0624
 67
     1
  8
RIPIANI
 10
5820.50813952323
 20
-45.57357432542768
 30
0.0
  0
SEQEND
  5
B0898
 67
     1
  8
RIPIANI
  0
LINE
  5
9F31B
 67
     1
  8
0
 10
5628.50813952323
 20
-38.07357432542767
 30
0.0
 11
5670.588191806098
 21
-38.07357432542771
 31
0.0
  0
TEXT
  5
9F31D
 67
     1
  8
0
 10
5643.254368161313
 20
-40.82492040620856
 30
0.0
 40
2.0
  1
02.03.2015
  7
STILE4
  0
LINE
  5
9F31E
 67
     1
  8
0
 10
5628.50813952323
 20
-26.25196840229718
 30
0.0
 11
5670.588191806098
 21
-26.25196840229721
 31
0.0
  0
POLYLINE
  5
9F320
 67
     1
  8
RIPIANI
 66
     1
 10
0.0
 20
0.0
 30
0.0
 70
     1
  0
VERTEX
  5
B0625
 67
     1
  8
RIPIANI
 10
5628.50813952323
 20
-26.25196840229718
 30
0.0
  0
VERTEX
  5
B0626
 67
     1
  8
RIPIANI
 10
5628.50813952323
 20
-38.07357432542761
 30
0.0
  0
VERTEX
  5
B0627
 67
     1
  8
RIPIANI
 10
5673.88152325309
 20
-38.07357432542761
 30
0.0
  0
VERTEX
  5
B0628
 67
     1
  8
RIPIANI
 10
5673.88152325309
 20
-26.25196840229718
 30
0.0
  0
SEQEND
  5
B0899
 67
     1
  8
RIPIANI
  0
POLYLINE
  5
9F321
 67
     1
  8
RIPIANI
 66
     1
 10
0.0
 20
0.0
 30
0.0
 70
     1
  0
VERTEX
  5
B0629
 67
     1
  8
RIPIANI
 10
5628.50813952323
 20
-38.07357432542761
 30
0.0
  0
VERTEX
  5
B062A
 67
     1
  8
RIPIANI
 10
5628.50813952323
 20
-45.57357432542768
 30
0.0
  0
VERTEX
  5
B062B
 67
     1
  8
RIPIANI
 10
5673.88152325309
 20
-45.57357432542768
 30
0.0
  0
VERTEX
  5
B062C
 67
     1
  8
RIPIANI
 10
5673.88152325309
 20
-38.07357432542761
 30
0.0
  0
SEQEND
  5
B089A
 67
     1
  8
RIPIANI
  0
LINE
  5
9F322
 67
     1
  8
RIPIANI
 10
5673.88152325309
 20
-26.25196840229718
 30
0.0
 11
5820.50813952323
 21
-26.25196840229718
 31
0.0
  0
VIEWPORT
  5
A0224
 67
     1
  8
RETE
 10
5526.66357023484
 20
94.80832444904343
 30
0.0
 40
191.5
 41
236.132465228796
 68
     3
 69
     3
1001
ACAD
1000
MVIEW
1002
{
1070
    16
1010
176664.735461242
1020
-9778.968366194693
1030
0.0
1010
0.0
1020
0.0
1030
1.0
1040
0.0
1040
5274.119454668937
1040
215823.6079317253
1040
34568.76605440148
1040
50.0
1040
0.0
1040
0.0
1070
    16
1070
   100
1070
     1
1070
     1
1070
     0
1070
     0
1070
     0
1070
     0
1040
0.0
1040
0.0
1040
0.0
1040
1.0
1040
1.0
1040
0.0
1040
0.0
1070
     0
1002
{
1002
}
1002
}
  0
LINE
  5
A0226
 67
     1
  8
RIPIANI
 10
5622.41357023484
 20
24.42642567457204
 30
0.0
 11
5622.41357023484
 21
-45.57357432542768
 31
0.0
  0
POLYLINE
  5
A0235
 67
     1
  8
RIPIANI
 66
     1
 10
0.0
 20
0.0
 30
0.0
 70
     1
  0
VERTEX
  5
B062D
 67
     1
  8
RIPIANI
 10
5430.41357023484
 20
-45.57357432542768
 30
0.0
  0
VERTEX
  5
B062E
 67
     1
  8
RIPIANI
 10
5430.41357023484
 20
216.4264256745723
 30
0.0
  0
VERTEX
  5
B062F
 67
     1
  8
RIPIANI
 10
5622.41357023484
 20
216.4264256745723
 30
0.0
  0
VERTEX
  5
B0630
 67
     1
  8
RIPIANI
 10
5622.41357023484
 20
-45.57357432542768
 30
0.0
  0
SEQEND
  5
B089B
 67
     1
  8
RIPIANI
  0
LINE
  5
A0552
 67
     1
  8
0
 10
5452.41357023484
 20
-38.07357432542761
 30
0.0
 11
5475.786953964698
 21
-38.07357432542762
 31
0.0
  0
LINE
  5
A0553
 67
     1
  8
RIPIANI
 10
5452.41357023484
 20
-45.57357432542761
 30
0.0
 11
5622.41357023484
 21
-45.57357432542768
 31
0.0
  0
TEXT
  5
A0554
 67
     1
  8
0
 10
5462.14672160098
 20
-44.53779677976007
 30
0.0
 40
1.689599999999999
  1
.DWG
  7
STILE4
  0
LINE
  5
A0555
 67
     1
  8
RIPIANI
 10
5430.41357023484
 20
-41.82357432542767
 30
0.0
 11
5475.786953964698
 21
-41.82357432542771
 31
0.0
  0
TEXT
  5
A0556
 67
     1
  8
CLOTHES_RAIL
 10
5504.426629089988
 20
-33.21312498230677
 30
0.0
 40
2.5
  1
MOBILE SHELVING SYSTEM MODEL "VELA/BINARIA"
  7
STILE1
 72
     1
 11
5552.162864209035
 21
-33.21312498230677
 31
0.0
  0
TEXT
  5
A0557
 67
     1
  8
CLOTHES_RAIL
 10
5525.494337423321
 20
-40.71312498230677
 30
0.0
 40
2.5
  1
WARDROBE CONFIGURATIONS
  7
STILE1
 72
     1
 11
5552.162864209035
 21
-40.71312498230677
 31
0.0
  0
TEXT
  5
A0558
 67
     1
  8
0
 10
5437.525110433019
 20
-44.53779677976007
 30
0.0
 40
1.689599999999999
  1
BINARIA-VELA-WR
  7
STILE4
  0
POLYLINE
  5
A0559
 67
     1
  8
CLOTHES_RAIL
  6
CONTINUOUS
 66
     1
 10
0.0
 20
0.0
 30
0.0
 70
   128
  0
VERTEX
  5
B0631
 67
     1
  8
CLOTHES_RAIL
  6
CONTINUOUS
 10
5466.224529203422
 20
-36.22039648048771
 30
0.0
  0
VERTEX
  5
B0632
 67
     1
  8
CLOTHES_RAIL
  6
CONTINUOUS
 10
5466.224529203422
 20
-28.46717463803993
 30
0.0
  0
VERTEX
  5
B0633
 67
     1
  8
CLOTHES_RAIL
  6
CONTINUOUS
 10
5468.251520034586
 20
-28.46717463803993
 30
0.0
 42
-0.316444976687396
  0
VERTEX
  5
B0634
 67
     1
  8
CLOTHES_RAIL
  6
CONTINUOUS
 10
5469.270475926514
 20
-29.03206694489745
 30
0.0
  0
VERTEX
  5
B0635
 67
     1
  8
CLOTHES_RAIL
  6
CONTINUOUS
 10
5471.286339099256
 20
-32.43244509159917
 30
0.0
  0
VERTEX
  5
B0636
 67
     1
  8
CLOTHES_RAIL
  6
CONTINUOUS
 10
5471.341701783718
 20
-32.43244509159917
 30
0.0
  0
VERTEX
  5
B0637
 67
     1
  8
CLOTHES_RAIL
  6
CONTINUOUS
 10
5471.341701783718
 20
-28.46717463803993
 30
0.0
  0
VERTEX
  5
B0638
 67
     1
  8
CLOTHES_RAIL
  6
CONTINUOUS
 10
5473.590177803683
 20
-28.46717463803993
 30
0.0
  0
VERTEX
  5
B0639
 67
     1
  8
CLOTHES_RAIL
  6
CONTINUOUS
 10
5473.590177803683
 20
-36.22039648048771
 30
0.0
  0
VERTEX
  5
B063A
 67
     1
  8
CLOTHES_RAIL
  6
CONTINUOUS
 10
5471.939735909153
 20
-36.22039648048771
 30
0.0
 42
-0.312959769389874
  0
VERTEX
  5
B063B
 67
     1
  8
CLOTHES_RAIL
  6
CONTINUOUS
 10
5470.920780017224
 20
-35.65553862458513
 30
0.0
  0
VERTEX
  5
B063C
 67
     1
  8
CLOTHES_RAIL
  6
CONTINUOUS
 10
5468.52836790785
 20
-31.7900036853489
 30
0.0
  0
VERTEX
  5
B063D
 67
     1
  8
CLOTHES_RAIL
  6
CONTINUOUS
 10
5468.473074125298
 20
-31.7900036853489
 30
0.0
  0
VERTEX
  5
B063E
 67
     1
  8
CLOTHES_RAIL
  6
CONTINUOUS
 10
5468.473074125298
 20
-36.22039648048771
 30
0.0
  0
VERTEX
  5
B063F
 67
     1
  8
CLOTHES_RAIL
  6
CONTINUOUS
 10
5466.224529203422
 20
-36.22039648048771
 30
0.0
  0
SEQEND
  5
B089C
 67
     1
  8
CLOTHES_RAIL
  6
CONTINUOUS
  0
POLYLINE
  5
A055A
 67
     1
  8
CLOTHES_RAIL
  6
CONTINUOUS
 66
     1
 10
0.0
 20
0.0
 30
0.0
 70
   128
  0
VERTEX
  5
B0640
 67
     1
  8
CLOTHES_RAIL
  6
CONTINUOUS
 10
5446.697280125732
 20
-36.22039648048771
 30
0.0
  0
VERTEX
  5
B0641
 67
     1
  8
CLOTHES_RAIL
  6
CONTINUOUS
 10
5446.697280125732
 20
-28.46717463803993
 30
0.0
  0
VERTEX
  5
B0642
 67
     1
  8
CLOTHES_RAIL
  6
CONTINUOUS
 10
5448.724270956895
 20
-28.46717463803993
 30
0.0
 42
-0.316444976687396
  0
VERTEX
  5
B0643
 67
     1
  8
CLOTHES_RAIL
  6
CONTINUOUS
 10
5449.743226848822
 20
-29.03206694489745
 30
0.0
  0
VERTEX
  5
B0644
 67
     1
  8
CLOTHES_RAIL
  6
CONTINUOUS
 10
5451.759090021564
 20
-32.43244509159917
 30
0.0
  0
VERTEX
  5
B0645
 67
     1
  8
CLOTHES_RAIL
  6
CONTINUOUS
 10
5451.814452706026
 20
-32.43244509159917
 30
0.0
  0
VERTEX
  5
B0646
 67
     1
  8
CLOTHES_RAIL
  6
CONTINUOUS
 10
5451.814452706026
 20
-28.46717463803993
 30
0.0
  0
VERTEX
  5
B0647
 67
     1
  8
CLOTHES_RAIL
  6
CONTINUOUS
 10
5454.062928725992
 20
-28.46717463803993
 30
0.0
  0
VERTEX
  5
B0648
 67
     1
  8
CLOTHES_RAIL
  6
CONTINUOUS
 10
5454.062928725992
 20
-36.22039648048771
 30
0.0
  0
VERTEX
  5
B0649
 67
     1
  8
CLOTHES_RAIL
  6
CONTINUOUS
 10
5452.412486831462
 20
-36.22039648048771
 30
0.0
 42
-0.312959769389874
  0
VERTEX
  5
B064A
 67
     1
  8
CLOTHES_RAIL
  6
CONTINUOUS
 10
5451.393530939535
 20
-35.65553862458513
 30
0.0
  0
VERTEX
  5
B064B
 67
     1
  8
CLOTHES_RAIL
  6
CONTINUOUS
 10
5449.001118830159
 20
-31.7900036853489
 30
0.0
  0
VERTEX
  5
B064C
 67
     1
  8
CLOTHES_RAIL
  6
CONTINUOUS
 10
5448.945825047606
 20
-31.7900036853489
 30
0.0
  0
VERTEX
  5
B064D
 67
     1
  8
CLOTHES_RAIL
  6
CONTINUOUS
 10
5448.945825047606
 20
-36.22039648048771
 30
0.0
  0
VERTEX
  5
B064E
 67
     1
  8
CLOTHES_RAIL
  6
CONTINUOUS
 10
5446.697280125732
 20
-36.22039648048771
 30
0.0
  0
SEQEND
  5
B089D
 67
     1
  8
CLOTHES_RAIL
  6
CONTINUOUS
  0
POLYLINE
  5
A055B
 67
     1
  8
CLOTHES_RAIL
  6
CONTINUOUS
 66
     1
 10
0.0
 20
0.0
 30
0.0
 70
   128
  0
VERTEX
  5
B064F
 67
     1
  8
CLOTHES_RAIL
  6
CONTINUOUS
 10
5461.749763578423
 20
-28.46720908899488
 30
0.0
  0
VERTEX
  5
B0650
 67
     1
  8
CLOTHES_RAIL
  6
CONTINUOUS
 10
5461.749763578423
 20
-30.28367013500196
 30
0.0
  0
VERTEX
  5
B0651
 67
     1
  8
CLOTHES_RAIL
  6
CONTINUOUS
 10
5459.42384181193
 20
-30.28367013500196
 30
0.0
  0
VERTEX
  5
B0652
 67
     1
  8
CLOTHES_RAIL
  6
CONTINUOUS
 10
5459.42384181193
 20
-36.22039648048771
 30
0.0
  0
VERTEX
  5
B0653
 67
     1
  8
CLOTHES_RAIL
  6
CONTINUOUS
 10
5457.042454008109
 20
-36.22039648048771
 30
0.0
  0
VERTEX
  5
B0654
 67
     1
  8
CLOTHES_RAIL
  6
CONTINUOUS
 10
5457.042454008109
 20
-30.28367013500196
 30
0.0
  0
VERTEX
  5
B0655
 67
     1
  8
CLOTHES_RAIL
  6
CONTINUOUS
 10
5454.771791573215
 20
-30.28367013500196
 30
0.0
  0
VERTEX
  5
B0656
 67
     1
  8
CLOTHES_RAIL
  6
CONTINUOUS
 10
5454.771791573215
 20
-28.46720908899488
 30
0.0
  0
VERTEX
  5
B0657
 67
     1
  8
CLOTHES_RAIL
  6
CONTINUOUS
 10
5461.749763578423
 20
-28.46720908899488
 30
0.0
  0
SEQEND
  5
B089E
 67
     1
  8
CLOTHES_RAIL
  6
CONTINUOUS
  0
POLYLINE
  5
A055C
 67
     1
  8
CLOTHES_RAIL
  6
CONTINUOUS
 66
     1
 10
0.0
 20
0.0
 30
0.0
 70
     1
  0
VERTEX
  5
B0658
 67
     1
  8
CLOTHES_RAIL
  6
CONTINUOUS
 10
5462.49183714613
 20
-28.46720908899488
 30
0.0
  0
VERTEX
  5
B0659
 67
     1
  8
CLOTHES_RAIL
  6
CONTINUOUS
 10
5464.87322494995
 20
-28.46720908899488
 30
0.0
  0
VERTEX
  5
B065A
 67
     1
  8
CLOTHES_RAIL
  6
CONTINUOUS
 10
5464.87322494995
 20
-36.22039648048771
 30
0.0
  0
VERTEX
  5
B065B
 67
     1
  8
CLOTHES_RAIL
  6
CONTINUOUS
 10
5462.49183714613
 20
-36.22039648048771
 30
0.0
  0
SEQEND
  5
B089F
 67
     1
  8
CLOTHES_RAIL
  6
CONTINUOUS
  0
POLYLINE
  5
A055D
 67
     1
  8
CLOTHES_RAIL
  6
CONTINUOUS
 66
     1
 10
0.0
 20
0.0
 30
0.0
 70
   128
  0
VERTEX
  5
B065C
 67
     1
  8
CLOTHES_RAIL
  6
CONTINUOUS
 10
5438.190615900471
 20
-28.46724353994973
 30
0.0
  0
VERTEX
  5
B065D
 67
     1
  8
CLOTHES_RAIL
  6
CONTINUOUS
 10
5438.190615900471
 20
-30.25045941451572
 30
0.0
  0
VERTEX
  5
B065E
 67
     1
  8
CLOTHES_RAIL
  6
CONTINUOUS
 10
5434.469085952553
 20
-30.25045941451572
 30
0.0
  0
VERTEX
  5
B065F
 67
     1
  8
CLOTHES_RAIL
  6
CONTINUOUS
 10
5434.469085952553
 20
-31.78996923439411
 30
0.0
  0
VERTEX
  5
B0660
 67
     1
  8
CLOTHES_RAIL
  6
CONTINUOUS
 10
5437.071958945176
 20
-31.78996923439411
 30
0.0
  0
VERTEX
  5
B0661
 67
     1
  8
CLOTHES_RAIL
  6
CONTINUOUS
 10
5437.071958945176
 20
-33.45143543448086
 30
0.0
  0
VERTEX
  5
B0662
 67
     1
  8
CLOTHES_RAIL
  6
CONTINUOUS
 10
5434.469085952553
 20
-33.45143543448086
 30
0.0
  0
VERTEX
  5
B0663
 67
     1
  8
CLOTHES_RAIL
  6
CONTINUOUS
 10
5434.469085952553
 20
-36.22039648048771
 30
0.0
  0
VERTEX
  5
B0664
 67
     1
  8
CLOTHES_RAIL
  6
CONTINUOUS
 10
5432.087698148734
 20
-36.22039648048771
 30
0.0
  0
VERTEX
  5
B0665
 67
     1
  8
CLOTHES_RAIL
  6
CONTINUOUS
 10
5432.087698148734
 20
-28.46724353994973
 30
0.0
  0
VERTEX
  5
B0666
 67
     1
  8
CLOTHES_RAIL
  6
CONTINUOUS
 10
5438.190615900471
 20
-28.46724353994973
 30
0.0
  0
SEQEND
  5
B08A0
 67
     1
  8
CLOTHES_RAIL
  6
CONTINUOUS
  0
POLYLINE
  5
A055E
 67
     1
  8
CLOTHES_RAIL
  6
CONTINUOUS
 66
     1
 10
0.0
 20
0.0
 30
0.0
 70
   128
  0
VERTEX
  5
B0667
 67
     1
  8
CLOTHES_RAIL
  6
CONTINUOUS
 10
5441.912318103162
 20
-30.60482193621716
 30
0.0
  0
VERTEX
  5
B0668
 67
     1
  8
CLOTHES_RAIL
  6
CONTINUOUS
 10
5442.576877022433
 20
-32.88657757857812
 30
0.0
  0
VERTEX
  5
B0669
 67
     1
  8
CLOTHES_RAIL
  6
CONTINUOUS
 10
5441.125906156548
 20
-32.88657757857812
 30
0.0
  0
VERTEX
  5
B066A
 67
     1
  8
CLOTHES_RAIL
  6
CONTINUOUS
 10
5441.790465075818
 20
-30.60482193621716
 30
0.0
  0
VERTEX
  5
B066B
 67
     1
  8
CLOTHES_RAIL
  6
CONTINUOUS
 10
5441.912318103162
 20
-30.60482193621716
 30
0.0
  0
SEQEND
  5
B08A1
 67
     1
  8
CLOTHES_RAIL
  6
CONTINUOUS
  0
POLYLINE
  5
A055F
 67
     1
  8
CLOTHES_RAIL
  6
CONTINUOUS
 66
     1
 10
0.0
 20
0.0
 30
0.0
 70
   129
  0
VERTEX
  5
B066C
 67
     1
  8
CLOTHES_RAIL
  6
CONTINUOUS
 10
5443.042151372053
 20
-34.54794042580057
 30
0.0
  0
VERTEX
  5
B066D
 67
     1
  8
CLOTHES_RAIL
  6
CONTINUOUS
 10
5443.042151372053
 20
-34.54794042580057
 30
0.0
  0
VERTEX
  5
B066E
 67
     1
  8
CLOTHES_RAIL
  6
CONTINUOUS
 10
5443.529377022432
 20
-36.22039648048771
 30
0.0
  0
VERTEX
  5
B066F
 67
     1
  8
CLOTHES_RAIL
  6
CONTINUOUS
 10
5446.043711061061
 20
-36.22039648048771
 30
0.0
  0
VERTEX
  5
B0670
 67
     1
  8
CLOTHES_RAIL
  6
CONTINUOUS
 10
5443.695533977728
 20
-29.16490982684213
 30
0.0
 42
0.1089385125692126
  0
VERTEX
  5
B0671
 67
     1
  8
CLOTHES_RAIL
  6
CONTINUOUS
 10
5443.440696781376
 20
-28.61148707243616
 30
0.0
 42
0.1589313772246072
  0
VERTEX
  5
B0672
 67
     1
  8
CLOTHES_RAIL
  6
CONTINUOUS
 10
5443.200780277596
 20
-28.46578963330632
 30
0.0
 42
0.058673645385263
  0
VERTEX
  5
B0673
 67
     1
  8
CLOTHES_RAIL
  6
CONTINUOUS
 10
5442.875876859673
 20
-28.43396391755392
 30
0.0
  0
VERTEX
  5
B0674
 67
     1
  8
CLOTHES_RAIL
  6
CONTINUOUS
 10
5442.875876859673
 20
-28.43396391755392
 30
0.0
  0
VERTEX
  5
B0675
 67
     1
  8
CLOTHES_RAIL
  6
CONTINUOUS
 10
5440.970911310627
 20
-28.43396391755392
 30
0.0
 42
0.058673645385263
  0
VERTEX
  5
B0676
 67
     1
  8
CLOTHES_RAIL
  6
CONTINUOUS
 10
5440.646007892707
 20
-28.46578963330632
 30
0.0
 42
0.1589313772246072
  0
VERTEX
  5
B0677
 67
     1
  8
CLOTHES_RAIL
  6
CONTINUOUS
 10
5440.406091388922
 20
-28.61148707243616
 30
0.0
 42
0.1089385125692126
  0
VERTEX
  5
B0678
 67
     1
  8
CLOTHES_RAIL
  6
CONTINUOUS
 10
5440.151254192572
 20
-29.16490982684213
 30
0.0
  0
VERTEX
  5
B0679
 67
     1
  8
CLOTHES_RAIL
  6
CONTINUOUS
 10
5437.803077109239
 20
-36.22039648048771
 30
0.0
  0
VERTEX
  5
B067A
 67
     1
  8
CLOTHES_RAIL
  6
CONTINUOUS
 10
5440.184396011148
 20
-36.22039648048771
 30
0.0
  0
VERTEX
  5
B067B
 67
     1
  8
CLOTHES_RAIL
  6
CONTINUOUS
 10
5440.660646011148
 20
-34.54794042580057
 30
0.0
  0
SEQEND
  5
B08A2
 67
     1
  8
CLOTHES_RAIL
  6
CONTINUOUS
  0
LINE
  5
A0560
 67
     1
  8
0
 10
5430.41357023484
 20
-38.07357432542767
 30
0.0
 11
5472.493622517709
 21
-38.07357432542771
 31
0.0
  0
TEXT
  5
A0561
 67
     1
  8
0
 10
5445.159798872925
 20
-40.82492040620856
 30
0.0
 40
2.0
  1
02.03.2015
  7
STILE4
  0
LINE
  5
A0562
 67
     1
  8
0
 10
5430.41357023484
 20
-26.25196840229718
 30
0.0
 11
5472.493622517709
 21
-26.25196840229721
 31
0.0
  0
POLYLINE
  5
A0563
 67
     1
  8
RIPIANI
 66
     1
 10
0.0
 20
0.0
 30
0.0
 70
     1
  0
VERTEX
  5
B067C
 67
     1
  8
RIPIANI
 10
5430.41357023484
 20
-26.25196840229718
 30
0.0
  0
VERTEX
  5
B067D
 67
     1
  8
RIPIANI
 10
5430.41357023484
 20
-38.07357432542761
 30
0.0
  0
VERTEX
  5
B067E
 67
     1
  8
RIPIANI
 10
5475.786953964698
 20
-38.07357432542761
 30
0.0
  0
VERTEX
  5
B067F
 67
     1
  8
RIPIANI
 10
5475.786953964698
 20
-26.25196840229718
 30
0.0
  0
SEQEND
  5
B08A3
 67
     1
  8
RIPIANI
  0
POLYLINE
  5
A0564
 67
     1
  8
RIPIANI
 66
     1
 10
0.0
 20
0.0
 30
0.0
 70
     1
  0
VERTEX
  5
B0680
 67
     1
  8
RIPIANI
 10
5430.41357023484
 20
-38.07357432542761
 30
0.0
  0
VERTEX
  5
B0681
 67
     1
  8
RIPIANI
 10
5430.41357023484
 20
-45.57357432542768
 30
0.0
  0
VERTEX
  5
B0682
 67
     1
  8
RIPIANI
 10
5475.786953964698
 20
-45.57357432542768
 30
0.0
  0
VERTEX
  5
B0683
 67
     1
  8
RIPIANI
 10
5475.786953964698
 20
-38.07357432542761
 30
0.0
  0
SEQEND
  5
B08A4
 67
     1
  8
RIPIANI
  0
LINE
  5
A0565
 67
     1
  8
RIPIANI
 10
5475.786953964698
 20
-26.25196840229718
 30
0.0
 11
5622.41357023484
 21
-26.25196840229718
 31
0.0
  0
LINE
  5
A05D1
 67
     1
  8
RIPIANI
 10
5403.971933088409
 20
23.52456288579168
 30
0.0
 11
5403.971933088409
 21
-46.47543711420802
 31
0.0
  0
POLYLINE
  5
A05D2
 67
     1
  8
RIPIANI
 66
     1
 10
0.0
 20
0.0
 30
0.0
 70
     1
  0
VERTEX
  5
B0684
 67
     1
  8
RIPIANI
 10
5211.97193308841
 20
-46.47543711420802
 30
0.0
  0
VERTEX
  5
B0685
 67
     1
  8
RIPIANI
 10
5211.97193308841
 20
215.524562885792
 30
0.0
  0
VERTEX
  5
B0686
 67
     1
  8
RIPIANI
 10
5403.971933088409
 20
215.524562885792
 30
0.0
  0
VERTEX
  5
B0687
 67
     1
  8
RIPIANI
 10
5403.971933088409
 20
-46.47543711420802
 30
0.0
  0
SEQEND
  5
B08A5
 67
     1
  8
RIPIANI
  0
LINE
  5
A05D3
 67
     1
  8
0
 10
5233.971933088409
 20
-38.97543711420798
 30
0.0
 11
5257.345316818266
 21
-38.97543711420798
 31
0.0
  0
LINE
  5
A05D4
 67
     1
  8
RIPIANI
 10
5233.971933088409
 20
-46.47543711420797
 30
0.0
 11
5403.971933088409
 21
-46.47543711420802
 31
0.0
  0
TEXT
  5
A05D5
 67
     1
  8
0
 10
5243.70508445455
 20
-45.43965956854042
 30
0.0
 40
1.689599999999999
  1
.DWG
  7
STILE4
  0
LINE
  5
A05D6
 67
     1
  8
RIPIANI
 10
5211.97193308841
 20
-42.72543711420802
 30
0.0
 11
5257.345316818266
 21
-42.72543711420806
 31
0.0
  0
TEXT
  5
A05D7
 67
     1
  8
CLOTHES_RAIL
 10
5285.984991943557
 20
-34.11498777108713
 30
0.0
 40
2.5
  1
MOBILE SHELVING SYSTEM MODEL "VELA/BINARIA"
  7
STILE1
 72
     1
 11
5333.721227062605
 21
-34.11498777108713
 31
0.0
  0
TEXT
  5
A05D8
 67
     1
  8
CLOTHES_RAIL
 10
5307.05270027689
 20
-41.61498777108713
 30
0.0
 40
2.5
  1
WARDROBE CONFIGURATIONS
  7
STILE1
 72
     1
 11
5333.721227062605
 21
-41.61498777108713
 31
0.0
  0
TEXT
  5
A05D9
 67
     1
  8
0
 10
5219.083473286588
 20
-45.43965956854042
 30
0.0
 40
1.689599999999999
  1
BINARIA-VELA-WR
  7
STILE4
  0
POLYLINE
  5
A05DA
 67
     1
  8
CLOTHES_RAIL
  6
CONTINUOUS
 66
     1
 10
0.0
 20
0.0
 30
0.0
 70
   128
  0
VERTEX
  5
B0688
 67
     1
  8
CLOTHES_RAIL
  6
CONTINUOUS
 10
5247.782892056991
 20
-37.12225926926806
 30
0.0
  0
VERTEX
  5
B0689
 67
     1
  8
CLOTHES_RAIL
  6
CONTINUOUS
 10
5247.782892056991
 20
-29.36903742682029
 30
0.0
  0
VERTEX
  5
B068A
 67
     1
  8
CLOTHES_RAIL
  6
CONTINUOUS
 10
5249.809882888154
 20
-29.36903742682029
 30
0.0
 42
-0.316444976687396
  0
VERTEX
  5
B068B
 67
     1
  8
CLOTHES_RAIL
  6
CONTINUOUS
 10
5250.828838780082
 20
-29.93392973367783
 30
0.0
  0
VERTEX
  5
B068C
 67
     1
  8
CLOTHES_RAIL
  6
CONTINUOUS
 10
5252.844701952825
 20
-33.33430788037953
 30
0.0
  0
VERTEX
  5
B068D
 67
     1
  8
CLOTHES_RAIL
  6
CONTINUOUS
 10
5252.900064637286
 20
-33.33430788037953
 30
0.0
  0
VERTEX
  5
B068E
 67
     1
  8
CLOTHES_RAIL
  6
CONTINUOUS
 10
5252.900064637286
 20
-29.36903742682029
 30
0.0
  0
VERTEX
  5
B068F
 67
     1
  8
CLOTHES_RAIL
  6
CONTINUOUS
 10
5255.148540657252
 20
-29.36903742682029
 30
0.0
  0
VERTEX
  5
B0690
 67
     1
  8
CLOTHES_RAIL
  6
CONTINUOUS
 10
5255.148540657252
 20
-37.12225926926806
 30
0.0
  0
VERTEX
  5
B0691
 67
     1
  8
CLOTHES_RAIL
  6
CONTINUOUS
 10
5253.498098762722
 20
-37.12225926926806
 30
0.0
 42
-0.312959769389874
  0
VERTEX
  5
B0692
 67
     1
  8
CLOTHES_RAIL
  6
CONTINUOUS
 10
5252.479142870793
 20
-36.55740141336549
 30
0.0
  0
VERTEX
  5
B0693
 67
     1
  8
CLOTHES_RAIL
  6
CONTINUOUS
 10
5250.086730761418
 20
-32.69186647412927
 30
0.0
  0
VERTEX
  5
B0694
 67
     1
  8
CLOTHES_RAIL
  6
CONTINUOUS
 10
5250.031436978869
 20
-32.69186647412927
 30
0.0
  0
VERTEX
  5
B0695
 67
     1
  8
CLOTHES_RAIL
  6
CONTINUOUS
 10
5250.031436978869
 20
-37.12225926926806
 30
0.0
  0
VERTEX
  5
B0696
 67
     1
  8
CLOTHES_RAIL
  6
CONTINUOUS
 10
5247.782892056991
 20
-37.12225926926806
 30
0.0
  0
SEQEND
  5
B08A6
 67
     1
  8
CLOTHES_RAIL
  6
CONTINUOUS
  0
POLYLINE
  5
A05DB
 67
     1
  8
CLOTHES_RAIL
  6
CONTINUOUS
 66
     1
 10
0.0
 20
0.0
 30
0.0
 70
   128
  0
VERTEX
  5
B0697
 67
     1
  8
CLOTHES_RAIL
  6
CONTINUOUS
 10
5228.2556429793
 20
-37.12225926926806
 30
0.0
  0
VERTEX
  5
B0698
 67
     1
  8
CLOTHES_RAIL
  6
CONTINUOUS
 10
5228.2556429793
 20
-29.36903742682029
 30
0.0
  0
VERTEX
  5
B0699
 67
     1
  8
CLOTHES_RAIL
  6
CONTINUOUS
 10
5230.282633810464
 20
-29.36903742682029
 30
0.0
 42
-0.316444976687396
  0
VERTEX
  5
B069A
 67
     1
  8
CLOTHES_RAIL
  6
CONTINUOUS
 10
5231.301589702391
 20
-29.93392973367783
 30
0.0
  0
VERTEX
  5
B069B
 67
     1
  8
CLOTHES_RAIL
  6
CONTINUOUS
 10
5233.317452875134
 20
-33.33430788037953
 30
0.0
  0
VERTEX
  5
B069C
 67
     1
  8
CLOTHES_RAIL
  6
CONTINUOUS
 10
5233.372815559595
 20
-33.33430788037953
 30
0.0
  0
VERTEX
  5
B069D
 67
     1
  8
CLOTHES_RAIL
  6
CONTINUOUS
 10
5233.372815559595
 20
-29.36903742682029
 30
0.0
  0
VERTEX
  5
B069E
 67
     1
  8
CLOTHES_RAIL
  6
CONTINUOUS
 10
5235.621291579558
 20
-29.36903742682029
 30
0.0
  0
VERTEX
  5
B069F
 67
     1
  8
CLOTHES_RAIL
  6
CONTINUOUS
 10
5235.621291579558
 20
-37.12225926926806
 30
0.0
  0
VERTEX
  5
B06A0
 67
     1
  8
CLOTHES_RAIL
  6
CONTINUOUS
 10
5233.97084968503
 20
-37.12225926926806
 30
0.0
 42
-0.312959769389874
  0
VERTEX
  5
B06A1
 67
     1
  8
CLOTHES_RAIL
  6
CONTINUOUS
 10
5232.951893793102
 20
-36.55740141336549
 30
0.0
  0
VERTEX
  5
B06A2
 67
     1
  8
CLOTHES_RAIL
  6
CONTINUOUS
 10
5230.559481683728
 20
-32.69186647412927
 30
0.0
  0
VERTEX
  5
B06A3
 67
     1
  8
CLOTHES_RAIL
  6
CONTINUOUS
 10
5230.504187901175
 20
-32.69186647412927
 30
0.0
  0
VERTEX
  5
B06A4
 67
     1
  8
CLOTHES_RAIL
  6
CONTINUOUS
 10
5230.504187901175
 20
-37.12225926926806
 30
0.0
  0
VERTEX
  5
B06A5
 67
     1
  8
CLOTHES_RAIL
  6
CONTINUOUS
 10
5228.2556429793
 20
-37.12225926926806
 30
0.0
  0
SEQEND
  5
B08A7
 67
     1
  8
CLOTHES_RAIL
  6
CONTINUOUS
  0
POLYLINE
  5
A05DC
 67
     1
  8
CLOTHES_RAIL
  6
CONTINUOUS
 66
     1
 10
0.0
 20
0.0
 30
0.0
 70
   128
  0
VERTEX
  5
B06A6
 67
     1
  8
CLOTHES_RAIL
  6
CONTINUOUS
 10
5243.308126431992
 20
-29.36907187777525
 30
0.0
  0
VERTEX
  5
B06A7
 67
     1
  8
CLOTHES_RAIL
  6
CONTINUOUS
 10
5243.308126431992
 20
-31.18553292378233
 30
0.0
  0
VERTEX
  5
B06A8
 67
     1
  8
CLOTHES_RAIL
  6
CONTINUOUS
 10
5240.982204665498
 20
-31.18553292378233
 30
0.0
  0
VERTEX
  5
B06A9
 67
     1
  8
CLOTHES_RAIL
  6
CONTINUOUS
 10
5240.982204665498
 20
-37.12225926926806
 30
0.0
  0
VERTEX
  5
B06AA
 67
     1
  8
CLOTHES_RAIL
  6
CONTINUOUS
 10
5238.600816861679
 20
-37.12225926926806
 30
0.0
  0
VERTEX
  5
B06AB
 67
     1
  8
CLOTHES_RAIL
  6
CONTINUOUS
 10
5238.600816861679
 20
-31.18553292378233
 30
0.0
  0
VERTEX
  5
B06AC
 67
     1
  8
CLOTHES_RAIL
  6
CONTINUOUS
 10
5236.330154426783
 20
-31.18553292378233
 30
0.0
  0
VERTEX
  5
B06AD
 67
     1
  8
CLOTHES_RAIL
  6
CONTINUOUS
 10
5236.330154426783
 20
-29.36907187777525
 30
0.0
  0
VERTEX
  5
B06AE
 67
     1
  8
CLOTHES_RAIL
  6
CONTINUOUS
 10
5243.308126431992
 20
-29.36907187777525
 30
0.0
  0
SEQEND
  5
B08A8
 67
     1
  8
CLOTHES_RAIL
  6
CONTINUOUS
  0
POLYLINE
  5
A05DD
 67
     1
  8
CLOTHES_RAIL
  6
CONTINUOUS
 66
     1
 10
0.0
 20
0.0
 30
0.0
 70
     1
  0
VERTEX
  5
B06AF
 67
     1
  8
CLOTHES_RAIL
  6
CONTINUOUS
 10
5244.050199999701
 20
-29.36907187777525
 30
0.0
  0
VERTEX
  5
B06B0
 67
     1
  8
CLOTHES_RAIL
  6
CONTINUOUS
 10
5246.431587803519
 20
-29.36907187777525
 30
0.0
  0
VERTEX
  5
B06B1
 67
     1
  8
CLOTHES_RAIL
  6
CONTINUOUS
 10
5246.431587803519
 20
-37.12225926926806
 30
0.0
  0
VERTEX
  5
B06B2
 67
     1
  8
CLOTHES_RAIL
  6
CONTINUOUS
 10
5244.050199999701
 20
-37.12225926926806
 30
0.0
  0
SEQEND
  5
B08A9
 67
     1
  8
CLOTHES_RAIL
  6
CONTINUOUS
  0
POLYLINE
  5
A05DE
 67
     1
  8
CLOTHES_RAIL
  6
CONTINUOUS
 66
     1
 10
0.0
 20
0.0
 30
0.0
 70
   128
  0
VERTEX
  5
B06B3
 67
     1
  8
CLOTHES_RAIL
  6
CONTINUOUS
 10
5219.74897875404
 20
-29.36910632873009
 30
0.0
  0
VERTEX
  5
B06B4
 67
     1
  8
CLOTHES_RAIL
  6
CONTINUOUS
 10
5219.74897875404
 20
-31.15232220329609
 30
0.0
  0
VERTEX
  5
B06B5
 67
     1
  8
CLOTHES_RAIL
  6
CONTINUOUS
 10
5216.027448806123
 20
-31.15232220329609
 30
0.0
  0
VERTEX
  5
B06B6
 67
     1
  8
CLOTHES_RAIL
  6
CONTINUOUS
 10
5216.027448806123
 20
-32.69183202317448
 30
0.0
  0
VERTEX
  5
B06B7
 67
     1
  8
CLOTHES_RAIL
  6
CONTINUOUS
 10
5218.630321798745
 20
-32.69183202317448
 30
0.0
  0
VERTEX
  5
B06B8
 67
     1
  8
CLOTHES_RAIL
  6
CONTINUOUS
 10
5218.630321798745
 20
-34.35329822326123
 30
0.0
  0
VERTEX
  5
B06B9
 67
     1
  8
CLOTHES_RAIL
  6
CONTINUOUS
 10
5216.027448806123
 20
-34.35329822326123
 30
0.0
  0
VERTEX
  5
B06BA
 67
     1
  8
CLOTHES_RAIL
  6
CONTINUOUS
 10
5216.027448806123
 20
-37.12225926926806
 30
0.0
  0
VERTEX
  5
B06BB
 67
     1
  8
CLOTHES_RAIL
  6
CONTINUOUS
 10
5213.646061002304
 20
-37.12225926926806
 30
0.0
  0
VERTEX
  5
B06BC
 67
     1
  8
CLOTHES_RAIL
  6
CONTINUOUS
 10
5213.646061002304
 20
-29.36910632873009
 30
0.0
  0
VERTEX
  5
B06BD
 67
     1
  8
CLOTHES_RAIL
  6
CONTINUOUS
 10
5219.74897875404
 20
-29.36910632873009
 30
0.0
  0
SEQEND
  5
B08AA
 67
     1
  8
CLOTHES_RAIL
  6
CONTINUOUS
  0
POLYLINE
  5
A05DF
 67
     1
  8
CLOTHES_RAIL
  6
CONTINUOUS
 66
     1
 10
0.0
 20
0.0
 30
0.0
 70
   128
  0
VERTEX
  5
B06BE
 67
     1
  8
CLOTHES_RAIL
  6
CONTINUOUS
 10
5223.470680956729
 20
-31.50668472499752
 30
0.0
  0
VERTEX
  5
B06BF
 67
     1
  8
CLOTHES_RAIL
  6
CONTINUOUS
 10
5224.135239876002
 20
-33.78844036735848
 30
0.0
  0
VERTEX
  5
B06C0
 67
     1
  8
CLOTHES_RAIL
  6
CONTINUOUS
 10
5222.684269010118
 20
-33.78844036735848
 30
0.0
  0
VERTEX
  5
B06C1
 67
     1
  8
CLOTHES_RAIL
  6
CONTINUOUS
 10
5223.348827929387
 20
-31.50668472499752
 30
0.0
  0
VERTEX
  5
B06C2
 67
     1
  8
CLOTHES_RAIL
  6
CONTINUOUS
 10
5223.470680956729
 20
-31.50668472499752
 30
0.0
  0
SEQEND
  5
B08AB
 67
     1
  8
CLOTHES_RAIL
  6
CONTINUOUS
  0
POLYLINE
  5
A05E0
 67
     1
  8
CLOTHES_RAIL
  6
CONTINUOUS
 66
     1
 10
0.0
 20
0.0
 30
0.0
 70
   129
  0
VERTEX
  5
B06C3
 67
     1
  8
CLOTHES_RAIL
  6
CONTINUOUS
 10
5224.60051422562
 20
-35.44980321458093
 30
0.0
  0
VERTEX
  5
B06C4
 67
     1
  8
CLOTHES_RAIL
  6
CONTINUOUS
 10
5224.60051422562
 20
-35.44980321458093
 30
0.0
  0
VERTEX
  5
B06C5
 67
     1
  8
CLOTHES_RAIL
  6
CONTINUOUS
 10
5225.087739876001
 20
-37.12225926926806
 30
0.0
  0
VERTEX
  5
B06C6
 67
     1
  8
CLOTHES_RAIL
  6
CONTINUOUS
 10
5227.60207391463
 20
-37.12225926926806
 30
0.0
  0
VERTEX
  5
B06C7
 67
     1
  8
CLOTHES_RAIL
  6
CONTINUOUS
 10
5225.253896831298
 20
-30.06677261562249
 30
0.0
 42
0.1089385125692126
  0
VERTEX
  5
B06C8
 67
     1
  8
CLOTHES_RAIL
  6
CONTINUOUS
 10
5224.999059634946
 20
-29.51334986121652
 30
0.0
 42
0.1589313772246072
  0
VERTEX
  5
B06C9
 67
     1
  8
CLOTHES_RAIL
  6
CONTINUOUS
 10
5224.759143131164
 20
-29.36765242208669
 30
0.0
 42
0.058673645385263
  0
VERTEX
  5
B06CA
 67
     1
  8
CLOTHES_RAIL
  6
CONTINUOUS
 10
5224.434239713242
 20
-29.33582670633428
 30
0.0
  0
VERTEX
  5
B06CB
 67
     1
  8
CLOTHES_RAIL
  6
CONTINUOUS
 10
5224.434239713242
 20
-29.33582670633428
 30
0.0
  0
VERTEX
  5
B06CC
 67
     1
  8
CLOTHES_RAIL
  6
CONTINUOUS
 10
5222.529274164196
 20
-29.33582670633428
 30
0.0
 42
0.058673645385263
  0
VERTEX
  5
B06CD
 67
     1
  8
CLOTHES_RAIL
  6
CONTINUOUS
 10
5222.204370746274
 20
-29.36765242208669
 30
0.0
 42
0.1589313772246072
  0
VERTEX
  5
B06CE
 67
     1
  8
CLOTHES_RAIL
  6
CONTINUOUS
 10
5221.964454242492
 20
-29.51334986121652
 30
0.0
 42
0.1089385125692126
  0
VERTEX
  5
B06CF
 67
     1
  8
CLOTHES_RAIL
  6
CONTINUOUS
 10
5221.709617046141
 20
-30.06677261562249
 30
0.0
  0
VERTEX
  5
B06D0
 67
     1
  8
CLOTHES_RAIL
  6
CONTINUOUS
 10
5219.361439962809
 20
-37.12225926926806
 30
0.0
  0
VERTEX
  5
B06D1
 67
     1
  8
CLOTHES_RAIL
  6
CONTINUOUS
 10
5221.742758864717
 20
-37.12225926926806
 30
0.0
  0
VERTEX
  5
B06D2
 67
     1
  8
CLOTHES_RAIL
  6
CONTINUOUS
 10
5222.219008864716
 20
-35.44980321458093
 30
0.0
  0
SEQEND
  5
B08AC
 67
     1
  8
CLOTHES_RAIL
  6
CONTINUOUS
  0
LINE
  5
A05E1
 67
     1
  8
0
 10
5211.97193308841
 20
-38.97543711420802
 30
0.0
 11
5254.051985371278
 21
-38.97543711420806
 31
0.0
  0
TEXT
  5
A05E2
 67
     1
  8
0
 10
5226.718161726491
 20
-41.72678319498892
 30
0.0
 40
2.0
  1
02.03.2015
  7
STILE4
  0
LINE
  5
A05E3
 67
     1
  8
0
 10
5211.97193308841
 20
-27.15383119107754
 30
0.0
 11
5254.051985371278
 21
-27.15383119107757
 31
0.0
  0
POLYLINE
  5
A05E4
 67
     1
  8
RIPIANI
 66
     1
 10
0.0
 20
0.0
 30
0.0
 70
     1
  0
VERTEX
  5
B06D3
 67
     1
  8
RIPIANI
 10
5211.97193308841
 20
-27.15383119107754
 30
0.0
  0
VERTEX
  5
B06D4
 67
     1
  8
RIPIANI
 10
5211.97193308841
 20
-38.97543711420798
 30
0.0
  0
VERTEX
  5
B06D5
 67
     1
  8
RIPIANI
 10
5257.345316818266
 20
-38.97543711420798
 30
0.0
  0
VERTEX
  5
B06D6
 67
     1
  8
RIPIANI
 10
5257.345316818266
 20
-27.15383119107754
 30
0.0
  0
SEQEND
  5
B08AD
 67
     1
  8
RIPIANI
  0
POLYLINE
  5
A05E5
 67
     1
  8
RIPIANI
 66
     1
 10
0.0
 20
0.0
 30
0.0
 70
     1
  0
VERTEX
  5
B06D7
 67
     1
  8
RIPIANI
 10
5211.97193308841
 20
-38.97543711420798
 30
0.0
  0
VERTEX
  5
B06D8
 67
     1
  8
RIPIANI
 10
5211.97193308841
 20
-46.47543711420804
 30
0.0
  0
VERTEX
  5
B06D9
 67
     1
  8
RIPIANI
 10
5257.345316818266
 20
-46.47543711420804
 30
0.0
  0
VERTEX
  5
B06DA
 67
     1
  8
RIPIANI
 10
5257.345316818266
 20
-38.97543711420798
 30
0.0
  0
SEQEND
  5
B08AE
 67
     1
  8
RIPIANI
  0
LINE
  5
A05E6
 67
     1
  8
RIPIANI
 10
5257.345316818266
 20
-27.15383119107754
 30
0.0
 11
5403.971933088409
 21
-27.15383119107754
 31
0.0
  0
VIEWPORT
  5
A05EA
 67
     1
  8
RETE
 10
5308.221933088409
 20
93.90646166026305
 30
0.0
 40
191.5
 41
236.132465228796
 68
     4
 69
     4
1001
ACAD
1000
MVIEW
1002
{
1070
    16
1010
183262.9885359334
1020
-9667.563718929574
1030
0.0
1010
0.0
1020
0.0
1030
1.0
1040
0.0
1040
5700.595139329438
1040
215823.6079317253
1040
34568.76605440148
1040
50.0
1040
0.0
1040
0.0
1070
    16
1070
   100
1070
     1
1070
     1
1070
     0
1070
     0
1070
     0
1070
     0
1040
0.0
1040
0.0
1040
0.0
1040
1.0
1040
1.0
1040
0.0
1040
0.0
1070
     0
1002
{
1002
}
1002
}
  0
ENDSEC
  0
EOF
