  0
SECTION
  2
HEADER
  9
$ACADVER
  1
AC1032
  9
$ACADMAINTVER
 90
       55
  9
$DWGCODEPAGE
  3
ANSI_1252
  9
$LASTSAVEDBY
  1
ucom07
  9
$REQUIREDVERSIONS
160
                 0
  9
$INSBASE
 10
0.0
 20
0.0
 30
0.0
  9
$EXTMIN
 10
-0.000000000007276
 20
0.0
 30
0.0
  9
$EXTMAX
 10
34375.89773943181
 20
17955.95716581255
 30
0.0
  9
$LIMMIN
 10
0.0
 20
0.0
  9
$LIMMAX
 10
12.0
 20
9.0
  9
$ORTHOMODE
 70
     1
  9
$REGENMODE
 70
     1
  9
$FILLMODE
 70
     1
  9
$QTEXTMODE
 70
     0
  9
$MIRRTEXT
 70
     0
  9
$LTSCALE
 40
5.0
  9
$ATTMODE
 70
     2
  9
$TEXTSIZE
 40
19.0
  9
$TRACEWID
 40
0.05
  9
$TEXTSTYLE
  7
STILE1
  9
$CLAYER
  8
0
  9
$CELTYPE
  6
ByLayer
  9
$CECOLOR
 62
   256
  9
$CELTSCALE
 40
1.0
  9
$DISPSILH
 70
     0
  9
$DIMSCALE
 40
20.0
  9
$DIMASZ
 40
2.5
  9
$DIMEXO
 40
1.0
  9
$DIMDLI
 40
0.0
  9
$DIMRND
 40
0.0
  9
$DIMDLE
 40
0.0
  9
$DIMEXE
 40
1.0
  9
$DIMTP
 40
0.0
  9
$DIMTM
 40
0.0
  9
$DIMTXT
 40
2.5
  9
$DIMCEN
 40
1.0
  9
$DIMTSZ
 40
0.0
  9
$DIMTOL
 70
     0
  9
$DIMLIM
 70
     0
  9
$DIMTIH
 70
     0
  9
$DIMTOH
 70
     0
  9
$DIMSE1
 70
     0
  9
$DIMSE2
 70
     0
  9
$DIMTAD
 70
     1
  9
$DIMZIN
 70
     8
  9
$DIMBLK
  1

  9
$DIMASO
 70
     1
  9
$DIMSHO
 70
     0
  9
$DIMPOST
  1

  9
$DIMAPOST
  1

  9
$DIMALT
 70
     0
  9
$DIMALTD
 70
     2
  9
$DIMALTF
 40
25.4
  9
$DIMLFAC
 40
1.0
  9
$DIMTOFL
 70
     1
  9
$DIMTVP
 40
0.0
  9
$DIMTIX
 70
     1
  9
$DIMSOXD
 70
     0
  9
$DIMSAH
 70
     0
  9
$DIMBLK1
  1

  9
$DIMBLK2
  1

  9
$DIMSTYLE
  2
STANDARD
  9
$DIMCLRD
 70
     0
  9
$DIMCLRE
 70
     0
  9
$DIMCLRT
 70
     0
  9
$DIMTFAC
 40
1.0
  9
$DIMGAP
 40
1.5
  9
$DIMJUST
 70
     0
  9
$DIMSD1
 70
     0
  9
$DIMSD2
 70
     0
  9
$DIMTOLJ
 70
     1
  9
$DIMTZIN
 70
     0
  9
$DIMALTZ
 70
     0
  9
$DIMALTTZ
 70
     0
  9
$DIMUPT
 70
     0
  9
$DIMDEC
 70
     4
  9
$DIMTDEC
 70
     4
  9
$DIMALTU
 70
     2
  9
$DIMALTTD
 70
     2
  9
$DIMTXSTY
  7
STANDARD
  9
$DIMAUNIT
 70
     0
  9
$DIMADEC
 70
     0
  9
$DIMALTRND
 40
0.0
  9
$DIMAZIN
 70
     0
  9
$DIMDSEP
 70
    46
  9
$DIMATFIT
 70
     3
  9
$DIMFRAC
 70
     0
  9
$DIMLDRBLK
  1

  9
$DIMLUNIT
 70
     2
  9
$DIMLWD
 70
    -2
  9
$DIMLWE
 70
    -2
  9
$DIMTMOVE
 70
     2
  9
$DIMFXL
 40
1.0
  9
$DIMFXLON
 70
     0
  9
$DIMJOGANG
 40
0.7853981633974483
  9
$DIMTFILL
 70
     0
  9
$DIMTFILLCLR
 70
     0
  9
$DIMARCSYM
 70
     0
  9
$DIMLTYPE
  6

  9
$DIMLTEX1
  6

  9
$DIMLTEX2
  6

  9
$DIMTXTDIRECTION
 70
     0
  9
$LUNITS
 70
     2
  9
$LUPREC
 70
     4
  9
$SKETCHINC
 40
0.1
  9
$FILLETRAD
 40
500.0
  9
$AUNITS
 70
     0
  9
$AUPREC
 70
     0
  9
$MENU
  1
acad
  9
$ELEVATION
 40
0.0
  9
$PELEVATION
 40
0.0
  9
$THICKNESS
 40
0.0
  9
$LIMCHECK
 70
     0
  9
$CHAMFERA
 40
0.0
  9
$CHAMFERB
 40
0.0
  9
$CHAMFERC
 40
0.0
  9
$CHAMFERD
 40
0.0
  9
$SKPOLY
 70
     0
  9
$TDCREATE
 40
2450277.54597441
  9
$TDUCREATE
 40
2450277.462641076
  9
$TDUPDATE
 40
2460453.617361204
  9
$TDUUPDATE
 40
2460453.53402787
  9
$TDINDWG
 40
23.494145162
  9
$TDUSRTIMER
 40
0.0002607407
  9
$USRTIMER
 70
     1
  9
$ANGBASE
 50
0.0
  9
$ANGDIR
 70
     0
  9
$PDMODE
 70
     0
  9
$PDSIZE
 40
0.0
  9
$PLINEWID
 40
0.0
  9
$SPLFRAME
 70
     0
  9
$SPLINETYPE
 70
     6
  9
$SPLINESEGS
 70
     8
  9
$HANDSEED
  5
B14C1
  9
$SURFTAB1
 70
     6
  9
$SURFTAB2
 70
     6
  9
$SURFTYPE
 70
     6
  9
$SURFU
 70
     6
  9
$SURFV
 70
     6
  9
$UCSBASE
  2

  9
$UCSNAME
  2

  9
$UCSORG
 10
0.0
 20
0.0
 30
0.0
  9
$UCSXDIR
 10
1.0
 20
0.0
 30
0.0
  9
$UCSYDIR
 10
0.0
 20
1.0
 30
0.0
  9
$UCSORTHOREF
  2

  9
$UCSORTHOVIEW
 70
     0
  9
$UCSORGTOP
 10
0.0
 20
0.0
 30
0.0
  9
$UCSORGBOTTOM
 10
0.0
 20
0.0
 30
0.0
  9
$UCSORGLEFT
 10
0.0
 20
0.0
 30
0.0
  9
$UCSORGRIGHT
 10
0.0
 20
0.0
 30
0.0
  9
$UCSORGFRONT
 10
0.0
 20
0.0
 30
0.0
  9
$UCSORGBACK
 10
0.0
 20
0.0
 30
0.0
  9
$PUCSBASE
  2

  9
$PUCSNAME
  2

  9
$PUCSORG
 10
0.0
 20
0.0
 30
0.0
  9
$PUCSXDIR
 10
1.0
 20
0.0
 30
0.0
  9
$PUCSYDIR
 10
0.0
 20
1.0
 30
0.0
  9
$PUCSORTHOREF
  2

  9
$PUCSORTHOVIEW
 70
     0
  9
$PUCSORGTOP
 10
0.0
 20
0.0
 30
0.0
  9
$PUCSORGBOTTOM
 10
0.0
 20
0.0
 30
0.0
  9
$PUCSORGLEFT
 10
0.0
 20
0.0
 30
0.0
  9
$PUCSORGRIGHT
 10
0.0
 20
0.0
 30
0.0
  9
$PUCSORGFRONT
 10
0.0
 20
0.0
 30
0.0
  9
$PUCSORGBACK
 10
0.0
 20
0.0
 30
0.0
  9
$USERI1
 70
     0
  9
$USERI2
 70
     0
  9
$USERI3
 70
     0
  9
$USERI4
 70
     0
  9
$USERI5
 70
     0
  9
$USERR1
 40
0.0
  9
$USERR2
 40
0.0
  9
$USERR3
 40
0.0
  9
$USERR4
 40
0.0
  9
$USERR5
 40
0.0
  9
$WORLDVIEW
 70
     1
  9
$SHADEDGE
 70
     3
  9
$SHADEDIF
 70
    70
  9
$TILEMODE
 70
     1
  9
$MAXACTVP
 70
    16
  9
$PINSBASE
 10
0.0
 20
0.0
 30
0.0
  9
$PLIMCHECK
 70
     0
  9
$PEXTMIN
 10
5211.97193308841
 20
-46.47543711420804
 30
0.0
  9
$PEXTMAX
 10
5820.50813952323
 20
216.4264256745723
 30
0.0
  9
$PLIMMIN
 10
0.0
 20
0.0
  9
$PLIMMAX
 10
0.0
 20
0.0
  9
$UNITMODE
 70
     0
  9
$VISRETAIN
 70
     0
  9
$PLINEGEN
 70
     0
  9
$PSLTSCALE
 70
     1
  9
$TREEDEPTH
 70
  3020
  9
$CMLSTYLE
  2
Standard
  9
$CMLJUST
 70
     0
  9
$CMLSCALE
 40
1.0
  9
$PROXYGRAPHICS
 70
     1
  9
$MEASUREMENT
 70
     0
  9
$CELWEIGHT
370
    -1
  9
$ENDCAPS
280
     0
  9
$JOINSTYLE
280
     0
  9
$LWDISPLAY
290
     0
  9
$INSUNITS
 70
     0
  9
$HYPERLINKBASE
  1

  9
$STYLESHEET
  1

  9
$XEDIT
290
     1
  9
$CEPSNTYPE
380
     0
  9
$PSTYLEMODE
290
     1
  9
$FINGERPRINTGUID
  2
{6bda627b-5d16-49d2-b424-ade3ea86ebac}
  9
$VERSIONGUID
  2
{FAEB1C32-E019-11D5-929B-00C0DF256EC4}
  9
$EXTNAMES
290
     1
  9
$PSVPSCALE
 40
0.0
  9
$OLESTARTUP
290
     0
  9
$SORTENTS
280
   127
  9
$INDEXCTL
280
     0
  9
$HIDETEXT
280
     1
  9
$XCLIPFRAME
280
     2
  9
$HALOGAP
280
     0
  9
$OBSCOLOR
 70
   257
  9
$OBSLTYPE
280
     0
  9
$INTERSECTIONDISPLAY
280
     0
  9
$INTERSECTIONCOLOR
 70
   257
  9
$DIMASSOC
280
     2
  9
$PROJECTNAME
  1

  9
$CAMERADISPLAY
290
     0
  9
$LENSLENGTH
 40
50.0
  9
$CAMERAHEIGHT
 40
0.0
  9
$STEPSPERSEC
 40
2.0
  9
$STEPSIZE
 40
6.0
  9
$3DDWFPREC
 40
2.0
  9
$PSOLWIDTH
 40
0.25
  9
$PSOLHEIGHT
 40
4.0
  9
$LOFTANG1
 40
1.570796326794897
  9
$LOFTANG2
 40
1.570796326794897
  9
$LOFTMAG1
 40
0.0
  9
$LOFTMAG2
 40
0.0
  9
$LOFTPARAM
 70
     7
  9
$LOFTNORMALS
280
     1
  9
$LATITUDE
 40
37.795
  9
$LONGITUDE
 40
-122.394
  9
$NORTHDIRECTION
 40
0.0
  9
$TIMEZONE
 70
 -8000
  9
$LIGHTGLYPHDISPLAY
280
     1
  9
$TILEMODELIGHTSYNCH
280
     1
  9
$SOLIDHIST
280
     0
  9
$SHOWHIST
280
     1
  9
$DWFFRAME
280
     2
  9
$DGNFRAME
280
     2
  9
$REALWORLDSCALE
290
     1
  9
$INTERFERECOLOR
 62
   256
  9
$CSHADOW
280
     0
  9
$SHADOWPLANELOCATION
 40
0.0
  0
ENDSEC
  0
SECTION
  2
CLASSES
  0
CLASS
  1
ACDBDICTIONARYWDFLT
  2
AcDbDictionaryWithDefault
  3
ObjectDBX Classes
 90
        0
 91
        3
280
     0
281
     0
  0
CLASS
  1
MATERIAL
  2
AcDbMaterial
  3
ObjectDBX Classes
 90
     1153
 91
        3
280
     0
281
     0
  0
CLASS
  1
SCALE
  2
AcDbScale
  3
ObjectDBX Classes
 90
     1153
 91
        3
280
     0
281
     0
  0
CLASS
  1
VISUALSTYLE
  2
AcDbVisualStyle
  3
ObjectDBX Classes
 90
     4095
 91
        3
280
     0
281
     0
  0
CLASS
  1
TABLESTYLE
  2
AcDbTableStyle
  3
ObjectDBX Classes
 90
     4095
 91
        3
280
     0
281
     0
  0
CLASS
  1
MLEADERSTYLE
  2
AcDbMLeaderStyle
  3
ACDB_MLEADERSTYLE_CLASS
 90
     4095
 91
        3
280
     0
281
     0
  0
CLASS
  1
DICTIONARYVAR
  2
AcDbDictionaryVar
  3
ObjectDBX Classes
 90
        0
 91
        3
280
     0
281
     0
  0
CLASS
  1
SUN
  2
AcDbSun
  3
SCENEOE
 90
     1153
 91
        3
280
     0
281
     0
  0
CLASS
  1
CELLSTYLEMAP
  2
AcDbCellStyleMap
  3
ObjectDBX Classes
 90
     1152
 91
        3
280
     0
281
     0
  0
ENDSEC
  0
SECTION
  2
TABLES
  0
TABLE
  2
VPORT
  5
B1436
330
0
100
AcDbSymbolTable
 70
     1
  0
VPORT
  5
B144D
330
B1436
100
AcDbSymbolTableRecord
100
AcDbViewportTableRecord
  2
*ACTIVE
 70
     0
 10
0.0
 20
0.0
 11
1.0
 21
1.0
 12
17187.9488697159
 22
8977.978582906275
 13
0.0
 23
0.0
 14
1.0
 24
1.0
 15
0.0
 25
0.0
 16
0.0
 26
0.0
 36
1.0
 17
0.0
 27
0.0
 37
0.0
 40
18315.0763091288
 41
1.944065484311051
 42
50.0
 43
0.0
 44
0.0
 50
0.0
 51
0.0
 71
    16
 72
   100
 73
     1
 74
     1
 75
     0
 76
     0
 77
     0
 78
     0
281
     0
 65
     0
110
0.0
120
0.0
130
0.0
111
1.0
121
0.0
131
0.0
112
0.0
122
1.0
132
0.0
 79
     0
146
0.0
348
B1496
 60
     3
 61
     5
292
     1
282
     1
141
0.0
142
0.0
 63
   256
361
B14BC
  0
ENDTAB
  0
TABLE
  2
LTYPE
  5
B1433
330
0
100
AcDbSymbolTable
 70
     1
  0
LTYPE
  5
B1441
330
B1433
100
AcDbSymbolTableRecord
100
AcDbLinetypeTableRecord
  2
ByBlock
 70
     0
  3

 72
    65
 73
     0
 40
0.0
  0
LTYPE
  5
B1442
330
B1433
100
AcDbSymbolTableRecord
100
AcDbLinetypeTableRecord
  2
ByLayer
 70
     0
  3

 72
    65
 73
     0
 40
0.0
  0
LTYPE
  5
B1443
330
B1433
100
AcDbSymbolTableRecord
100
AcDbLinetypeTableRecord
  2
CONTINUOUS
 70
     0
  3
Solid line
 72
    65
 73
     0
 40
0.0
  0
ENDTAB
  0
TABLE
  2
LAYER
  5
B1431
330
0
100
AcDbSymbolTable
 70
     4
  0
LAYER
  5
B143E
330
B1431
100
AcDbSymbolTableRecord
100
AcDbLayerTableRecord
  2
0
 70
     0
 62
     7
  6
CONTINUOUS
370
    -3
390
B143D
347
B1453
348
0
  0
LAYER
  5
B1454
330
B1431
100
AcDbSymbolTableRecord
100
AcDbLayerTableRecord
  2
CLOTHES_RAIL
 70
     0
 62
     3
  6
CONTINUOUS
370
    -3
390
B143D
347
B1453
348
0
  0
LAYER
  5
B1455
330
B1431
100
AcDbSymbolTableRecord
100
AcDbLayerTableRecord
  2
RIPIANI
 70
     0
 62
     2
  6
CONTINUOUS
370
    -3
390
B143D
347
B1453
348
0
  0
LAYER
  5
B1456
330
B1431
100
AcDbSymbolTableRecord
100
AcDbLayerTableRecord
  2
RETE
 70
     0
 62
     4
  6
CONTINUOUS
370
    -3
390
B143D
347
B1453
348
0
  0
ENDTAB
  0
TABLE
  2
STYLE
  5
B1432
330
0
100
AcDbSymbolTable
 70
     3
  0
STYLE
  5
B143F
330
B1432
100
AcDbSymbolTableRecord
100
AcDbTextStyleTableRecord
  2
STANDARD
 70
     0
 40
0.0
 41
1.0
 50
0.0
 71
     0
 42
2.5
  3
txt
  4

  0
STYLE
  5
B1458
330
B1432
100
AcDbSymbolTableRecord
100
AcDbTextStyleTableRecord
  2
STILE1
 70
     0
 40
0.0
 41
1.0
 50
0.0
 71
     0
 42
19.0
  3
ROMANS.SHX
  4

  0
STYLE
  5
B1459
330
B1432
100
AcDbSymbolTableRecord
100
AcDbTextStyleTableRecord
  2
STILE4
 70
     0
 40
0.0
 41
1.0
 50
0.0
 71
     0
 42
2.5
  3
ROMANS.SHX
  4

  0
ENDTAB
  0
TABLE
  2
VIEW
  5
B1434
330
0
100
AcDbSymbolTable
 70
     0
  0
ENDTAB
  0
TABLE
  2
UCS
  5
B1435
330
0
100
AcDbSymbolTable
 70
     0
  0
ENDTAB
  0
TABLE
  2
APPID
  5
B1437
330
0
100
AcDbSymbolTable
 70
    18
  0
APPID
  5
B1440
330
B1437
100
AcDbSymbolTableRecord
100
AcDbRegAppTableRecord
  2
ACAD
 70
     0
  0
APPID
  5
B145B
330
B1437
100
AcDbSymbolTableRecord
100
AcDbRegAppTableRecord
  2
DCO15
 70
     0
  0
APPID
  5
B145C
330
B1437
100
AcDbSymbolTableRecord
100
AcDbRegAppTableRecord
  2
ACAD_PSEXT
 70
     0
  0
APPID
  5
B145D
330
B1437
100
AcDbSymbolTableRecord
100
AcDbRegAppTableRecord
  2
ACAECLAYERSTANDARD
 70
     0
  0
APPID
  5
B145E
330
B1437
100
AcDbSymbolTableRecord
100
AcDbRegAppTableRecord
  2
ACDBDYNAMICBLOCKGUID
 70
     0
  0
APPID
  5
B145F
330
B1437
100
AcDbSymbolTableRecord
100
AcDbRegAppTableRecord
  2
ACDBBLOCKREPETAG
 70
     0
  0
APPID
  5
B1460
330
B1437
100
AcDbSymbolTableRecord
100
AcDbRegAppTableRecord
  2
ACAD_DSTYLE_DIMEXT_ENABLED
 70
     0
  0
APPID
  5
B1461
330
B1437
100
AcDbSymbolTableRecord
100
AcDbRegAppTableRecord
  2
ACAD_DSTYLE_DIMEXT_LENGTH
 70
     0
  0
APPID
  5
B1462
330
B1437
100
AcDbSymbolTableRecord
100
AcDbRegAppTableRecord
  2
ACAD_DSTYLE_DIMJOGGED_JOGA
 70
     0
  0
APPID
  5
B1463
330
B1437
100
AcDbSymbolTableRecord
100
AcDbRegAppTableRecord
  2
ACAD_DSTYLE_DIMJOGGED_JOG0
 70
     0
  0
APPID
  5
B1464
330
B1437
100
AcDbSymbolTableRecord
100
AcDbRegAppTableRecord
  2
$DDT_AUDIT_GENERATED__2CAF
 70
     0
  0
APPID
  5
B1465
330
B1437
100
AcDbSymbolTableRecord
100
AcDbRegAppTableRecord
  2
ACCMTRANSPARENCY
 70
     0
  0
APPID
  5
B1466
330
B1437
100
AcDbSymbolTableRecord
100
AcDbRegAppTableRecord
  2
ACAD_NAV_VCDISPLAY
 70
     0
  0
APPID
  5
B1467
330
B1437
100
AcDbSymbolTableRecord
100
AcDbRegAppTableRecord
  2
GRADIENTCOLOR1ACI
 70
     0
  0
APPID
  5
B1468
330
B1437
100
AcDbSymbolTableRecord
100
AcDbRegAppTableRecord
  2
GRADIENTCOLOR2ACI
 70
     0
  0
APPID
  5
B1469
330
B1437
100
AcDbSymbolTableRecord
100
AcDbRegAppTableRecord
  2
RAK
 70
     0
  0
APPID
  5
B146A
330
B1437
100
AcDbSymbolTableRecord
100
AcDbRegAppTableRecord
  2
ACAD_DSTYLE_DIMRADIAL_EXTE
 70
     0
  0
APPID
  5
B146B
330
B1437
100
AcDbSymbolTableRecord
100
AcDbRegAppTableRecord
  2
ACAD_MLEADERVER
 70
     0
  0
ENDTAB
  0
TABLE
  2
DIMSTYLE
  5
B1438
330
0
100
AcDbSymbolTable
 70
     1
100
AcDbDimStyleTable
  0
DIMSTYLE
105
B146C
330
B1438
100
AcDbSymbolTableRecord
100
AcDbDimStyleTableRecord
  2
STANDARD
 70
     0
140
300.0
178
     0
340
B1458
  0
ENDTAB
  0
TABLE
  2
BLOCK_RECORD
  5
B1430
330
0
100
AcDbSymbolTable
 70
     0
  0
BLOCK_RECORD
  5
B144A
102
{ACAD_XDICTIONARY
360
B14BA
102
}
330
B1430
100
AcDbSymbolTableRecord
100
AcDbBlockTableRecord
  2
*Model_Space
340
B144B
 70
     0
280
     1
281
     0
  0
BLOCK_RECORD
  5
B1448
330
B1430
100
AcDbSymbolTableRecord
100
AcDbBlockTableRecord
  2
*Paper_Space
340
B1449
 70
     0
280
     1
281
     0
  0
ENDTAB
  0
ENDSEC
  0
SECTION
  2
BLOCKS
  0
BLOCK
  5
B146D
330
B144A
100
AcDbEntity
  8
0
100
AcDbBlockBegin
  2
*Model_Space
 70
     0
 10
0.0
 20
0.0
 30
0.0
  3
*Model_Space
  1

  0
ENDBLK
  5
AF1F0
330
B144A
100
AcDbEntity
  8
0
100
AcDbBlockEnd
  0
BLOCK
  5
B146E
330
B1448
100
AcDbEntity
 67
     1
  8
0
100
AcDbBlockBegin
  2
*Paper_Space
 70
     0
 10
0.0
 20
0.0
 30
0.0
  3
*Paper_Space
  1

  0
ENDBLK
  5
AF1EC
330
B1448
100
AcDbEntity
 67
     1
  8
0
100
AcDbBlockEnd
  0
ENDSEC
  0
SECTION
  2
ENTITIES
  0
TEXT
  5
3C998
330
B144A
100
AcDbEntity
  8
CLOTHES_RAIL
100
AcDbText
 10
54216.23091534142
 20
19413.99999809511
 30
0.0
 40
137.5
  1

  7
STILE1
100
AcDbText
  0
TEXT
  5
3E8B6
330
B144A
100
AcDbEntity
  8
0
100
AcDbText
 10
41890.34487605011
 20
15396.05051007833
 30
0.0
 40
85.0
  1

 50
90.0
  7
STILE1
100
AcDbText
  0
TEXT
  5
3E8B9
330
B144A
100
AcDbEntity
  8
0
100
AcDbText
 10
39397.05051007832
 20
14327.65512394988
 30
0.0
 40
85.0
  1

  7
STILE1
100
AcDbText
  0
TEXT
  5
75F3B
330
B144A
100
AcDbEntity
  8
0
100
AcDbText
 10
201181.4559518903
 20
28290.99290028673
 30
0.0
 40
112.8125
  1

  7
STILE1
100
AcDbText
  0
TEXT
  5
76002
330
B144A
100
AcDbEntity
  8
0
100
AcDbText
 10
201181.4559518903
 20
30150.99290028673
 30
0.0
 40
112.8125
  1

  7
STILE1
100
AcDbText
  0
TEXT
  5
76061
330
B144A
100
AcDbEntity
  8
0
100
AcDbText
 10
201181.4559518903
 20
32010.99290028673
 30
0.0
 40
112.8125
  1

  7
STILE1
100
AcDbText
  0
TEXT
  5
760C0
330
B144A
100
AcDbEntity
  8
0
100
AcDbText
 10
201181.4559518904
 20
33870.99290028674
 30
0.0
 40
112.8125
  1

  7
STILE1
100
AcDbText
  0
TEXT
  5
7611D
330
B144A
100
AcDbEntity
  8
0
100
AcDbText
 10
201181.4559518904
 20
35730.99290028673
 30
0.0
 40
112.8125
  1

  7
STILE1
100
AcDbText
  0
TEXT
  5
79EA0
330
B144A
100
AcDbEntity
  8
CLOTHES_RAIL
100
AcDbText
 10
184385.7047872411
 20
38170.01720615364
 30
0.0
 40
72.0
  1

  7
STILE1
100
AcDbText
  0
LWPOLYLINE
  5
A14E2
330
B144A
100
AcDbEntity
  8
0
100
AcDbPolyline
 90
        2
 70
     0
 43
0.0
 10
24141.98945446307
 20
2163.036426392835
 10
23145.57602734765
 20
2163.036426392835
  0
LWPOLYLINE
  5
A6D6D
330
B144A
100
AcDbEntity
  8
0
100
AcDbPolyline
 90
        4
 70
     1
 43
0.0
 10
17527.11111616126
 20
8157.171916405991
 10
17527.11111616126
 20
8183.171916405992
 10
18497.11111616126
 20
8183.171916405992
 10
18497.11111616126
 20
8157.171916405991
  0
LWPOLYLINE
  5
A6D6E
330
B144A
100
AcDbEntity
  8
CLOTHES_RAIL
100
AcDbPolyline
 90
        4
 70
     1
 43
0.0
 10
17527.11111616078
 20
8109.671916405988
 10
17527.11111616078
 20
8083.671916405988
 10
18497.11111616078
 20
8083.671916405988
 10
18497.11111616078
 20
8109.671916405988
  0
LWPOLYLINE
  5
A6D6F
330
B144A
100
AcDbEntity
  8
0
100
AcDbPolyline
 90
        4
 70
     1
 43
0.0
 10
19497.11111616126
 20
8183.171916405992
 10
19497.11111616126
 20
8157.171916405991
 10
18527.11111616126
 20
8157.171916405991
 10
18527.11111616126
 20
8183.171916405992
  0
LWPOLYLINE
  5
A6D70
330
B144A
100
AcDbEntity
  8
CLOTHES_RAIL
100
AcDbPolyline
 90
        4
 70
     1
 43
0.0
 10
19497.11111616126
 20
8109.671916405988
 10
19497.11111616126
 20
8083.671916405988
 10
18527.11111616126
 20
8083.671916405988
 10
18527.11111616126
 20
8109.671916405988
  0
LWPOLYLINE
  5
A6D79
330
B144A
100
AcDbEntity
  8
0
100
AcDbPolyline
 90
        4
 70
     1
 43
0.0
 10
17527.11111616126
 20
7157.171916405992
 10
17527.11111616126
 20
7183.171916405992
 10
18497.11111616128
 20
7183.171916405992
 10
18497.11111616128
 20
7157.171916405992
  0
LWPOLYLINE
  5
A6D7A
330
B144A
100
AcDbEntity
  8
0
100
AcDbPolyline
 90
        4
 70
     1
 43
0.0
 10
17527.11111616126
 20
6757.171916405993
 10
17527.11111616126
 20
6783.171916405992
 10
18497.11111616128
 20
6783.171916405992
 10
18497.11111616128
 20
6757.171916405993
  0
LWPOLYLINE
  5
A6D7B
330
B144A
100
AcDbEntity
  8
0
100
AcDbPolyline
 90
        4
 70
     1
 43
0.0
 10
19497.11111616128
 20
7183.171916405992
 10
19497.11111616128
 20
7157.171916405992
 10
18527.11111616126
 20
7157.171916405992
 10
18527.11111616126
 20
7183.171916405992
  0
LWPOLYLINE
  5
A6D7C
330
B144A
100
AcDbEntity
  8
0
100
AcDbPolyline
 90
        4
 70
     1
 43
0.0
 10
19497.11111616128
 20
6783.171916405992
 10
19497.11111616128
 20
6757.171916405993
 10
18527.11111616126
 20
6757.171916405993
 10
18527.11111616126
 20
6783.171916405992
  0
LWPOLYLINE
  5
A6E03
330
B144A
100
AcDbEntity
  8
0
100
AcDbPolyline
 90
       14
 70
     0
 43
0.0
 10
19527.11111616106
 20
2163.036426392835
 10
19432.11111616107
 20
2193.036426392835
 10
19024.61111616106
 20
2193.036426392835
 10
19024.61111616106
 20
2168.036426392835
 10
18999.61111616106
 20
2168.036426392835
 10
18999.61111616106
 20
2193.036426392835
 10
18999.61111616106
 20
2193.036426392835
 10
18024.61111616107
 20
2193.036426392835
 10
18024.61111616107
 20
2168.036426392835
 10
17999.61111616106
 20
2168.036426392835
 10
17999.61111616106
 20
2193.036426392835
 10
17527.11111616106
 20
2193.036426392835
 10
17432.11111616107
 20
2163.036426392835
 10
19527.11111616106
 20
2163.036426392835
  0
LWPOLYLINE
  5
A6E04
330
B144A
100
AcDbEntity
  8
0
100
AcDbPolyline
 90
       14
 70
     0
 43
0.0
 10
19527.11111616104
 20
6207.171916406283
 10
19432.11111616104
 20
6237.171916406282
 10
19024.61111616105
 20
6237.171916406282
 10
19024.61111616105
 20
6212.171916406282
 10
18999.61111616104
 20
6212.171916406282
 10
18999.61111616104
 20
6237.171916406282
 10
18999.61111616104
 20
6237.171916406282
 10
18024.61111616104
 20
6237.171916406282
 10
18024.61111616104
 20
6212.171916406282
 10
17999.61111616104
 20
6212.171916406282
 10
17999.61111616104
 20
6237.171916406282
 10
17527.11111616104
 20
6237.171916406282
 10
17432.11111616104
 20
6207.171916406283
 10
19527.11111616104
 20
6207.171916406283
  0
LWPOLYLINE
  5
A6E05
330
B144A
100
AcDbEntity
  8
0
100
AcDbPolyline
 90
       14
 70
     0
 43
0.0
 10
19527.11111616106
 20
10251.30740641973
 10
19432.11111616106
 20
10281.30740641973
 10
19024.61111616106
 20
10281.30740641973
 10
19024.61111616106
 20
10256.30740641973
 10
18999.61111616106
 20
10256.30740641973
 10
18999.61111616106
 20
10281.30740641973
 10
18999.61111616106
 20
10281.30740641973
 10
18024.61111616106
 20
10281.30740641973
 10
18024.61111616106
 20
10256.30740641973
 10
17999.61111616106
 20
10256.30740641973
 10
17999.61111616106
 20
10281.30740641973
 10
17527.11111616106
 20
10281.30740641973
 10
17432.11111616106
 20
10251.30740641973
 10
19527.11111616106
 20
10251.30740641973
  0
LWPOLYLINE
  5
A6E06
330
B144A
100
AcDbEntity
  8
0
100
AcDbPolyline
 90
       14
 70
     0
 43
0.0
 10
19527.11111616104
 20
14295.44289643319
 10
19432.11111616104
 20
14325.44289643319
 10
19024.61111616105
 20
14325.44289643319
 10
19024.61111616105
 20
14300.44289643319
 10
18999.61111616104
 20
14300.44289643319
 10
18999.61111616104
 20
14325.44289643319
 10
18999.61111616104
 20
14325.44289643319
 10
18024.61111616104
 20
14325.44289643319
 10
18024.61111616104
 20
14300.44289643319
 10
17999.61111616104
 20
14300.44289643319
 10
17999.61111616104
 20
14325.44289643319
 10
17527.11111616104
 20
14325.44289643319
 10
17432.11111616104
 20
14295.44289643319
 10
19527.11111616104
 20
14295.44289643319
  0
LINE
  5
A6E07
330
B144A
100
AcDbEntity
  8
0
100
AcDbLine
 10
22732.69473631098
 20
2163.036426392835
 30
0.0
 11
17223.39205753694
 21
2163.036426392835
 31
0.0
  0
LINE
  5
A6E08
330
B144A
100
AcDbEntity
  8
0
100
AcDbLine
 10
22732.69473631098
 20
6207.171916406282
 30
0.0
 11
17223.39205753694
 21
6207.171916406282
 31
0.0
  0
LWPOLYLINE
  5
A6E09
330
B144A
100
AcDbEntity
  8
0
100
AcDbPolyline
 90
        4
 70
     1
 43
0.0
 10
19024.61111616107
 20
2193.036426392835
 10
19024.61111616107
 20
2168.036426392835
 10
18999.61111616106
 20
2168.036426392835
 10
18999.61111616106
 20
2193.036426392835
  0
LWPOLYLINE
  5
A6E0A
330
B144A
100
AcDbEntity
  8
0
100
AcDbPolyline
 90
        4
 70
     1
 43
0.0
 10
19034.61111616107
 20
2218.036426392835
 10
19034.61111616107
 20
2193.036426392835
 10
18989.61111616107
 20
2193.036426392835
 10
18989.61111616107
 20
2218.036426392835
  0
LINE
  5
A6E0B
330
B144A
100
AcDbEntity
  8
0
100
AcDbLine
 10
18989.61111616107
 20
2218.036426392835
 30
0.0
 11
18989.61111616107
 21
2193.036426392835
 31
0.0
  0
LINE
  5
A6E0C
330
B144A
100
AcDbEntity
  8
0
100
AcDbLine
 10
18989.61111616107
 20
2218.036426392835
 30
0.0
 11
18989.61111616107
 21
2193.036426392835
 31
0.0
  0
LINE
  5
A6E0D
330
B144A
100
AcDbEntity
  8
0
100
AcDbLine
 10
18999.61111616106
 20
2193.036426392835
 30
0.0
 11
18999.61111616106
 21
2168.036426392835
 31
0.0
  0
LINE
  5
A6E0E
330
B144A
100
AcDbEntity
  8
0
100
AcDbLine
 10
18999.61111616106
 20
2193.036426392835
 30
0.0
 11
18999.61111616106
 21
2168.036426392835
 31
0.0
  0
LINE
  5
A6E0F
330
B144A
100
AcDbEntity
  8
0
100
AcDbLine
 10
19034.61111616107
 20
2193.036426392835
 30
0.0
 11
18989.61111616107
 21
2193.036426392835
 31
0.0
  0
LINE
  5
A6E10
330
B144A
100
AcDbEntity
  8
0
100
AcDbLine
 10
19034.61111616107
 20
2193.036426392835
 30
0.0
 11
18989.61111616107
 21
2193.036426392835
 31
0.0
  0
LINE
  5
A6E11
330
B144A
100
AcDbEntity
  8
0
100
AcDbLine
 10
18999.61111616106
 20
2193.036426392835
 30
0.0
 11
18999.61111616106
 21
2168.036426392835
 31
0.0
  0
LINE
  5
A6E12
330
B144A
100
AcDbEntity
  8
0
100
AcDbLine
 10
18999.61111616106
 20
2193.036426392835
 30
0.0
 11
18999.61111616106
 21
2168.036426392835
 31
0.0
  0
LINE
  5
A6E13
330
B144A
100
AcDbEntity
  8
0
100
AcDbLine
 10
19034.61111616107
 20
2193.036426392835
 30
0.0
 11
18989.61111616107
 21
2193.036426392835
 31
0.0
  0
LINE
  5
A6E14
330
B144A
100
AcDbEntity
  8
0
100
AcDbLine
 10
19034.61111616107
 20
2193.036426392835
 30
0.0
 11
18989.61111616107
 21
2193.036426392835
 31
0.0
  0
LINE
  5
A6E15
330
B144A
100
AcDbEntity
  8
0
100
AcDbLine
 10
18989.61111616107
 20
2218.036426392835
 30
0.0
 11
18989.61111616107
 21
2193.036426392835
 31
0.0
  0
LINE
  5
A6E16
330
B144A
100
AcDbEntity
  8
0
100
AcDbLine
 10
18989.61111616107
 20
2218.036426392835
 30
0.0
 11
18989.61111616107
 21
2193.036426392835
 31
0.0
  0
LWPOLYLINE
  5
A6E17
330
B144A
100
AcDbEntity
  8
0
100
AcDbPolyline
 90
        4
 70
     1
 43
0.0
 10
18024.61111616107
 20
2193.036426392835
 10
18024.61111616107
 20
2168.036426392835
 10
17999.61111616107
 20
2168.036426392835
 10
17999.61111616107
 20
2193.036426392835
  0
LWPOLYLINE
  5
A6E18
330
B144A
100
AcDbEntity
  8
0
100
AcDbPolyline
 90
        4
 70
     1
 43
0.0
 10
18034.61111616107
 20
2218.036426392835
 10
18034.61111616107
 20
2193.036426392835
 10
17989.61111616107
 20
2193.036426392835
 10
17989.61111616107
 20
2218.036426392835
  0
LINE
  5
A6E19
330
B144A
100
AcDbEntity
  8
0
100
AcDbLine
 10
17989.61111616107
 20
2218.036426392835
 30
0.0
 11
17989.61111616107
 21
2193.036426392835
 31
0.0
  0
LINE
  5
A6E1A
330
B144A
100
AcDbEntity
  8
0
100
AcDbLine
 10
17989.61111616107
 20
2218.036426392835
 30
0.0
 11
17989.61111616107
 21
2193.036426392835
 31
0.0
  0
LINE
  5
A6E1B
330
B144A
100
AcDbEntity
  8
0
100
AcDbLine
 10
17999.61111616107
 20
2193.036426392835
 30
0.0
 11
17999.61111616107
 21
2168.036426392835
 31
0.0
  0
LINE
  5
A6E1C
330
B144A
100
AcDbEntity
  8
0
100
AcDbLine
 10
17999.61111616107
 20
2193.036426392835
 30
0.0
 11
17999.61111616107
 21
2168.036426392835
 31
0.0
  0
LINE
  5
A6E1D
330
B144A
100
AcDbEntity
  8
0
100
AcDbLine
 10
18034.61111616107
 20
2193.036426392835
 30
0.0
 11
17989.61111616107
 21
2193.036426392835
 31
0.0
  0
LINE
  5
A6E1E
330
B144A
100
AcDbEntity
  8
0
100
AcDbLine
 10
18034.61111616107
 20
2193.036426392835
 30
0.0
 11
17989.61111616107
 21
2193.036426392835
 31
0.0
  0
LINE
  5
A6E1F
330
B144A
100
AcDbEntity
  8
0
100
AcDbLine
 10
17999.61111616107
 20
2193.036426392835
 30
0.0
 11
17999.61111616107
 21
2168.036426392835
 31
0.0
  0
LINE
  5
A6E20
330
B144A
100
AcDbEntity
  8
0
100
AcDbLine
 10
17999.61111616107
 20
2193.036426392835
 30
0.0
 11
17999.61111616107
 21
2168.036426392835
 31
0.0
  0
LINE
  5
A6E21
330
B144A
100
AcDbEntity
  8
0
100
AcDbLine
 10
18034.61111616107
 20
2193.036426392835
 30
0.0
 11
17989.61111616107
 21
2193.036426392835
 31
0.0
  0
LINE
  5
A6E22
330
B144A
100
AcDbEntity
  8
0
100
AcDbLine
 10
18034.61111616107
 20
2193.036426392835
 30
0.0
 11
17989.61111616107
 21
2193.036426392835
 31
0.0
  0
LINE
  5
A6E23
330
B144A
100
AcDbEntity
  8
0
100
AcDbLine
 10
17989.61111616107
 20
2218.036426392835
 30
0.0
 11
17989.61111616107
 21
2193.036426392835
 31
0.0
  0
LINE
  5
A6E24
330
B144A
100
AcDbEntity
  8
0
100
AcDbLine
 10
17989.61111616107
 20
2218.036426392835
 30
0.0
 11
17989.61111616107
 21
2193.036426392835
 31
0.0
  0
LINE
  5
A6E25
330
B144A
100
AcDbEntity
  8
0
100
AcDbLine
 10
18989.61111616107
 20
2218.036426392835
 30
0.0
 11
18989.61111616107
 21
2193.036426392835
 31
0.0
  0
LINE
  5
A6E26
330
B144A
100
AcDbEntity
  8
0
100
AcDbLine
 10
18989.61111616107
 20
2218.036426392835
 30
0.0
 11
18989.61111616107
 21
2193.036426392835
 31
0.0
  0
LINE
  5
A6E27
330
B144A
100
AcDbEntity
  8
0
100
AcDbLine
 10
18999.61111616106
 20
2193.036426392835
 30
0.0
 11
18999.61111616106
 21
2168.036426392835
 31
0.0
  0
LINE
  5
A6E28
330
B144A
100
AcDbEntity
  8
0
100
AcDbLine
 10
18999.61111616106
 20
2193.036426392835
 30
0.0
 11
18999.61111616106
 21
2168.036426392835
 31
0.0
  0
LINE
  5
A6E29
330
B144A
100
AcDbEntity
  8
0
100
AcDbLine
 10
19034.61111616107
 20
2193.036426392835
 30
0.0
 11
18989.61111616107
 21
2193.036426392835
 31
0.0
  0
LINE
  5
A6E2A
330
B144A
100
AcDbEntity
  8
0
100
AcDbLine
 10
19034.61111616107
 20
2193.036426392835
 30
0.0
 11
18989.61111616107
 21
2193.036426392835
 31
0.0
  0
LINE
  5
A6E2B
330
B144A
100
AcDbEntity
  8
0
100
AcDbLine
 10
18999.61111616106
 20
2193.036426392835
 30
0.0
 11
18999.61111616106
 21
2168.036426392835
 31
0.0
  0
LINE
  5
A6E2C
330
B144A
100
AcDbEntity
  8
0
100
AcDbLine
 10
18999.61111616106
 20
2193.036426392835
 30
0.0
 11
18999.61111616106
 21
2168.036426392835
 31
0.0
  0
LINE
  5
A6E2D
330
B144A
100
AcDbEntity
  8
0
100
AcDbLine
 10
19034.61111616107
 20
2193.036426392835
 30
0.0
 11
18989.61111616107
 21
2193.036426392835
 31
0.0
  0
LINE
  5
A6E2E
330
B144A
100
AcDbEntity
  8
0
100
AcDbLine
 10
19034.61111616107
 20
2193.036426392835
 30
0.0
 11
18989.61111616107
 21
2193.036426392835
 31
0.0
  0
LINE
  5
A6E2F
330
B144A
100
AcDbEntity
  8
0
100
AcDbLine
 10
18989.61111616107
 20
2218.036426392835
 30
0.0
 11
18989.61111616107
 21
2193.036426392835
 31
0.0
  0
LINE
  5
A6E30
330
B144A
100
AcDbEntity
  8
0
100
AcDbLine
 10
18989.61111616107
 20
2218.036426392835
 30
0.0
 11
18989.61111616107
 21
2193.036426392835
 31
0.0
  0
LWPOLYLINE
  5
A6E31
330
B144A
100
AcDbEntity
  8
0
100
AcDbPolyline
 90
        8
 70
     1
 43
0.0
 10
19429.61111616107
 20
4368.036426392865
 10
19429.61111616107
 20
4390.536426392864
 42
-1.0
 10
19384.61111616106
 20
4390.536426392864
 10
19384.61111616106
 20
4368.036426392835
 10
19367.11111616107
 20
4368.036426392865
 10
19357.11111616107
 20
4358.036426392835
 10
19457.11111616107
 20
4358.036426392835
 10
19447.11111616107
 20
4368.036426392865
  0
LWPOLYLINE
  5
A6E32
330
B144A
100
AcDbEntity
  8
0
100
AcDbPolyline
 90
        4
 70
     1
 43
0.0
 10
19497.11111616107
 20
2339.036426392835
 10
19497.11111616107
 20
2313.036426392835
 10
18527.11111616106
 20
2313.036426392835
 10
18527.11111616106
 20
2339.036426392835
  0
LWPOLYLINE
  5
A6E33
330
B144A
100
AcDbEntity
  8
0
100
AcDbPolyline
 90
        4
 70
     1
 43
0.0
 10
18497.11111616107
 20
2313.036426392835
 10
18497.11111616107
 20
4313.036426392835
 10
18527.11111616106
 20
4313.036426392835
 10
18527.11111616106
 20
2313.036426392835
  0
LWPOLYLINE
  5
A6E34
330
B144A
100
AcDbEntity
  8
0
100
AcDbPolyline
 90
        4
 70
     1
 43
0.0
 10
17527.11111616107
 20
2313.036426392835
 10
17527.11111616107
 20
2339.036426392835
 10
18497.11111616107
 20
2339.036426392835
 10
18497.11111616107
 20
2313.036426392835
  0
LWPOLYLINE
  5
A6E35
330
B144A
100
AcDbEntity
  8
0
100
AcDbPolyline
 90
        4
 70
     1
 43
0.0
 10
19497.11111616119
 20
2218.036426392835
 10
19497.11111616119
 20
2313.036426393126
 10
17527.11111616084
 20
2313.036426393126
 10
17527.11111616084
 20
2218.036426392835
  0
LWPOLYLINE
  5
A6E36
330
B144A
100
AcDbEntity
  8
0
100
AcDbPolyline
 90
        4
 70
     1
 43
0.0
 10
19527.11111616107
 20
4348.036426392835
 10
19527.11111616107
 20
2218.036426392835
 10
19497.11111616119
 20
2218.036426392835
 10
19497.11111616119
 20
4348.036426392835
  0
LWPOLYLINE
  5
A6E37
330
B144A
100
AcDbEntity
  8
0
100
AcDbPolyline
 90
        4
 70
     1
 43
0.0
 10
17527.11111616107
 20
4348.036426392835
 10
17527.11111616107
 20
2218.036426392835
 10
17497.11111616107
 20
2218.036426392835
 10
17497.11111616107
 20
4348.036426392835
  0
LWPOLYLINE
  5
A6E39
330
B144A
100
AcDbEntity
  8
0
100
AcDbPolyline
 90
        4
 70
     1
 43
0.0
 10
19497.11111616107
 20
4348.036426392835
 10
19497.11111616107
 20
4313.036426392835
 10
17527.11111616107
 20
4313.036426392835
 10
17527.11111616107
 20
4348.036426392835
  0
CIRCLE
  5
A6E3F
330
B144A
100
AcDbEntity
  8
0
100
AcDbCircle
 10
19407.11111616107
 20
4390.536426392833
 30
0.0
 40
22.5
  0
CIRCLE
  5
A6E40
330
B144A
100
AcDbEntity
  8
0
100
AcDbCircle
 10
19407.11111616107
 20
4390.536426392833
 30
0.0
 40
12.5
  0
LINE
  5
A6E41
330
B144A
100
AcDbEntity
  8
0
100
AcDbLine
 10
19357.11111616107
 20
4358.036426392835
 30
0.0
 11
19457.11111616107
 21
4358.036426392835
 31
0.0
  0
LWPOLYLINE
  5
A6E42
330
B144A
100
AcDbEntity
  8
0
100
AcDbPolyline
 90
        4
 70
     1
 43
0.0
 10
19337.11111616107
 20
4358.036426392864
 10
19477.11111616107
 20
4358.036426392864
 10
19477.11111616107
 20
4348.036426392864
 10
19337.11111616107
 20
4348.036426392864
  0
LWPOLYLINE
  5
A6E43
330
B144A
100
AcDbEntity
  8
0
100
AcDbPolyline
 90
        4
 70
     1
 43
0.0
 10
19024.61111616105
 20
6237.171916406282
 10
19024.61111616105
 20
6212.171916406282
 10
18999.61111616104
 20
6212.171916406282
 10
18999.61111616104
 20
6237.171916406282
  0
LWPOLYLINE
  5
A6E44
330
B144A
100
AcDbEntity
  8
0
100
AcDbPolyline
 90
        4
 70
     1
 43
0.0
 10
19034.61111616104
 20
6262.171916406281
 10
19034.61111616104
 20
6237.171916406282
 10
18989.61111616104
 20
6237.171916406282
 10
18989.61111616104
 20
6262.171916406281
  0
LINE
  5
A6E45
330
B144A
100
AcDbEntity
  8
0
100
AcDbLine
 10
18989.61111616104
 20
6262.171916406281
 30
0.0
 11
18989.61111616104
 21
6237.171916406282
 31
0.0
  0
LINE
  5
A6E46
330
B144A
100
AcDbEntity
  8
0
100
AcDbLine
 10
18989.61111616104
 20
6262.171916406281
 30
0.0
 11
18989.61111616104
 21
6237.171916406282
 31
0.0
  0
LINE
  5
A6E47
330
B144A
100
AcDbEntity
  8
0
100
AcDbLine
 10
18999.61111616104
 20
6237.171916406282
 30
0.0
 11
18999.61111616104
 21
6212.171916406282
 31
0.0
  0
LINE
  5
A6E48
330
B144A
100
AcDbEntity
  8
0
100
AcDbLine
 10
18999.61111616104
 20
6237.171916406282
 30
0.0
 11
18999.61111616104
 21
6212.171916406282
 31
0.0
  0
LINE
  5
A6E49
330
B144A
100
AcDbEntity
  8
0
100
AcDbLine
 10
19034.61111616104
 20
6237.171916406282
 30
0.0
 11
18989.61111616104
 21
6237.171916406282
 31
0.0
  0
LINE
  5
A6E4A
330
B144A
100
AcDbEntity
  8
0
100
AcDbLine
 10
19034.61111616104
 20
6237.171916406282
 30
0.0
 11
18989.61111616104
 21
6237.171916406282
 31
0.0
  0
LINE
  5
A6E4B
330
B144A
100
AcDbEntity
  8
0
100
AcDbLine
 10
18999.61111616104
 20
6237.171916406282
 30
0.0
 11
18999.61111616104
 21
6212.171916406282
 31
0.0
  0
LINE
  5
A6E4C
330
B144A
100
AcDbEntity
  8
0
100
AcDbLine
 10
18999.61111616104
 20
6237.171916406282
 30
0.0
 11
18999.61111616104
 21
6212.171916406282
 31
0.0
  0
LINE
  5
A6E4D
330
B144A
100
AcDbEntity
  8
0
100
AcDbLine
 10
19034.61111616104
 20
6237.171916406282
 30
0.0
 11
18989.61111616104
 21
6237.171916406282
 31
0.0
  0
LINE
  5
A6E4E
330
B144A
100
AcDbEntity
  8
0
100
AcDbLine
 10
19034.61111616104
 20
6237.171916406282
 30
0.0
 11
18989.61111616104
 21
6237.171916406282
 31
0.0
  0
LINE
  5
A6E4F
330
B144A
100
AcDbEntity
  8
0
100
AcDbLine
 10
18989.61111616104
 20
6262.171916406281
 30
0.0
 11
18989.61111616104
 21
6237.171916406282
 31
0.0
  0
LINE
  5
A6E50
330
B144A
100
AcDbEntity
  8
0
100
AcDbLine
 10
18989.61111616104
 20
6262.171916406281
 30
0.0
 11
18989.61111616104
 21
6237.171916406282
 31
0.0
  0
LWPOLYLINE
  5
A6E51
330
B144A
100
AcDbEntity
  8
0
100
AcDbPolyline
 90
        4
 70
     1
 43
0.0
 10
18024.61111616104
 20
6237.171916406282
 10
18024.61111616104
 20
6212.171916406282
 10
17999.61111616104
 20
6212.171916406282
 10
17999.61111616104
 20
6237.171916406282
  0
LWPOLYLINE
  5
A6E52
330
B144A
100
AcDbEntity
  8
0
100
AcDbPolyline
 90
        4
 70
     1
 43
0.0
 10
18034.61111616105
 20
6262.171916406281
 10
18034.61111616105
 20
6237.171916406282
 10
17989.61111616104
 20
6237.171916406282
 10
17989.61111616104
 20
6262.171916406281
  0
LINE
  5
A6E53
330
B144A
100
AcDbEntity
  8
0
100
AcDbLine
 10
17989.61111616104
 20
6262.171916406281
 30
0.0
 11
17989.61111616104
 21
6237.171916406282
 31
0.0
  0
LINE
  5
A6E54
330
B144A
100
AcDbEntity
  8
0
100
AcDbLine
 10
17989.61111616104
 20
6262.171916406281
 30
0.0
 11
17989.61111616104
 21
6237.171916406282
 31
0.0
  0
LINE
  5
A6E55
330
B144A
100
AcDbEntity
  8
0
100
AcDbLine
 10
17999.61111616104
 20
6237.171916406282
 30
0.0
 11
17999.61111616104
 21
6212.171916406282
 31
0.0
  0
LINE
  5
A6E56
330
B144A
100
AcDbEntity
  8
0
100
AcDbLine
 10
17999.61111616104
 20
6237.171916406282
 30
0.0
 11
17999.61111616104
 21
6212.171916406282
 31
0.0
  0
LINE
  5
A6E57
330
B144A
100
AcDbEntity
  8
0
100
AcDbLine
 10
18034.61111616105
 20
6237.171916406282
 30
0.0
 11
17989.61111616104
 21
6237.171916406282
 31
0.0
  0
LINE
  5
A6E58
330
B144A
100
AcDbEntity
  8
0
100
AcDbLine
 10
18034.61111616105
 20
6237.171916406282
 30
0.0
 11
17989.61111616104
 21
6237.171916406282
 31
0.0
  0
LINE
  5
A6E59
330
B144A
100
AcDbEntity
  8
0
100
AcDbLine
 10
17999.61111616104
 20
6237.171916406282
 30
0.0
 11
17999.61111616104
 21
6212.171916406282
 31
0.0
  0
LINE
  5
A6E5A
330
B144A
100
AcDbEntity
  8
0
100
AcDbLine
 10
17999.61111616104
 20
6237.171916406282
 30
0.0
 11
17999.61111616104
 21
6212.171916406282
 31
0.0
  0
LINE
  5
A6E5B
330
B144A
100
AcDbEntity
  8
0
100
AcDbLine
 10
18034.61111616105
 20
6237.171916406282
 30
0.0
 11
17989.61111616104
 21
6237.171916406282
 31
0.0
  0
LINE
  5
A6E5C
330
B144A
100
AcDbEntity
  8
0
100
AcDbLine
 10
18034.61111616105
 20
6237.171916406282
 30
0.0
 11
17989.61111616104
 21
6237.171916406282
 31
0.0
  0
LINE
  5
A6E5D
330
B144A
100
AcDbEntity
  8
0
100
AcDbLine
 10
17989.61111616104
 20
6262.171916406281
 30
0.0
 11
17989.61111616104
 21
6237.171916406282
 31
0.0
  0
LINE
  5
A6E5E
330
B144A
100
AcDbEntity
  8
0
100
AcDbLine
 10
17989.61111616104
 20
6262.171916406281
 30
0.0
 11
17989.61111616104
 21
6237.171916406282
 31
0.0
  0
LINE
  5
A6E5F
330
B144A
100
AcDbEntity
  8
0
100
AcDbLine
 10
18989.61111616104
 20
6262.171916406281
 30
0.0
 11
18989.61111616104
 21
6237.171916406282
 31
0.0
  0
LINE
  5
A6E60
330
B144A
100
AcDbEntity
  8
0
100
AcDbLine
 10
18989.61111616104
 20
6262.171916406281
 30
0.0
 11
18989.61111616104
 21
6237.171916406282
 31
0.0
  0
LINE
  5
A6E61
330
B144A
100
AcDbEntity
  8
0
100
AcDbLine
 10
18999.61111616104
 20
6237.171916406282
 30
0.0
 11
18999.61111616104
 21
6212.171916406282
 31
0.0
  0
LINE
  5
A6E62
330
B144A
100
AcDbEntity
  8
0
100
AcDbLine
 10
18999.61111616104
 20
6237.171916406282
 30
0.0
 11
18999.61111616104
 21
6212.171916406282
 31
0.0
  0
LINE
  5
A6E63
330
B144A
100
AcDbEntity
  8
0
100
AcDbLine
 10
19034.61111616104
 20
6237.171916406282
 30
0.0
 11
18989.61111616104
 21
6237.171916406282
 31
0.0
  0
LINE
  5
A6E64
330
B144A
100
AcDbEntity
  8
0
100
AcDbLine
 10
19034.61111616104
 20
6237.171916406282
 30
0.0
 11
18989.61111616104
 21
6237.171916406282
 31
0.0
  0
LINE
  5
A6E65
330
B144A
100
AcDbEntity
  8
0
100
AcDbLine
 10
18999.61111616104
 20
6237.171916406282
 30
0.0
 11
18999.61111616104
 21
6212.171916406282
 31
0.0
  0
LINE
  5
A6E66
330
B144A
100
AcDbEntity
  8
0
100
AcDbLine
 10
18999.61111616104
 20
6237.171916406282
 30
0.0
 11
18999.61111616104
 21
6212.171916406282
 31
0.0
  0
LINE
  5
A6E67
330
B144A
100
AcDbEntity
  8
0
100
AcDbLine
 10
19034.61111616104
 20
6237.171916406282
 30
0.0
 11
18989.61111616104
 21
6237.171916406282
 31
0.0
  0
LINE
  5
A6E68
330
B144A
100
AcDbEntity
  8
0
100
AcDbLine
 10
19034.61111616104
 20
6237.171916406282
 30
0.0
 11
18989.61111616104
 21
6237.171916406282
 31
0.0
  0
LINE
  5
A6E69
330
B144A
100
AcDbEntity
  8
0
100
AcDbLine
 10
18989.61111616104
 20
6262.171916406281
 30
0.0
 11
18989.61111616104
 21
6237.171916406282
 31
0.0
  0
LINE
  5
A6E6A
330
B144A
100
AcDbEntity
  8
0
100
AcDbLine
 10
18989.61111616104
 20
6262.171916406281
 30
0.0
 11
18989.61111616104
 21
6237.171916406282
 31
0.0
  0
LWPOLYLINE
  5
A6E6B
330
B144A
100
AcDbEntity
  8
0
100
AcDbPolyline
 90
        8
 70
     1
 43
0.0
 10
19429.61111616105
 20
8412.171916406314
 10
19429.61111616105
 20
8434.67191640631
 42
-1.0
 10
19384.61111616105
 20
8434.67191640631
 10
19384.61111616105
 20
8412.171916406278
 10
19367.11111616104
 20
8412.171916406314
 10
19357.11111616105
 20
8402.17191640628
 10
19457.11111616104
 20
8402.17191640628
 10
19447.11111616104
 20
8412.171916406314
  0
LWPOLYLINE
  5
A6E6C
330
B144A
100
AcDbEntity
  8
0
100
AcDbPolyline
 90
        4
 70
     1
 43
0.0
 10
19497.11111616105
 20
6383.171916406283
 10
19497.11111616105
 20
6357.171916406283
 10
18527.11111616105
 20
6357.171916406283
 10
18527.11111616105
 20
6383.171916406283
  0
LWPOLYLINE
  5
A6E6D
330
B144A
100
AcDbEntity
  8
0
100
AcDbPolyline
 90
        4
 70
     1
 43
0.0
 10
18497.11111616104
 20
6357.171916406283
 10
18497.11111616104
 20
8357.171916406278
 10
18527.11111616105
 20
8357.171916406278
 10
18527.11111616105
 20
6357.171916406283
  0
LWPOLYLINE
  5
A6E6E
330
B144A
100
AcDbEntity
  8
0
100
AcDbPolyline
 90
        4
 70
     1
 43
0.0
 10
17527.11111616104
 20
6357.171916406283
 10
17527.11111616104
 20
6383.171916406283
 10
18497.11111616104
 20
6383.171916406283
 10
18497.11111616104
 20
6357.171916406283
  0
LWPOLYLINE
  5
A6E6F
330
B144A
100
AcDbEntity
  8
0
100
AcDbPolyline
 90
        4
 70
     1
 43
0.0
 10
19497.11111616116
 20
6262.171916406281
 10
19497.11111616116
 20
6357.171916406573
 10
17527.1111161608
 20
6357.171916406573
 10
17527.1111161608
 20
6262.171916406281
  0
LWPOLYLINE
  5
A6E70
330
B144A
100
AcDbEntity
  8
0
100
AcDbPolyline
 90
        4
 70
     1
 43
0.0
 10
19527.11111616104
 20
8392.171916406278
 10
19527.11111616104
 20
6262.171916406281
 10
19497.11111616116
 20
6262.171916406281
 10
19497.11111616116
 20
8392.171916406278
  0
LWPOLYLINE
  5
A6E71
330
B144A
100
AcDbEntity
  8
0
100
AcDbPolyline
 90
        4
 70
     1
 43
0.0
 10
17527.11111616104
 20
8392.171916406278
 10
17527.11111616104
 20
6262.171916406281
 10
17497.11111616106
 20
6262.171916406281
 10
17497.11111616106
 20
8392.171916406278
  0
LWPOLYLINE
  5
A6E73
330
B144A
100
AcDbEntity
  8
0
100
AcDbPolyline
 90
        4
 70
     1
 43
0.0
 10
19497.11111616105
 20
8392.171916406278
 10
19497.11111616105
 20
8357.171916406278
 10
17527.11111616104
 20
8357.171916406278
 10
17527.11111616104
 20
8392.171916406278
  0
CIRCLE
  5
A6E79
330
B144A
100
AcDbEntity
  8
0
100
AcDbCircle
 10
19407.11111616104
 20
8434.671916406282
 30
0.0
 40
22.5
  0
CIRCLE
  5
A6E7A
330
B144A
100
AcDbEntity
  8
0
100
AcDbCircle
 10
19407.11111616104
 20
8434.671916406282
 30
0.0
 40
12.5
  0
LINE
  5
A6E7B
330
B144A
100
AcDbEntity
  8
0
100
AcDbLine
 10
19357.11111616105
 20
8402.17191640628
 30
0.0
 11
19457.11111616104
 21
8402.17191640628
 31
0.0
  0
LWPOLYLINE
  5
A6E7C
330
B144A
100
AcDbEntity
  8
0
100
AcDbPolyline
 90
        4
 70
     1
 43
0.0
 10
19337.11111616105
 20
8402.17191640631
 10
19477.11111616104
 20
8402.17191640631
 10
19477.11111616104
 20
8392.17191640631
 10
19337.11111616105
 20
8392.17191640631
  0
LINE
  5
A6E7D
330
B144A
100
AcDbEntity
  8
0
100
AcDbLine
 10
19487.23229158937
 20
2339.036426392835
 30
0.0
 11
19487.23229158937
 21
4313.036426392835
 31
0.0
1001
ACAD
1010
0.0
1020
0.0
1030
0.0
  0
LINE
  5
A6E7E
330
B144A
100
AcDbEntity
  8
0
100
AcDbLine
 10
19362.23229158937
 20
2339.036426392835
 30
0.0
 11
19362.23229158937
 21
4313.036426392835
 31
0.0
1001
ACAD
1010
0.0
1020
0.0
1030
0.0
  0
LINE
  5
A6E7F
330
B144A
100
AcDbEntity
  8
0
100
AcDbLine
 10
19237.23229158937
 20
2339.036426392835
 30
0.0
 11
19237.23229158937
 21
4313.036426392835
 31
0.0
1001
ACAD
1010
0.0
1020
0.0
1030
0.0
  0
LINE
  5
A6E80
330
B144A
100
AcDbEntity
  8
0
100
AcDbLine
 10
19112.23229158937
 20
2339.036426392835
 30
0.0
 11
19112.23229158937
 21
4313.036426392835
 31
0.0
1001
ACAD
1010
0.0
1020
0.0
1030
0.0
  0
LINE
  5
A6E81
330
B144A
100
AcDbEntity
  8
0
100
AcDbLine
 10
18987.23229158937
 20
2339.036426392835
 30
0.0
 11
18987.23229158937
 21
4313.036426392835
 31
0.0
1001
ACAD
1010
0.0
1020
0.0
1030
0.0
  0
LINE
  5
A6E82
330
B144A
100
AcDbEntity
  8
0
100
AcDbLine
 10
18862.23229158937
 20
2339.036426392835
 30
0.0
 11
18862.23229158937
 21
4313.036426392835
 31
0.0
1001
ACAD
1010
0.0
1020
0.0
1030
0.0
  0
LINE
  5
A6E83
330
B144A
100
AcDbEntity
  8
0
100
AcDbLine
 10
18737.23229158937
 20
2339.036426392835
 30
0.0
 11
18737.23229158937
 21
4313.036426392835
 31
0.0
1001
ACAD
1010
0.0
1020
0.0
1030
0.0
  0
LINE
  5
A6E84
330
B144A
100
AcDbEntity
  8
0
100
AcDbLine
 10
18612.23229158937
 20
2339.036426392835
 30
0.0
 11
18612.23229158937
 21
4313.036426392835
 31
0.0
1001
ACAD
1010
0.0
1020
0.0
1030
0.0
  0
LINE
  5
A6E85
330
B144A
100
AcDbEntity
  8
0
100
AcDbLine
 10
18487.23229158937
 20
2339.036426392835
 30
0.0
 11
18487.23229158937
 21
4313.036426392835
 31
0.0
1001
ACAD
1010
0.0
1020
0.0
1030
0.0
  0
LINE
  5
A6E86
330
B144A
100
AcDbEntity
  8
0
100
AcDbLine
 10
18362.23229158937
 20
2339.036426392835
 30
0.0
 11
18362.23229158937
 21
4313.036426392835
 31
0.0
1001
ACAD
1010
0.0
1020
0.0
1030
0.0
  0
LINE
  5
A6E87
330
B144A
100
AcDbEntity
  8
0
100
AcDbLine
 10
18237.23229158937
 20
2339.036426392835
 30
0.0
 11
18237.23229158937
 21
4313.036426392835
 31
0.0
1001
ACAD
1010
0.0
1020
0.0
1030
0.0
  0
LINE
  5
A6E88
330
B144A
100
AcDbEntity
  8
0
100
AcDbLine
 10
18112.23229158937
 20
2339.036426392835
 30
0.0
 11
18112.23229158937
 21
4313.036426392835
 31
0.0
1001
ACAD
1010
0.0
1020
0.0
1030
0.0
  0
LINE
  5
A6E89
330
B144A
100
AcDbEntity
  8
0
100
AcDbLine
 10
17987.23229158937
 20
2339.036426392835
 30
0.0
 11
17987.23229158937
 21
4313.036426392835
 31
0.0
1001
ACAD
1010
0.0
1020
0.0
1030
0.0
  0
LINE
  5
A6E8A
330
B144A
100
AcDbEntity
  8
0
100
AcDbLine
 10
17862.23229158937
 20
2339.036426392835
 30
0.0
 11
17862.23229158937
 21
4313.036426392835
 31
0.0
1001
ACAD
1010
0.0
1020
0.0
1030
0.0
  0
LINE
  5
A6E8B
330
B144A
100
AcDbEntity
  8
0
100
AcDbLine
 10
17737.23229158937
 20
2339.036426392835
 30
0.0
 11
17737.23229158937
 21
4313.036426392835
 31
0.0
1001
ACAD
1010
0.0
1020
0.0
1030
0.0
  0
LINE
  5
A6E8C
330
B144A
100
AcDbEntity
  8
0
100
AcDbLine
 10
17612.23229158937
 20
2339.036426392835
 30
0.0
 11
17612.23229158937
 21
4313.036426392835
 31
0.0
1001
ACAD
1010
0.0
1020
0.0
1030
0.0
  0
LINE
  5
A6E8D
330
B144A
100
AcDbEntity
  8
0
100
AcDbLine
 10
17527.11111616107
 20
2379.011226058443
 30
0.0
 11
18497.11111616107
 21
2379.011226058443
 31
0.0
1001
ACAD
1010
0.0
1020
0.0
1030
0.0
  0
LINE
  5
A6E8E
330
B144A
100
AcDbEntity
  8
0
100
AcDbLine
 10
18527.11111616106
 20
2379.011226058443
 30
0.0
 11
19497.11111616119
 21
2379.011226058443
 31
0.0
1001
ACAD
1010
0.0
1020
0.0
1030
0.0
  0
LINE
  5
A6E8F
330
B144A
100
AcDbEntity
  8
0
100
AcDbLine
 10
17527.11111616107
 20
2504.011226058443
 30
0.0
 11
18497.11111616107
 21
2504.011226058443
 31
0.0
1001
ACAD
1010
0.0
1020
0.0
1030
0.0
  0
LINE
  5
A6E90
330
B144A
100
AcDbEntity
  8
0
100
AcDbLine
 10
18527.11111616106
 20
2504.011226058443
 30
0.0
 11
19497.11111616119
 21
2504.011226058443
 31
0.0
1001
ACAD
1010
0.0
1020
0.0
1030
0.0
  0
LINE
  5
A6E91
330
B144A
100
AcDbEntity
  8
0
100
AcDbLine
 10
17527.11111616107
 20
2629.011226058443
 30
0.0
 11
18497.11111616107
 21
2629.011226058443
 31
0.0
1001
ACAD
1010
0.0
1020
0.0
1030
0.0
  0
LINE
  5
A6E92
330
B144A
100
AcDbEntity
  8
0
100
AcDbLine
 10
18527.11111616106
 20
2629.011226058443
 30
0.0
 11
19497.11111616119
 21
2629.011226058443
 31
0.0
1001
ACAD
1010
0.0
1020
0.0
1030
0.0
  0
LINE
  5
A6E93
330
B144A
100
AcDbEntity
  8
0
100
AcDbLine
 10
17527.11111616107
 20
2754.011226058443
 30
0.0
 11
18497.11111616107
 21
2754.011226058443
 31
0.0
1001
ACAD
1010
0.0
1020
0.0
1030
0.0
  0
LINE
  5
A6E94
330
B144A
100
AcDbEntity
  8
0
100
AcDbLine
 10
18527.11111616106
 20
2754.011226058443
 30
0.0
 11
19497.11111616119
 21
2754.011226058443
 31
0.0
1001
ACAD
1010
0.0
1020
0.0
1030
0.0
  0
LINE
  5
A6E95
330
B144A
100
AcDbEntity
  8
0
100
AcDbLine
 10
17527.11111616107
 20
2879.011226058443
 30
0.0
 11
18497.11111616107
 21
2879.011226058443
 31
0.0
1001
ACAD
1010
0.0
1020
0.0
1030
0.0
  0
LINE
  5
A6E96
330
B144A
100
AcDbEntity
  8
0
100
AcDbLine
 10
18527.11111616106
 20
2879.011226058443
 30
0.0
 11
19497.11111616119
 21
2879.011226058443
 31
0.0
1001
ACAD
1010
0.0
1020
0.0
1030
0.0
  0
LINE
  5
A6E97
330
B144A
100
AcDbEntity
  8
0
100
AcDbLine
 10
17527.11111616107
 20
3004.011226058443
 30
0.0
 11
18497.11111616107
 21
3004.011226058443
 31
0.0
1001
ACAD
1010
0.0
1020
0.0
1030
0.0
  0
LINE
  5
A6E98
330
B144A
100
AcDbEntity
  8
0
100
AcDbLine
 10
18527.11111616106
 20
3004.011226058443
 30
0.0
 11
19497.11111616119
 21
3004.011226058443
 31
0.0
1001
ACAD
1010
0.0
1020
0.0
1030
0.0
  0
LINE
  5
A6E99
330
B144A
100
AcDbEntity
  8
0
100
AcDbLine
 10
17527.11111616107
 20
3129.011226058443
 30
0.0
 11
18497.11111616107
 21
3129.011226058443
 31
0.0
1001
ACAD
1010
0.0
1020
0.0
1030
0.0
  0
LINE
  5
A6E9A
330
B144A
100
AcDbEntity
  8
0
100
AcDbLine
 10
18527.11111616106
 20
3129.011226058443
 30
0.0
 11
19497.11111616119
 21
3129.011226058443
 31
0.0
1001
ACAD
1010
0.0
1020
0.0
1030
0.0
  0
LINE
  5
A6E9B
330
B144A
100
AcDbEntity
  8
0
100
AcDbLine
 10
17527.11111616107
 20
3254.011226058443
 30
0.0
 11
18497.11111616107
 21
3254.011226058443
 31
0.0
1001
ACAD
1010
0.0
1020
0.0
1030
0.0
  0
LINE
  5
A6E9C
330
B144A
100
AcDbEntity
  8
0
100
AcDbLine
 10
18527.11111616106
 20
3254.011226058443
 30
0.0
 11
19497.11111616119
 21
3254.011226058443
 31
0.0
1001
ACAD
1010
0.0
1020
0.0
1030
0.0
  0
LINE
  5
A6E9D
330
B144A
100
AcDbEntity
  8
0
100
AcDbLine
 10
17527.11111616107
 20
3379.011226058443
 30
0.0
 11
18497.11111616107
 21
3379.011226058443
 31
0.0
1001
ACAD
1010
0.0
1020
0.0
1030
0.0
  0
LINE
  5
A6E9E
330
B144A
100
AcDbEntity
  8
0
100
AcDbLine
 10
18527.11111616106
 20
3379.011226058443
 30
0.0
 11
19497.11111616119
 21
3379.011226058443
 31
0.0
1001
ACAD
1010
0.0
1020
0.0
1030
0.0
  0
LINE
  5
A6E9F
330
B144A
100
AcDbEntity
  8
0
100
AcDbLine
 10
17527.11111616107
 20
3504.011226058443
 30
0.0
 11
18497.11111616107
 21
3504.011226058443
 31
0.0
1001
ACAD
1010
0.0
1020
0.0
1030
0.0
  0
LINE
  5
A6EA0
330
B144A
100
AcDbEntity
  8
0
100
AcDbLine
 10
18527.11111616106
 20
3504.011226058443
 30
0.0
 11
19497.11111616119
 21
3504.011226058443
 31
0.0
1001
ACAD
1010
0.0
1020
0.0
1030
0.0
  0
LINE
  5
A6EA1
330
B144A
100
AcDbEntity
  8
0
100
AcDbLine
 10
17527.11111616107
 20
3629.011226058442
 30
0.0
 11
18497.11111616107
 21
3629.011226058442
 31
0.0
1001
ACAD
1010
0.0
1020
0.0
1030
0.0
  0
LINE
  5
A6EA2
330
B144A
100
AcDbEntity
  8
0
100
AcDbLine
 10
18527.11111616106
 20
3629.011226058442
 30
0.0
 11
19497.11111616119
 21
3629.011226058442
 31
0.0
1001
ACAD
1010
0.0
1020
0.0
1030
0.0
  0
LINE
  5
A6EA3
330
B144A
100
AcDbEntity
  8
0
100
AcDbLine
 10
17527.11111616107
 20
3754.011226058442
 30
0.0
 11
18497.11111616107
 21
3754.011226058442
 31
0.0
1001
ACAD
1010
0.0
1020
0.0
1030
0.0
  0
LINE
  5
A6EA4
330
B144A
100
AcDbEntity
  8
0
100
AcDbLine
 10
18527.11111616106
 20
3754.011226058442
 30
0.0
 11
19497.11111616119
 21
3754.011226058442
 31
0.0
1001
ACAD
1010
0.0
1020
0.0
1030
0.0
  0
LINE
  5
A6EA5
330
B144A
100
AcDbEntity
  8
0
100
AcDbLine
 10
17527.11111616107
 20
3879.011226058442
 30
0.0
 11
18497.11111616107
 21
3879.011226058442
 31
0.0
1001
ACAD
1010
0.0
1020
0.0
1030
0.0
  0
LINE
  5
A6EA6
330
B144A
100
AcDbEntity
  8
0
100
AcDbLine
 10
18527.11111616106
 20
3879.011226058442
 30
0.0
 11
19497.11111616119
 21
3879.011226058442
 31
0.0
1001
ACAD
1010
0.0
1020
0.0
1030
0.0
  0
LINE
  5
A6EA7
330
B144A
100
AcDbEntity
  8
0
100
AcDbLine
 10
17527.11111616107
 20
4004.011226058442
 30
0.0
 11
18497.11111616107
 21
4004.011226058442
 31
0.0
1001
ACAD
1010
0.0
1020
0.0
1030
0.0
  0
LINE
  5
A6EA8
330
B144A
100
AcDbEntity
  8
0
100
AcDbLine
 10
18527.11111616106
 20
4004.011226058442
 30
0.0
 11
19497.11111616119
 21
4004.011226058442
 31
0.0
1001
ACAD
1010
0.0
1020
0.0
1030
0.0
  0
LINE
  5
A6EA9
330
B144A
100
AcDbEntity
  8
0
100
AcDbLine
 10
17527.11111616107
 20
4129.011226058442
 30
0.0
 11
18497.11111616107
 21
4129.011226058442
 31
0.0
1001
ACAD
1010
0.0
1020
0.0
1030
0.0
  0
LINE
  5
A6EAA
330
B144A
100
AcDbEntity
  8
0
100
AcDbLine
 10
18527.11111616106
 20
4129.011226058442
 30
0.0
 11
19497.11111616119
 21
4129.011226058442
 31
0.0
1001
ACAD
1010
0.0
1020
0.0
1030
0.0
  0
LINE
  5
A6EAB
330
B144A
100
AcDbEntity
  8
0
100
AcDbLine
 10
17527.11111616107
 20
4254.011226058442
 30
0.0
 11
18497.11111616107
 21
4254.011226058442
 31
0.0
1001
ACAD
1010
0.0
1020
0.0
1030
0.0
  0
LINE
  5
A6EAC
330
B144A
100
AcDbEntity
  8
0
100
AcDbLine
 10
18527.11111616106
 20
4254.011226058442
 30
0.0
 11
19497.11111616119
 21
4254.011226058442
 31
0.0
1001
ACAD
1010
0.0
1020
0.0
1030
0.0
  0
LINE
  5
A6EAD
330
B144A
100
AcDbEntity
  8
0
100
AcDbLine
 10
22732.69473631098
 20
10251.30740641974
 30
0.0
 11
17223.39205753694
 21
10251.30740641974
 31
0.0
  0
LWPOLYLINE
  5
A6EAE
330
B144A
100
AcDbEntity
  8
0
100
AcDbPolyline
 90
        4
 70
     1
 43
0.0
 10
19337.11111616105
 20
16490.44289643322
 10
19477.11111616104
 20
16490.44289643322
 10
19477.11111616104
 20
16480.44289643322
 10
19337.11111616105
 20
16480.44289643322
  0
LINE
  5
A6EAF
330
B144A
100
AcDbEntity
  8
0
100
AcDbLine
 10
19357.11111616105
 20
16490.44289643319
 30
0.0
 11
19457.11111616104
 21
16490.44289643319
 31
0.0
  0
CIRCLE
  5
A6EB0
330
B144A
100
AcDbEntity
  8
0
100
AcDbCircle
 10
19407.11111616104
 20
16522.94289643319
 30
0.0
 40
12.5
  0
CIRCLE
  5
A6EB1
330
B144A
100
AcDbEntity
  8
0
100
AcDbCircle
 10
19407.11111616104
 20
16522.94289643319
 30
0.0
 40
22.5
  0
LWPOLYLINE
  5
A6EB8
330
B144A
100
AcDbEntity
  8
0
100
AcDbPolyline
 90
        4
 70
     1
 43
0.0
 10
19497.11111616105
 20
16480.44289643319
 10
19497.11111616105
 20
16445.44289643319
 10
17527.11111616104
 20
16445.44289643319
 10
17527.11111616104
 20
16480.44289643319
  0
LWPOLYLINE
  5
A6EB9
330
B144A
100
AcDbEntity
  8
0
100
AcDbPolyline
 90
        4
 70
     1
 43
0.0
 10
17527.11111616104
 20
16480.44289643319
 10
17527.11111616104
 20
14350.44289643319
 10
17497.11111616106
 20
14350.44289643319
 10
17497.11111616106
 20
16480.44289643319
  0
LWPOLYLINE
  5
A6EBA
330
B144A
100
AcDbEntity
  8
0
100
AcDbPolyline
 90
        4
 70
     1
 43
0.0
 10
19527.11111616104
 20
16480.44289643319
 10
19527.11111616104
 20
14350.44289643319
 10
19497.11111616116
 20
14350.44289643319
 10
19497.11111616116
 20
16480.44289643319
  0
LWPOLYLINE
  5
A6EBB
330
B144A
100
AcDbEntity
  8
0
100
AcDbPolyline
 90
        4
 70
     1
 43
0.0
 10
19497.11111616116
 20
14350.44289643319
 10
19497.11111616116
 20
14445.44289643348
 10
17527.1111161608
 20
14445.44289643348
 10
17527.1111161608
 20
14350.44289643319
  0
LWPOLYLINE
  5
A6EBC
330
B144A
100
AcDbEntity
  8
0
100
AcDbPolyline
 90
        4
 70
     1
 43
0.0
 10
17527.11111616104
 20
14445.44289643319
 10
17527.11111616104
 20
14471.44289643319
 10
18497.11111616104
 20
14471.44289643319
 10
18497.11111616104
 20
14445.44289643319
  0
LWPOLYLINE
  5
A6EBD
330
B144A
100
AcDbEntity
  8
0
100
AcDbPolyline
 90
        4
 70
     1
 43
0.0
 10
18497.11111616104
 20
14445.44289643319
 10
18497.11111616104
 20
16445.44289643319
 10
18527.11111616105
 20
16445.44289643319
 10
18527.11111616105
 20
14445.44289643319
  0
LWPOLYLINE
  5
A6EBE
330
B144A
100
AcDbEntity
  8
0
100
AcDbPolyline
 90
        4
 70
     1
 43
0.0
 10
19497.11111616105
 20
14471.44289643319
 10
19497.11111616105
 20
14445.44289643319
 10
18527.11111616105
 20
14445.44289643319
 10
18527.11111616105
 20
14471.44289643319
  0
LWPOLYLINE
  5
A6EBF
330
B144A
100
AcDbEntity
  8
0
100
AcDbPolyline
 90
        4
 70
     1
 43
0.0
 10
19497.11111616128
 20
14871.4428964329
 10
19497.11111616128
 20
14845.4428964329
 10
18527.11111616126
 20
14845.4428964329
 10
18527.11111616126
 20
14871.4428964329
  0
LWPOLYLINE
  5
A6EC0
330
B144A
100
AcDbEntity
  8
0
100
AcDbPolyline
 90
        4
 70
     1
 43
0.0
 10
17527.11111616126
 20
14845.4428964329
 10
17527.11111616126
 20
14871.4428964329
 10
18497.11111616128
 20
14871.4428964329
 10
18497.11111616128
 20
14845.4428964329
  0
LWPOLYLINE
  5
A6EC1
330
B144A
100
AcDbEntity
  8
0
100
AcDbPolyline
 90
        4
 70
     1
 43
0.0
 10
19497.11111616128
 20
15271.4428964329
 10
19497.11111616128
 20
15245.4428964329
 10
18527.11111616126
 20
15245.4428964329
 10
18527.11111616126
 20
15271.4428964329
  0
LWPOLYLINE
  5
A6EC2
330
B144A
100
AcDbEntity
  8
0
100
AcDbPolyline
 90
        4
 70
     1
 43
0.0
 10
17527.11111616126
 20
15245.4428964329
 10
17527.11111616126
 20
15271.4428964329
 10
18497.11111616128
 20
15271.4428964329
 10
18497.11111616128
 20
15245.4428964329
  0
LWPOLYLINE
  5
A6EC3
330
B144A
100
AcDbEntity
  8
0
100
AcDbPolyline
 90
        4
 70
     1
 43
0.0
 10
19497.11111616128
 20
15671.4428964329
 10
19497.11111616128
 20
15645.4428964329
 10
18527.11111616126
 20
15645.4428964329
 10
18527.11111616126
 20
15671.4428964329
  0
LWPOLYLINE
  5
A6EC4
330
B144A
100
AcDbEntity
  8
0
100
AcDbPolyline
 90
        4
 70
     1
 43
0.0
 10
17527.11111616126
 20
15645.4428964329
 10
17527.11111616126
 20
15671.4428964329
 10
18497.11111616128
 20
15671.4428964329
 10
18497.11111616128
 20
15645.4428964329
  0
LWPOLYLINE
  5
A6EC5
330
B144A
100
AcDbEntity
  8
0
100
AcDbPolyline
 90
        4
 70
     1
 43
0.0
 10
19497.11111616128
 20
16071.4428964329
 10
19497.11111616128
 20
16045.4428964329
 10
18527.11111616126
 20
16045.4428964329
 10
18527.11111616126
 20
16071.4428964329
  0
LWPOLYLINE
  5
A6EC6
330
B144A
100
AcDbEntity
  8
0
100
AcDbPolyline
 90
        4
 70
     1
 43
0.0
 10
17527.11111616126
 20
16045.4428964329
 10
17527.11111616126
 20
16071.4428964329
 10
18497.11111616128
 20
16071.4428964329
 10
18497.11111616128
 20
16045.4428964329
  0
LWPOLYLINE
  5
A6EC7
330
B144A
100
AcDbEntity
  8
0
100
AcDbPolyline
 90
        8
 70
     1
 43
0.0
 10
19429.61111616105
 20
16500.44289643322
 10
19429.61111616105
 20
16522.94289643322
 42
-1.0
 10
19384.61111616105
 20
16522.94289643322
 10
19384.61111616105
 20
16500.44289643319
 10
19367.11111616104
 20
16500.44289643322
 10
19357.11111616105
 20
16490.44289643319
 10
19457.11111616104
 20
16490.44289643319
 10
19447.11111616104
 20
16500.44289643322
  0
LINE
  5
A6EC8
330
B144A
100
AcDbEntity
  8
0
100
AcDbLine
 10
18989.61111616104
 20
14350.44289643319
 30
0.0
 11
18989.61111616104
 21
14325.44289643319
 31
0.0
  0
LINE
  5
A6EC9
330
B144A
100
AcDbEntity
  8
0
100
AcDbLine
 10
18989.61111616104
 20
14350.44289643319
 30
0.0
 11
18989.61111616104
 21
14325.44289643319
 31
0.0
  0
LINE
  5
A6ECA
330
B144A
100
AcDbEntity
  8
0
100
AcDbLine
 10
19034.61111616104
 20
14325.44289643319
 30
0.0
 11
18989.61111616104
 21
14325.44289643319
 31
0.0
  0
LINE
  5
A6ECB
330
B144A
100
AcDbEntity
  8
0
100
AcDbLine
 10
19034.61111616104
 20
14325.44289643319
 30
0.0
 11
18989.61111616104
 21
14325.44289643319
 31
0.0
  0
LINE
  5
A6ECC
330
B144A
100
AcDbEntity
  8
0
100
AcDbLine
 10
18999.61111616104
 20
14325.44289643319
 30
0.0
 11
18999.61111616104
 21
14300.44289643319
 31
0.0
  0
LINE
  5
A6ECD
330
B144A
100
AcDbEntity
  8
0
100
AcDbLine
 10
18999.61111616104
 20
14325.44289643319
 30
0.0
 11
18999.61111616104
 21
14300.44289643319
 31
0.0
  0
LINE
  5
A6ECE
330
B144A
100
AcDbEntity
  8
0
100
AcDbLine
 10
19034.61111616104
 20
14325.44289643319
 30
0.0
 11
18989.61111616104
 21
14325.44289643319
 31
0.0
  0
LINE
  5
A6ECF
330
B144A
100
AcDbEntity
  8
0
100
AcDbLine
 10
19034.61111616104
 20
14325.44289643319
 30
0.0
 11
18989.61111616104
 21
14325.44289643319
 31
0.0
  0
LINE
  5
A6ED0
330
B144A
100
AcDbEntity
  8
0
100
AcDbLine
 10
18999.61111616104
 20
14325.44289643319
 30
0.0
 11
18999.61111616104
 21
14300.44289643319
 31
0.0
  0
LINE
  5
A6ED1
330
B144A
100
AcDbEntity
  8
0
100
AcDbLine
 10
18999.61111616104
 20
14325.44289643319
 30
0.0
 11
18999.61111616104
 21
14300.44289643319
 31
0.0
  0
LINE
  5
A6ED2
330
B144A
100
AcDbEntity
  8
0
100
AcDbLine
 10
18989.61111616104
 20
14350.44289643319
 30
0.0
 11
18989.61111616104
 21
14325.44289643319
 31
0.0
  0
LINE
  5
A6ED3
330
B144A
100
AcDbEntity
  8
0
100
AcDbLine
 10
18989.61111616104
 20
14350.44289643319
 30
0.0
 11
18989.61111616104
 21
14325.44289643319
 31
0.0
  0
LINE
  5
A6ED4
330
B144A
100
AcDbEntity
  8
0
100
AcDbLine
 10
17989.61111616104
 20
14350.44289643319
 30
0.0
 11
17989.61111616104
 21
14325.44289643319
 31
0.0
  0
LINE
  5
A6ED5
330
B144A
100
AcDbEntity
  8
0
100
AcDbLine
 10
17989.61111616104
 20
14350.44289643319
 30
0.0
 11
17989.61111616104
 21
14325.44289643319
 31
0.0
  0
LINE
  5
A6ED6
330
B144A
100
AcDbEntity
  8
0
100
AcDbLine
 10
18034.61111616105
 20
14325.44289643319
 30
0.0
 11
17989.61111616104
 21
14325.44289643319
 31
0.0
  0
LINE
  5
A6ED7
330
B144A
100
AcDbEntity
  8
0
100
AcDbLine
 10
18034.61111616105
 20
14325.44289643319
 30
0.0
 11
17989.61111616104
 21
14325.44289643319
 31
0.0
  0
LINE
  5
A6ED8
330
B144A
100
AcDbEntity
  8
0
100
AcDbLine
 10
17999.61111616104
 20
14325.44289643319
 30
0.0
 11
17999.61111616104
 21
14300.44289643319
 31
0.0
  0
LINE
  5
A6ED9
330
B144A
100
AcDbEntity
  8
0
100
AcDbLine
 10
17999.61111616104
 20
14325.44289643319
 30
0.0
 11
17999.61111616104
 21
14300.44289643319
 31
0.0
  0
LINE
  5
A6EDA
330
B144A
100
AcDbEntity
  8
0
100
AcDbLine
 10
18034.61111616105
 20
14325.44289643319
 30
0.0
 11
17989.61111616104
 21
14325.44289643319
 31
0.0
  0
LINE
  5
A6EDB
330
B144A
100
AcDbEntity
  8
0
100
AcDbLine
 10
18034.61111616105
 20
14325.44289643319
 30
0.0
 11
17989.61111616104
 21
14325.44289643319
 31
0.0
  0
LINE
  5
A6EDC
330
B144A
100
AcDbEntity
  8
0
100
AcDbLine
 10
17999.61111616104
 20
14325.44289643319
 30
0.0
 11
17999.61111616104
 21
14300.44289643319
 31
0.0
  0
LINE
  5
A6EDD
330
B144A
100
AcDbEntity
  8
0
100
AcDbLine
 10
17999.61111616104
 20
14325.44289643319
 30
0.0
 11
17999.61111616104
 21
14300.44289643319
 31
0.0
  0
LINE
  5
A6EDE
330
B144A
100
AcDbEntity
  8
0
100
AcDbLine
 10
17989.61111616104
 20
14350.44289643319
 30
0.0
 11
17989.61111616104
 21
14325.44289643319
 31
0.0
  0
LINE
  5
A6EDF
330
B144A
100
AcDbEntity
  8
0
100
AcDbLine
 10
17989.61111616104
 20
14350.44289643319
 30
0.0
 11
17989.61111616104
 21
14325.44289643319
 31
0.0
  0
LWPOLYLINE
  5
A6EE0
330
B144A
100
AcDbEntity
  8
0
100
AcDbPolyline
 90
        4
 70
     1
 43
0.0
 10
18034.61111616105
 20
14350.44289643319
 10
18034.61111616105
 20
14325.44289643319
 10
17989.61111616104
 20
14325.44289643319
 10
17989.61111616104
 20
14350.44289643319
  0
LWPOLYLINE
  5
A6EE1
330
B144A
100
AcDbEntity
  8
0
100
AcDbPolyline
 90
        4
 70
     1
 43
0.0
 10
18024.61111616104
 20
14325.44289643319
 10
18024.61111616104
 20
14300.44289643319
 10
17999.61111616104
 20
14300.44289643319
 10
17999.61111616104
 20
14325.44289643319
  0
LINE
  5
A6EE2
330
B144A
100
AcDbEntity
  8
0
100
AcDbLine
 10
18989.61111616104
 20
14350.44289643319
 30
0.0
 11
18989.61111616104
 21
14325.44289643319
 31
0.0
  0
LINE
  5
A6EE3
330
B144A
100
AcDbEntity
  8
0
100
AcDbLine
 10
18989.61111616104
 20
14350.44289643319
 30
0.0
 11
18989.61111616104
 21
14325.44289643319
 31
0.0
  0
LINE
  5
A6EE4
330
B144A
100
AcDbEntity
  8
0
100
AcDbLine
 10
19034.61111616104
 20
14325.44289643319
 30
0.0
 11
18989.61111616104
 21
14325.44289643319
 31
0.0
  0
LINE
  5
A6EE5
330
B144A
100
AcDbEntity
  8
0
100
AcDbLine
 10
19034.61111616104
 20
14325.44289643319
 30
0.0
 11
18989.61111616104
 21
14325.44289643319
 31
0.0
  0
LINE
  5
A6EE6
330
B144A
100
AcDbEntity
  8
0
100
AcDbLine
 10
18999.61111616104
 20
14325.44289643319
 30
0.0
 11
18999.61111616104
 21
14300.44289643319
 31
0.0
  0
LINE
  5
A6EE7
330
B144A
100
AcDbEntity
  8
0
100
AcDbLine
 10
18999.61111616104
 20
14325.44289643319
 30
0.0
 11
18999.61111616104
 21
14300.44289643319
 31
0.0
  0
LINE
  5
A6EE8
330
B144A
100
AcDbEntity
  8
0
100
AcDbLine
 10
19034.61111616104
 20
14325.44289643319
 30
0.0
 11
18989.61111616104
 21
14325.44289643319
 31
0.0
  0
LINE
  5
A6EE9
330
B144A
100
AcDbEntity
  8
0
100
AcDbLine
 10
19034.61111616104
 20
14325.44289643319
 30
0.0
 11
18989.61111616104
 21
14325.44289643319
 31
0.0
  0
LINE
  5
A6EEA
330
B144A
100
AcDbEntity
  8
0
100
AcDbLine
 10
18999.61111616104
 20
14325.44289643319
 30
0.0
 11
18999.61111616104
 21
14300.44289643319
 31
0.0
  0
LINE
  5
A6EEB
330
B144A
100
AcDbEntity
  8
0
100
AcDbLine
 10
18999.61111616104
 20
14325.44289643319
 30
0.0
 11
18999.61111616104
 21
14300.44289643319
 31
0.0
  0
LINE
  5
A6EEC
330
B144A
100
AcDbEntity
  8
0
100
AcDbLine
 10
18989.61111616104
 20
14350.44289643319
 30
0.0
 11
18989.61111616104
 21
14325.44289643319
 31
0.0
  0
LINE
  5
A6EED
330
B144A
100
AcDbEntity
  8
0
100
AcDbLine
 10
18989.61111616104
 20
14350.44289643319
 30
0.0
 11
18989.61111616104
 21
14325.44289643319
 31
0.0
  0
LWPOLYLINE
  5
A6EEE
330
B144A
100
AcDbEntity
  8
0
100
AcDbPolyline
 90
        4
 70
     1
 43
0.0
 10
19034.61111616104
 20
14350.44289643319
 10
19034.61111616104
 20
14325.44289643319
 10
18989.61111616104
 20
14325.44289643319
 10
18989.61111616104
 20
14350.44289643319
  0
LWPOLYLINE
  5
A6EEF
330
B144A
100
AcDbEntity
  8
0
100
AcDbPolyline
 90
        4
 70
     1
 43
0.0
 10
19024.61111616105
 20
14325.44289643319
 10
19024.61111616105
 20
14300.44289643319
 10
18999.61111616104
 20
14300.44289643319
 10
18999.61111616104
 20
14325.44289643319
  0
LWPOLYLINE
  5
A6EF0
330
B144A
100
AcDbEntity
  8
0
100
AcDbPolyline
 90
        4
 70
     1
 43
0.0
 10
19337.11111616106
 20
12446.30740641976
 10
19477.11111616106
 20
12446.30740641976
 10
19477.11111616106
 20
12436.30740641976
 10
19337.11111616106
 20
12436.30740641976
  0
LINE
  5
A6EF1
330
B144A
100
AcDbEntity
  8
0
100
AcDbLine
 10
19357.11111616106
 20
12446.30740641973
 30
0.0
 11
19457.11111616106
 21
12446.30740641973
 31
0.0
  0
CIRCLE
  5
A6EF2
330
B144A
100
AcDbEntity
  8
0
100
AcDbCircle
 10
19407.11111616106
 20
12478.80740641973
 30
0.0
 40
12.5
  0
CIRCLE
  5
A6EF3
330
B144A
100
AcDbEntity
  8
0
100
AcDbCircle
 10
19407.11111616106
 20
12478.80740641973
 30
0.0
 40
22.5
  0
LWPOLYLINE
  5
A6EF9
330
B144A
100
AcDbEntity
  8
0
100
AcDbPolyline
 90
        4
 70
     1
 43
0.0
 10
19497.11111616106
 20
12436.30740641973
 10
19497.11111616106
 20
12401.30740641973
 10
17527.11111616106
 20
12401.30740641973
 10
17527.11111616106
 20
12436.30740641973
  0
LWPOLYLINE
  5
A6EFB
330
B144A
100
AcDbEntity
  8
0
100
AcDbPolyline
 90
        4
 70
     1
 43
0.0
 10
17527.11111616106
 20
12436.30740641973
 10
17527.11111616106
 20
10306.30740641973
 10
17497.11111616106
 20
10306.30740641973
 10
17497.11111616106
 20
12436.30740641973
  0
LWPOLYLINE
  5
A6EFC
330
B144A
100
AcDbEntity
  8
0
100
AcDbPolyline
 90
        4
 70
     1
 43
0.0
 10
19527.11111616106
 20
12436.30740641973
 10
19527.11111616106
 20
10306.30740641973
 10
19497.11111616118
 20
10306.30740641973
 10
19497.11111616118
 20
12436.30740641973
  0
LWPOLYLINE
  5
A6EFD
330
B144A
100
AcDbEntity
  8
0
100
AcDbPolyline
 90
        4
 70
     1
 43
0.0
 10
19497.11111616118
 20
10306.30740641973
 10
19497.11111616118
 20
10401.30740642002
 10
17527.11111616081
 20
10401.30740642002
 10
17527.11111616081
 20
10306.30740641973
  0
LWPOLYLINE
  5
A6EFE
330
B144A
100
AcDbEntity
  8
0
100
AcDbPolyline
 90
        4
 70
     1
 43
0.0
 10
17527.11111616106
 20
10401.30740641973
 10
17527.11111616106
 20
10427.30740641973
 10
18497.11111616106
 20
10427.30740641973
 10
18497.11111616106
 20
10401.30740641973
  0
LWPOLYLINE
  5
A6EFF
330
B144A
100
AcDbEntity
  8
0
100
AcDbPolyline
 90
        4
 70
     1
 43
0.0
 10
18497.11111616106
 20
10401.30740641973
 10
18497.11111616106
 20
12401.30740641973
 10
18527.11111616106
 20
12401.30740641973
 10
18527.11111616106
 20
10401.30740641973
  0
LWPOLYLINE
  5
A6F00
330
B144A
100
AcDbEntity
  8
0
100
AcDbPolyline
 90
        4
 70
     1
 43
0.0
 10
19497.11111616106
 20
10427.30740641973
 10
19497.11111616106
 20
10401.30740641973
 10
18527.11111616106
 20
10401.30740641973
 10
18527.11111616106
 20
10427.30740641973
  0
LWPOLYLINE
  5
A6F01
330
B144A
100
AcDbEntity
  8
0
100
AcDbPolyline
 90
        4
 70
     1
 43
0.0
 10
19497.1111161613
 20
10677.30740641944
 10
19497.1111161613
 20
10651.30740641943
 10
18527.1111161613
 20
10651.30740641943
 10
18527.1111161613
 20
10677.30740641944
  0
LWPOLYLINE
  5
A6F02
330
B144A
100
AcDbEntity
  8
0
100
AcDbPolyline
 90
        4
 70
     1
 43
0.0
 10
17527.1111161613
 20
10651.30740641943
 10
17527.1111161613
 20
10677.30740641944
 10
18497.11111616129
 20
10677.30740641944
 10
18497.11111616129
 20
10651.30740641943
  0
LWPOLYLINE
  5
A6F03
330
B144A
100
AcDbEntity
  8
0
100
AcDbPolyline
 90
        4
 70
     1
 43
0.0
 10
19497.1111161613
 20
10927.30740641944
 10
19497.1111161613
 20
10901.30740641944
 10
18527.1111161613
 20
10901.30740641944
 10
18527.1111161613
 20
10927.30740641944
  0
LWPOLYLINE
  5
A6F04
330
B144A
100
AcDbEntity
  8
0
100
AcDbPolyline
 90
        4
 70
     1
 43
0.0
 10
17527.1111161613
 20
10901.30740641944
 10
17527.1111161613
 20
10927.30740641944
 10
18497.11111616129
 20
10927.30740641944
 10
18497.11111616129
 20
10901.30740641944
  0
LWPOLYLINE
  5
A6F05
330
B144A
100
AcDbEntity
  8
0
100
AcDbPolyline
 90
        4
 70
     1
 43
0.0
 10
19497.1111161613
 20
11177.30740641944
 10
19497.1111161613
 20
11151.30740641944
 10
18527.1111161613
 20
11151.30740641944
 10
18527.1111161613
 20
11177.30740641944
  0
LWPOLYLINE
  5
A6F06
330
B144A
100
AcDbEntity
  8
0
100
AcDbPolyline
 90
        4
 70
     1
 43
0.0
 10
17527.1111161613
 20
11151.30740641944
 10
17527.1111161613
 20
11177.30740641944
 10
18497.11111616129
 20
11177.30740641944
 10
18497.11111616129
 20
11151.30740641944
  0
LWPOLYLINE
  5
A6F07
330
B144A
100
AcDbEntity
  8
0
100
AcDbPolyline
 90
        4
 70
     1
 43
0.0
 10
19497.1111161613
 20
11427.30740641944
 10
19497.1111161613
 20
11401.30740641944
 10
18527.1111161613
 20
11401.30740641944
 10
18527.1111161613
 20
11427.30740641944
  0
LWPOLYLINE
  5
A6F08
330
B144A
100
AcDbEntity
  8
0
100
AcDbPolyline
 90
        4
 70
     1
 43
0.0
 10
17527.1111161613
 20
11401.30740641944
 10
17527.1111161613
 20
11427.30740641944
 10
18497.11111616129
 20
11427.30740641944
 10
18497.11111616129
 20
11401.30740641944
  0
LWPOLYLINE
  5
A6F09
330
B144A
100
AcDbEntity
  8
0
100
AcDbPolyline
 90
        8
 70
     1
 43
0.0
 10
19429.61111616106
 20
12456.30740641976
 10
19429.61111616106
 20
12478.80740641976
 42
-1.0
 10
19384.61111616106
 20
12478.80740641976
 10
19384.61111616106
 20
12456.30740641973
 10
19367.11111616106
 20
12456.30740641976
 10
19357.11111616106
 20
12446.30740641973
 10
19457.11111616106
 20
12446.30740641973
 10
19447.11111616106
 20
12456.30740641976
  0
LINE
  5
A6F0A
330
B144A
100
AcDbEntity
  8
0
100
AcDbLine
 10
18989.61111616106
 20
10306.30740641973
 30
0.0
 11
18989.61111616106
 21
10281.30740641973
 31
0.0
  0
LINE
  5
A6F0B
330
B144A
100
AcDbEntity
  8
0
100
AcDbLine
 10
18989.61111616106
 20
10306.30740641973
 30
0.0
 11
18989.61111616106
 21
10281.30740641973
 31
0.0
  0
LINE
  5
A6F0C
330
B144A
100
AcDbEntity
  8
0
100
AcDbLine
 10
19034.61111616106
 20
10281.30740641973
 30
0.0
 11
18989.61111616106
 21
10281.30740641973
 31
0.0
  0
LINE
  5
A6F0D
330
B144A
100
AcDbEntity
  8
0
100
AcDbLine
 10
19034.61111616106
 20
10281.30740641973
 30
0.0
 11
18989.61111616106
 21
10281.30740641973
 31
0.0
  0
LINE
  5
A6F0E
330
B144A
100
AcDbEntity
  8
0
100
AcDbLine
 10
18999.61111616106
 20
10281.30740641973
 30
0.0
 11
18999.61111616106
 21
10256.30740641973
 31
0.0
  0
LINE
  5
A6F0F
330
B144A
100
AcDbEntity
  8
0
100
AcDbLine
 10
18999.61111616106
 20
10281.30740641973
 30
0.0
 11
18999.61111616106
 21
10256.30740641973
 31
0.0
  0
LINE
  5
A6F10
330
B144A
100
AcDbEntity
  8
0
100
AcDbLine
 10
19034.61111616106
 20
10281.30740641973
 30
0.0
 11
18989.61111616106
 21
10281.30740641973
 31
0.0
  0
LINE
  5
A6F11
330
B144A
100
AcDbEntity
  8
0
100
AcDbLine
 10
19034.61111616106
 20
10281.30740641973
 30
0.0
 11
18989.61111616106
 21
10281.30740641973
 31
0.0
  0
LINE
  5
A6F12
330
B144A
100
AcDbEntity
  8
0
100
AcDbLine
 10
18999.61111616106
 20
10281.30740641973
 30
0.0
 11
18999.61111616106
 21
10256.30740641973
 31
0.0
  0
LINE
  5
A6F13
330
B144A
100
AcDbEntity
  8
0
100
AcDbLine
 10
18999.61111616106
 20
10281.30740641973
 30
0.0
 11
18999.61111616106
 21
10256.30740641973
 31
0.0
  0
LINE
  5
A6F14
330
B144A
100
AcDbEntity
  8
0
100
AcDbLine
 10
18989.61111616106
 20
10306.30740641973
 30
0.0
 11
18989.61111616106
 21
10281.30740641973
 31
0.0
  0
LINE
  5
A6F15
330
B144A
100
AcDbEntity
  8
0
100
AcDbLine
 10
18989.61111616106
 20
10306.30740641973
 30
0.0
 11
18989.61111616106
 21
10281.30740641973
 31
0.0
  0
LINE
  5
A6F16
330
B144A
100
AcDbEntity
  8
0
100
AcDbLine
 10
17989.61111616106
 20
10306.30740641973
 30
0.0
 11
17989.61111616106
 21
10281.30740641973
 31
0.0
  0
LINE
  5
A6F17
330
B144A
100
AcDbEntity
  8
0
100
AcDbLine
 10
17989.61111616106
 20
10306.30740641973
 30
0.0
 11
17989.61111616106
 21
10281.30740641973
 31
0.0
  0
LINE
  5
A6F18
330
B144A
100
AcDbEntity
  8
0
100
AcDbLine
 10
18034.61111616106
 20
10281.30740641973
 30
0.0
 11
17989.61111616106
 21
10281.30740641973
 31
0.0
  0
LINE
  5
A6F19
330
B144A
100
AcDbEntity
  8
0
100
AcDbLine
 10
18034.61111616106
 20
10281.30740641973
 30
0.0
 11
17989.61111616106
 21
10281.30740641973
 31
0.0
  0
LINE
  5
A6F1A
330
B144A
100
AcDbEntity
  8
0
100
AcDbLine
 10
17999.61111616106
 20
10281.30740641973
 30
0.0
 11
17999.61111616106
 21
10256.30740641973
 31
0.0
  0
LINE
  5
A6F1B
330
B144A
100
AcDbEntity
  8
0
100
AcDbLine
 10
17999.61111616106
 20
10281.30740641973
 30
0.0
 11
17999.61111616106
 21
10256.30740641973
 31
0.0
  0
LINE
  5
A6F1C
330
B144A
100
AcDbEntity
  8
0
100
AcDbLine
 10
18034.61111616106
 20
10281.30740641973
 30
0.0
 11
17989.61111616106
 21
10281.30740641973
 31
0.0
  0
LINE
  5
A6F1D
330
B144A
100
AcDbEntity
  8
0
100
AcDbLine
 10
18034.61111616106
 20
10281.30740641973
 30
0.0
 11
17989.61111616106
 21
10281.30740641973
 31
0.0
  0
LINE
  5
A6F1E
330
B144A
100
AcDbEntity
  8
0
100
AcDbLine
 10
17999.61111616106
 20
10281.30740641973
 30
0.0
 11
17999.61111616106
 21
10256.30740641973
 31
0.0
  0
LINE
  5
A6F1F
330
B144A
100
AcDbEntity
  8
0
100
AcDbLine
 10
17999.61111616106
 20
10281.30740641973
 30
0.0
 11
17999.61111616106
 21
10256.30740641973
 31
0.0
  0
LINE
  5
A6F20
330
B144A
100
AcDbEntity
  8
0
100
AcDbLine
 10
17989.61111616106
 20
10306.30740641973
 30
0.0
 11
17989.61111616106
 21
10281.30740641973
 31
0.0
  0
LINE
  5
A6F21
330
B144A
100
AcDbEntity
  8
0
100
AcDbLine
 10
17989.61111616106
 20
10306.30740641973
 30
0.0
 11
17989.61111616106
 21
10281.30740641973
 31
0.0
  0
LWPOLYLINE
  5
A6F22
330
B144A
100
AcDbEntity
  8
0
100
AcDbPolyline
 90
        4
 70
     1
 43
0.0
 10
18034.61111616106
 20
10306.30740641973
 10
18034.61111616106
 20
10281.30740641973
 10
17989.61111616106
 20
10281.30740641973
 10
17989.61111616106
 20
10306.30740641973
  0
LWPOLYLINE
  5
A6F23
330
B144A
100
AcDbEntity
  8
0
100
AcDbPolyline
 90
        4
 70
     1
 43
0.0
 10
18024.61111616106
 20
10281.30740641973
 10
18024.61111616106
 20
10256.30740641973
 10
17999.61111616106
 20
10256.30740641973
 10
17999.61111616106
 20
10281.30740641973
  0
LINE
  5
A6F24
330
B144A
100
AcDbEntity
  8
0
100
AcDbLine
 10
18989.61111616106
 20
10306.30740641973
 30
0.0
 11
18989.61111616106
 21
10281.30740641973
 31
0.0
  0
LINE
  5
A6F25
330
B144A
100
AcDbEntity
  8
0
100
AcDbLine
 10
18989.61111616106
 20
10306.30740641973
 30
0.0
 11
18989.61111616106
 21
10281.30740641973
 31
0.0
  0
LINE
  5
A6F26
330
B144A
100
AcDbEntity
  8
0
100
AcDbLine
 10
19034.61111616106
 20
10281.30740641973
 30
0.0
 11
18989.61111616106
 21
10281.30740641973
 31
0.0
  0
LINE
  5
A6F27
330
B144A
100
AcDbEntity
  8
0
100
AcDbLine
 10
19034.61111616106
 20
10281.30740641973
 30
0.0
 11
18989.61111616106
 21
10281.30740641973
 31
0.0
  0
LINE
  5
A6F28
330
B144A
100
AcDbEntity
  8
0
100
AcDbLine
 10
18999.61111616106
 20
10281.30740641973
 30
0.0
 11
18999.61111616106
 21
10256.30740641973
 31
0.0
  0
LINE
  5
A6F29
330
B144A
100
AcDbEntity
  8
0
100
AcDbLine
 10
18999.61111616106
 20
10281.30740641973
 30
0.0
 11
18999.61111616106
 21
10256.30740641973
 31
0.0
  0
LINE
  5
A6F2A
330
B144A
100
AcDbEntity
  8
0
100
AcDbLine
 10
19034.61111616106
 20
10281.30740641973
 30
0.0
 11
18989.61111616106
 21
10281.30740641973
 31
0.0
  0
LINE
  5
A6F2B
330
B144A
100
AcDbEntity
  8
0
100
AcDbLine
 10
19034.61111616106
 20
10281.30740641973
 30
0.0
 11
18989.61111616106
 21
10281.30740641973
 31
0.0
  0
LINE
  5
A6F2C
330
B144A
100
AcDbEntity
  8
0
100
AcDbLine
 10
18999.61111616106
 20
10281.30740641973
 30
0.0
 11
18999.61111616106
 21
10256.30740641973
 31
0.0
  0
LINE
  5
A6F2D
330
B144A
100
AcDbEntity
  8
0
100
AcDbLine
 10
18999.61111616106
 20
10281.30740641973
 30
0.0
 11
18999.61111616106
 21
10256.30740641973
 31
0.0
  0
LINE
  5
A6F2E
330
B144A
100
AcDbEntity
  8
0
100
AcDbLine
 10
18989.61111616106
 20
10306.30740641973
 30
0.0
 11
18989.61111616106
 21
10281.30740641973
 31
0.0
  0
LINE
  5
A6F2F
330
B144A
100
AcDbEntity
  8
0
100
AcDbLine
 10
18989.61111616106
 20
10306.30740641973
 30
0.0
 11
18989.61111616106
 21
10281.30740641973
 31
0.0
  0
LWPOLYLINE
  5
A6F30
330
B144A
100
AcDbEntity
  8
0
100
AcDbPolyline
 90
        4
 70
     1
 43
0.0
 10
19034.61111616106
 20
10306.30740641973
 10
19034.61111616106
 20
10281.30740641973
 10
18989.61111616106
 20
10281.30740641973
 10
18989.61111616106
 20
10306.30740641973
  0
LWPOLYLINE
  5
A6F31
330
B144A
100
AcDbEntity
  8
0
100
AcDbPolyline
 90
        4
 70
     1
 43
0.0
 10
19024.61111616106
 20
10281.30740641973
 10
19024.61111616106
 20
10256.30740641973
 10
18999.61111616106
 20
10256.30740641973
 10
18999.61111616106
 20
10281.30740641973
  0
LWPOLYLINE
  5
A6F32
330
B144A
100
AcDbEntity
  8
0
100
AcDbPolyline
 90
        4
 70
     1
 43
0.0
 10
19497.1111161613
 20
11677.30740641944
 10
19497.1111161613
 20
11651.30740641944
 10
18527.1111161613
 20
11651.30740641944
 10
18527.1111161613
 20
11677.30740641944
  0
LWPOLYLINE
  5
A6F33
330
B144A
100
AcDbEntity
  8
0
100
AcDbPolyline
 90
        4
 70
     1
 43
0.0
 10
17527.1111161613
 20
11651.30740641944
 10
17527.1111161613
 20
11677.30740641944
 10
18497.11111616129
 20
11677.30740641944
 10
18497.11111616129
 20
11651.30740641944
  0
LWPOLYLINE
  5
A6F34
330
B144A
100
AcDbEntity
  8
0
100
AcDbPolyline
 90
        4
 70
     1
 43
0.0
 10
19497.1111161613
 20
11927.30740641944
 10
19497.1111161613
 20
11901.30740641944
 10
18527.1111161613
 20
11901.30740641944
 10
18527.1111161613
 20
11927.30740641944
  0
LWPOLYLINE
  5
A6F35
330
B144A
100
AcDbEntity
  8
0
100
AcDbPolyline
 90
        4
 70
     1
 43
0.0
 10
17527.1111161613
 20
11901.30740641944
 10
17527.1111161613
 20
11927.30740641944
 10
18497.11111616129
 20
11927.30740641944
 10
18497.11111616129
 20
11901.30740641944
  0
LWPOLYLINE
  5
A6F36
330
B144A
100
AcDbEntity
  8
0
100
AcDbPolyline
 90
        4
 70
     1
 43
0.0
 10
19497.1111161613
 20
12177.30740641944
 10
19497.1111161613
 20
12151.30740641944
 10
18527.1111161613
 20
12151.30740641944
 10
18527.1111161613
 20
12177.30740641944
  0
LWPOLYLINE
  5
A6F37
330
B144A
100
AcDbEntity
  8
0
100
AcDbPolyline
 90
        4
 70
     1
 43
0.0
 10
17527.1111161613
 20
12151.30740641944
 10
17527.1111161613
 20
12177.30740641944
 10
18497.11111616129
 20
12177.30740641944
 10
18497.11111616129
 20
12151.30740641944
  0
LWPOLYLINE
  5
A7374
330
B144A
100
AcDbEntity
  8
0
100
AcDbPolyline
 90
        4
 70
     1
 43
0.0
 10
17497.11111616106
 20
12436.30740641973
 10
17497.11111616106
 20
10306.30740641973
 10
17447.11111616106
 20
10306.30740641973
 10
17447.11111616106
 20
12436.30740641973
  0
LWPOLYLINE
  5
A7375
330
B144A
100
AcDbEntity
  8
0
100
AcDbPolyline
 90
        4
 70
     1
 43
0.0
 10
17447.11111616106
 20
11086.30740641973
 10
17412.11111616106
 20
11086.30740641973
 10
17412.11111616106
 20
11156.30740641973
 10
17447.11111616106
 20
11156.30740641973
  0
CIRCLE
  5
A7376
330
B144A
100
AcDbEntity
  8
0
100
AcDbCircle
 10
17386.81112646557
 20
11233.15244655204
 30
0.0
 40
21.29998969548594
  0
LWPOLYLINE
  5
A7377
330
B144A
100
AcDbEntity
  8
0
100
AcDbPolyline
 90
        4
 70
     1
 43
0.0
 10
17408.11111616106
 20
11304.82416800182
 10
17412.11111616106
 20
11304.82416800182
 10
17412.11111616106
 20
10954.9578958327
 10
17408.11111616106
 20
10954.9578958327
  0
LWPOLYLINE
  5
A7381
330
B144A
100
AcDbEntity
  8
0
100
AcDbPolyline
 90
        4
 70
     1
 43
0.0
 10
17497.11111616106
 20
16480.44289643319
 10
17497.11111616106
 20
14350.44289643319
 10
17447.11111616106
 20
14350.44289643319
 10
17447.11111616106
 20
16480.44289643319
  0
LWPOLYLINE
  5
A7398
330
B144A
100
AcDbEntity
  8
0
100
AcDbPolyline
 90
        4
 70
     1
 43
0.0
 10
17408.11111616106
 20
15348.95965801528
 10
17412.11111616106
 20
15348.95965801528
 10
17412.11111616106
 20
14999.09338584616
 10
17408.11111616106
 20
14999.09338584616
  0
CIRCLE
  5
A7399
330
B144A
100
AcDbEntity
  8
0
100
AcDbCircle
 10
17386.81112646556
 20
15277.2879365655
 30
0.0
 40
21.29998969548594
  0
LWPOLYLINE
  5
A739A
330
B144A
100
AcDbEntity
  8
0
100
AcDbPolyline
 90
        4
 70
     1
 43
0.0
 10
17447.11111616106
 20
15130.44289643319
 10
17412.11111616106
 20
15130.44289643319
 10
17412.11111616106
 20
15200.44289643319
 10
17447.11111616106
 20
15200.44289643319
  0
LWPOLYLINE
  5
A73A3
330
B144A
100
AcDbEntity
  8
0
100
AcDbPolyline
 90
        4
 70
     1
 43
0.0
 10
17497.11111616104
 20
8392.171916406278
 10
17497.11111616104
 20
6262.171916406281
 10
17447.11111616104
 20
6262.171916406281
 10
17447.11111616104
 20
8392.171916406278
  0
LWPOLYLINE
  5
A73A4
330
B144A
100
AcDbEntity
  8
0
100
AcDbPolyline
 90
        4
 70
     1
 43
0.0
 10
17408.11111616104
 20
7260.688677988373
 10
17412.11111616104
 20
7260.688677988373
 10
17412.11111616104
 20
6910.822405819266
 10
17408.11111616104
 20
6910.822405819266
  0
CIRCLE
  5
A73A5
330
B144A
100
AcDbEntity
  8
0
100
AcDbCircle
 10
17386.81112646553
 20
7189.016956538598
 30
0.0
 40
21.29998969548594
  0
LWPOLYLINE
  5
A73A6
330
B144A
100
AcDbEntity
  8
0
100
AcDbPolyline
 90
        4
 70
     1
 43
0.0
 10
17447.11111616104
 20
7042.171916406282
 10
17412.11111616104
 20
7042.171916406282
 10
17412.11111616104
 20
7112.171916406281
 10
17447.11111616104
 20
7112.171916406281
  0
LWPOLYLINE
  5
A73A7
330
B144A
100
AcDbEntity
  8
0
100
AcDbPolyline
 90
        4
 70
     1
 43
0.0
 10
17497.11111616106
 20
4348.036426392835
 10
17497.11111616106
 20
2218.036426392835
 10
17447.11111616106
 20
2218.036426392835
 10
17447.11111616106
 20
4348.036426392835
  0
LWPOLYLINE
  5
A73A8
330
B144A
100
AcDbEntity
  8
0
100
AcDbPolyline
 90
        4
 70
     1
 43
0.0
 10
17447.11111616106
 20
2998.036426392835
 10
17412.11111616107
 20
2998.036426392835
 10
17412.11111616107
 20
3068.036426392835
 10
17447.11111616106
 20
3068.036426392835
  0
CIRCLE
  5
A73A9
330
B144A
100
AcDbEntity
  8
0
100
AcDbCircle
 10
17386.81112646556
 20
3144.881466525149
 30
0.0
 40
21.29998969548594
  0
LWPOLYLINE
  5
A73AA
330
B144A
100
AcDbEntity
  8
0
100
AcDbPolyline
 90
        4
 70
     1
 43
0.0
 10
17408.11111616106
 20
3216.553187974926
 10
17412.11111616107
 20
3216.553187974926
 10
17412.11111616107
 20
2866.686915805818
 10
17408.11111616106
 20
2866.686915805818
  0
LWPOLYLINE
  5
A976A
330
B144A
100
AcDbEntity
  8
0
100
AcDbPolyline
 90
        2
 70
     0
 43
0.0
 10
33278.52842564187
 20
2158.036426392835
 10
27282.11499852646
 20
2158.036426392835
  0
LWPOLYLINE
  5
A976E
330
B144A
100
AcDbEntity
  8
0
100
AcDbPolyline
 90
        4
 70
     1
 43
0.0
 10
2344.779423368484
 20
17330.57838644666
 10
2694.779423368484
 20
17330.57838644666
 10
2694.779423368484
 20
14350.57838644662
 10
2344.779423368484
 20
14350.57838644662
  0
LWPOLYLINE
  5
A976F
330
B144A
100
AcDbEntity
  8
0
100
AcDbPolyline
 90
        2
 70
     0
 43
0.0
 10
2019.779423368484
 20
14295.57838644662
 10
3019.779423368484
 20
14295.57838644662
  0
LWPOLYLINE
  5
A9770
330
B144A
100
AcDbEntity
  8
0
100
AcDbPolyline
 90
        2
 70
     0
 43
0.0
 10
649.6913253720704
 20
14295.57838644662
 10
1649.69132537207
 20
14295.57838644662
  0
LWPOLYLINE
  5
A9771
330
B144A
100
AcDbEntity
  8
0
100
AcDbPolyline
 90
        4
 70
     1
 43
0.0
 10
999.6913253720704
 20
17330.57838644666
 10
1299.69132537207
 20
17330.57838644666
 10
1299.69132537207
 20
14350.57838644662
 10
999.6913253720704
 20
14350.57838644662
  0
LWPOLYLINE
  5
A9772
330
B144A
100
AcDbEntity
  8
0
100
AcDbPolyline
 90
        4
 70
     1
 43
0.0
 10
3689.867521364905
 20
17330.57838644666
 10
4089.867521364904
 20
17330.57838644666
 10
4089.867521364904
 20
14350.57838644662
 10
3689.867521364905
 20
14350.57838644662
  0
LWPOLYLINE
  5
A9773
330
B144A
100
AcDbEntity
  8
0
100
AcDbPolyline
 90
        2
 70
     0
 43
0.0
 10
3389.867521364904
 20
14295.57838644662
 10
4389.867521364904
 20
14295.57838644662
  0
LWPOLYLINE
  5
A9774
330
B144A
100
AcDbEntity
  8
0
100
AcDbPolyline
 90
        2
 70
     0
 43
0.0
 10
4759.955619361325
 20
14295.57838644662
 10
5759.955619361324
 20
14295.57838644662
  0
LWPOLYLINE
  5
A9775
330
B144A
100
AcDbEntity
  8
0
100
AcDbPolyline
 90
        4
 70
     1
 43
0.0
 10
5034.955619361325
 20
17330.57838644666
 10
5484.955619361326
 20
17330.57838644666
 10
5484.955619361326
 20
14350.57838644662
 10
5034.955619361325
 20
14350.57838644662
  0
LWPOLYLINE
  5
A9776
330
B144A
100
AcDbEntity
  8
0
100
AcDbPolyline
 90
        4
 70
     1
 43
0.0
 10
6380.04371735774
 20
17330.57838644666
 10
6880.043717357738
 20
17330.57838644666
 10
6880.043717357738
 20
14350.57838644662
 10
6380.04371735774
 20
14350.57838644662
  0
LWPOLYLINE
  5
A9777
330
B144A
100
AcDbEntity
  8
0
100
AcDbPolyline
 90
        2
 70
     0
 43
0.0
 10
6130.04371735774
 20
14295.57838644662
 10
7130.043717357738
 20
14295.57838644662
  0
LWPOLYLINE
  5
A97BE
330
B144A
100
AcDbEntity
  8
0
100
AcDbPolyline
 90
        2
 70
     0
 43
0.0
 10
6130.04371735774
 20
10862.44289643317
 10
7130.043717357738
 20
10862.44289643317
  0
LWPOLYLINE
  5
A97BF
330
B144A
100
AcDbEntity
  8
0
100
AcDbPolyline
 90
        4
 70
     1
 43
0.0
 10
6380.04371735774
 20
13747.44289643322
 10
6880.043717357738
 20
13747.44289643322
 10
6880.043717357738
 20
10917.44289643316
 10
6380.04371735774
 20
10917.44289643316
  0
LWPOLYLINE
  5
A97C0
330
B144A
100
AcDbEntity
  8
0
100
AcDbPolyline
 90
        4
 70
     1
 43
0.0
 10
5034.955619361325
 20
13747.44289643322
 10
5484.955619361326
 20
13747.44289643322
 10
5484.955619361326
 20
10917.44289643316
 10
5034.955619361325
 20
10917.44289643316
  0
LWPOLYLINE
  5
A97C1
330
B144A
100
AcDbEntity
  8
0
100
AcDbPolyline
 90
        2
 70
     0
 43
0.0
 10
4759.955619361325
 20
10862.44289643317
 10
5759.955619361324
 20
10862.44289643317
  0
LWPOLYLINE
  5
A97C2
330
B144A
100
AcDbEntity
  8
0
100
AcDbPolyline
 90
        2
 70
     0
 43
0.0
 10
3389.867521364904
 20
10862.44289643317
 10
4389.867521364904
 20
10862.44289643317
  0
LWPOLYLINE
  5
A97C3
330
B144A
100
AcDbEntity
  8
0
100
AcDbPolyline
 90
        4
 70
     1
 43
0.0
 10
3689.867521364905
 20
13747.44289643322
 10
4089.867521364904
 20
13747.44289643322
 10
4089.867521364904
 20
10917.44289643316
 10
3689.867521364905
 20
10917.44289643316
  0
LWPOLYLINE
  5
A97C4
330
B144A
100
AcDbEntity
  8
0
100
AcDbPolyline
 90
        4
 70
     1
 43
0.0
 10
999.6913253720704
 20
13747.44289643322
 10
1299.69132537207
 20
13747.44289643322
 10
1299.69132537207
 20
10917.44289643316
 10
999.6913253720704
 20
10917.44289643316
  0
LWPOLYLINE
  5
A97C5
330
B144A
100
AcDbEntity
  8
0
100
AcDbPolyline
 90
        2
 70
     0
 43
0.0
 10
649.6913253720704
 20
10862.44289643317
 10
1649.69132537207
 20
10862.44289643317
  0
LWPOLYLINE
  5
A97C6
330
B144A
100
AcDbEntity
  8
0
100
AcDbPolyline
 90
        2
 70
     0
 43
0.0
 10
2019.779423368484
 20
10862.44289643317
 10
3019.779423368484
 20
10862.44289643317
  0
LWPOLYLINE
  5
A97C7
330
B144A
100
AcDbEntity
  8
0
100
AcDbPolyline
 90
        4
 70
     1
 43
0.0
 10
2344.779423368484
 20
13747.44289643322
 10
2694.779423368484
 20
13747.44289643322
 10
2694.779423368484
 20
10917.44289643316
 10
2344.779423368484
 20
10917.44289643316
  0
LWPOLYLINE
  5
A97C8
330
B144A
100
AcDbEntity
  8
0
100
AcDbPolyline
 90
        4
 70
     1
 43
0.0
 10
2344.779423368484
 20
10314.30740641977
 10
2694.779423368484
 20
10314.30740641977
 10
2694.779423368484
 20
7784.307406419728
 10
2344.779423368484
 20
7784.307406419728
  0
LWPOLYLINE
  5
A97C9
330
B144A
100
AcDbEntity
  8
0
100
AcDbPolyline
 90
        2
 70
     0
 43
0.0
 10
2019.779423368484
 20
7729.307406419728
 10
3019.779423368484
 20
7729.307406419728
  0
LWPOLYLINE
  5
A97CA
330
B144A
100
AcDbEntity
  8
0
100
AcDbPolyline
 90
        2
 70
     0
 43
0.0
 10
649.6913253720704
 20
7729.307406419728
 10
1649.69132537207
 20
7729.307406419728
  0
LWPOLYLINE
  5
A97CB
330
B144A
100
AcDbEntity
  8
0
100
AcDbPolyline
 90
        4
 70
     1
 43
0.0
 10
999.6913253720704
 20
10314.30740641977
 10
1299.69132537207
 20
10314.30740641977
 10
1299.69132537207
 20
7784.307406419728
 10
999.6913253720704
 20
7784.307406419728
  0
LWPOLYLINE
  5
A97CC
330
B144A
100
AcDbEntity
  8
0
100
AcDbPolyline
 90
        4
 70
     1
 43
0.0
 10
3689.867521364905
 20
10314.30740641977
 10
4089.867521364904
 20
10314.30740641977
 10
4089.867521364904
 20
7784.307406419728
 10
3689.867521364905
 20
7784.307406419728
  0
LWPOLYLINE
  5
A97CD
330
B144A
100
AcDbEntity
  8
0
100
AcDbPolyline
 90
        2
 70
     0
 43
0.0
 10
3389.867521364904
 20
7729.307406419728
 10
4389.867521364904
 20
7729.307406419728
  0
LWPOLYLINE
  5
A97CE
330
B144A
100
AcDbEntity
  8
0
100
AcDbPolyline
 90
        2
 70
     0
 43
0.0
 10
4759.955619361325
 20
7729.307406419728
 10
5759.955619361324
 20
7729.307406419728
  0
LWPOLYLINE
  5
A97CF
330
B144A
100
AcDbEntity
  8
0
100
AcDbPolyline
 90
        4
 70
     1
 43
0.0
 10
5034.955619361325
 20
10314.30740641977
 10
5484.955619361326
 20
10314.30740641977
 10
5484.955619361326
 20
7784.307406419728
 10
5034.955619361325
 20
7784.307406419728
  0
LWPOLYLINE
  5
A97D0
330
B144A
100
AcDbEntity
  8
0
100
AcDbPolyline
 90
        4
 70
     1
 43
0.0
 10
6380.04371735774
 20
10314.30740641977
 10
6880.043717357738
 20
10314.30740641977
 10
6880.043717357738
 20
7784.307406419728
 10
6380.04371735774
 20
7784.307406419728
  0
LWPOLYLINE
  5
A97D1
330
B144A
100
AcDbEntity
  8
0
100
AcDbPolyline
 90
        2
 70
     0
 43
0.0
 10
6130.04371735774
 20
7729.307406419728
 10
7130.043717357738
 20
7729.307406419728
  0
LWPOLYLINE
  5
A9818
330
B144A
100
AcDbEntity
  8
0
100
AcDbPolyline
 90
        2
 70
     0
 43
0.0
 10
6130.04371735774
 20
4896.171916406281
 10
7130.043717357738
 20
4896.171916406281
  0
LWPOLYLINE
  5
A9819
330
B144A
100
AcDbEntity
  8
0
100
AcDbPolyline
 90
        4
 70
     1
 43
0.0
 10
6380.04371735774
 20
7181.171916406325
 10
6880.043717357738
 20
7181.171916406325
 10
6880.043717357738
 20
4951.171916406281
 10
6380.04371735774
 20
4951.171916406281
  0
LWPOLYLINE
  5
A981A
330
B144A
100
AcDbEntity
  8
0
100
AcDbPolyline
 90
        4
 70
     1
 43
0.0
 10
5034.955619361325
 20
7181.171916406325
 10
5484.955619361326
 20
7181.171916406325
 10
5484.955619361326
 20
4951.171916406281
 10
5034.955619361325
 20
4951.171916406281
  0
LWPOLYLINE
  5
A981B
330
B144A
100
AcDbEntity
  8
0
100
AcDbPolyline
 90
        2
 70
     0
 43
0.0
 10
4759.955619361325
 20
4896.171916406281
 10
5759.955619361324
 20
4896.171916406281
  0
LWPOLYLINE
  5
A981C
330
B144A
100
AcDbEntity
  8
0
100
AcDbPolyline
 90
        2
 70
     0
 43
0.0
 10
3389.867521364904
 20
4896.171916406281
 10
4389.867521364904
 20
4896.171916406281
  0
LWPOLYLINE
  5
A981D
330
B144A
100
AcDbEntity
  8
0
100
AcDbPolyline
 90
        4
 70
     1
 43
0.0
 10
3689.867521364905
 20
7181.171916406325
 10
4089.867521364904
 20
7181.171916406325
 10
4089.867521364904
 20
4951.171916406281
 10
3689.867521364905
 20
4951.171916406281
  0
LWPOLYLINE
  5
A981E
330
B144A
100
AcDbEntity
  8
0
100
AcDbPolyline
 90
        4
 70
     1
 43
0.0
 10
999.6913253720704
 20
7181.171916406325
 10
1299.69132537207
 20
7181.171916406325
 10
1299.69132537207
 20
4951.171916406281
 10
999.6913253720704
 20
4951.171916406281
  0
LWPOLYLINE
  5
A981F
330
B144A
100
AcDbEntity
  8
0
100
AcDbPolyline
 90
        2
 70
     0
 43
0.0
 10
649.6913253720704
 20
4896.171916406281
 10
1649.69132537207
 20
4896.171916406281
  0
LWPOLYLINE
  5
A9820
330
B144A
100
AcDbEntity
  8
0
100
AcDbPolyline
 90
        2
 70
     0
 43
0.0
 10
2019.779423368484
 20
4896.171916406281
 10
3019.779423368484
 20
4896.171916406281
  0
LWPOLYLINE
  5
A9821
330
B144A
100
AcDbEntity
  8
0
100
AcDbPolyline
 90
        4
 70
     1
 43
0.0
 10
2344.779423368484
 20
7181.171916406325
 10
2694.779423368484
 20
7181.171916406325
 10
2694.779423368484
 20
4951.171916406281
 10
2344.779423368484
 20
4951.171916406281
  0
LWPOLYLINE
  5
A9822
330
B144A
100
AcDbEntity
  8
0
100
AcDbPolyline
 90
        4
 70
     1
 43
0.0
 10
2344.779423368484
 20
4348.036426392877
 10
2694.779423368484
 20
4348.036426392877
 10
2694.779423368484
 20
2218.036426392835
 10
2344.779423368484
 20
2218.036426392835
  0
LWPOLYLINE
  5
A9823
330
B144A
100
AcDbEntity
  8
0
100
AcDbPolyline
 90
        2
 70
     0
 43
0.0
 10
2019.779423368484
 20
2163.036426392835
 10
3019.779423368484
 20
2163.036426392835
  0
LWPOLYLINE
  5
A9824
330
B144A
100
AcDbEntity
  8
0
100
AcDbPolyline
 90
        2
 70
     0
 43
0.0
 10
649.6913253720704
 20
2163.036426392835
 10
1649.69132537207
 20
2163.036426392835
  0
LWPOLYLINE
  5
A9825
330
B144A
100
AcDbEntity
  8
0
100
AcDbPolyline
 90
        4
 70
     1
 43
0.0
 10
999.6913253720704
 20
4348.036426392877
 10
1299.69132537207
 20
4348.036426392877
 10
1299.69132537207
 20
2218.036426392835
 10
999.6913253720704
 20
2218.036426392835
  0
LWPOLYLINE
  5
A9826
330
B144A
100
AcDbEntity
  8
0
100
AcDbPolyline
 90
        4
 70
     1
 43
0.0
 10
3689.867521364905
 20
4348.036426392877
 10
4089.867521364904
 20
4348.036426392877
 10
4089.867521364904
 20
2218.036426392835
 10
3689.867521364905
 20
2218.036426392835
  0
LWPOLYLINE
  5
A9827
330
B144A
100
AcDbEntity
  8
0
100
AcDbPolyline
 90
        2
 70
     0
 43
0.0
 10
3389.867521364904
 20
2163.036426392835
 10
4389.867521364904
 20
2163.036426392835
  0
LWPOLYLINE
  5
A9828
330
B144A
100
AcDbEntity
  8
0
100
AcDbPolyline
 90
        2
 70
     0
 43
0.0
 10
4759.955619361325
 20
2163.036426392835
 10
5759.955619361324
 20
2163.036426392835
  0
LWPOLYLINE
  5
A9829
330
B144A
100
AcDbEntity
  8
0
100
AcDbPolyline
 90
        4
 70
     1
 43
0.0
 10
5034.955619361325
 20
4348.036426392877
 10
5484.955619361326
 20
4348.036426392877
 10
5484.955619361326
 20
2218.036426392835
 10
5034.955619361325
 20
2218.036426392835
  0
LWPOLYLINE
  5
A982A
330
B144A
100
AcDbEntity
  8
0
100
AcDbPolyline
 90
        4
 70
     1
 43
0.0
 10
6380.04371735774
 20
4348.036426392877
 10
6880.043717357738
 20
4348.036426392877
 10
6880.043717357738
 20
2218.036426392835
 10
6380.04371735774
 20
2218.036426392835
  0
LWPOLYLINE
  5
A982B
330
B144A
100
AcDbEntity
  8
0
100
AcDbPolyline
 90
        2
 70
     0
 43
0.0
 10
6130.04371735774
 20
2163.036426392835
 10
7130.043717357738
 20
2163.036426392835
  0
LWPOLYLINE
  5
A98A4
330
B144A
100
AcDbEntity
  8
0
100
AcDbPolyline
 90
        4
 70
     1
 43
0.0
 10
0.0
 20
17955.95716581255
 10
16000.0
 20
17955.95716581255
 10
16000.0
 20
1537.657647026935
 10
0.0
 20
1537.657647026935
  0
LWPOLYLINE
  5
A98A5
330
B144A
100
AcDbEntity
  8
0
100
AcDbPolyline
 90
        4
 70
     1
 43
0.0
 10
16550.0
 20
1537.657647026935
 10
25825.89773943182
 20
1537.657647026935
 10
25825.89773943182
 20
17955.95716581255
 10
16550.0
 20
17955.95716581255
  0
LWPOLYLINE
  5
A98A6
330
B144A
100
AcDbEntity
  8
0
100
AcDbPolyline
 90
        4
 70
     1
 43
0.0
 10
26375.89773943182
 20
1537.657647026935
 10
34375.89773943181
 20
1537.657647026935
 10
34375.89773943181
 20
10251.30740641974
 10
26375.89773943182
 20
10251.30740641974
  0
LWPOLYLINE
  5
A98D6
330
B144A
100
AcDbEntity
  8
0
100
AcDbPolyline
 90
        4
 70
     1
 43
0.0
 10
16550.0
 20
1537.657647026935
 10
25825.89773943182
 20
1537.657647026935
 10
25825.89773943182
 20
1837.657647026935
 10
16550.0
 20
1837.657647026935
  0
LWPOLYLINE
  5
A98D7
330
B144A
100
AcDbEntity
  8
0
100
AcDbPolyline
 90
        4
 70
     1
 43
0.0
 10
26375.89773943182
 20
1537.657647026935
 10
34375.89773943181
 20
1537.657647026935
 10
34375.89773943181
 20
1837.657647026935
 10
26375.89773943182
 20
1837.657647026935
  0
LWPOLYLINE
  5
A9926
330
B144A
100
AcDbEntity
  8
0
100
AcDbPolyline
 90
        4
 70
     1
 43
0.0
 10
-0.000000000007276
 20
1537.657647026935
 10
16000.0
 20
1537.657647026935
 10
16000.0
 20
1837.657647026935
 10
-0.000000000007276
 20
1837.657647026935
  0
TEXT
  5
A9927
330
B144A
100
AcDbEntity
  8
0
100
AcDbText
 10
3173.906836621409
 20
432.2479967307316
 30
0.0
 40
125.0
  1
Questo disegno è di proprietà di Fantin S.r.l.   
  7
STILE1
 72
     1
 11
5596.525884240456
 21
432.2479967307316
 31
0.0
100
AcDbText
  0
TEXT
  5
A9928
330
B144A
100
AcDbEntity
  8
0
100
AcDbText
 10
3725.328514243444
 20
778.7322304035333
 30
0.0
 40
125.0
  1
Jordan
  7
STILE1
 72
     1
 11
4032.062145195825
 21
778.7322304035333
 31
0.0
100
AcDbText
  0
LWPOLYLINE
  5
A9929
330
B144A
100
AcDbEntity
  8
0
  6
Continuous
100
AcDbPolyline
 90
       15
 70
     0
 43
0.0
 10
2006.841552732512
 20
299.9999999999997
 10
2006.841552732512
 20
687.661092123016
 10
2108.191094296053
 20
687.661092123016
 42
-0.316444976687396
 10
2159.138888884337
 20
659.4164767791514
 10
2259.932047529146
 20
489.3975694442633
 10
2262.700181747787
 20
489.3975694442633
 10
2262.700181747787
 20
687.661092123016
 10
2375.123982746154
 20
687.661092123016
 10
2375.123982746154
 20
299.9999999999997
 10
2292.601888021454
 20
299.9999999999997
 42
-0.312959769389874
 10
2241.654093428515
 20
328.2428927952421
 10
2122.033487958833
 20
521.5196397574612
 10
2119.268798828125
 20
521.5196397574612
 10
2119.268798828125
 20
299.9999999999997
 10
2006.841552732512
 20
299.9999999999997
  0
LWPOLYLINE
  5
A992A
330
B144A
100
AcDbEntity
  8
0
  6
Continuous
100
AcDbPolyline
 90
       15
 70
     0
 43
0.0
 10
1030.479098847136
 20
299.9999999999997
 10
1030.479098847136
 20
687.661092123016
 10
1131.828640410675
 20
687.661092123016
 42
-0.316444976687396
 10
1182.776435003616
 20
659.4164767791514
 10
1283.569593643768
 20
489.3975694442633
 10
1286.337727867066
 20
489.3975694442633
 10
1286.337727867066
 20
687.661092123016
 10
1398.761528860777
 20
687.661092123016
 10
1398.761528860777
 20
299.9999999999997
 10
1316.239434136078
 20
299.9999999999997
 42
-0.312959769389874
 10
1265.29163953848
 20
328.2428927952421
 10
1145.671034073457
 20
521.5196397574612
 10
1142.906344942748
 20
521.5196397574612
 10
1142.906344942748
 20
299.9999999999997
 10
1030.479098847136
 20
299.9999999999997
  0
LWPOLYLINE
  5
A992B
330
B144A
100
AcDbEntity
  8
0
  6
Continuous
100
AcDbPolyline
 90
        9
 70
     0
 43
0.0
 10
1783.103271485306
 20
687.6593695743937
 10
1783.103271485306
 20
596.8363172747192
 10
1666.80718316231
 20
596.8363172747192
 10
1666.80718316231
 20
299.9999999999997
 10
1547.737792972475
 20
299.9999999999997
 10
1547.737792972475
 20
596.8363172747192
 10
1434.204671224579
 20
596.8363172747192
 10
1434.204671224579
 20
687.6593695743937
 10
1783.103271485306
 20
687.6593695743937
  0
LWPOLYLINE
  5
A992C
330
B144A
100
AcDbEntity
  8
0
  6
Continuous
100
AcDbPolyline
 90
        4
 70
     1
 43
0.0
 10
1820.206949869171
 20
687.6593695743937
 10
1939.276340059005
 20
687.6593695743937
 10
1939.276340059005
 20
299.9999999999997
 10
1820.206949869171
 20
299.9999999999997
  0
LWPOLYLINE
  5
A992D
330
B144A
100
AcDbEntity
  8
0
  6
Continuous
100
AcDbPolyline
 90
       11
 70
     0
 43
0.0
 10
605.1458875834936
 20
687.6576470269353
 10
605.1458875834936
 20
598.4968532994384
 10
419.0693901898336
 20
598.4968532994384
 10
419.0693901898336
 20
521.52136230492
 10
549.2130398191512
 20
521.52136230492
 10
549.2130398191512
 20
438.4480523003727
 10
419.0693901898336
 20
438.4480523003727
 10
419.0693901898336
 20
299.9999999999997
 10
300.0
 20
299.9999999999997
 10
300.0
 20
687.6576470269353
 10
605.1458875834936
 20
687.6576470269353
  0
LWPOLYLINE
  5
A992E
330
B144A
100
AcDbEntity
  8
0
  6
Continuous
100
AcDbPolyline
 90
        5
 70
     0
 43
0.0
 10
791.2309977225952
 20
580.7787272136192
 10
824.458943684584
 20
466.6909450956151
 10
751.9104003906241
 20
466.6909450956151
 10
785.13834635727
 20
580.7787272136192
 10
791.2309977225952
 20
580.7787272136192
  0
LWPOLYLINE
  5
A992F
330
B144A
100
AcDbEntity
  8
0
  6
Continuous
100
AcDbPolyline
 90
       16
 70
     1
 43
0.0
 10
847.7226611692438
 20
383.6228027346076
 10
847.7226611692438
 20
383.6228027346076
 10
872.0839436817907
 20
299.9999999999997
 10
997.8006456140432
 20
299.9999999999997
 10
880.3917914489284
 20
652.7743326826017
 42
0.1089385125692126
 10
867.6499316329131
 20
680.4454704024826
 42
0.1589313772246072
 10
855.6541064428161
 20
687.7303423592817
 42
0.058673645385263
 10
839.4089355459447
 20
689.3216281465718
 10
839.4089355459447
 20
689.3216281465718
 10
744.1606580931694
 20
689.3216281465718
 42
0.058673645385263
 10
727.9154871962947
 20
687.7303423592817
 42
0.1589313772246072
 10
715.9196620061985
 20
680.4454704024826
 42
0.1089385125692126
 10
703.1778021901849
 20
652.7743326826017
 10
585.768948029726
 20
299.9999999999997
 10
704.8348931223154
 20
299.9999999999997
 10
728.6473931185901
 20
383.6228027346076
  0
TEXT
  5
A9930
330
B144A
100
AcDbEntity
  8
0
100
AcDbText
 10
3484.840736835664
 20
170.1637904425171
 30
0.0
 40
125.0
  1
This drawing is property of Fantin S.r.l. 
  7
STILE1
 72
     1
 11
5499.721689216617
 21
170.1637904425171
 31
0.0
100
AcDbText
  0
LWPOLYLINE
  5
A9931
330
B144A
100
AcDbEntity
  8
0
100
AcDbPolyline
 90
        2
 70
     0
 43
0.0
 10
2675.123982746154
 20
687.661092123016
 10
8025.371948238463
 20
687.6610921230168
  0
LWPOLYLINE
  5
A9932
330
B144A
100
AcDbEntity
  8
0
100
AcDbPolyline
 90
        4
 70
     1
 43
0.0
 10
0.0
 20
987.6576470269353
 10
8025.371948238463
 20
987.6576470269353
 10
8025.371948238463
 20
0.0
 10
0.0
 20
0.0
  0
LINE
  5
A9933
330
B144A
100
AcDbEntity
  8
0
100
AcDbLine
 10
2675.123982746154
 20
987.6576470269353
 30
0.0
 11
2675.123982746154
 21
0.0
 31
0.0
  0
LINE
  5
A9934
330
B144A
100
AcDbEntity
  8
0
100
AcDbLine
 10
5350.247965492308
 20
687.661092123016
 30
0.0
 11
5350.247965492308
 21
987.6576470269353
 31
0.0
  0
TEXT
  5
A9935
330
B144A
100
AcDbEntity
  8
0
100
AcDbText
 10
6252.7084966879
 20
778.7322304035333
 30
0.0
 40
125.0
  1
2024-06
  7
STILE1
 72
     1
 11
6687.604330021233
 21
778.7322304035333
 31
0.0
100
AcDbText
  0
LINE
  5
A9936
330
B144A
100
AcDbEntity
  8
0
100
AcDbLine
 10
8025.371948238463
 20
987.6576470269353
 30
0.0
 11
8025.371948238463
 21
0.0
 31
0.0
  0
TEXT
  5
A9944
330
B144A
100
AcDbEntity
  8
0
100
AcDbText
 10
639.9104241626874
 20
1635.467425269804
 30
0.0
 40
125.0
  1
Static modules / Moduli fissi / Feste Module
  7
STILE1
 72
     1
 11
2899.304025353164
 21
1635.467425269804
 31
0.0
100
AcDbText
  0
TEXT
  5
A9945
330
B144A
100
AcDbEntity
  8
0
100
AcDbText
 10
8869.377825356363
 20
1635.467425269804
 30
0.0
 40
125.0
  1
Sliding modules / Moduli mobili / Bewegliche Module
  7
STILE1
 72
     1
 11
11509.72380749922
 21
1635.467425269804
 31
0.0
100
AcDbText
  0
TEXT
  5
A9946
330
B144A
100
AcDbEntity
  8
0
100
AcDbText
 10
16745.50794347793
 20
1635.467425269804
 30
0.0
 40
125.0
  1
Modular Combinations / Componibilità moduli / Zusammensetzbarkeit Module
  7
STILE1
 72
     1
 11
20567.02952085888
 21
1635.467425269804
 31
0.0
100
AcDbText
  0
TEXT
  5
A9947
330
B144A
100
AcDbEntity
  8
0
100
AcDbText
 10
26595.21520671927
 20
1635.467425269804
 30
0.0
 40
125.0
  1
Examples of compositions / Esempi di composizioni / Kompositionsbeispiele
  7
STILE1
 72
     1
 11
30392.9272602907
 21
1635.467425269804
 31
0.0
100
AcDbText
  0
LINE
  5
AAA5A
330
B144A
100
AcDbEntity
  8
0
100
AcDbLine
 10
22732.69473631098
 20
14295.44289643319
 30
0.0
 11
17223.39205753694
 21
14295.44289643319
 31
0.0
  0
LWPOLYLINE
  5
AAB8E
330
B144A
100
AcDbEntity
  8
0
100
AcDbPolyline
 90
        4
 70
     1
 43
0.0
 10
20408.11111616106
 20
3216.553187974926
 10
20412.11111616107
 20
3216.553187974926
 10
20412.11111616107
 20
2866.686915805818
 10
20408.11111616106
 20
2866.686915805818
  0
CIRCLE
  5
AAB8F
330
B144A
100
AcDbEntity
  8
0
100
AcDbCircle
 10
20386.81112646556
 20
3144.881466525149
 30
0.0
 40
21.29998969548594
  0
LWPOLYLINE
  5
AAB90
330
B144A
100
AcDbEntity
  8
0
100
AcDbPolyline
 90
        4
 70
     1
 43
0.0
 10
20447.11111616106
 20
2998.036426392835
 10
20412.11111616107
 20
2998.036426392835
 10
20412.11111616107
 20
3068.036426392835
 10
20447.11111616106
 20
3068.036426392835
  0
LWPOLYLINE
  5
AAB91
330
B144A
100
AcDbEntity
  8
0
100
AcDbPolyline
 90
        4
 70
     1
 43
0.0
 10
20497.11111616106
 20
4748.036426392835
 10
20497.11111616106
 20
2218.036426392835
 10
20447.11111616106
 20
2218.036426392835
 10
20447.11111616106
 20
4748.036426392835
  0
LWPOLYLINE
  5
AAB92
330
B144A
100
AcDbEntity
  8
0
100
AcDbPolyline
 90
        4
 70
     1
 43
0.0
 10
20447.11111616104
 20
7042.171916406282
 10
20412.11111616104
 20
7042.171916406282
 10
20412.11111616104
 20
7112.171916406281
 10
20447.11111616104
 20
7112.171916406281
  0
CIRCLE
  5
AAB93
330
B144A
100
AcDbEntity
  8
0
100
AcDbCircle
 10
20386.81112646553
 20
7189.016956538598
 30
0.0
 40
21.29998969548594
  0
LWPOLYLINE
  5
AAB94
330
B144A
100
AcDbEntity
  8
0
100
AcDbPolyline
 90
        4
 70
     1
 43
0.0
 10
20408.11111616104
 20
7260.688677988373
 10
20412.11111616104
 20
7260.688677988373
 10
20412.11111616104
 20
6910.822405819266
 10
20408.11111616104
 20
6910.822405819266
  0
LWPOLYLINE
  5
AAB95
330
B144A
100
AcDbEntity
  8
0
100
AcDbPolyline
 90
        4
 70
     1
 43
0.0
 10
20497.11111616104
 20
8792.171916406282
 10
20497.11111616104
 20
6262.171916406281
 10
20447.11111616104
 20
6262.171916406281
 10
20447.11111616104
 20
8792.171916406282
  0
LWPOLYLINE
  5
AAB96
330
B144A
100
AcDbEntity
  8
0
100
AcDbPolyline
 90
        4
 70
     1
 43
0.0
 10
20447.11111616106
 20
15130.44289643319
 10
20412.11111616106
 20
15130.44289643319
 10
20412.11111616106
 20
15200.44289643319
 10
20447.11111616106
 20
15200.44289643319
  0
CIRCLE
  5
AAB97
330
B144A
100
AcDbEntity
  8
0
100
AcDbCircle
 10
20386.81112646556
 20
15277.2879365655
 30
0.0
 40
21.29998969548594
  0
LWPOLYLINE
  5
AAB98
330
B144A
100
AcDbEntity
  8
0
100
AcDbPolyline
 90
        4
 70
     1
 43
0.0
 10
20408.11111616106
 20
15348.95965801528
 10
20412.11111616106
 20
15348.95965801528
 10
20412.11111616106
 20
14999.09338584616
 10
20408.11111616106
 20
14999.09338584616
  0
LWPOLYLINE
  5
AAB99
330
B144A
100
AcDbEntity
  8
0
100
AcDbPolyline
 90
        4
 70
     1
 43
0.0
 10
20497.11111616106
 20
16880.44289643319
 10
20497.11111616106
 20
14350.44289643319
 10
20447.11111616106
 20
14350.44289643319
 10
20447.11111616106
 20
16880.44289643319
  0
LWPOLYLINE
  5
AAB9A
330
B144A
100
AcDbEntity
  8
0
100
AcDbPolyline
 90
        4
 70
     1
 43
0.0
 10
20408.11111616106
 20
11304.82416800182
 10
20412.11111616106
 20
11304.82416800182
 10
20412.11111616106
 20
10954.9578958327
 10
20408.11111616106
 20
10954.9578958327
  0
CIRCLE
  5
AAB9B
330
B144A
100
AcDbEntity
  8
0
100
AcDbCircle
 10
20386.81112646557
 20
11233.15244655204
 30
0.0
 40
21.29998969548594
  0
LWPOLYLINE
  5
AAB9C
330
B144A
100
AcDbEntity
  8
0
100
AcDbPolyline
 90
        4
 70
     1
 43
0.0
 10
20447.11111616106
 20
11086.30740641973
 10
20412.11111616106
 20
11086.30740641973
 10
20412.11111616106
 20
11156.30740641973
 10
20447.11111616106
 20
11156.30740641973
  0
LWPOLYLINE
  5
AAB9D
330
B144A
100
AcDbEntity
  8
0
100
AcDbPolyline
 90
        4
 70
     1
 43
0.0
 10
20497.11111616106
 20
12836.30740641974
 10
20497.11111616106
 20
10306.30740641973
 10
20447.11111616106
 20
10306.30740641973
 10
20447.11111616106
 20
12836.30740641974
  0
LWPOLYLINE
  5
AAB9E
330
B144A
100
AcDbEntity
  8
0
100
AcDbPolyline
 90
        4
 70
     1
 43
0.0
 10
20527.1111161613
 20
12301.30740641974
 10
20527.1111161613
 20
12327.30740641974
 10
21497.1111161613
 20
12327.30740641974
 10
21497.1111161613
 20
12301.30740641974
  0
LWPOLYLINE
  5
AAB9F
330
B144A
100
AcDbEntity
  8
0
100
AcDbPolyline
 90
        4
 70
     1
 43
0.0
 10
22497.1111161613
 20
12327.30740641974
 10
22497.1111161613
 20
12301.30740641974
 10
21527.1111161613
 20
12301.30740641974
 10
21527.1111161613
 20
12327.30740641974
  0
LWPOLYLINE
  5
AABA0
330
B144A
100
AcDbEntity
  8
0
100
AcDbPolyline
 90
        4
 70
     1
 43
0.0
 10
20527.1111161613
 20
12051.30740641974
 10
20527.1111161613
 20
12077.30740641974
 10
21497.1111161613
 20
12077.30740641974
 10
21497.1111161613
 20
12051.30740641974
  0
LWPOLYLINE
  5
AABA1
330
B144A
100
AcDbEntity
  8
0
100
AcDbPolyline
 90
        4
 70
     1
 43
0.0
 10
22497.1111161613
 20
12077.30740641974
 10
22497.1111161613
 20
12051.30740641974
 10
21527.1111161613
 20
12051.30740641974
 10
21527.1111161613
 20
12077.30740641974
  0
LWPOLYLINE
  5
AABA2
330
B144A
100
AcDbEntity
  8
0
100
AcDbPolyline
 90
        4
 70
     1
 43
0.0
 10
20527.1111161613
 20
11801.30740641974
 10
20527.1111161613
 20
11827.30740641974
 10
21497.1111161613
 20
11827.30740641974
 10
21497.1111161613
 20
11801.30740641974
  0
LWPOLYLINE
  5
AABA3
330
B144A
100
AcDbEntity
  8
0
100
AcDbPolyline
 90
        4
 70
     1
 43
0.0
 10
22497.1111161613
 20
11827.30740641974
 10
22497.1111161613
 20
11801.30740641974
 10
21527.1111161613
 20
11801.30740641974
 10
21527.1111161613
 20
11827.30740641974
  0
LWPOLYLINE
  5
AABA4
330
B144A
100
AcDbEntity
  8
0
100
AcDbPolyline
 90
        4
 70
     1
 43
0.0
 10
22024.61111616106
 20
10281.30740641973
 10
22024.61111616106
 20
10256.30740641973
 10
21999.61111616106
 20
10256.30740641973
 10
21999.61111616106
 20
10281.30740641973
  0
LWPOLYLINE
  5
AABA5
330
B144A
100
AcDbEntity
  8
0
100
AcDbPolyline
 90
        4
 70
     1
 43
0.0
 10
22034.61111616106
 20
10306.30740641973
 10
22034.61111616106
 20
10281.30740641973
 10
21989.61111616106
 20
10281.30740641973
 10
21989.61111616106
 20
10306.30740641973
  0
LINE
  5
AABA6
330
B144A
100
AcDbEntity
  8
0
100
AcDbLine
 10
21989.61111616106
 20
10306.30740641973
 30
0.0
 11
21989.61111616106
 21
10281.30740641973
 31
0.0
  0
LINE
  5
AABA7
330
B144A
100
AcDbEntity
  8
0
100
AcDbLine
 10
21989.61111616106
 20
10306.30740641973
 30
0.0
 11
21989.61111616106
 21
10281.30740641973
 31
0.0
  0
LINE
  5
AABA8
330
B144A
100
AcDbEntity
  8
0
100
AcDbLine
 10
21999.61111616106
 20
10281.30740641973
 30
0.0
 11
21999.61111616106
 21
10256.30740641973
 31
0.0
  0
LINE
  5
AABA9
330
B144A
100
AcDbEntity
  8
0
100
AcDbLine
 10
21999.61111616106
 20
10281.30740641973
 30
0.0
 11
21999.61111616106
 21
10256.30740641973
 31
0.0
  0
LINE
  5
AABAA
330
B144A
100
AcDbEntity
  8
0
100
AcDbLine
 10
22034.61111616106
 20
10281.30740641973
 30
0.0
 11
21989.61111616106
 21
10281.30740641973
 31
0.0
  0
LINE
  5
AABAB
330
B144A
100
AcDbEntity
  8
0
100
AcDbLine
 10
22034.61111616106
 20
10281.30740641973
 30
0.0
 11
21989.61111616106
 21
10281.30740641973
 31
0.0
  0
LINE
  5
AABAC
330
B144A
100
AcDbEntity
  8
0
100
AcDbLine
 10
21999.61111616106
 20
10281.30740641973
 30
0.0
 11
21999.61111616106
 21
10256.30740641973
 31
0.0
  0
LINE
  5
AABAD
330
B144A
100
AcDbEntity
  8
0
100
AcDbLine
 10
21999.61111616106
 20
10281.30740641973
 30
0.0
 11
21999.61111616106
 21
10256.30740641973
 31
0.0
  0
LINE
  5
AABAE
330
B144A
100
AcDbEntity
  8
0
100
AcDbLine
 10
22034.61111616106
 20
10281.30740641973
 30
0.0
 11
21989.61111616106
 21
10281.30740641973
 31
0.0
  0
LINE
  5
AABAF
330
B144A
100
AcDbEntity
  8
0
100
AcDbLine
 10
22034.61111616106
 20
10281.30740641973
 30
0.0
 11
21989.61111616106
 21
10281.30740641973
 31
0.0
  0
LINE
  5
AABB0
330
B144A
100
AcDbEntity
  8
0
100
AcDbLine
 10
21989.61111616106
 20
10306.30740641973
 30
0.0
 11
21989.61111616106
 21
10281.30740641973
 31
0.0
  0
LINE
  5
AABB1
330
B144A
100
AcDbEntity
  8
0
100
AcDbLine
 10
21989.61111616106
 20
10306.30740641973
 30
0.0
 11
21989.61111616106
 21
10281.30740641973
 31
0.0
  0
LWPOLYLINE
  5
AABB2
330
B144A
100
AcDbEntity
  8
0
100
AcDbPolyline
 90
        4
 70
     1
 43
0.0
 10
21024.61111616106
 20
10281.30740641973
 10
21024.61111616106
 20
10256.30740641973
 10
20999.61111616106
 20
10256.30740641973
 10
20999.61111616106
 20
10281.30740641973
  0
LWPOLYLINE
  5
AABB3
330
B144A
100
AcDbEntity
  8
0
100
AcDbPolyline
 90
        4
 70
     1
 43
0.0
 10
21034.61111616106
 20
10306.30740641973
 10
21034.61111616106
 20
10281.30740641973
 10
20989.61111616106
 20
10281.30740641973
 10
20989.61111616106
 20
10306.30740641973
  0
LINE
  5
AABB4
330
B144A
100
AcDbEntity
  8
0
100
AcDbLine
 10
20989.61111616106
 20
10306.30740641973
 30
0.0
 11
20989.61111616106
 21
10281.30740641973
 31
0.0
  0
LINE
  5
AABB5
330
B144A
100
AcDbEntity
  8
0
100
AcDbLine
 10
20989.61111616106
 20
10306.30740641973
 30
0.0
 11
20989.61111616106
 21
10281.30740641973
 31
0.0
  0
LINE
  5
AABB6
330
B144A
100
AcDbEntity
  8
0
100
AcDbLine
 10
20999.61111616106
 20
10281.30740641973
 30
0.0
 11
20999.61111616106
 21
10256.30740641973
 31
0.0
  0
LINE
  5
AABB7
330
B144A
100
AcDbEntity
  8
0
100
AcDbLine
 10
20999.61111616106
 20
10281.30740641973
 30
0.0
 11
20999.61111616106
 21
10256.30740641973
 31
0.0
  0
LINE
  5
AABB8
330
B144A
100
AcDbEntity
  8
0
100
AcDbLine
 10
21034.61111616106
 20
10281.30740641973
 30
0.0
 11
20989.61111616106
 21
10281.30740641973
 31
0.0
  0
LINE
  5
AABB9
330
B144A
100
AcDbEntity
  8
0
100
AcDbLine
 10
21034.61111616106
 20
10281.30740641973
 30
0.0
 11
20989.61111616106
 21
10281.30740641973
 31
0.0
  0
LINE
  5
AABBA
330
B144A
100
AcDbEntity
  8
0
100
AcDbLine
 10
20999.61111616106
 20
10281.30740641973
 30
0.0
 11
20999.61111616106
 21
10256.30740641973
 31
0.0
  0
LINE
  5
AABBB
330
B144A
100
AcDbEntity
  8
0
100
AcDbLine
 10
20999.61111616106
 20
10281.30740641973
 30
0.0
 11
20999.61111616106
 21
10256.30740641973
 31
0.0
  0
LINE
  5
AABBC
330
B144A
100
AcDbEntity
  8
0
100
AcDbLine
 10
21034.61111616106
 20
10281.30740641973
 30
0.0
 11
20989.61111616106
 21
10281.30740641973
 31
0.0
  0
LINE
  5
AABBD
330
B144A
100
AcDbEntity
  8
0
100
AcDbLine
 10
21034.61111616106
 20
10281.30740641973
 30
0.0
 11
20989.61111616106
 21
10281.30740641973
 31
0.0
  0
LINE
  5
AABBE
330
B144A
100
AcDbEntity
  8
0
100
AcDbLine
 10
20989.61111616106
 20
10306.30740641973
 30
0.0
 11
20989.61111616106
 21
10281.30740641973
 31
0.0
  0
LINE
  5
AABBF
330
B144A
100
AcDbEntity
  8
0
100
AcDbLine
 10
20989.61111616106
 20
10306.30740641973
 30
0.0
 11
20989.61111616106
 21
10281.30740641973
 31
0.0
  0
LINE
  5
AABC0
330
B144A
100
AcDbEntity
  8
0
100
AcDbLine
 10
21989.61111616106
 20
10306.30740641973
 30
0.0
 11
21989.61111616106
 21
10281.30740641973
 31
0.0
  0
LINE
  5
AABC1
330
B144A
100
AcDbEntity
  8
0
100
AcDbLine
 10
21989.61111616106
 20
10306.30740641973
 30
0.0
 11
21989.61111616106
 21
10281.30740641973
 31
0.0
  0
LINE
  5
AABC2
330
B144A
100
AcDbEntity
  8
0
100
AcDbLine
 10
21999.61111616106
 20
10281.30740641973
 30
0.0
 11
21999.61111616106
 21
10256.30740641973
 31
0.0
  0
LINE
  5
AABC3
330
B144A
100
AcDbEntity
  8
0
100
AcDbLine
 10
21999.61111616106
 20
10281.30740641973
 30
0.0
 11
21999.61111616106
 21
10256.30740641973
 31
0.0
  0
LINE
  5
AABC4
330
B144A
100
AcDbEntity
  8
0
100
AcDbLine
 10
22034.61111616106
 20
10281.30740641973
 30
0.0
 11
21989.61111616106
 21
10281.30740641973
 31
0.0
  0
LINE
  5
AABC5
330
B144A
100
AcDbEntity
  8
0
100
AcDbLine
 10
22034.61111616106
 20
10281.30740641973
 30
0.0
 11
21989.61111616106
 21
10281.30740641973
 31
0.0
  0
LINE
  5
AABC6
330
B144A
100
AcDbEntity
  8
0
100
AcDbLine
 10
21999.61111616106
 20
10281.30740641973
 30
0.0
 11
21999.61111616106
 21
10256.30740641973
 31
0.0
  0
LINE
  5
AABC7
330
B144A
100
AcDbEntity
  8
0
100
AcDbLine
 10
21999.61111616106
 20
10281.30740641973
 30
0.0
 11
21999.61111616106
 21
10256.30740641973
 31
0.0
  0
LINE
  5
AABC8
330
B144A
100
AcDbEntity
  8
0
100
AcDbLine
 10
22034.61111616106
 20
10281.30740641973
 30
0.0
 11
21989.61111616106
 21
10281.30740641973
 31
0.0
  0
LINE
  5
AABC9
330
B144A
100
AcDbEntity
  8
0
100
AcDbLine
 10
22034.61111616106
 20
10281.30740641973
 30
0.0
 11
21989.61111616106
 21
10281.30740641973
 31
0.0
  0
LINE
  5
AABCA
330
B144A
100
AcDbEntity
  8
0
100
AcDbLine
 10
21989.61111616106
 20
10306.30740641973
 30
0.0
 11
21989.61111616106
 21
10281.30740641973
 31
0.0
  0
LINE
  5
AABCB
330
B144A
100
AcDbEntity
  8
0
100
AcDbLine
 10
21989.61111616106
 20
10306.30740641973
 30
0.0
 11
21989.61111616106
 21
10281.30740641973
 31
0.0
  0
LWPOLYLINE
  5
AABCC
330
B144A
100
AcDbEntity
  8
0
100
AcDbPolyline
 90
        8
 70
     1
 43
0.0
 10
22429.61111616106
 20
12856.30740641977
 10
22429.61111616106
 20
12878.80740641977
 42
-1.0
 10
22384.61111616106
 20
12878.80740641977
 10
22384.61111616106
 20
12856.30740641974
 10
22367.11111616106
 20
12856.30740641977
 10
22357.11111616106
 20
12846.30740641974
 10
22457.11111616106
 20
12846.30740641974
 10
22447.11111616106
 20
12856.30740641977
  0
LWPOLYLINE
  5
AABCD
330
B144A
100
AcDbEntity
  8
0
100
AcDbPolyline
 90
        4
 70
     1
 43
0.0
 10
20527.1111161613
 20
11551.30740641974
 10
20527.1111161613
 20
11577.30740641974
 10
21497.1111161613
 20
11577.30740641974
 10
21497.1111161613
 20
11551.30740641974
  0
LWPOLYLINE
  5
AABCE
330
B144A
100
AcDbEntity
  8
0
100
AcDbPolyline
 90
        4
 70
     1
 43
0.0
 10
22497.1111161613
 20
11577.30740641974
 10
22497.1111161613
 20
11551.30740641974
 10
21527.1111161613
 20
11551.30740641974
 10
21527.1111161613
 20
11577.30740641974
  0
LWPOLYLINE
  5
AABCF
330
B144A
100
AcDbEntity
  8
0
100
AcDbPolyline
 90
        4
 70
     1
 43
0.0
 10
20527.1111161613
 20
11301.30740641974
 10
20527.1111161613
 20
11327.30740641974
 10
21497.1111161613
 20
11327.30740641974
 10
21497.1111161613
 20
11301.30740641974
  0
LWPOLYLINE
  5
AABD0
330
B144A
100
AcDbEntity
  8
0
100
AcDbPolyline
 90
        4
 70
     1
 43
0.0
 10
22497.1111161613
 20
11327.30740641974
 10
22497.1111161613
 20
11301.30740641974
 10
21527.1111161613
 20
11301.30740641974
 10
21527.1111161613
 20
11327.30740641974
  0
LWPOLYLINE
  5
AABD1
330
B144A
100
AcDbEntity
  8
0
100
AcDbPolyline
 90
        4
 70
     1
 43
0.0
 10
20527.1111161613
 20
11051.30740641974
 10
20527.1111161613
 20
11077.30740641974
 10
21497.1111161613
 20
11077.30740641974
 10
21497.1111161613
 20
11051.30740641974
  0
LWPOLYLINE
  5
AABD2
330
B144A
100
AcDbEntity
  8
0
100
AcDbPolyline
 90
        4
 70
     1
 43
0.0
 10
22497.1111161613
 20
11077.30740641974
 10
22497.1111161613
 20
11051.30740641974
 10
21527.1111161613
 20
11051.30740641974
 10
21527.1111161613
 20
11077.30740641974
  0
LWPOLYLINE
  5
AABD3
330
B144A
100
AcDbEntity
  8
0
100
AcDbPolyline
 90
        4
 70
     1
 43
0.0
 10
20527.1111161613
 20
10801.30740641974
 10
20527.1111161613
 20
10827.30740641974
 10
21497.1111161613
 20
10827.30740641974
 10
21497.1111161613
 20
10801.30740641974
  0
LWPOLYLINE
  5
AABD4
330
B144A
100
AcDbEntity
  8
0
100
AcDbPolyline
 90
        4
 70
     1
 43
0.0
 10
22497.1111161613
 20
10827.30740641974
 10
22497.1111161613
 20
10801.30740641974
 10
21527.1111161613
 20
10801.30740641974
 10
21527.1111161613
 20
10827.30740641974
  0
LWPOLYLINE
  5
AABD5
330
B144A
100
AcDbEntity
  8
0
100
AcDbPolyline
 90
        4
 70
     1
 43
0.0
 10
22497.11111616106
 20
10427.30740641973
 10
22497.11111616106
 20
10401.30740641973
 10
21527.11111616106
 20
10401.30740641973
 10
21527.11111616106
 20
10427.30740641973
  0
LWPOLYLINE
  5
AABD6
330
B144A
100
AcDbEntity
  8
0
100
AcDbPolyline
 90
        4
 70
     1
 43
0.0
 10
21497.11111616106
 20
10401.30740641973
 10
21497.11111616106
 20
12801.30740641974
 10
21527.11111616106
 20
12801.30740641974
 10
21527.11111616106
 20
10401.30740641973
  0
LWPOLYLINE
  5
AABD7
330
B144A
100
AcDbEntity
  8
0
100
AcDbPolyline
 90
        4
 70
     1
 43
0.0
 10
20527.11111616106
 20
10401.30740641973
 10
20527.11111616106
 20
10427.30740641973
 10
21497.11111616106
 20
10427.30740641973
 10
21497.11111616106
 20
10401.30740641973
  0
LWPOLYLINE
  5
AABD8
330
B144A
100
AcDbEntity
  8
0
100
AcDbPolyline
 90
        4
 70
     1
 43
0.0
 10
22497.11111616119
 20
10306.30740641973
 10
22497.11111616119
 20
10401.30740642002
 10
20527.11111616081
 20
10401.30740642002
 10
20527.11111616081
 20
10306.30740641973
  0
LWPOLYLINE
  5
AABD9
330
B144A
100
AcDbEntity
  8
0
100
AcDbPolyline
 90
        4
 70
     1
 43
0.0
 10
22527.11111616106
 20
12836.30740641974
 10
22527.11111616106
 20
10306.30740641973
 10
22497.11111616119
 20
10306.30740641973
 10
22497.11111616119
 20
12836.30740641974
  0
LWPOLYLINE
  5
AABDA
330
B144A
100
AcDbEntity
  8
0
100
AcDbPolyline
 90
        4
 70
     1
 43
0.0
 10
20527.11111616106
 20
12836.30740641974
 10
20527.11111616106
 20
10306.30740641973
 10
20497.11111616106
 20
10306.30740641973
 10
20497.11111616106
 20
12836.30740641974
  0
LWPOLYLINE
  5
AABDB
330
B144A
100
AcDbEntity
  8
0
100
AcDbPolyline
 90
        4
 70
     1
 43
0.0
 10
22497.11111616106
 20
12836.30740641974
 10
22497.11111616106
 20
12801.30740641974
 10
20527.11111616106
 20
12801.30740641974
 10
20527.11111616106
 20
12836.30740641974
  0
CIRCLE
  5
AABDC
330
B144A
100
AcDbEntity
  8
0
100
AcDbCircle
 10
22407.11111616106
 20
12878.80740641974
 30
0.0
 40
22.5
  0
CIRCLE
  5
AABDD
330
B144A
100
AcDbEntity
  8
0
100
AcDbCircle
 10
22407.11111616106
 20
12878.80740641974
 30
0.0
 40
12.5
  0
LINE
  5
AABDE
330
B144A
100
AcDbEntity
  8
0
100
AcDbLine
 10
22357.11111616106
 20
12846.30740641974
 30
0.0
 11
22457.11111616106
 21
12846.30740641974
 31
0.0
  0
LWPOLYLINE
  5
AABDF
330
B144A
100
AcDbEntity
  8
0
100
AcDbPolyline
 90
        4
 70
     1
 43
0.0
 10
22337.11111616106
 20
12846.30740641977
 10
22477.11111616106
 20
12846.30740641977
 10
22477.11111616106
 20
12836.30740641977
 10
22337.11111616106
 20
12836.30740641977
  0
LWPOLYLINE
  5
AABE0
330
B144A
100
AcDbEntity
  8
0
100
AcDbPolyline
 90
        4
 70
     1
 43
0.0
 10
22024.61111616105
 20
14325.44289643319
 10
22024.61111616105
 20
14300.44289643319
 10
21999.61111616104
 20
14300.44289643319
 10
21999.61111616104
 20
14325.44289643319
  0
LWPOLYLINE
  5
AABE1
330
B144A
100
AcDbEntity
  8
0
100
AcDbPolyline
 90
        4
 70
     1
 43
0.0
 10
22034.61111616104
 20
14350.44289643319
 10
22034.61111616104
 20
14325.44289643319
 10
21989.61111616104
 20
14325.44289643319
 10
21989.61111616104
 20
14350.44289643319
  0
LINE
  5
AABE2
330
B144A
100
AcDbEntity
  8
0
100
AcDbLine
 10
21989.61111616104
 20
14350.44289643319
 30
0.0
 11
21989.61111616104
 21
14325.44289643319
 31
0.0
  0
LINE
  5
AABE3
330
B144A
100
AcDbEntity
  8
0
100
AcDbLine
 10
21989.61111616104
 20
14350.44289643319
 30
0.0
 11
21989.61111616104
 21
14325.44289643319
 31
0.0
  0
LINE
  5
AABE4
330
B144A
100
AcDbEntity
  8
0
100
AcDbLine
 10
21999.61111616104
 20
14325.44289643319
 30
0.0
 11
21999.61111616104
 21
14300.44289643319
 31
0.0
  0
LINE
  5
AABE5
330
B144A
100
AcDbEntity
  8
0
100
AcDbLine
 10
21999.61111616104
 20
14325.44289643319
 30
0.0
 11
21999.61111616104
 21
14300.44289643319
 31
0.0
  0
LINE
  5
AABE6
330
B144A
100
AcDbEntity
  8
0
100
AcDbLine
 10
22034.61111616104
 20
14325.44289643319
 30
0.0
 11
21989.61111616104
 21
14325.44289643319
 31
0.0
  0
LINE
  5
AABE7
330
B144A
100
AcDbEntity
  8
0
100
AcDbLine
 10
22034.61111616104
 20
14325.44289643319
 30
0.0
 11
21989.61111616104
 21
14325.44289643319
 31
0.0
  0
LINE
  5
AABE8
330
B144A
100
AcDbEntity
  8
0
100
AcDbLine
 10
21999.61111616104
 20
14325.44289643319
 30
0.0
 11
21999.61111616104
 21
14300.44289643319
 31
0.0
  0
LINE
  5
AABE9
330
B144A
100
AcDbEntity
  8
0
100
AcDbLine
 10
21999.61111616104
 20
14325.44289643319
 30
0.0
 11
21999.61111616104
 21
14300.44289643319
 31
0.0
  0
LINE
  5
AABEA
330
B144A
100
AcDbEntity
  8
0
100
AcDbLine
 10
22034.61111616104
 20
14325.44289643319
 30
0.0
 11
21989.61111616104
 21
14325.44289643319
 31
0.0
  0
LINE
  5
AABEB
330
B144A
100
AcDbEntity
  8
0
100
AcDbLine
 10
22034.61111616104
 20
14325.44289643319
 30
0.0
 11
21989.61111616104
 21
14325.44289643319
 31
0.0
  0
LINE
  5
AABEC
330
B144A
100
AcDbEntity
  8
0
100
AcDbLine
 10
21989.61111616104
 20
14350.44289643319
 30
0.0
 11
21989.61111616104
 21
14325.44289643319
 31
0.0
  0
LINE
  5
AABED
330
B144A
100
AcDbEntity
  8
0
100
AcDbLine
 10
21989.61111616104
 20
14350.44289643319
 30
0.0
 11
21989.61111616104
 21
14325.44289643319
 31
0.0
  0
LWPOLYLINE
  5
AABEE
330
B144A
100
AcDbEntity
  8
0
100
AcDbPolyline
 90
        4
 70
     1
 43
0.0
 10
21024.61111616104
 20
14325.44289643319
 10
21024.61111616104
 20
14300.44289643319
 10
20999.61111616104
 20
14300.44289643319
 10
20999.61111616104
 20
14325.44289643319
  0
LWPOLYLINE
  5
AABEF
330
B144A
100
AcDbEntity
  8
0
100
AcDbPolyline
 90
        4
 70
     1
 43
0.0
 10
21034.61111616105
 20
14350.44289643319
 10
21034.61111616105
 20
14325.44289643319
 10
20989.61111616104
 20
14325.44289643319
 10
20989.61111616104
 20
14350.44289643319
  0
LINE
  5
AABF0
330
B144A
100
AcDbEntity
  8
0
100
AcDbLine
 10
20989.61111616104
 20
14350.44289643319
 30
0.0
 11
20989.61111616104
 21
14325.44289643319
 31
0.0
  0
LINE
  5
AABF1
330
B144A
100
AcDbEntity
  8
0
100
AcDbLine
 10
20989.61111616104
 20
14350.44289643319
 30
0.0
 11
20989.61111616104
 21
14325.44289643319
 31
0.0
  0
LINE
  5
AABF2
330
B144A
100
AcDbEntity
  8
0
100
AcDbLine
 10
20999.61111616104
 20
14325.44289643319
 30
0.0
 11
20999.61111616104
 21
14300.44289643319
 31
0.0
  0
LINE
  5
AABF3
330
B144A
100
AcDbEntity
  8
0
100
AcDbLine
 10
20999.61111616104
 20
14325.44289643319
 30
0.0
 11
20999.61111616104
 21
14300.44289643319
 31
0.0
  0
LINE
  5
AABF4
330
B144A
100
AcDbEntity
  8
0
100
AcDbLine
 10
21034.61111616105
 20
14325.44289643319
 30
0.0
 11
20989.61111616104
 21
14325.44289643319
 31
0.0
  0
LINE
  5
AABF5
330
B144A
100
AcDbEntity
  8
0
100
AcDbLine
 10
21034.61111616105
 20
14325.44289643319
 30
0.0
 11
20989.61111616104
 21
14325.44289643319
 31
0.0
  0
LINE
  5
AABF6
330
B144A
100
AcDbEntity
  8
0
100
AcDbLine
 10
20999.61111616104
 20
14325.44289643319
 30
0.0
 11
20999.61111616104
 21
14300.44289643319
 31
0.0
  0
LINE
  5
AABF7
330
B144A
100
AcDbEntity
  8
0
100
AcDbLine
 10
20999.61111616104
 20
14325.44289643319
 30
0.0
 11
20999.61111616104
 21
14300.44289643319
 31
0.0
  0
LINE
  5
AABF8
330
B144A
100
AcDbEntity
  8
0
100
AcDbLine
 10
21034.61111616105
 20
14325.44289643319
 30
0.0
 11
20989.61111616104
 21
14325.44289643319
 31
0.0
  0
LINE
  5
AABF9
330
B144A
100
AcDbEntity
  8
0
100
AcDbLine
 10
21034.61111616105
 20
14325.44289643319
 30
0.0
 11
20989.61111616104
 21
14325.44289643319
 31
0.0
  0
LINE
  5
AABFA
330
B144A
100
AcDbEntity
  8
0
100
AcDbLine
 10
20989.61111616104
 20
14350.44289643319
 30
0.0
 11
20989.61111616104
 21
14325.44289643319
 31
0.0
  0
LINE
  5
AABFB
330
B144A
100
AcDbEntity
  8
0
100
AcDbLine
 10
20989.61111616104
 20
14350.44289643319
 30
0.0
 11
20989.61111616104
 21
14325.44289643319
 31
0.0
  0
LINE
  5
AABFC
330
B144A
100
AcDbEntity
  8
0
100
AcDbLine
 10
21989.61111616104
 20
14350.44289643319
 30
0.0
 11
21989.61111616104
 21
14325.44289643319
 31
0.0
  0
LINE
  5
AABFD
330
B144A
100
AcDbEntity
  8
0
100
AcDbLine
 10
21989.61111616104
 20
14350.44289643319
 30
0.0
 11
21989.61111616104
 21
14325.44289643319
 31
0.0
  0
LINE
  5
AABFE
330
B144A
100
AcDbEntity
  8
0
100
AcDbLine
 10
21999.61111616104
 20
14325.44289643319
 30
0.0
 11
21999.61111616104
 21
14300.44289643319
 31
0.0
  0
LINE
  5
AABFF
330
B144A
100
AcDbEntity
  8
0
100
AcDbLine
 10
21999.61111616104
 20
14325.44289643319
 30
0.0
 11
21999.61111616104
 21
14300.44289643319
 31
0.0
  0
LINE
  5
AAC00
330
B144A
100
AcDbEntity
  8
0
100
AcDbLine
 10
22034.61111616104
 20
14325.44289643319
 30
0.0
 11
21989.61111616104
 21
14325.44289643319
 31
0.0
  0
LINE
  5
AAC01
330
B144A
100
AcDbEntity
  8
0
100
AcDbLine
 10
22034.61111616104
 20
14325.44289643319
 30
0.0
 11
21989.61111616104
 21
14325.44289643319
 31
0.0
  0
LINE
  5
AAC02
330
B144A
100
AcDbEntity
  8
0
100
AcDbLine
 10
21999.61111616104
 20
14325.44289643319
 30
0.0
 11
21999.61111616104
 21
14300.44289643319
 31
0.0
  0
LINE
  5
AAC03
330
B144A
100
AcDbEntity
  8
0
100
AcDbLine
 10
21999.61111616104
 20
14325.44289643319
 30
0.0
 11
21999.61111616104
 21
14300.44289643319
 31
0.0
  0
LINE
  5
AAC04
330
B144A
100
AcDbEntity
  8
0
100
AcDbLine
 10
22034.61111616104
 20
14325.44289643319
 30
0.0
 11
21989.61111616104
 21
14325.44289643319
 31
0.0
  0
LINE
  5
AAC05
330
B144A
100
AcDbEntity
  8
0
100
AcDbLine
 10
22034.61111616104
 20
14325.44289643319
 30
0.0
 11
21989.61111616104
 21
14325.44289643319
 31
0.0
  0
LINE
  5
AAC06
330
B144A
100
AcDbEntity
  8
0
100
AcDbLine
 10
21989.61111616104
 20
14350.44289643319
 30
0.0
 11
21989.61111616104
 21
14325.44289643319
 31
0.0
  0
LINE
  5
AAC07
330
B144A
100
AcDbEntity
  8
0
100
AcDbLine
 10
21989.61111616104
 20
14350.44289643319
 30
0.0
 11
21989.61111616104
 21
14325.44289643319
 31
0.0
  0
LWPOLYLINE
  5
AAC08
330
B144A
100
AcDbEntity
  8
0
100
AcDbPolyline
 90
        8
 70
     1
 43
0.0
 10
22429.61111616105
 20
16900.44289643322
 10
22429.61111616105
 20
16922.94289643322
 42
-1.0
 10
22384.61111616105
 20
16922.94289643322
 10
22384.61111616105
 20
16900.44289643319
 10
22367.11111616104
 20
16900.44289643322
 10
22357.11111616105
 20
16890.44289643319
 10
22457.11111616104
 20
16890.44289643319
 10
22447.11111616104
 20
16900.44289643322
  0
LWPOLYLINE
  5
AAC09
330
B144A
100
AcDbEntity
  8
0
100
AcDbPolyline
 90
        4
 70
     1
 43
0.0
 10
20527.11111616126
 20
16045.4428964329
 10
20527.11111616126
 20
16071.4428964329
 10
21497.11111616128
 20
16071.4428964329
 10
21497.11111616128
 20
16045.4428964329
  0
LWPOLYLINE
  5
AAC0A
330
B144A
100
AcDbEntity
  8
0
100
AcDbPolyline
 90
        4
 70
     1
 43
0.0
 10
22497.11111616128
 20
16071.4428964329
 10
22497.11111616128
 20
16045.4428964329
 10
21527.11111616126
 20
16045.4428964329
 10
21527.11111616126
 20
16071.4428964329
  0
LWPOLYLINE
  5
AAC0B
330
B144A
100
AcDbEntity
  8
0
100
AcDbPolyline
 90
        4
 70
     1
 43
0.0
 10
20527.11111616126
 20
15645.4428964329
 10
20527.11111616126
 20
15671.4428964329
 10
21497.11111616128
 20
15671.4428964329
 10
21497.11111616128
 20
15645.4428964329
  0
LWPOLYLINE
  5
AAC0C
330
B144A
100
AcDbEntity
  8
0
100
AcDbPolyline
 90
        4
 70
     1
 43
0.0
 10
22497.11111616128
 20
15671.4428964329
 10
22497.11111616128
 20
15645.4428964329
 10
21527.11111616126
 20
15645.4428964329
 10
21527.11111616126
 20
15671.4428964329
  0
LWPOLYLINE
  5
AAC0D
330
B144A
100
AcDbEntity
  8
0
100
AcDbPolyline
 90
        4
 70
     1
 43
0.0
 10
20527.11111616126
 20
15245.4428964329
 10
20527.11111616126
 20
15271.4428964329
 10
21497.11111616128
 20
15271.4428964329
 10
21497.11111616128
 20
15245.4428964329
  0
LWPOLYLINE
  5
AAC0E
330
B144A
100
AcDbEntity
  8
0
100
AcDbPolyline
 90
        4
 70
     1
 43
0.0
 10
22497.11111616128
 20
15271.4428964329
 10
22497.11111616128
 20
15245.4428964329
 10
21527.11111616126
 20
15245.4428964329
 10
21527.11111616126
 20
15271.4428964329
  0
LWPOLYLINE
  5
AAC0F
330
B144A
100
AcDbEntity
  8
0
100
AcDbPolyline
 90
        4
 70
     1
 43
0.0
 10
20527.11111616126
 20
14845.4428964329
 10
20527.11111616126
 20
14871.4428964329
 10
21497.11111616128
 20
14871.4428964329
 10
21497.11111616128
 20
14845.4428964329
  0
LWPOLYLINE
  5
AAC10
330
B144A
100
AcDbEntity
  8
0
100
AcDbPolyline
 90
        4
 70
     1
 43
0.0
 10
22497.11111616128
 20
14871.4428964329
 10
22497.11111616128
 20
14845.4428964329
 10
21527.11111616126
 20
14845.4428964329
 10
21527.11111616126
 20
14871.4428964329
  0
LWPOLYLINE
  5
AAC11
330
B144A
100
AcDbEntity
  8
0
100
AcDbPolyline
 90
        4
 70
     1
 43
0.0
 10
22497.11111616105
 20
14471.44289643319
 10
22497.11111616105
 20
14445.44289643319
 10
21527.11111616105
 20
14445.44289643319
 10
21527.11111616105
 20
14471.44289643319
  0
LWPOLYLINE
  5
AAC12
330
B144A
100
AcDbEntity
  8
0
100
AcDbPolyline
 90
        4
 70
     1
 43
0.0
 10
21497.11111616104
 20
14445.44289643319
 10
21497.11111616104
 20
16845.44289643319
 10
21527.11111616105
 20
16845.44289643319
 10
21527.11111616105
 20
14445.44289643319
  0
LWPOLYLINE
  5
AAC13
330
B144A
100
AcDbEntity
  8
0
100
AcDbPolyline
 90
        4
 70
     1
 43
0.0
 10
20527.11111616104
 20
14445.44289643319
 10
20527.11111616104
 20
14471.44289643319
 10
21497.11111616104
 20
14471.44289643319
 10
21497.11111616104
 20
14445.44289643319
  0
LWPOLYLINE
  5
AAC14
330
B144A
100
AcDbEntity
  8
0
100
AcDbPolyline
 90
        4
 70
     1
 43
0.0
 10
22497.11111616116
 20
14350.44289643319
 10
22497.11111616116
 20
14445.44289643348
 10
20527.1111161608
 20
14445.44289643348
 10
20527.1111161608
 20
14350.44289643319
  0
LWPOLYLINE
  5
AAC15
330
B144A
100
AcDbEntity
  8
0
100
AcDbPolyline
 90
        4
 70
     1
 43
0.0
 10
22527.11111616104
 20
16880.44289643319
 10
22527.11111616104
 20
14350.44289643319
 10
22497.11111616116
 20
14350.44289643319
 10
22497.11111616116
 20
16880.44289643319
  0
LWPOLYLINE
  5
AAC16
330
B144A
100
AcDbEntity
  8
0
100
AcDbPolyline
 90
        4
 70
     1
 43
0.0
 10
20527.11111616104
 20
16880.44289643319
 10
20527.11111616104
 20
14350.44289643319
 10
20497.11111616106
 20
14350.44289643319
 10
20497.11111616106
 20
16880.44289643319
  0
LWPOLYLINE
  5
AAC17
330
B144A
100
AcDbEntity
  8
0
100
AcDbPolyline
 90
        4
 70
     1
 43
0.0
 10
22497.11111616105
 20
16880.44289643319
 10
22497.11111616105
 20
16845.44289643319
 10
20527.11111616104
 20
16845.44289643319
 10
20527.11111616104
 20
16880.44289643319
  0
CIRCLE
  5
AAC18
330
B144A
100
AcDbEntity
  8
0
100
AcDbCircle
 10
22407.11111616104
 20
16922.94289643319
 30
0.0
 40
22.5
  0
CIRCLE
  5
AAC19
330
B144A
100
AcDbEntity
  8
0
100
AcDbCircle
 10
22407.11111616104
 20
16922.94289643319
 30
0.0
 40
12.5
  0
LINE
  5
AAC1A
330
B144A
100
AcDbEntity
  8
0
100
AcDbLine
 10
22357.11111616105
 20
16890.44289643319
 30
0.0
 11
22457.11111616104
 21
16890.44289643319
 31
0.0
  0
LWPOLYLINE
  5
AAC1B
330
B144A
100
AcDbEntity
  8
0
100
AcDbPolyline
 90
        4
 70
     1
 43
0.0
 10
22337.11111616105
 20
16890.44289643322
 10
22477.11111616104
 20
16890.44289643322
 10
22477.11111616104
 20
16880.44289643322
 10
22337.11111616105
 20
16880.44289643322
  0
LINE
  5
AAC1C
330
B144A
100
AcDbEntity
  8
0
100
AcDbLine
 10
21527.11111616107
 20
4254.011226058442
 30
0.0
 11
22497.11111616119
 21
4254.011226058442
 31
0.0
1001
ACAD
1010
0.0
1020
0.0
1030
0.0
  0
LINE
  5
AAC1D
330
B144A
100
AcDbEntity
  8
0
100
AcDbLine
 10
20527.11111616107
 20
4254.011226058442
 30
0.0
 11
21497.11111616107
 21
4254.011226058442
 31
0.0
1001
ACAD
1010
0.0
1020
0.0
1030
0.0
  0
LINE
  5
AAC1E
330
B144A
100
AcDbEntity
  8
0
100
AcDbLine
 10
21527.11111616107
 20
4129.011226058442
 30
0.0
 11
22497.11111616119
 21
4129.011226058442
 31
0.0
1001
ACAD
1010
0.0
1020
0.0
1030
0.0
  0
LINE
  5
AAC1F
330
B144A
100
AcDbEntity
  8
0
100
AcDbLine
 10
20527.11111616107
 20
4129.011226058442
 30
0.0
 11
21497.11111616107
 21
4129.011226058442
 31
0.0
1001
ACAD
1010
0.0
1020
0.0
1030
0.0
  0
LINE
  5
AAC20
330
B144A
100
AcDbEntity
  8
0
100
AcDbLine
 10
21527.11111616107
 20
4004.011226058442
 30
0.0
 11
22497.11111616119
 21
4004.011226058442
 31
0.0
1001
ACAD
1010
0.0
1020
0.0
1030
0.0
  0
LINE
  5
AAC21
330
B144A
100
AcDbEntity
  8
0
100
AcDbLine
 10
20527.11111616107
 20
4004.011226058442
 30
0.0
 11
21497.11111616107
 21
4004.011226058442
 31
0.0
1001
ACAD
1010
0.0
1020
0.0
1030
0.0
  0
LINE
  5
AAC22
330
B144A
100
AcDbEntity
  8
0
100
AcDbLine
 10
21527.11111616107
 20
3879.011226058442
 30
0.0
 11
22497.11111616119
 21
3879.011226058442
 31
0.0
1001
ACAD
1010
0.0
1020
0.0
1030
0.0
  0
LINE
  5
AAC23
330
B144A
100
AcDbEntity
  8
0
100
AcDbLine
 10
20527.11111616107
 20
3879.011226058442
 30
0.0
 11
21497.11111616107
 21
3879.011226058442
 31
0.0
1001
ACAD
1010
0.0
1020
0.0
1030
0.0
  0
LINE
  5
AAC24
330
B144A
100
AcDbEntity
  8
0
100
AcDbLine
 10
21527.11111616107
 20
3754.011226058442
 30
0.0
 11
22497.11111616119
 21
3754.011226058442
 31
0.0
1001
ACAD
1010
0.0
1020
0.0
1030
0.0
  0
LINE
  5
AAC25
330
B144A
100
AcDbEntity
  8
0
100
AcDbLine
 10
20527.11111616107
 20
3754.011226058442
 30
0.0
 11
21497.11111616107
 21
3754.011226058442
 31
0.0
1001
ACAD
1010
0.0
1020
0.0
1030
0.0
  0
LINE
  5
AAC26
330
B144A
100
AcDbEntity
  8
0
100
AcDbLine
 10
21527.11111616107
 20
3629.011226058442
 30
0.0
 11
22497.11111616119
 21
3629.011226058442
 31
0.0
1001
ACAD
1010
0.0
1020
0.0
1030
0.0
  0
LINE
  5
AAC27
330
B144A
100
AcDbEntity
  8
0
100
AcDbLine
 10
20527.11111616107
 20
3629.011226058442
 30
0.0
 11
21497.11111616107
 21
3629.011226058442
 31
0.0
1001
ACAD
1010
0.0
1020
0.0
1030
0.0
  0
LINE
  5
AAC28
330
B144A
100
AcDbEntity
  8
0
100
AcDbLine
 10
21527.11111616107
 20
3504.011226058443
 30
0.0
 11
22497.11111616119
 21
3504.011226058443
 31
0.0
1001
ACAD
1010
0.0
1020
0.0
1030
0.0
  0
LINE
  5
AAC29
330
B144A
100
AcDbEntity
  8
0
100
AcDbLine
 10
20527.11111616107
 20
3504.011226058443
 30
0.0
 11
21497.11111616107
 21
3504.011226058443
 31
0.0
1001
ACAD
1010
0.0
1020
0.0
1030
0.0
  0
LINE
  5
AAC2A
330
B144A
100
AcDbEntity
  8
0
100
AcDbLine
 10
21527.11111616107
 20
3379.011226058443
 30
0.0
 11
22497.11111616119
 21
3379.011226058443
 31
0.0
1001
ACAD
1010
0.0
1020
0.0
1030
0.0
  0
LINE
  5
AAC2B
330
B144A
100
AcDbEntity
  8
0
100
AcDbLine
 10
20527.11111616107
 20
3379.011226058443
 30
0.0
 11
21497.11111616107
 21
3379.011226058443
 31
0.0
1001
ACAD
1010
0.0
1020
0.0
1030
0.0
  0
LINE
  5
AAC2C
330
B144A
100
AcDbEntity
  8
0
100
AcDbLine
 10
21527.11111616107
 20
3254.011226058443
 30
0.0
 11
22497.11111616119
 21
3254.011226058443
 31
0.0
1001
ACAD
1010
0.0
1020
0.0
1030
0.0
  0
LINE
  5
AAC2D
330
B144A
100
AcDbEntity
  8
0
100
AcDbLine
 10
20527.11111616107
 20
3254.011226058443
 30
0.0
 11
21497.11111616107
 21
3254.011226058443
 31
0.0
1001
ACAD
1010
0.0
1020
0.0
1030
0.0
  0
LINE
  5
AAC2E
330
B144A
100
AcDbEntity
  8
0
100
AcDbLine
 10
21527.11111616107
 20
3129.011226058443
 30
0.0
 11
22497.11111616119
 21
3129.011226058443
 31
0.0
1001
ACAD
1010
0.0
1020
0.0
1030
0.0
  0
LINE
  5
AAC2F
330
B144A
100
AcDbEntity
  8
0
100
AcDbLine
 10
20527.11111616107
 20
3129.011226058443
 30
0.0
 11
21497.11111616107
 21
3129.011226058443
 31
0.0
1001
ACAD
1010
0.0
1020
0.0
1030
0.0
  0
LINE
  5
AAC30
330
B144A
100
AcDbEntity
  8
0
100
AcDbLine
 10
21527.11111616107
 20
3004.011226058443
 30
0.0
 11
22497.11111616119
 21
3004.011226058443
 31
0.0
1001
ACAD
1010
0.0
1020
0.0
1030
0.0
  0
LINE
  5
AAC31
330
B144A
100
AcDbEntity
  8
0
100
AcDbLine
 10
20527.11111616107
 20
3004.011226058443
 30
0.0
 11
21497.11111616107
 21
3004.011226058443
 31
0.0
1001
ACAD
1010
0.0
1020
0.0
1030
0.0
  0
LINE
  5
AAC32
330
B144A
100
AcDbEntity
  8
0
100
AcDbLine
 10
21527.11111616107
 20
2879.011226058443
 30
0.0
 11
22497.11111616119
 21
2879.011226058443
 31
0.0
1001
ACAD
1010
0.0
1020
0.0
1030
0.0
  0
LINE
  5
AAC33
330
B144A
100
AcDbEntity
  8
0
100
AcDbLine
 10
20527.11111616107
 20
2879.011226058443
 30
0.0
 11
21497.11111616107
 21
2879.011226058443
 31
0.0
1001
ACAD
1010
0.0
1020
0.0
1030
0.0
  0
LINE
  5
AAC34
330
B144A
100
AcDbEntity
  8
0
100
AcDbLine
 10
21527.11111616107
 20
2754.011226058443
 30
0.0
 11
22497.11111616119
 21
2754.011226058443
 31
0.0
1001
ACAD
1010
0.0
1020
0.0
1030
0.0
  0
LINE
  5
AAC35
330
B144A
100
AcDbEntity
  8
0
100
AcDbLine
 10
20527.11111616107
 20
2754.011226058443
 30
0.0
 11
21497.11111616107
 21
2754.011226058443
 31
0.0
1001
ACAD
1010
0.0
1020
0.0
1030
0.0
  0
LINE
  5
AAC36
330
B144A
100
AcDbEntity
  8
0
100
AcDbLine
 10
21527.11111616107
 20
2629.011226058443
 30
0.0
 11
22497.11111616119
 21
2629.011226058443
 31
0.0
1001
ACAD
1010
0.0
1020
0.0
1030
0.0
  0
LINE
  5
AAC37
330
B144A
100
AcDbEntity
  8
0
100
AcDbLine
 10
20527.11111616107
 20
2629.011226058443
 30
0.0
 11
21497.11111616107
 21
2629.011226058443
 31
0.0
1001
ACAD
1010
0.0
1020
0.0
1030
0.0
  0
LINE
  5
AAC38
330
B144A
100
AcDbEntity
  8
0
100
AcDbLine
 10
21527.11111616107
 20
2504.011226058443
 30
0.0
 11
22497.11111616119
 21
2504.011226058443
 31
0.0
1001
ACAD
1010
0.0
1020
0.0
1030
0.0
  0
LINE
  5
AAC39
330
B144A
100
AcDbEntity
  8
0
100
AcDbLine
 10
20527.11111616107
 20
2504.011226058443
 30
0.0
 11
21497.11111616107
 21
2504.011226058443
 31
0.0
1001
ACAD
1010
0.0
1020
0.0
1030
0.0
  0
LINE
  5
AAC3A
330
B144A
100
AcDbEntity
  8
0
100
AcDbLine
 10
21527.11111616107
 20
2379.011226058443
 30
0.0
 11
22497.11111616119
 21
2379.011226058443
 31
0.0
1001
ACAD
1010
0.0
1020
0.0
1030
0.0
  0
LINE
  5
AAC3B
330
B144A
100
AcDbEntity
  8
0
100
AcDbLine
 10
20527.11111616107
 20
2379.011226058443
 30
0.0
 11
21497.11111616107
 21
2379.011226058443
 31
0.0
1001
ACAD
1010
0.0
1020
0.0
1030
0.0
  0
LINE
  5
AAC3C
330
B144A
100
AcDbEntity
  8
0
100
AcDbLine
 10
20612.23229158937
 20
2339.036426392835
 30
0.0
 11
20612.23229158937
 21
4713.036426392835
 31
0.0
1001
ACAD
1010
0.0
1020
0.0
1030
0.0
  0
LINE
  5
AAC3D
330
B144A
100
AcDbEntity
  8
0
100
AcDbLine
 10
20737.23229158937
 20
2339.036426392835
 30
0.0
 11
20737.23229158937
 21
4713.036426392835
 31
0.0
1001
ACAD
1010
0.0
1020
0.0
1030
0.0
  0
LINE
  5
AAC3E
330
B144A
100
AcDbEntity
  8
0
100
AcDbLine
 10
20862.23229158937
 20
2339.036426392835
 30
0.0
 11
20862.23229158937
 21
4713.036426392835
 31
0.0
1001
ACAD
1010
0.0
1020
0.0
1030
0.0
  0
LINE
  5
AAC3F
330
B144A
100
AcDbEntity
  8
0
100
AcDbLine
 10
20987.23229158937
 20
2339.036426392835
 30
0.0
 11
20987.23229158937
 21
4713.036426392835
 31
0.0
1001
ACAD
1010
0.0
1020
0.0
1030
0.0
  0
LINE
  5
AAC40
330
B144A
100
AcDbEntity
  8
0
100
AcDbLine
 10
21112.23229158937
 20
2339.036426392835
 30
0.0
 11
21112.23229158937
 21
4713.036426392835
 31
0.0
1001
ACAD
1010
0.0
1020
0.0
1030
0.0
  0
LINE
  5
AAC41
330
B144A
100
AcDbEntity
  8
0
100
AcDbLine
 10
21237.23229158937
 20
2339.036426392835
 30
0.0
 11
21237.23229158937
 21
4713.036426392835
 31
0.0
1001
ACAD
1010
0.0
1020
0.0
1030
0.0
  0
LINE
  5
AAC42
330
B144A
100
AcDbEntity
  8
0
100
AcDbLine
 10
21362.23229158937
 20
2339.036426392835
 30
0.0
 11
21362.23229158937
 21
4713.036426392835
 31
0.0
1001
ACAD
1010
0.0
1020
0.0
1030
0.0
  0
LINE
  5
AAC43
330
B144A
100
AcDbEntity
  8
0
100
AcDbLine
 10
21487.23229158937
 20
2339.036426392835
 30
0.0
 11
21487.23229158937
 21
4713.036426392835
 31
0.0
1001
ACAD
1010
0.0
1020
0.0
1030
0.0
  0
LINE
  5
AAC44
330
B144A
100
AcDbEntity
  8
0
100
AcDbLine
 10
21612.23229158937
 20
2339.036426392835
 30
0.0
 11
21612.23229158937
 21
4713.036426392835
 31
0.0
1001
ACAD
1010
0.0
1020
0.0
1030
0.0
  0
LINE
  5
AAC45
330
B144A
100
AcDbEntity
  8
0
100
AcDbLine
 10
21737.23229158937
 20
2339.036426392835
 30
0.0
 11
21737.23229158937
 21
4713.036426392835
 31
0.0
1001
ACAD
1010
0.0
1020
0.0
1030
0.0
  0
LINE
  5
AAC46
330
B144A
100
AcDbEntity
  8
0
100
AcDbLine
 10
21862.23229158937
 20
2339.036426392835
 30
0.0
 11
21862.23229158937
 21
4713.036426392835
 31
0.0
1001
ACAD
1010
0.0
1020
0.0
1030
0.0
  0
LINE
  5
AAC47
330
B144A
100
AcDbEntity
  8
0
100
AcDbLine
 10
21987.23229158937
 20
2339.036426392835
 30
0.0
 11
21987.23229158937
 21
4713.036426392835
 31
0.0
1001
ACAD
1010
0.0
1020
0.0
1030
0.0
  0
LINE
  5
AAC48
330
B144A
100
AcDbEntity
  8
0
100
AcDbLine
 10
22112.23229158937
 20
2339.036426392835
 30
0.0
 11
22112.23229158937
 21
4713.036426392835
 31
0.0
1001
ACAD
1010
0.0
1020
0.0
1030
0.0
  0
LINE
  5
AAC49
330
B144A
100
AcDbEntity
  8
0
100
AcDbLine
 10
22237.23229158937
 20
2339.036426392835
 30
0.0
 11
22237.23229158937
 21
4713.036426392835
 31
0.0
1001
ACAD
1010
0.0
1020
0.0
1030
0.0
  0
LINE
  5
AAC4A
330
B144A
100
AcDbEntity
  8
0
100
AcDbLine
 10
22362.23229158939
 20
2339.036426392835
 30
0.0
 11
22362.23229158939
 21
4713.036426392835
 31
0.0
1001
ACAD
1010
0.0
1020
0.0
1030
0.0
  0
LINE
  5
AAC4B
330
B144A
100
AcDbEntity
  8
0
100
AcDbLine
 10
22487.23229158937
 20
2339.036426392835
 30
0.0
 11
22487.23229158937
 21
4713.036426392835
 31
0.0
1001
ACAD
1010
0.0
1020
0.0
1030
0.0
  0
LWPOLYLINE
  5
AAC4C
330
B144A
100
AcDbEntity
  8
0
100
AcDbPolyline
 90
        4
 70
     1
 43
0.0
 10
22337.11111616105
 20
8802.171916406312
 10
22477.11111616104
 20
8802.171916406312
 10
22477.11111616104
 20
8792.17191640631
 10
22337.11111616105
 20
8792.17191640631
  0
LINE
  5
AAC4D
330
B144A
100
AcDbEntity
  8
0
100
AcDbLine
 10
22357.11111616105
 20
8802.171916406278
 30
0.0
 11
22457.11111616104
 21
8802.171916406278
 31
0.0
  0
CIRCLE
  5
AAC4E
330
B144A
100
AcDbEntity
  8
0
100
AcDbCircle
 10
22407.11111616104
 20
8834.671916406278
 30
0.0
 40
12.5
  0
CIRCLE
  5
AAC4F
330
B144A
100
AcDbEntity
  8
0
100
AcDbCircle
 10
22407.11111616104
 20
8834.671916406278
 30
0.0
 40
22.5
  0
LWPOLYLINE
  5
AAC50
330
B144A
100
AcDbEntity
  8
0
100
AcDbPolyline
 90
        4
 70
     1
 43
0.0
 10
22497.11111616105
 20
8792.171916406282
 10
22497.11111616105
 20
8757.171916406282
 10
20527.11111616104
 20
8757.171916406282
 10
20527.11111616104
 20
8792.171916406282
  0
LWPOLYLINE
  5
AAC51
330
B144A
100
AcDbEntity
  8
0
100
AcDbPolyline
 90
        4
 70
     1
 43
0.0
 10
20527.11111616104
 20
8792.171916406282
 10
20527.11111616104
 20
6262.171916406281
 10
20497.11111616106
 20
6262.171916406281
 10
20497.11111616106
 20
8792.171916406282
  0
LWPOLYLINE
  5
AAC52
330
B144A
100
AcDbEntity
  8
0
100
AcDbPolyline
 90
        4
 70
     1
 43
0.0
 10
22527.11111616104
 20
8792.171916406282
 10
22527.11111616104
 20
6262.171916406281
 10
22497.11111616116
 20
6262.171916406281
 10
22497.11111616116
 20
8792.171916406282
  0
LWPOLYLINE
  5
AAC53
330
B144A
100
AcDbEntity
  8
0
100
AcDbPolyline
 90
        4
 70
     1
 43
0.0
 10
22497.11111616116
 20
6262.171916406281
 10
22497.11111616116
 20
6357.171916406573
 10
20527.1111161608
 20
6357.171916406573
 10
20527.1111161608
 20
6262.171916406281
  0
LWPOLYLINE
  5
AAC54
330
B144A
100
AcDbEntity
  8
0
100
AcDbPolyline
 90
        4
 70
     1
 43
0.0
 10
20527.11111616104
 20
6357.171916406283
 10
20527.11111616104
 20
6383.171916406283
 10
21497.11111616104
 20
6383.171916406283
 10
21497.11111616104
 20
6357.171916406283
  0
LWPOLYLINE
  5
AAC55
330
B144A
100
AcDbEntity
  8
0
100
AcDbPolyline
 90
        4
 70
     1
 43
0.0
 10
21497.11111616104
 20
6357.171916406283
 10
21497.11111616104
 20
8757.171916406282
 10
21527.11111616105
 20
8757.171916406282
 10
21527.11111616105
 20
6357.171916406283
  0
LWPOLYLINE
  5
AAC56
330
B144A
100
AcDbEntity
  8
0
100
AcDbPolyline
 90
        4
 70
     1
 43
0.0
 10
22497.11111616105
 20
6383.171916406283
 10
22497.11111616105
 20
6357.171916406283
 10
21527.11111616105
 20
6357.171916406283
 10
21527.11111616105
 20
6383.171916406283
  0
LWPOLYLINE
  5
AAC57
330
B144A
100
AcDbEntity
  8
0
100
AcDbPolyline
 90
        8
 70
     1
 43
0.0
 10
22429.61111616105
 20
8812.17191640631
 10
22429.61111616105
 20
8834.67191640631
 42
-1.0
 10
22384.61111616105
 20
8834.67191640631
 10
22384.61111616105
 20
8812.171916406278
 10
22367.11111616104
 20
8812.17191640631
 10
22357.11111616105
 20
8802.171916406278
 10
22457.11111616104
 20
8802.171916406278
 10
22447.11111616104
 20
8812.17191640631
  0
LINE
  5
AAC58
330
B144A
100
AcDbEntity
  8
0
100
AcDbLine
 10
21989.61111616104
 20
6262.171916406281
 30
0.0
 11
21989.61111616104
 21
6237.171916406282
 31
0.0
  0
LINE
  5
AAC59
330
B144A
100
AcDbEntity
  8
0
100
AcDbLine
 10
21989.61111616104
 20
6262.171916406281
 30
0.0
 11
21989.61111616104
 21
6237.171916406282
 31
0.0
  0
LINE
  5
AAC5A
330
B144A
100
AcDbEntity
  8
0
100
AcDbLine
 10
22034.61111616104
 20
6237.171916406282
 30
0.0
 11
21989.61111616104
 21
6237.171916406282
 31
0.0
  0
LINE
  5
AAC5B
330
B144A
100
AcDbEntity
  8
0
100
AcDbLine
 10
22034.61111616104
 20
6237.171916406282
 30
0.0
 11
21989.61111616104
 21
6237.171916406282
 31
0.0
  0
LINE
  5
AAC5C
330
B144A
100
AcDbEntity
  8
0
100
AcDbLine
 10
21999.61111616104
 20
6237.171916406282
 30
0.0
 11
21999.61111616104
 21
6212.171916406282
 31
0.0
  0
LINE
  5
AAC5D
330
B144A
100
AcDbEntity
  8
0
100
AcDbLine
 10
21999.61111616104
 20
6237.171916406282
 30
0.0
 11
21999.61111616104
 21
6212.171916406282
 31
0.0
  0
LINE
  5
AAC5E
330
B144A
100
AcDbEntity
  8
0
100
AcDbLine
 10
22034.61111616104
 20
6237.171916406282
 30
0.0
 11
21989.61111616104
 21
6237.171916406282
 31
0.0
  0
LINE
  5
AAC5F
330
B144A
100
AcDbEntity
  8
0
100
AcDbLine
 10
22034.61111616104
 20
6237.171916406282
 30
0.0
 11
21989.61111616104
 21
6237.171916406282
 31
0.0
  0
LINE
  5
AAC60
330
B144A
100
AcDbEntity
  8
0
100
AcDbLine
 10
21999.61111616104
 20
6237.171916406282
 30
0.0
 11
21999.61111616104
 21
6212.171916406282
 31
0.0
  0
LINE
  5
AAC61
330
B144A
100
AcDbEntity
  8
0
100
AcDbLine
 10
21999.61111616104
 20
6237.171916406282
 30
0.0
 11
21999.61111616104
 21
6212.171916406282
 31
0.0
  0
LINE
  5
AAC62
330
B144A
100
AcDbEntity
  8
0
100
AcDbLine
 10
21989.61111616104
 20
6262.171916406281
 30
0.0
 11
21989.61111616104
 21
6237.171916406282
 31
0.0
  0
LINE
  5
AAC63
330
B144A
100
AcDbEntity
  8
0
100
AcDbLine
 10
21989.61111616104
 20
6262.171916406281
 30
0.0
 11
21989.61111616104
 21
6237.171916406282
 31
0.0
  0
LINE
  5
AAC64
330
B144A
100
AcDbEntity
  8
0
100
AcDbLine
 10
20989.61111616104
 20
6262.171916406281
 30
0.0
 11
20989.61111616104
 21
6237.171916406282
 31
0.0
  0
LINE
  5
AAC65
330
B144A
100
AcDbEntity
  8
0
100
AcDbLine
 10
20989.61111616104
 20
6262.171916406281
 30
0.0
 11
20989.61111616104
 21
6237.171916406282
 31
0.0
  0
LINE
  5
AAC66
330
B144A
100
AcDbEntity
  8
0
100
AcDbLine
 10
21034.61111616105
 20
6237.171916406282
 30
0.0
 11
20989.61111616104
 21
6237.171916406282
 31
0.0
  0
LINE
  5
AAC67
330
B144A
100
AcDbEntity
  8
0
100
AcDbLine
 10
21034.61111616105
 20
6237.171916406282
 30
0.0
 11
20989.61111616104
 21
6237.171916406282
 31
0.0
  0
LINE
  5
AAC68
330
B144A
100
AcDbEntity
  8
0
100
AcDbLine
 10
20999.61111616104
 20
6237.171916406282
 30
0.0
 11
20999.61111616104
 21
6212.171916406282
 31
0.0
  0
LINE
  5
AAC69
330
B144A
100
AcDbEntity
  8
0
100
AcDbLine
 10
20999.61111616104
 20
6237.171916406282
 30
0.0
 11
20999.61111616104
 21
6212.171916406282
 31
0.0
  0
LINE
  5
AAC6A
330
B144A
100
AcDbEntity
  8
0
100
AcDbLine
 10
21034.61111616105
 20
6237.171916406282
 30
0.0
 11
20989.61111616104
 21
6237.171916406282
 31
0.0
  0
LINE
  5
AAC6B
330
B144A
100
AcDbEntity
  8
0
100
AcDbLine
 10
21034.61111616105
 20
6237.171916406282
 30
0.0
 11
20989.61111616104
 21
6237.171916406282
 31
0.0
  0
LINE
  5
AAC6C
330
B144A
100
AcDbEntity
  8
0
100
AcDbLine
 10
20999.61111616104
 20
6237.171916406282
 30
0.0
 11
20999.61111616104
 21
6212.171916406282
 31
0.0
  0
LINE
  5
AAC6D
330
B144A
100
AcDbEntity
  8
0
100
AcDbLine
 10
20999.61111616104
 20
6237.171916406282
 30
0.0
 11
20999.61111616104
 21
6212.171916406282
 31
0.0
  0
LINE
  5
AAC6E
330
B144A
100
AcDbEntity
  8
0
100
AcDbLine
 10
20989.61111616104
 20
6262.171916406281
 30
0.0
 11
20989.61111616104
 21
6237.171916406282
 31
0.0
  0
LINE
  5
AAC6F
330
B144A
100
AcDbEntity
  8
0
100
AcDbLine
 10
20989.61111616104
 20
6262.171916406281
 30
0.0
 11
20989.61111616104
 21
6237.171916406282
 31
0.0
  0
LWPOLYLINE
  5
AAC70
330
B144A
100
AcDbEntity
  8
0
100
AcDbPolyline
 90
        4
 70
     1
 43
0.0
 10
21034.61111616105
 20
6262.171916406281
 10
21034.61111616105
 20
6237.171916406282
 10
20989.61111616104
 20
6237.171916406282
 10
20989.61111616104
 20
6262.171916406281
  0
LWPOLYLINE
  5
AAC71
330
B144A
100
AcDbEntity
  8
0
100
AcDbPolyline
 90
        4
 70
     1
 43
0.0
 10
21024.61111616104
 20
6237.171916406282
 10
21024.61111616104
 20
6212.171916406282
 10
20999.61111616104
 20
6212.171916406282
 10
20999.61111616104
 20
6237.171916406282
  0
LINE
  5
AAC72
330
B144A
100
AcDbEntity
  8
0
100
AcDbLine
 10
21989.61111616104
 20
6262.171916406281
 30
0.0
 11
21989.61111616104
 21
6237.171916406282
 31
0.0
  0
LINE
  5
AAC73
330
B144A
100
AcDbEntity
  8
0
100
AcDbLine
 10
21989.61111616104
 20
6262.171916406281
 30
0.0
 11
21989.61111616104
 21
6237.171916406282
 31
0.0
  0
LINE
  5
AAC74
330
B144A
100
AcDbEntity
  8
0
100
AcDbLine
 10
22034.61111616104
 20
6237.171916406282
 30
0.0
 11
21989.61111616104
 21
6237.171916406282
 31
0.0
  0
LINE
  5
AAC75
330
B144A
100
AcDbEntity
  8
0
100
AcDbLine
 10
22034.61111616104
 20
6237.171916406282
 30
0.0
 11
21989.61111616104
 21
6237.171916406282
 31
0.0
  0
LINE
  5
AAC76
330
B144A
100
AcDbEntity
  8
0
100
AcDbLine
 10
21999.61111616104
 20
6237.171916406282
 30
0.0
 11
21999.61111616104
 21
6212.171916406282
 31
0.0
  0
LINE
  5
AAC77
330
B144A
100
AcDbEntity
  8
0
100
AcDbLine
 10
21999.61111616104
 20
6237.171916406282
 30
0.0
 11
21999.61111616104
 21
6212.171916406282
 31
0.0
  0
LINE
  5
AAC78
330
B144A
100
AcDbEntity
  8
0
100
AcDbLine
 10
22034.61111616104
 20
6237.171916406282
 30
0.0
 11
21989.61111616104
 21
6237.171916406282
 31
0.0
  0
LINE
  5
AAC79
330
B144A
100
AcDbEntity
  8
0
100
AcDbLine
 10
22034.61111616104
 20
6237.171916406282
 30
0.0
 11
21989.61111616104
 21
6237.171916406282
 31
0.0
  0
LINE
  5
AAC7A
330
B144A
100
AcDbEntity
  8
0
100
AcDbLine
 10
21999.61111616104
 20
6237.171916406282
 30
0.0
 11
21999.61111616104
 21
6212.171916406282
 31
0.0
  0
LINE
  5
AAC7B
330
B144A
100
AcDbEntity
  8
0
100
AcDbLine
 10
21999.61111616104
 20
6237.171916406282
 30
0.0
 11
21999.61111616104
 21
6212.171916406282
 31
0.0
  0
LINE
  5
AAC7C
330
B144A
100
AcDbEntity
  8
0
100
AcDbLine
 10
21989.61111616104
 20
6262.171916406281
 30
0.0
 11
21989.61111616104
 21
6237.171916406282
 31
0.0
  0
LINE
  5
AAC7D
330
B144A
100
AcDbEntity
  8
0
100
AcDbLine
 10
21989.61111616104
 20
6262.171916406281
 30
0.0
 11
21989.61111616104
 21
6237.171916406282
 31
0.0
  0
LWPOLYLINE
  5
AAC7E
330
B144A
100
AcDbEntity
  8
0
100
AcDbPolyline
 90
        4
 70
     1
 43
0.0
 10
22034.61111616104
 20
6262.171916406281
 10
22034.61111616104
 20
6237.171916406282
 10
21989.61111616104
 20
6237.171916406282
 10
21989.61111616104
 20
6262.171916406281
  0
LWPOLYLINE
  5
AAC7F
330
B144A
100
AcDbEntity
  8
0
100
AcDbPolyline
 90
        4
 70
     1
 43
0.0
 10
22024.61111616105
 20
6237.171916406282
 10
22024.61111616105
 20
6212.171916406282
 10
21999.61111616104
 20
6212.171916406282
 10
21999.61111616104
 20
6237.171916406282
  0
LWPOLYLINE
  5
AAC80
330
B144A
100
AcDbEntity
  8
0
100
AcDbPolyline
 90
        4
 70
     1
 43
0.0
 10
22337.11111616107
 20
4758.036426392864
 10
22477.11111616108
 20
4758.036426392864
 10
22477.11111616108
 20
4748.036426392864
 10
22337.11111616107
 20
4748.036426392864
  0
LINE
  5
AAC81
330
B144A
100
AcDbEntity
  8
0
100
AcDbLine
 10
22357.11111616108
 20
4758.036426392835
 30
0.0
 11
22457.11111616107
 21
4758.036426392835
 31
0.0
  0
CIRCLE
  5
AAC82
330
B144A
100
AcDbEntity
  8
0
100
AcDbCircle
 10
22407.11111616108
 20
4790.536426392833
 30
0.0
 40
12.5
  0
CIRCLE
  5
AAC83
330
B144A
100
AcDbEntity
  8
0
100
AcDbCircle
 10
22407.11111616108
 20
4790.536426392833
 30
0.0
 40
22.5
  0
LWPOLYLINE
  5
AAC84
330
B144A
100
AcDbEntity
  8
0
100
AcDbPolyline
 90
        4
 70
     1
 43
0.0
 10
22497.11111616107
 20
4748.036426392835
 10
22497.11111616107
 20
4713.036426392835
 10
20527.11111616107
 20
4713.036426392835
 10
20527.11111616107
 20
4748.036426392835
  0
LWPOLYLINE
  5
AAC85
330
B144A
100
AcDbEntity
  8
0
100
AcDbPolyline
 90
        4
 70
     1
 43
0.0
 10
20527.11111616107
 20
4748.036426392835
 10
20527.11111616107
 20
2218.036426392835
 10
20497.11111616107
 20
2218.036426392835
 10
20497.11111616107
 20
4748.036426392835
  0
LWPOLYLINE
  5
AAC86
330
B144A
100
AcDbEntity
  8
0
100
AcDbPolyline
 90
        4
 70
     1
 43
0.0
 10
22527.11111616108
 20
4748.036426392835
 10
22527.11111616108
 20
2218.036426392835
 10
22497.11111616119
 20
2218.036426392835
 10
22497.11111616119
 20
4748.036426392835
  0
LWPOLYLINE
  5
AAC87
330
B144A
100
AcDbEntity
  8
0
100
AcDbPolyline
 90
        4
 70
     1
 43
0.0
 10
22497.11111616119
 20
2218.036426392835
 10
22497.11111616119
 20
2313.036426393126
 10
20527.11111616084
 20
2313.036426393126
 10
20527.11111616084
 20
2218.036426392835
  0
LWPOLYLINE
  5
AAC88
330
B144A
100
AcDbEntity
  8
0
100
AcDbPolyline
 90
        4
 70
     1
 43
0.0
 10
20527.11111616107
 20
2313.036426392835
 10
20527.11111616107
 20
2339.036426392835
 10
21497.11111616107
 20
2339.036426392835
 10
21497.11111616107
 20
2313.036426392835
  0
LWPOLYLINE
  5
AAC89
330
B144A
100
AcDbEntity
  8
0
100
AcDbPolyline
 90
        4
 70
     1
 43
0.0
 10
21497.11111616107
 20
2313.036426392835
 10
21497.11111616107
 20
4713.036426392835
 10
21527.11111616107
 20
4713.036426392835
 10
21527.11111616107
 20
2313.036426392835
  0
LWPOLYLINE
  5
AAC8A
330
B144A
100
AcDbEntity
  8
0
100
AcDbPolyline
 90
        4
 70
     1
 43
0.0
 10
22497.11111616107
 20
2339.036426392835
 10
22497.11111616107
 20
2313.036426392835
 10
21527.11111616107
 20
2313.036426392835
 10
21527.11111616107
 20
2339.036426392835
  0
LWPOLYLINE
  5
AAC8B
330
B144A
100
AcDbEntity
  8
0
100
AcDbPolyline
 90
        8
 70
     1
 43
0.0
 10
22429.61111616108
 20
4768.036426392865
 10
22429.61111616108
 20
4790.536426392864
 42
-1.0
 10
22384.61111616107
 20
4790.536426392864
 10
22384.61111616107
 20
4768.036426392835
 10
22367.11111616108
 20
4768.036426392865
 10
22357.11111616108
 20
4758.036426392835
 10
22457.11111616107
 20
4758.036426392835
 10
22447.11111616108
 20
4768.036426392865
  0
LINE
  5
AAC8C
330
B144A
100
AcDbEntity
  8
0
100
AcDbLine
 10
21989.61111616107
 20
2218.036426392835
 30
0.0
 11
21989.61111616107
 21
2193.036426392835
 31
0.0
  0
LINE
  5
AAC8D
330
B144A
100
AcDbEntity
  8
0
100
AcDbLine
 10
21989.61111616107
 20
2218.036426392835
 30
0.0
 11
21989.61111616107
 21
2193.036426392835
 31
0.0
  0
LINE
  5
AAC8E
330
B144A
100
AcDbEntity
  8
0
100
AcDbLine
 10
22034.61111616108
 20
2193.036426392835
 30
0.0
 11
21989.61111616107
 21
2193.036426392835
 31
0.0
  0
LINE
  5
AAC8F
330
B144A
100
AcDbEntity
  8
0
100
AcDbLine
 10
22034.61111616108
 20
2193.036426392835
 30
0.0
 11
21989.61111616107
 21
2193.036426392835
 31
0.0
  0
LINE
  5
AAC90
330
B144A
100
AcDbEntity
  8
0
100
AcDbLine
 10
21999.61111616107
 20
2193.036426392835
 30
0.0
 11
21999.61111616107
 21
2168.036426392835
 31
0.0
  0
LINE
  5
AAC91
330
B144A
100
AcDbEntity
  8
0
100
AcDbLine
 10
21999.61111616107
 20
2193.036426392835
 30
0.0
 11
21999.61111616107
 21
2168.036426392835
 31
0.0
  0
LINE
  5
AAC92
330
B144A
100
AcDbEntity
  8
0
100
AcDbLine
 10
22034.61111616108
 20
2193.036426392835
 30
0.0
 11
21989.61111616107
 21
2193.036426392835
 31
0.0
  0
LINE
  5
AAC93
330
B144A
100
AcDbEntity
  8
0
100
AcDbLine
 10
22034.61111616108
 20
2193.036426392835
 30
0.0
 11
21989.61111616107
 21
2193.036426392835
 31
0.0
  0
LINE
  5
AAC94
330
B144A
100
AcDbEntity
  8
0
100
AcDbLine
 10
21999.61111616107
 20
2193.036426392835
 30
0.0
 11
21999.61111616107
 21
2168.036426392835
 31
0.0
  0
LINE
  5
AAC95
330
B144A
100
AcDbEntity
  8
0
100
AcDbLine
 10
21999.61111616107
 20
2193.036426392835
 30
0.0
 11
21999.61111616107
 21
2168.036426392835
 31
0.0
  0
LINE
  5
AAC96
330
B144A
100
AcDbEntity
  8
0
100
AcDbLine
 10
21989.61111616107
 20
2218.036426392835
 30
0.0
 11
21989.61111616107
 21
2193.036426392835
 31
0.0
  0
LINE
  5
AAC97
330
B144A
100
AcDbEntity
  8
0
100
AcDbLine
 10
21989.61111616107
 20
2218.036426392835
 30
0.0
 11
21989.61111616107
 21
2193.036426392835
 31
0.0
  0
LINE
  5
AAC98
330
B144A
100
AcDbEntity
  8
0
100
AcDbLine
 10
20989.61111616107
 20
2218.036426392835
 30
0.0
 11
20989.61111616107
 21
2193.036426392835
 31
0.0
  0
LINE
  5
AAC99
330
B144A
100
AcDbEntity
  8
0
100
AcDbLine
 10
20989.61111616107
 20
2218.036426392835
 30
0.0
 11
20989.61111616107
 21
2193.036426392835
 31
0.0
  0
LINE
  5
AAC9A
330
B144A
100
AcDbEntity
  8
0
100
AcDbLine
 10
21034.61111616107
 20
2193.036426392835
 30
0.0
 11
20989.61111616107
 21
2193.036426392835
 31
0.0
  0
LINE
  5
AAC9B
330
B144A
100
AcDbEntity
  8
0
100
AcDbLine
 10
21034.61111616107
 20
2193.036426392835
 30
0.0
 11
20989.61111616107
 21
2193.036426392835
 31
0.0
  0
LINE
  5
AAC9C
330
B144A
100
AcDbEntity
  8
0
100
AcDbLine
 10
20999.61111616107
 20
2193.036426392835
 30
0.0
 11
20999.61111616107
 21
2168.036426392835
 31
0.0
  0
LINE
  5
AAC9D
330
B144A
100
AcDbEntity
  8
0
100
AcDbLine
 10
20999.61111616107
 20
2193.036426392835
 30
0.0
 11
20999.61111616107
 21
2168.036426392835
 31
0.0
  0
LINE
  5
AAC9E
330
B144A
100
AcDbEntity
  8
0
100
AcDbLine
 10
21034.61111616107
 20
2193.036426392835
 30
0.0
 11
20989.61111616107
 21
2193.036426392835
 31
0.0
  0
LINE
  5
AAC9F
330
B144A
100
AcDbEntity
  8
0
100
AcDbLine
 10
21034.61111616107
 20
2193.036426392835
 30
0.0
 11
20989.61111616107
 21
2193.036426392835
 31
0.0
  0
LINE
  5
AACA0
330
B144A
100
AcDbEntity
  8
0
100
AcDbLine
 10
20999.61111616107
 20
2193.036426392835
 30
0.0
 11
20999.61111616107
 21
2168.036426392835
 31
0.0
  0
LINE
  5
AACA1
330
B144A
100
AcDbEntity
  8
0
100
AcDbLine
 10
20999.61111616107
 20
2193.036426392835
 30
0.0
 11
20999.61111616107
 21
2168.036426392835
 31
0.0
  0
LINE
  5
AACA2
330
B144A
100
AcDbEntity
  8
0
100
AcDbLine
 10
20989.61111616107
 20
2218.036426392835
 30
0.0
 11
20989.61111616107
 21
2193.036426392835
 31
0.0
  0
LINE
  5
AACA3
330
B144A
100
AcDbEntity
  8
0
100
AcDbLine
 10
20989.61111616107
 20
2218.036426392835
 30
0.0
 11
20989.61111616107
 21
2193.036426392835
 31
0.0
  0
LWPOLYLINE
  5
AACA4
330
B144A
100
AcDbEntity
  8
0
100
AcDbPolyline
 90
        4
 70
     1
 43
0.0
 10
21034.61111616107
 20
2218.036426392835
 10
21034.61111616107
 20
2193.036426392835
 10
20989.61111616107
 20
2193.036426392835
 10
20989.61111616107
 20
2218.036426392835
  0
LWPOLYLINE
  5
AACA5
330
B144A
100
AcDbEntity
  8
0
100
AcDbPolyline
 90
        4
 70
     1
 43
0.0
 10
21024.61111616107
 20
2193.036426392835
 10
21024.61111616107
 20
2168.036426392835
 10
20999.61111616107
 20
2168.036426392835
 10
20999.61111616107
 20
2193.036426392835
  0
LINE
  5
AACA6
330
B144A
100
AcDbEntity
  8
0
100
AcDbLine
 10
21989.61111616107
 20
2218.036426392835
 30
0.0
 11
21989.61111616107
 21
2193.036426392835
 31
0.0
  0
LINE
  5
AACA7
330
B144A
100
AcDbEntity
  8
0
100
AcDbLine
 10
21989.61111616107
 20
2218.036426392835
 30
0.0
 11
21989.61111616107
 21
2193.036426392835
 31
0.0
  0
LINE
  5
AACA8
330
B144A
100
AcDbEntity
  8
0
100
AcDbLine
 10
22034.61111616108
 20
2193.036426392835
 30
0.0
 11
21989.61111616107
 21
2193.036426392835
 31
0.0
  0
LINE
  5
AACA9
330
B144A
100
AcDbEntity
  8
0
100
AcDbLine
 10
22034.61111616108
 20
2193.036426392835
 30
0.0
 11
21989.61111616107
 21
2193.036426392835
 31
0.0
  0
LINE
  5
AACAA
330
B144A
100
AcDbEntity
  8
0
100
AcDbLine
 10
21999.61111616107
 20
2193.036426392835
 30
0.0
 11
21999.61111616107
 21
2168.036426392835
 31
0.0
  0
LINE
  5
AACAB
330
B144A
100
AcDbEntity
  8
0
100
AcDbLine
 10
21999.61111616107
 20
2193.036426392835
 30
0.0
 11
21999.61111616107
 21
2168.036426392835
 31
0.0
  0
LINE
  5
AACAC
330
B144A
100
AcDbEntity
  8
0
100
AcDbLine
 10
22034.61111616108
 20
2193.036426392835
 30
0.0
 11
21989.61111616107
 21
2193.036426392835
 31
0.0
  0
LINE
  5
AACAD
330
B144A
100
AcDbEntity
  8
0
100
AcDbLine
 10
22034.61111616108
 20
2193.036426392835
 30
0.0
 11
21989.61111616107
 21
2193.036426392835
 31
0.0
  0
LINE
  5
AACAE
330
B144A
100
AcDbEntity
  8
0
100
AcDbLine
 10
21999.61111616107
 20
2193.036426392835
 30
0.0
 11
21999.61111616107
 21
2168.036426392835
 31
0.0
  0
LINE
  5
AACAF
330
B144A
100
AcDbEntity
  8
0
100
AcDbLine
 10
21999.61111616107
 20
2193.036426392835
 30
0.0
 11
21999.61111616107
 21
2168.036426392835
 31
0.0
  0
LINE
  5
AACB0
330
B144A
100
AcDbEntity
  8
0
100
AcDbLine
 10
21989.61111616107
 20
2218.036426392835
 30
0.0
 11
21989.61111616107
 21
2193.036426392835
 31
0.0
  0
LINE
  5
AACB1
330
B144A
100
AcDbEntity
  8
0
100
AcDbLine
 10
21989.61111616107
 20
2218.036426392835
 30
0.0
 11
21989.61111616107
 21
2193.036426392835
 31
0.0
  0
LWPOLYLINE
  5
AACB2
330
B144A
100
AcDbEntity
  8
0
100
AcDbPolyline
 90
        4
 70
     1
 43
0.0
 10
22034.61111616108
 20
2218.036426392835
 10
22034.61111616108
 20
2193.036426392835
 10
21989.61111616107
 20
2193.036426392835
 10
21989.61111616107
 20
2218.036426392835
  0
LWPOLYLINE
  5
AACB3
330
B144A
100
AcDbEntity
  8
0
100
AcDbPolyline
 90
        4
 70
     1
 43
0.0
 10
22024.61111616107
 20
2193.036426392835
 10
22024.61111616107
 20
2168.036426392835
 10
21999.61111616107
 20
2168.036426392835
 10
21999.61111616107
 20
2193.036426392835
  0
LWPOLYLINE
  5
AACB4
330
B144A
100
AcDbEntity
  8
0
100
AcDbPolyline
 90
       14
 70
     0
 43
0.0
 10
22527.11111616104
 20
14295.44289643319
 10
22432.11111616104
 20
14325.44289643319
 10
22024.61111616105
 20
14325.44289643319
 10
22024.61111616105
 20
14300.44289643319
 10
21999.61111616104
 20
14300.44289643319
 10
21999.61111616104
 20
14325.44289643319
 10
21999.61111616104
 20
14325.44289643319
 10
21024.61111616104
 20
14325.44289643319
 10
21024.61111616104
 20
14300.44289643319
 10
20999.61111616104
 20
14300.44289643319
 10
20999.61111616104
 20
14325.44289643319
 10
20527.11111616104
 20
14325.44289643319
 10
20432.11111616104
 20
14295.44289643319
 10
22527.11111616104
 20
14295.44289643319
  0
LWPOLYLINE
  5
AACB5
330
B144A
100
AcDbEntity
  8
0
100
AcDbPolyline
 90
       14
 70
     0
 43
0.0
 10
22527.11111616106
 20
10251.30740641973
 10
22432.11111616106
 20
10281.30740641973
 10
22024.61111616106
 20
10281.30740641973
 10
22024.61111616106
 20
10256.30740641973
 10
21999.61111616106
 20
10256.30740641973
 10
21999.61111616106
 20
10281.30740641973
 10
21999.61111616106
 20
10281.30740641973
 10
21024.61111616106
 20
10281.30740641973
 10
21024.61111616106
 20
10256.30740641973
 10
20999.61111616106
 20
10256.30740641973
 10
20999.61111616106
 20
10281.30740641973
 10
20527.11111616106
 20
10281.30740641973
 10
20432.11111616106
 20
10251.30740641973
 10
22527.11111616106
 20
10251.30740641973
  0
LWPOLYLINE
  5
AACB6
330
B144A
100
AcDbEntity
  8
0
100
AcDbPolyline
 90
       14
 70
     0
 43
0.0
 10
22527.11111616104
 20
6207.171916406283
 10
22432.11111616104
 20
6237.171916406282
 10
22024.61111616105
 20
6237.171916406282
 10
22024.61111616105
 20
6212.171916406282
 10
21999.61111616104
 20
6212.171916406282
 10
21999.61111616104
 20
6237.171916406282
 10
21999.61111616104
 20
6237.171916406282
 10
21024.61111616104
 20
6237.171916406282
 10
21024.61111616104
 20
6212.171916406282
 10
20999.61111616104
 20
6212.171916406282
 10
20999.61111616104
 20
6237.171916406282
 10
20527.11111616104
 20
6237.171916406282
 10
20432.11111616104
 20
6207.171916406283
 10
22527.11111616104
 20
6207.171916406283
  0
LWPOLYLINE
  5
AACB7
330
B144A
100
AcDbEntity
  8
0
100
AcDbPolyline
 90
       14
 70
     0
 43
0.0
 10
22527.11111616108
 20
2163.036426392835
 10
22432.11111616107
 20
2193.036426392835
 10
22024.61111616106
 20
2193.036426392835
 10
22024.61111616106
 20
2168.036426392835
 10
21999.61111616106
 20
2168.036426392835
 10
21999.61111616106
 20
2193.036426392835
 10
21999.61111616106
 20
2193.036426392835
 10
21024.61111616107
 20
2193.036426392835
 10
21024.61111616107
 20
2168.036426392835
 10
20999.61111616106
 20
2168.036426392835
 10
20999.61111616106
 20
2193.036426392835
 10
20527.11111616106
 20
2193.036426392835
 10
20432.11111616107
 20
2163.036426392835
 10
22527.11111616108
 20
2163.036426392835
  0
LWPOLYLINE
  5
AACB8
330
B144A
100
AcDbEntity
  8
0
100
AcDbPolyline
 90
        4
 70
     1
 43
0.0
 10
22497.11111616128
 20
6783.171916405992
 10
22497.11111616128
 20
6757.171916405993
 10
21527.11111616126
 20
6757.171916405993
 10
21527.11111616126
 20
6783.171916405992
  0
LWPOLYLINE
  5
AACB9
330
B144A
100
AcDbEntity
  8
0
100
AcDbPolyline
 90
        4
 70
     1
 43
0.0
 10
22497.11111616128
 20
7183.171916405992
 10
22497.11111616128
 20
7157.171916405992
 10
21527.11111616126
 20
7157.171916405992
 10
21527.11111616126
 20
7183.171916405992
  0
LWPOLYLINE
  5
AACBA
330
B144A
100
AcDbEntity
  8
0
100
AcDbPolyline
 90
        4
 70
     1
 43
0.0
 10
20527.11111616126
 20
6757.171916405993
 10
20527.11111616126
 20
6783.171916405992
 10
21497.11111616128
 20
6783.171916405992
 10
21497.11111616128
 20
6757.171916405993
  0
LWPOLYLINE
  5
AACBB
330
B144A
100
AcDbEntity
  8
0
100
AcDbPolyline
 90
        4
 70
     1
 43
0.0
 10
20527.11111616126
 20
7157.171916405992
 10
20527.11111616126
 20
7183.171916405992
 10
21497.11111616128
 20
7183.171916405992
 10
21497.11111616128
 20
7157.171916405992
  0
LWPOLYLINE
  5
AACBC
330
B144A
100
AcDbEntity
  8
CLOTHES_RAIL
100
AcDbPolyline
 90
        4
 70
     1
 43
0.0
 10
22497.11111616126
 20
8109.671916405988
 10
22497.11111616126
 20
8083.671916405988
 10
21527.11111616126
 20
8083.671916405988
 10
21527.11111616126
 20
8109.671916405988
  0
LWPOLYLINE
  5
AACBD
330
B144A
100
AcDbEntity
  8
0
100
AcDbPolyline
 90
        4
 70
     1
 43
0.0
 10
22497.11111616126
 20
8183.171916405992
 10
22497.11111616126
 20
8157.171916405991
 10
21527.11111616126
 20
8157.171916405991
 10
21527.11111616126
 20
8183.171916405992
  0
LWPOLYLINE
  5
AACBE
330
B144A
100
AcDbEntity
  8
CLOTHES_RAIL
100
AcDbPolyline
 90
        4
 70
     1
 43
0.0
 10
20527.11111616078
 20
8109.671916405988
 10
20527.11111616078
 20
8083.671916405988
 10
21497.11111616078
 20
8083.671916405988
 10
21497.11111616078
 20
8109.671916405988
  0
LWPOLYLINE
  5
AACBF
330
B144A
100
AcDbEntity
  8
0
100
AcDbPolyline
 90
        4
 70
     1
 43
0.0
 10
20527.11111616126
 20
8157.171916405991
 10
20527.11111616126
 20
8183.171916405992
 10
21497.11111616126
 20
8183.171916405992
 10
21497.11111616126
 20
8157.171916405991
  0
LINE
  5
AACD7
330
B144A
100
AcDbEntity
  8
0
100
AcDbLine
 10
21527.11111616107
 20
4629.011226058442
 30
0.0
 11
22497.11111616119
 21
4629.011226058442
 31
0.0
1001
ACAD
1010
0.0
1020
0.0
1030
0.0
  0
LINE
  5
AACD8
330
B144A
100
AcDbEntity
  8
0
100
AcDbLine
 10
21527.11111616107
 20
4504.011226058442
 30
0.0
 11
22497.11111616119
 21
4504.011226058442
 31
0.0
1001
ACAD
1010
0.0
1020
0.0
1030
0.0
  0
LINE
  5
AACD9
330
B144A
100
AcDbEntity
  8
0
100
AcDbLine
 10
21527.11111616107
 20
4379.011226058442
 30
0.0
 11
22497.11111616119
 21
4379.011226058442
 31
0.0
1001
ACAD
1010
0.0
1020
0.0
1030
0.0
  0
LINE
  5
AACDA
330
B144A
100
AcDbEntity
  8
0
100
AcDbLine
 10
21497.11111616107
 20
4379.011226058442
 30
0.0
 11
20527.11111616094
 21
4379.011226058442
 31
0.0
1001
ACAD
1010
0.0
1020
0.0
1030
0.0
  0
LINE
  5
AACDB
330
B144A
100
AcDbEntity
  8
0
100
AcDbLine
 10
21497.11111616107
 20
4504.011226058442
 30
0.0
 11
20527.11111616094
 21
4504.011226058442
 31
0.0
1001
ACAD
1010
0.0
1020
0.0
1030
0.0
  0
LINE
  5
AACDC
330
B144A
100
AcDbEntity
  8
0
100
AcDbLine
 10
21497.11111616107
 20
4629.011226058442
 30
0.0
 11
20527.11111616094
 21
4629.011226058442
 31
0.0
1001
ACAD
1010
0.0
1020
0.0
1030
0.0
  0
LWPOLYLINE
  5
AACE3
330
B144A
100
AcDbEntity
  8
0
100
AcDbPolyline
 90
        4
 70
     1
 43
0.0
 10
22497.11111616126
 20
8483.17191640599
 10
22497.11111616126
 20
8457.171916405992
 10
21527.11111616126
 20
8457.171916405992
 10
21527.11111616126
 20
8483.17191640599
  0
LWPOLYLINE
  5
AACE4
330
B144A
100
AcDbEntity
  8
0
100
AcDbPolyline
 90
        4
 70
     1
 43
0.0
 10
20527.11111616127
 20
8457.171916405992
 10
20527.11111616127
 20
8483.17191640599
 10
21497.11111616127
 20
8483.17191640599
 10
21497.11111616127
 20
8457.171916405992
  0
LWPOLYLINE
  5
AACE5
330
B144A
100
AcDbEntity
  8
0
100
AcDbPolyline
 90
        4
 70
     1
 43
0.0
 10
22497.1111161613
 20
12577.30740641974
 10
22497.1111161613
 20
12551.30740641974
 10
21527.1111161613
 20
12551.30740641974
 10
21527.1111161613
 20
12577.30740641974
  0
LWPOLYLINE
  5
AACE7
330
B144A
100
AcDbEntity
  8
0
100
AcDbPolyline
 90
        4
 70
     1
 43
0.0
 10
20527.1111161613
 20
12551.30740641974
 10
20527.1111161613
 20
12577.30740641974
 10
21497.1111161613
 20
12577.30740641974
 10
21497.1111161613
 20
12551.30740641974
  0
LWPOLYLINE
  5
AACE9
330
B144A
100
AcDbEntity
  8
0
100
AcDbPolyline
 90
        4
 70
     1
 43
0.0
 10
22497.11111616128
 20
16471.4428964329
 10
22497.11111616128
 20
16445.4428964329
 10
21527.11111616126
 20
16445.4428964329
 10
21527.11111616126
 20
16471.4428964329
  0
LWPOLYLINE
  5
AACEB
330
B144A
100
AcDbEntity
  8
0
100
AcDbPolyline
 90
        4
 70
     1
 43
0.0
 10
20527.11111616126
 20
16445.4428964329
 10
20527.11111616126
 20
16471.4428964329
 10
21497.11111616128
 20
16471.4428964329
 10
21497.11111616128
 20
16445.4428964329
  0
LWPOLYLINE
  5
AAD25
330
B144A
100
AcDbEntity
  8
0
100
AcDbPolyline
 90
        2
 70
     0
 43
0.0
 10
24141.98945446307
 20
2163.036426392835
 10
25138.40288157848
 20
2163.036426392835
  0
LWPOLYLINE
  5
AAD6E
330
B144A
100
AcDbEntity
  8
0
100
AcDbPolyline
 90
        2
 70
     0
 43
0.0
 10
33278.52842564187
 20
6202.171916406282
 10
27282.11499852646
 20
6202.171916406282
  0
LWPOLYLINE
  5
ABFC8
330
B144A
100
AcDbEntity
  8
0
100
AcDbPolyline
 90
        2
 70
     0
 43
0.0
 10
8870.219913350578
 20
14295.57838644662
 10
9870.21991335058
 20
14295.57838644662
  0
LWPOLYLINE
  5
ABFC9
330
B144A
100
AcDbEntity
  8
0
100
AcDbPolyline
 90
        2
 70
     0
 43
0.0
 10
10240.30801134699
 20
14295.57838644662
 10
11240.30801134699
 20
14295.57838644662
  0
LWPOLYLINE
  5
ABFCA
330
B144A
100
AcDbEntity
  8
0
100
AcDbPolyline
 90
        2
 70
     0
 43
0.0
 10
11610.3961093434
 20
14295.57838644662
 10
12610.3961093434
 20
14295.57838644662
  0
LWPOLYLINE
  5
ABFCB
330
B144A
100
AcDbEntity
  8
0
100
AcDbPolyline
 90
        2
 70
     0
 43
0.0
 10
12980.48420733981
 20
14295.57838644662
 10
13980.48420733982
 20
14295.57838644662
  0
LWPOLYLINE
  5
ABFCC
330
B144A
100
AcDbEntity
  8
0
100
AcDbPolyline
 90
        2
 70
     0
 43
0.0
 10
14350.57230533624
 20
14295.57838644662
 10
15350.57230533624
 20
14295.57838644662
  0
CIRCLE
  5
ABFCD
330
B144A
100
AcDbEntity
  8
0
100
AcDbCircle
 10
10651.71039822468
 20
15289.76098349778
 30
0.0
 40
26.6188882392234
  0
ARC
  5
ABFCE
330
B144A
100
AcDbEntity
  8
0
100
AcDbCircle
 10
10536.1599818095
 20
15174.17053875211
 30
0.0
 40
174.9416628924599
100
AcDbArc
 50
53.15109948308578
 51
36.86874516371485
  0
ARC
  5
ABFCF
330
B144A
100
AcDbEntity
  8
0
100
AcDbCircle
 10
10536.09104268925
 20
15174.15647879051
 30
0.0
 40
152.0954421879083
100
AcDbArc
 50
53.7437419628992
 51
36.24889815847135
  0
LWPOLYLINE
  5
ABFD0
330
B144A
100
AcDbEntity
  8
0
100
AcDbPolyline
 90
        5
 70
     1
 43
0.0
 10
10690.5184469161
 20
14350.57838644662
 10
10435.82190603173
 20
14350.57838644662
 10
10435.82190603173
 20
15030.8636793043
 42
0.4500709718572363
 10
10690.5184469161
 20
15091.84162727199
 10
10690.5184469161
 20
14350.57838644662
  0
LWPOLYLINE
  5
ABFD1
330
B144A
100
AcDbEntity
  8
0
100
AcDbPolyline
 90
        9
 70
     0
 43
0.0
 10
10390.30801134699
 20
15270.77171953056
 42
-0.4313481873912146
 10
10641.07368393607
 20
15314.16232608862
 42
-0.6814225353586246
 10
10676.11542342489
 20
15279.13272136003
 42
-0.2912012462252227
 10
10690.5184469161
 20
15091.84162727202
 10
10690.5184469161
 20
14350.57838644662
 10
11090.30801134699
 20
14350.57838644662
 10
11090.30801134699
 20
17330.57838644666
 10
10390.30801134699
 20
17330.57838644666
 10
10390.30801134699
 20
15270.77171953056
  0
LWPOLYLINE
  5
ABFD2
330
B144A
100
AcDbEntity
  8
0
100
AcDbPolyline
 90
        5
 70
     0
 43
0.0
 10
10435.82190603173
 20
15030.8636793043
 10
10435.82190603173
 20
14350.57838644662
 10
10390.30801134699
 20
14350.57838644662
 10
10390.30801134699
 20
15077.56935797367
 42
0.0940184742794634
 10
10435.82190603173
 20
15030.8636793043
 42
0.0940184742794634
  0
LWPOLYLINE
  5
ABFD3
330
B144A
100
AcDbEntity
  8
0
100
AcDbPolyline
 90
        5
 70
     0
 43
0.0
 10
9115.733808035322
 20
15030.8636793043
 10
9115.733808035322
 20
14350.57838644662
 10
9070.219913350578
 20
14350.57838644662
 10
9070.219913350578
 20
15077.56935797367
 42
0.0940184742794634
 10
9115.733808035322
 20
15030.8636793043
 42
0.0940184742794634
  0
LWPOLYLINE
  5
ABFD4
330
B144A
100
AcDbEntity
  8
0
100
AcDbPolyline
 90
        9
 70
     0
 43
0.0
 10
9070.219913350578
 20
15270.77171953056
 42
-0.4313481873912146
 10
9320.985585939648
 20
15314.16232608862
 42
-0.6814225353586246
 10
9356.027325428484
 20
15279.13272136003
 42
-0.2912012462252227
 10
9370.430348919692
 20
15091.84162727202
 10
9370.430348919692
 20
14350.57838644662
 10
9670.219913350578
 20
14350.57838644662
 10
9670.219913350578
 20
17330.57838644666
 10
9070.219913350578
 20
17330.57838644666
 10
9070.219913350578
 20
15270.77171953056
  0
LWPOLYLINE
  5
ABFD5
330
B144A
100
AcDbEntity
  8
0
100
AcDbPolyline
 90
        5
 70
     1
 43
0.0
 10
9370.430348919692
 20
14350.57838644662
 10
9115.733808035322
 20
14350.57838644662
 10
9115.733808035322
 20
15030.8636793043
 42
0.4500709718572363
 10
9370.430348919692
 20
15091.84162727199
 10
9370.430348919692
 20
14350.57838644662
  0
ARC
  5
ABFD6
330
B144A
100
AcDbEntity
  8
0
100
AcDbCircle
 10
9216.00294469284
 20
15174.15647879051
 30
0.0
 40
152.0954421879083
100
AcDbArc
 50
53.7437419628992
 51
36.24889815847135
  0
ARC
  5
ABFD7
330
B144A
100
AcDbEntity
  8
0
100
AcDbCircle
 10
9216.07188381307
 20
15174.17053875211
 30
0.0
 40
174.9416628924599
100
AcDbArc
 50
53.15109948308578
 51
36.86874516371485
  0
CIRCLE
  5
ABFD8
330
B144A
100
AcDbEntity
  8
0
100
AcDbCircle
 10
9331.622300228248
 20
15289.76098349778
 30
0.0
 40
26.6188882392234
  0
CIRCLE
  5
ABFD9
330
B144A
100
AcDbEntity
  8
0
100
AcDbCircle
 10
11971.79849622109
 20
15289.76098349778
 30
0.0
 40
26.6188882392234
  0
ARC
  5
ABFDA
330
B144A
100
AcDbEntity
  8
0
100
AcDbCircle
 10
11856.24807980591
 20
15174.17053875211
 30
0.0
 40
174.9416628924599
100
AcDbArc
 50
53.15109948308578
 51
36.86874516371485
  0
ARC
  5
ABFDB
330
B144A
100
AcDbEntity
  8
0
100
AcDbCircle
 10
11856.17914068568
 20
15174.15647879051
 30
0.0
 40
152.0954421879083
100
AcDbArc
 50
53.7437419628992
 51
36.24889815847135
  0
LWPOLYLINE
  5
ABFDC
330
B144A
100
AcDbEntity
  8
0
100
AcDbPolyline
 90
        5
 70
     1
 43
0.0
 10
12010.60654491253
 20
14350.57838644662
 10
11755.91000402815
 20
14350.57838644662
 10
11755.91000402815
 20
15030.8636793043
 42
0.4500709718572363
 10
12010.60654491253
 20
15091.84162727199
 10
12010.60654491253
 20
14350.57838644662
  0
LWPOLYLINE
  5
ABFDD
330
B144A
100
AcDbEntity
  8
0
100
AcDbPolyline
 90
        9
 70
     0
 43
0.0
 10
11710.3961093434
 20
15270.77171953056
 42
-0.4313481873912146
 10
11961.16178193249
 20
15314.16232608862
 42
-0.6814225353586246
 10
11996.20352142131
 20
15279.13272136003
 42
-0.2912012462252227
 10
12010.60654491253
 20
15091.84162727202
 10
12010.60654491253
 20
14350.57838644662
 10
12510.3961093434
 20
14350.57838644662
 10
12510.3961093434
 20
17330.57838644666
 10
11710.3961093434
 20
17330.57838644666
 10
11710.3961093434
 20
15270.77171953056
  0
LWPOLYLINE
  5
ABFDE
330
B144A
100
AcDbEntity
  8
0
100
AcDbPolyline
 90
        5
 70
     0
 43
0.0
 10
11755.91000402815
 20
15030.8636793043
 10
11755.91000402815
 20
14350.57838644662
 10
11710.3961093434
 20
14350.57838644662
 10
11710.3961093434
 20
15077.56935797367
 42
0.0940184742794634
 10
11755.91000402815
 20
15030.8636793043
 42
0.0940184742794634
  0
LWPOLYLINE
  5
ABFDF
330
B144A
100
AcDbEntity
  8
0
100
AcDbPolyline
 90
        5
 70
     0
 43
0.0
 10
13075.99810202457
 20
15030.8636793043
 10
13075.99810202457
 20
14350.57838644662
 10
13030.48420733982
 20
14350.57838644662
 10
13030.48420733982
 20
15077.56935797367
 42
0.0940184742794634
 10
13075.99810202457
 20
15030.8636793043
 42
0.0940184742794634
  0
LWPOLYLINE
  5
ABFE0
330
B144A
100
AcDbEntity
  8
0
100
AcDbPolyline
 90
        9
 70
     0
 43
0.0
 10
13030.48420733982
 20
15270.77171953056
 42
-0.4313481873912146
 10
13281.2498799289
 20
15314.16232608862
 42
-0.6814225353586246
 10
13316.29161941774
 20
15279.13272136003
 42
-0.2912012462252227
 10
13330.69464290894
 20
15091.84162727202
 10
13330.69464290894
 20
14350.57838644662
 10
13930.48420733982
 20
14350.57838644662
 10
13930.48420733982
 20
17330.57838644666
 10
13030.48420733982
 20
17330.57838644666
 10
13030.48420733982
 20
15270.77171953056
  0
LWPOLYLINE
  5
ABFE1
330
B144A
100
AcDbEntity
  8
0
100
AcDbPolyline
 90
        5
 70
     1
 43
0.0
 10
13330.69464290894
 20
14350.57838644662
 10
13075.99810202457
 20
14350.57838644662
 10
13075.99810202457
 20
15030.8636793043
 42
0.4500709718572363
 10
13330.69464290894
 20
15091.84162727199
 10
13330.69464290894
 20
14350.57838644662
  0
ARC
  5
ABFE2
330
B144A
100
AcDbEntity
  8
0
100
AcDbCircle
 10
13176.26723868209
 20
15174.15647879051
 30
0.0
 40
152.0954421879083
100
AcDbArc
 50
53.7437419628992
 51
36.24889815847135
  0
ARC
  5
ABFE3
330
B144A
100
AcDbEntity
  8
0
100
AcDbCircle
 10
13176.33617780232
 20
15174.17053875211
 30
0.0
 40
174.9416628924599
100
AcDbArc
 50
53.15109948308578
 51
36.86874516371485
  0
CIRCLE
  5
ABFE4
330
B144A
100
AcDbEntity
  8
0
100
AcDbCircle
 10
13291.8865942175
 20
15289.76098349778
 30
0.0
 40
26.6188882392234
  0
CIRCLE
  5
ABFE5
330
B144A
100
AcDbEntity
  8
0
100
AcDbCircle
 10
14611.97469221391
 20
15289.76098349778
 30
0.0
 40
26.6188882392234
  0
ARC
  5
ABFE6
330
B144A
100
AcDbEntity
  8
0
100
AcDbCircle
 10
14496.42427579875
 20
15174.17053875211
 30
0.0
 40
174.9416628924599
100
AcDbArc
 50
53.15109948308578
 51
36.86874516371485
  0
ARC
  5
ABFE7
330
B144A
100
AcDbEntity
  8
0
100
AcDbCircle
 10
14496.3553366785
 20
15174.15647879051
 30
0.0
 40
152.0954421879083
100
AcDbArc
 50
53.7437419628992
 51
36.24889815847135
  0
LWPOLYLINE
  5
ABFE8
330
B144A
100
AcDbEntity
  8
0
100
AcDbPolyline
 90
        5
 70
     1
 43
0.0
 10
14650.78274090535
 20
14350.57838644662
 10
14396.08620002099
 20
14350.57838644662
 10
14396.08620002099
 20
15030.8636793043
 42
0.4500709718572363
 10
14650.78274090535
 20
15091.84162727199
 10
14650.78274090535
 20
14350.57838644662
  0
LWPOLYLINE
  5
ABFE9
330
B144A
100
AcDbEntity
  8
0
100
AcDbPolyline
 90
        9
 70
     0
 43
0.0
 10
14350.57230533624
 20
15270.77171953056
 42
-0.4313481873912146
 10
14601.33797792533
 20
15314.16232608862
 42
-0.6814225353586246
 10
14636.37971741414
 20
15279.13272136003
 42
-0.2912012462252227
 10
14650.78274090535
 20
15091.84162727202
 10
14650.78274090535
 20
14350.57838644662
 10
15350.57230533624
 20
14350.57838644662
 10
15350.57230533624
 20
17330.57838644666
 10
14350.57230533624
 20
17330.57838644666
 10
14350.57230533624
 20
15270.77171953056
  0
LWPOLYLINE
  5
ABFEA
330
B144A
100
AcDbEntity
  8
0
100
AcDbPolyline
 90
        5
 70
     0
 43
0.0
 10
14396.08620002099
 20
15030.8636793043
 10
14396.08620002099
 20
14350.57838644662
 10
14350.57230533624
 20
14350.57838644662
 10
14350.57230533624
 20
15077.56935797367
 42
0.0940184742794634
 10
14396.08620002099
 20
15030.8636793043
 42
0.0940184742794634
  0
LWPOLYLINE
  5
ABFEB
330
B144A
100
AcDbEntity
  8
0
100
AcDbPolyline
 90
        5
 70
     0
 43
0.0
 10
14396.08620002099
 20
11597.72818929085
 10
14396.08620002099
 20
10917.44289643316
 10
14350.57230533624
 20
10917.44289643316
 10
14350.57230533624
 20
11644.43386796022
 42
0.0940184742794634
 10
14396.08620002099
 20
11597.72818929085
 42
0.0940184742794634
  0
LWPOLYLINE
  5
ABFEC
330
B144A
100
AcDbEntity
  8
0
100
AcDbPolyline
 90
        9
 70
     0
 43
0.0
 10
14350.57230533624
 20
11837.63622951711
 42
-0.4313481873912146
 10
14601.33797792533
 20
11881.02683607518
 42
-0.6814225353586246
 10
14636.37971741414
 20
11845.99723134658
 42
-0.2912012462252227
 10
14650.78274090535
 20
11658.70613725857
 10
14650.78274090535
 20
10917.44289643316
 10
15350.57230533624
 20
10917.44289643316
 10
15350.57230533624
 20
13747.44289643322
 10
14350.57230533624
 20
13747.44289643322
 10
14350.57230533624
 20
11837.63622951711
  0
LWPOLYLINE
  5
ABFED
330
B144A
100
AcDbEntity
  8
0
100
AcDbPolyline
 90
        5
 70
     1
 43
0.0
 10
14650.78274090535
 20
10917.44289643316
 10
14396.08620002099
 20
10917.44289643316
 10
14396.08620002099
 20
11597.72818929085
 42
0.4500709718572363
 10
14650.78274090535
 20
11658.70613725854
 10
14650.78274090535
 20
10917.44289643316
  0
ARC
  5
ABFEE
330
B144A
100
AcDbEntity
  8
0
100
AcDbCircle
 10
14496.3553366785
 20
11741.02098877708
 30
0.0
 40
152.0954421879083
100
AcDbArc
 50
53.7437419628992
 51
36.24889815847135
  0
ARC
  5
ABFEF
330
B144A
100
AcDbEntity
  8
0
100
AcDbCircle
 10
14496.42427579875
 20
11741.03504873867
 30
0.0
 40
174.9416628924599
100
AcDbArc
 50
53.15109948308578
 51
36.86874516371485
  0
CIRCLE
  5
ABFF0
330
B144A
100
AcDbEntity
  8
0
100
AcDbCircle
 10
14611.97469221391
 20
11856.62549348433
 30
0.0
 40
26.6188882392234
  0
CIRCLE
  5
ABFF1
330
B144A
100
AcDbEntity
  8
0
100
AcDbCircle
 10
13291.8865942175
 20
11856.62549348433
 30
0.0
 40
26.6188882392234
  0
ARC
  5
ABFF2
330
B144A
100
AcDbEntity
  8
0
100
AcDbCircle
 10
13176.33617780232
 20
11741.03504873867
 30
0.0
 40
174.9416628924599
100
AcDbArc
 50
53.15109948308578
 51
36.86874516371485
  0
ARC
  5
ABFF3
330
B144A
100
AcDbEntity
  8
0
100
AcDbCircle
 10
13176.26723868209
 20
11741.02098877708
 30
0.0
 40
152.0954421879083
100
AcDbArc
 50
53.7437419628992
 51
36.24889815847135
  0
LWPOLYLINE
  5
ABFF4
330
B144A
100
AcDbEntity
  8
0
100
AcDbPolyline
 90
        5
 70
     1
 43
0.0
 10
13330.69464290894
 20
10917.44289643316
 10
13075.99810202457
 20
10917.44289643316
 10
13075.99810202457
 20
11597.72818929085
 42
0.4500709718572363
 10
13330.69464290894
 20
11658.70613725854
 10
13330.69464290894
 20
10917.44289643316
  0
LWPOLYLINE
  5
ABFF5
330
B144A
100
AcDbEntity
  8
0
100
AcDbPolyline
 90
        9
 70
     0
 43
0.0
 10
13030.48420733982
 20
11837.63622951711
 42
-0.4313481873912146
 10
13281.2498799289
 20
11881.02683607518
 42
-0.6814225353586246
 10
13316.29161941774
 20
11845.99723134658
 42
-0.2912012462252227
 10
13330.69464290894
 20
11658.70613725857
 10
13330.69464290894
 20
10917.44289643316
 10
13930.48420733982
 20
10917.44289643316
 10
13930.48420733982
 20
13747.44289643322
 10
13030.48420733982
 20
13747.44289643322
 10
13030.48420733982
 20
11837.63622951711
  0
LWPOLYLINE
  5
ABFF6
330
B144A
100
AcDbEntity
  8
0
100
AcDbPolyline
 90
        5
 70
     0
 43
0.0
 10
13075.99810202457
 20
11597.72818929085
 10
13075.99810202457
 20
10917.44289643316
 10
13030.48420733982
 20
10917.44289643316
 10
13030.48420733982
 20
11644.43386796022
 42
0.0940184742794634
 10
13075.99810202457
 20
11597.72818929085
 42
0.0940184742794634
  0
LWPOLYLINE
  5
ABFF7
330
B144A
100
AcDbEntity
  8
0
100
AcDbPolyline
 90
        5
 70
     0
 43
0.0
 10
11755.91000402815
 20
11597.72818929085
 10
11755.91000402815
 20
10917.44289643316
 10
11710.3961093434
 20
10917.44289643316
 10
11710.3961093434
 20
11644.43386796022
 42
0.0940184742794634
 10
11755.91000402815
 20
11597.72818929085
 42
0.0940184742794634
  0
LWPOLYLINE
  5
ABFF8
330
B144A
100
AcDbEntity
  8
0
100
AcDbPolyline
 90
        9
 70
     0
 43
0.0
 10
11710.3961093434
 20
11837.63622951711
 42
-0.4313481873912146
 10
11961.16178193249
 20
11881.02683607518
 42
-0.6814225353586246
 10
11996.20352142131
 20
11845.99723134658
 42
-0.2912012462252227
 10
12010.60654491253
 20
11658.70613725857
 10
12010.60654491253
 20
10917.44289643316
 10
12510.3961093434
 20
10917.44289643316
 10
12510.3961093434
 20
13747.44289643322
 10
11710.3961093434
 20
13747.44289643322
 10
11710.3961093434
 20
11837.63622951711
  0
LWPOLYLINE
  5
ABFF9
330
B144A
100
AcDbEntity
  8
0
100
AcDbPolyline
 90
        5
 70
     1
 43
0.0
 10
12010.60654491253
 20
10917.44289643316
 10
11755.91000402815
 20
10917.44289643316
 10
11755.91000402815
 20
11597.72818929085
 42
0.4500709718572363
 10
12010.60654491253
 20
11658.70613725854
 10
12010.60654491253
 20
10917.44289643316
  0
ARC
  5
ABFFA
330
B144A
100
AcDbEntity
  8
0
100
AcDbCircle
 10
11856.17914068568
 20
11741.02098877708
 30
0.0
 40
152.0954421879083
100
AcDbArc
 50
53.7437419628992
 51
36.24889815847135
  0
ARC
  5
ABFFB
330
B144A
100
AcDbEntity
  8
0
100
AcDbCircle
 10
11856.24807980591
 20
11741.03504873867
 30
0.0
 40
174.9416628924599
100
AcDbArc
 50
53.15109948308578
 51
36.86874516371485
  0
CIRCLE
  5
ABFFC
330
B144A
100
AcDbEntity
  8
0
100
AcDbCircle
 10
11971.79849622109
 20
11856.62549348433
 30
0.0
 40
26.6188882392234
  0
CIRCLE
  5
ABFFD
330
B144A
100
AcDbEntity
  8
0
100
AcDbCircle
 10
9331.622300228248
 20
11856.62549348433
 30
0.0
 40
26.6188882392234
  0
ARC
  5
ABFFE
330
B144A
100
AcDbEntity
  8
0
100
AcDbCircle
 10
9216.07188381307
 20
11741.03504873867
 30
0.0
 40
174.9416628924599
100
AcDbArc
 50
53.15109948308578
 51
36.86874516371485
  0
ARC
  5
ABFFF
330
B144A
100
AcDbEntity
  8
0
100
AcDbCircle
 10
9216.00294469284
 20
11741.02098877708
 30
0.0
 40
152.0954421879083
100
AcDbArc
 50
53.7437419628992
 51
36.24889815847135
  0
LWPOLYLINE
  5
AC000
330
B144A
100
AcDbEntity
  8
0
100
AcDbPolyline
 90
        5
 70
     1
 43
0.0
 10
9370.430348919692
 20
10917.44289643316
 10
9115.733808035322
 20
10917.44289643316
 10
9115.733808035322
 20
11597.72818929085
 42
0.4500709718572363
 10
9370.430348919692
 20
11658.70613725854
 10
9370.430348919692
 20
10917.44289643316
  0
LWPOLYLINE
  5
AC001
330
B144A
100
AcDbEntity
  8
0
100
AcDbPolyline
 90
        9
 70
     0
 43
0.0
 10
9070.219913350578
 20
11837.63622951711
 42
-0.4313481873912146
 10
9320.985585939648
 20
11881.02683607518
 42
-0.6814225353586246
 10
9356.027325428484
 20
11845.99723134658
 42
-0.2912012462252227
 10
9370.430348919692
 20
11658.70613725857
 10
9370.430348919692
 20
10917.44289643316
 10
9670.219913350578
 20
10917.44289643316
 10
9670.219913350578
 20
13747.44289643322
 10
9070.219913350578
 20
13747.44289643322
 10
9070.219913350578
 20
11837.63622951711
  0
LWPOLYLINE
  5
AC002
330
B144A
100
AcDbEntity
  8
0
100
AcDbPolyline
 90
        5
 70
     0
 43
0.0
 10
9115.733808035322
 20
11597.72818929085
 10
9115.733808035322
 20
10917.44289643316
 10
9070.219913350578
 20
10917.44289643316
 10
9070.219913350578
 20
11644.43386796022
 42
0.0940184742794634
 10
9115.733808035322
 20
11597.72818929085
 42
0.0940184742794634
  0
LWPOLYLINE
  5
AC003
330
B144A
100
AcDbEntity
  8
0
100
AcDbPolyline
 90
        5
 70
     0
 43
0.0
 10
10435.82190603173
 20
11597.72818929085
 10
10435.82190603173
 20
10917.44289643316
 10
10390.30801134699
 20
10917.44289643316
 10
10390.30801134699
 20
11644.43386796022
 42
0.0940184742794634
 10
10435.82190603173
 20
11597.72818929085
 42
0.0940184742794634
  0
LWPOLYLINE
  5
AC004
330
B144A
100
AcDbEntity
  8
0
100
AcDbPolyline
 90
        9
 70
     0
 43
0.0
 10
10390.30801134699
 20
11837.63622951711
 42
-0.4313481873912146
 10
10641.07368393607
 20
11881.02683607518
 42
-0.6814225353586246
 10
10676.11542342489
 20
11845.99723134658
 42
-0.2912012462252227
 10
10690.5184469161
 20
11658.70613725857
 10
10690.5184469161
 20
10917.44289643316
 10
11090.30801134699
 20
10917.44289643316
 10
11090.30801134699
 20
13747.44289643322
 10
10390.30801134699
 20
13747.44289643322
 10
10390.30801134699
 20
11837.63622951711
  0
LWPOLYLINE
  5
AC005
330
B144A
100
AcDbEntity
  8
0
100
AcDbPolyline
 90
        5
 70
     1
 43
0.0
 10
10690.5184469161
 20
10917.44289643316
 10
10435.82190603173
 20
10917.44289643316
 10
10435.82190603173
 20
11597.72818929085
 42
0.4500709718572363
 10
10690.5184469161
 20
11658.70613725854
 10
10690.5184469161
 20
10917.44289643316
  0
ARC
  5
AC006
330
B144A
100
AcDbEntity
  8
0
100
AcDbCircle
 10
10536.09104268925
 20
11741.02098877708
 30
0.0
 40
152.0954421879083
100
AcDbArc
 50
53.7437419628992
 51
36.24889815847135
  0
ARC
  5
AC007
330
B144A
100
AcDbEntity
  8
0
100
AcDbCircle
 10
10536.1599818095
 20
11741.03504873867
 30
0.0
 40
174.9416628924599
100
AcDbArc
 50
53.15109948308578
 51
36.86874516371485
  0
CIRCLE
  5
AC008
330
B144A
100
AcDbEntity
  8
0
100
AcDbCircle
 10
10651.71039822468
 20
11856.62549348433
 30
0.0
 40
26.6188882392234
  0
LWPOLYLINE
  5
AC009
330
B144A
100
AcDbEntity
  8
0
100
AcDbPolyline
 90
        2
 70
     0
 43
0.0
 10
14350.57230533624
 20
10862.44289643317
 10
15350.57230533624
 20
10862.44289643317
  0
LWPOLYLINE
  5
AC00A
330
B144A
100
AcDbEntity
  8
0
100
AcDbPolyline
 90
        2
 70
     0
 43
0.0
 10
12980.48420733981
 20
10862.44289643317
 10
13980.48420733982
 20
10862.44289643317
  0
LWPOLYLINE
  5
AC00B
330
B144A
100
AcDbEntity
  8
0
100
AcDbPolyline
 90
        2
 70
     0
 43
0.0
 10
11610.3961093434
 20
10862.44289643317
 10
12610.3961093434
 20
10862.44289643317
  0
LWPOLYLINE
  5
AC00C
330
B144A
100
AcDbEntity
  8
0
100
AcDbPolyline
 90
        2
 70
     0
 43
0.0
 10
10240.30801134699
 20
10862.44289643317
 10
11240.30801134699
 20
10862.44289643317
  0
LWPOLYLINE
  5
AC00D
330
B144A
100
AcDbEntity
  8
0
100
AcDbPolyline
 90
        2
 70
     0
 43
0.0
 10
8870.219913350578
 20
10862.44289643317
 10
9870.21991335058
 20
10862.44289643317
  0
LWPOLYLINE
  5
AC00E
330
B144A
100
AcDbEntity
  8
0
100
AcDbPolyline
 90
        2
 70
     0
 43
0.0
 10
8870.219913350578
 20
7729.307406419728
 10
9870.21991335058
 20
7729.307406419728
  0
LWPOLYLINE
  5
AC00F
330
B144A
100
AcDbEntity
  8
0
100
AcDbPolyline
 90
        2
 70
     0
 43
0.0
 10
10240.30801134699
 20
7729.307406419728
 10
11240.30801134699
 20
7729.307406419728
  0
LWPOLYLINE
  5
AC010
330
B144A
100
AcDbEntity
  8
0
100
AcDbPolyline
 90
        2
 70
     0
 43
0.0
 10
11610.3961093434
 20
7729.307406419728
 10
12610.3961093434
 20
7729.307406419728
  0
LWPOLYLINE
  5
AC011
330
B144A
100
AcDbEntity
  8
0
100
AcDbPolyline
 90
        2
 70
     0
 43
0.0
 10
12980.48420733981
 20
7729.307406419728
 10
13980.48420733982
 20
7729.307406419728
  0
LWPOLYLINE
  5
AC012
330
B144A
100
AcDbEntity
  8
0
100
AcDbPolyline
 90
        2
 70
     0
 43
0.0
 10
14350.57230533624
 20
7729.307406419728
 10
15350.57230533624
 20
7729.307406419728
  0
CIRCLE
  5
AC013
330
B144A
100
AcDbEntity
  8
0
100
AcDbCircle
 10
10651.71039822468
 20
8723.490003470883
 30
0.0
 40
26.6188882392234
  0
ARC
  5
AC014
330
B144A
100
AcDbEntity
  8
0
100
AcDbCircle
 10
10536.1599818095
 20
8607.89955872522
 30
0.0
 40
174.9416628924599
100
AcDbArc
 50
53.15109948308578
 51
36.86874516371485
  0
ARC
  5
AC015
330
B144A
100
AcDbEntity
  8
0
100
AcDbCircle
 10
10536.09104268925
 20
8607.88549876363
 30
0.0
 40
152.0954421879083
100
AcDbArc
 50
53.7437419628992
 51
36.24889815847135
  0
LWPOLYLINE
  5
AC016
330
B144A
100
AcDbEntity
  8
0
100
AcDbPolyline
 90
        5
 70
     1
 43
0.0
 10
10690.5184469161
 20
7784.307406419728
 10
10435.82190603173
 20
7784.307406419728
 10
10435.82190603173
 20
8464.592699277404
 42
0.4500709718572363
 10
10690.5184469161
 20
8525.570647245098
 10
10690.5184469161
 20
7784.307406419728
  0
LWPOLYLINE
  5
AC017
330
B144A
100
AcDbEntity
  8
0
100
AcDbPolyline
 90
        9
 70
     0
 43
0.0
 10
10390.30801134699
 20
8704.500739503666
 42
-0.4313481873912146
 10
10641.07368393607
 20
8747.891346061733
 42
-0.6814225353586246
 10
10676.11542342489
 20
8712.86174133314
 42
-0.2912012462252227
 10
10690.5184469161
 20
8525.570647245124
 10
10690.5184469161
 20
7784.307406419728
 10
11090.30801134699
 20
7784.307406419728
 10
11090.30801134699
 20
10314.30740641977
 10
10390.30801134699
 20
10314.30740641977
 10
10390.30801134699
 20
8704.500739503666
  0
LWPOLYLINE
  5
AC018
330
B144A
100
AcDbEntity
  8
0
100
AcDbPolyline
 90
        5
 70
     0
 43
0.0
 10
10435.82190603173
 20
8464.592699277404
 10
10435.82190603173
 20
7784.307406419728
 10
10390.30801134699
 20
7784.307406419728
 10
10390.30801134699
 20
8511.298377946776
 42
0.0940184742794634
 10
10435.82190603173
 20
8464.592699277404
 42
0.0940184742794634
  0
LWPOLYLINE
  5
AC019
330
B144A
100
AcDbEntity
  8
0
100
AcDbPolyline
 90
        5
 70
     0
 43
0.0
 10
9115.733808035322
 20
8464.592699277404
 10
9115.733808035322
 20
7784.307406419728
 10
9070.219913350578
 20
7784.307406419728
 10
9070.219913350578
 20
8511.298377946776
 42
0.0940184742794634
 10
9115.733808035322
 20
8464.592699277404
 42
0.0940184742794634
  0
LWPOLYLINE
  5
AC01A
330
B144A
100
AcDbEntity
  8
0
100
AcDbPolyline
 90
        9
 70
     0
 43
0.0
 10
9070.219913350578
 20
8704.500739503666
 42
-0.4313481873912146
 10
9320.985585939648
 20
8747.891346061733
 42
-0.6814225353586246
 10
9356.027325428484
 20
8712.86174133314
 42
-0.2912012462252227
 10
9370.430348919692
 20
8525.570647245124
 10
9370.430348919692
 20
7784.307406419728
 10
9670.219913350578
 20
7784.307406419728
 10
9670.219913350578
 20
10314.30740641977
 10
9070.219913350578
 20
10314.30740641977
 10
9070.219913350578
 20
8704.500739503666
  0
LWPOLYLINE
  5
AC01B
330
B144A
100
AcDbEntity
  8
0
100
AcDbPolyline
 90
        5
 70
     1
 43
0.0
 10
9370.430348919692
 20
7784.307406419728
 10
9115.733808035322
 20
7784.307406419728
 10
9115.733808035322
 20
8464.592699277404
 42
0.4500709718572363
 10
9370.430348919692
 20
8525.570647245098
 10
9370.430348919692
 20
7784.307406419728
  0
ARC
  5
AC01C
330
B144A
100
AcDbEntity
  8
0
100
AcDbCircle
 10
9216.00294469284
 20
8607.88549876363
 30
0.0
 40
152.0954421879083
100
AcDbArc
 50
53.7437419628992
 51
36.24889815847135
  0
ARC
  5
AC01D
330
B144A
100
AcDbEntity
  8
0
100
AcDbCircle
 10
9216.07188381307
 20
8607.89955872522
 30
0.0
 40
174.9416628924599
100
AcDbArc
 50
53.15109948308578
 51
36.86874516371485
  0
CIRCLE
  5
AC01E
330
B144A
100
AcDbEntity
  8
0
100
AcDbCircle
 10
9331.622300228248
 20
8723.490003470883
 30
0.0
 40
26.6188882392234
  0
CIRCLE
  5
AC01F
330
B144A
100
AcDbEntity
  8
0
100
AcDbCircle
 10
11971.79849622109
 20
8723.490003470883
 30
0.0
 40
26.6188882392234
  0
ARC
  5
AC020
330
B144A
100
AcDbEntity
  8
0
100
AcDbCircle
 10
11856.24807980591
 20
8607.89955872522
 30
0.0
 40
174.9416628924599
100
AcDbArc
 50
53.15109948308578
 51
36.86874516371485
  0
ARC
  5
AC021
330
B144A
100
AcDbEntity
  8
0
100
AcDbCircle
 10
11856.17914068568
 20
8607.88549876363
 30
0.0
 40
152.0954421879083
100
AcDbArc
 50
53.7437419628992
 51
36.24889815847135
  0
LWPOLYLINE
  5
AC022
330
B144A
100
AcDbEntity
  8
0
100
AcDbPolyline
 90
        5
 70
     1
 43
0.0
 10
12010.60654491253
 20
7784.307406419728
 10
11755.91000402815
 20
7784.307406419728
 10
11755.91000402815
 20
8464.592699277404
 42
0.4500709718572363
 10
12010.60654491253
 20
8525.570647245098
 10
12010.60654491253
 20
7784.307406419728
  0
LWPOLYLINE
  5
AC023
330
B144A
100
AcDbEntity
  8
0
100
AcDbPolyline
 90
        9
 70
     0
 43
0.0
 10
11710.3961093434
 20
8704.500739503666
 42
-0.4313481873912146
 10
11961.16178193249
 20
8747.891346061733
 42
-0.6814225353586246
 10
11996.20352142131
 20
8712.86174133314
 42
-0.2912012462252227
 10
12010.60654491253
 20
8525.570647245124
 10
12010.60654491253
 20
7784.307406419728
 10
12510.3961093434
 20
7784.307406419728
 10
12510.3961093434
 20
10314.30740641977
 10
11710.3961093434
 20
10314.30740641977
 10
11710.3961093434
 20
8704.500739503666
  0
LWPOLYLINE
  5
AC024
330
B144A
100
AcDbEntity
  8
0
100
AcDbPolyline
 90
        5
 70
     0
 43
0.0
 10
11755.91000402815
 20
8464.592699277404
 10
11755.91000402815
 20
7784.307406419728
 10
11710.3961093434
 20
7784.307406419728
 10
11710.3961093434
 20
8511.298377946776
 42
0.0940184742794634
 10
11755.91000402815
 20
8464.592699277404
 42
0.0940184742794634
  0
LWPOLYLINE
  5
AC025
330
B144A
100
AcDbEntity
  8
0
100
AcDbPolyline
 90
        5
 70
     0
 43
0.0
 10
13075.99810202457
 20
8464.592699277404
 10
13075.99810202457
 20
7784.307406419728
 10
13030.48420733982
 20
7784.307406419728
 10
13030.48420733982
 20
8511.298377946776
 42
0.0940184742794634
 10
13075.99810202457
 20
8464.592699277404
 42
0.0940184742794634
  0
LWPOLYLINE
  5
AC026
330
B144A
100
AcDbEntity
  8
0
100
AcDbPolyline
 90
        9
 70
     0
 43
0.0
 10
13030.48420733982
 20
8704.500739503666
 42
-0.4313481873912146
 10
13281.2498799289
 20
8747.891346061733
 42
-0.6814225353586246
 10
13316.29161941774
 20
8712.86174133314
 42
-0.2912012462252227
 10
13330.69464290894
 20
8525.570647245124
 10
13330.69464290894
 20
7784.307406419728
 10
13930.48420733982
 20
7784.307406419728
 10
13930.48420733982
 20
10314.30740641977
 10
13030.48420733982
 20
10314.30740641977
 10
13030.48420733982
 20
8704.500739503666
  0
LWPOLYLINE
  5
AC027
330
B144A
100
AcDbEntity
  8
0
100
AcDbPolyline
 90
        5
 70
     1
 43
0.0
 10
13330.69464290894
 20
7784.307406419728
 10
13075.99810202457
 20
7784.307406419728
 10
13075.99810202457
 20
8464.592699277404
 42
0.4500709718572363
 10
13330.69464290894
 20
8525.570647245098
 10
13330.69464290894
 20
7784.307406419728
  0
ARC
  5
AC028
330
B144A
100
AcDbEntity
  8
0
100
AcDbCircle
 10
13176.26723868209
 20
8607.88549876363
 30
0.0
 40
152.0954421879083
100
AcDbArc
 50
53.7437419628992
 51
36.24889815847135
  0
ARC
  5
AC029
330
B144A
100
AcDbEntity
  8
0
100
AcDbCircle
 10
13176.33617780232
 20
8607.89955872522
 30
0.0
 40
174.9416628924599
100
AcDbArc
 50
53.15109948308578
 51
36.86874516371485
  0
CIRCLE
  5
AC02A
330
B144A
100
AcDbEntity
  8
0
100
AcDbCircle
 10
13291.8865942175
 20
8723.490003470883
 30
0.0
 40
26.6188882392234
  0
CIRCLE
  5
AC02B
330
B144A
100
AcDbEntity
  8
0
100
AcDbCircle
 10
14611.97469221391
 20
8723.490003470883
 30
0.0
 40
26.6188882392234
  0
ARC
  5
AC02C
330
B144A
100
AcDbEntity
  8
0
100
AcDbCircle
 10
14496.42427579875
 20
8607.89955872522
 30
0.0
 40
174.9416628924599
100
AcDbArc
 50
53.15109948308578
 51
36.86874516371485
  0
ARC
  5
AC02D
330
B144A
100
AcDbEntity
  8
0
100
AcDbCircle
 10
14496.3553366785
 20
8607.88549876363
 30
0.0
 40
152.0954421879083
100
AcDbArc
 50
53.7437419628992
 51
36.24889815847135
  0
LWPOLYLINE
  5
AC02E
330
B144A
100
AcDbEntity
  8
0
100
AcDbPolyline
 90
        5
 70
     1
 43
0.0
 10
14650.78274090535
 20
7784.307406419728
 10
14396.08620002099
 20
7784.307406419728
 10
14396.08620002099
 20
8464.592699277404
 42
0.4500709718572363
 10
14650.78274090535
 20
8525.570647245098
 10
14650.78274090535
 20
7784.307406419728
  0
LWPOLYLINE
  5
AC02F
330
B144A
100
AcDbEntity
  8
0
100
AcDbPolyline
 90
        9
 70
     0
 43
0.0
 10
14350.57230533624
 20
8704.500739503666
 42
-0.4313481873912146
 10
14601.33797792533
 20
8747.891346061733
 42
-0.6814225353586246
 10
14636.37971741414
 20
8712.86174133314
 42
-0.2912012462252227
 10
14650.78274090535
 20
8525.570647245124
 10
14650.78274090535
 20
7784.307406419728
 10
15350.57230533624
 20
7784.307406419728
 10
15350.57230533624
 20
10314.30740641977
 10
14350.57230533624
 20
10314.30740641977
 10
14350.57230533624
 20
8704.500739503666
  0
LWPOLYLINE
  5
AC030
330
B144A
100
AcDbEntity
  8
0
100
AcDbPolyline
 90
        5
 70
     0
 43
0.0
 10
14396.08620002099
 20
8464.592699277404
 10
14396.08620002099
 20
7784.307406419728
 10
14350.57230533624
 20
7784.307406419728
 10
14350.57230533624
 20
8511.298377946776
 42
0.0940184742794634
 10
14396.08620002099
 20
8464.592699277404
 42
0.0940184742794634
  0
LWPOLYLINE
  5
AC031
330
B144A
100
AcDbEntity
  8
0
100
AcDbPolyline
 90
        5
 70
     0
 43
0.0
 10
14396.08620002099
 20
5631.457209263957
 10
14396.08620002099
 20
4951.171916406281
 10
14350.57230533624
 20
4951.171916406281
 10
14350.57230533624
 20
5678.162887933329
 42
0.0940184742794634
 10
14396.08620002099
 20
5631.457209263957
 42
0.0940184742794634
  0
LWPOLYLINE
  5
AC032
330
B144A
100
AcDbEntity
  8
0
100
AcDbPolyline
 90
        9
 70
     0
 43
0.0
 10
14350.57230533624
 20
5871.36524949022
 42
-0.4313481873912146
 10
14601.33797792533
 20
5914.755856048287
 42
-0.6814225353586246
 10
14636.37971741414
 20
5879.726251319691
 42
-0.2912012462252227
 10
14650.78274090535
 20
5692.435157231681
 10
14650.78274090535
 20
4951.171916406281
 10
15350.57230533624
 20
4951.171916406281
 10
15350.57230533624
 20
7181.171916406325
 10
14350.57230533624
 20
7181.171916406325
 10
14350.57230533624
 20
5871.36524949022
  0
LWPOLYLINE
  5
AC033
330
B144A
100
AcDbEntity
  8
0
100
AcDbPolyline
 90
        5
 70
     1
 43
0.0
 10
14650.78274090535
 20
4951.171916406281
 10
14396.08620002099
 20
4951.171916406281
 10
14396.08620002099
 20
5631.457209263957
 42
0.4500709718572363
 10
14650.78274090535
 20
5692.435157231652
 10
14650.78274090535
 20
4951.171916406281
  0
ARC
  5
AC034
330
B144A
100
AcDbEntity
  8
0
100
AcDbCircle
 10
14496.3553366785
 20
5774.750008750183
 30
0.0
 40
152.0954421879083
100
AcDbArc
 50
53.7437419628992
 51
36.24889815847135
  0
ARC
  5
AC035
330
B144A
100
AcDbEntity
  8
0
100
AcDbCircle
 10
14496.42427579875
 20
5774.764068711775
 30
0.0
 40
174.9416628924599
100
AcDbArc
 50
53.15109948308578
 51
36.86874516371485
  0
CIRCLE
  5
AC036
330
B144A
100
AcDbEntity
  8
0
100
AcDbCircle
 10
14611.97469221391
 20
5890.354513457438
 30
0.0
 40
26.6188882392234
  0
CIRCLE
  5
AC037
330
B144A
100
AcDbEntity
  8
0
100
AcDbCircle
 10
13291.8865942175
 20
5890.354513457438
 30
0.0
 40
26.6188882392234
  0
ARC
  5
AC038
330
B144A
100
AcDbEntity
  8
0
100
AcDbCircle
 10
13176.33617780232
 20
5774.764068711775
 30
0.0
 40
174.9416628924599
100
AcDbArc
 50
53.15109948308578
 51
36.86874516371485
  0
ARC
  5
AC039
330
B144A
100
AcDbEntity
  8
0
100
AcDbCircle
 10
13176.26723868209
 20
5774.750008750183
 30
0.0
 40
152.0954421879083
100
AcDbArc
 50
53.7437419628992
 51
36.24889815847135
  0
LWPOLYLINE
  5
AC03A
330
B144A
100
AcDbEntity
  8
0
100
AcDbPolyline
 90
        5
 70
     1
 43
0.0
 10
13330.69464290894
 20
4951.171916406281
 10
13075.99810202457
 20
4951.171916406281
 10
13075.99810202457
 20
5631.457209263957
 42
0.4500709718572363
 10
13330.69464290894
 20
5692.435157231652
 10
13330.69464290894
 20
4951.171916406281
  0
LWPOLYLINE
  5
AC03B
330
B144A
100
AcDbEntity
  8
0
100
AcDbPolyline
 90
        9
 70
     0
 43
0.0
 10
13030.48420733982
 20
5871.36524949022
 42
-0.4313481873912146
 10
13281.2498799289
 20
5914.755856048287
 42
-0.6814225353586246
 10
13316.29161941774
 20
5879.726251319691
 42
-0.2912012462252227
 10
13330.69464290894
 20
5692.435157231681
 10
13330.69464290894
 20
4951.171916406281
 10
13930.48420733982
 20
4951.171916406281
 10
13930.48420733982
 20
7181.171916406325
 10
13030.48420733982
 20
7181.171916406325
 10
13030.48420733982
 20
5871.36524949022
  0
LWPOLYLINE
  5
AC03C
330
B144A
100
AcDbEntity
  8
0
100
AcDbPolyline
 90
        5
 70
     0
 43
0.0
 10
13075.99810202457
 20
5631.457209263957
 10
13075.99810202457
 20
4951.171916406281
 10
13030.48420733982
 20
4951.171916406281
 10
13030.48420733982
 20
5678.162887933329
 42
0.0940184742794634
 10
13075.99810202457
 20
5631.457209263957
 42
0.0940184742794634
  0
LWPOLYLINE
  5
AC03D
330
B144A
100
AcDbEntity
  8
0
100
AcDbPolyline
 90
        5
 70
     0
 43
0.0
 10
11755.91000402815
 20
5631.457209263957
 10
11755.91000402815
 20
4951.171916406281
 10
11710.3961093434
 20
4951.171916406281
 10
11710.3961093434
 20
5678.162887933329
 42
0.0940184742794634
 10
11755.91000402815
 20
5631.457209263957
 42
0.0940184742794634
  0
LWPOLYLINE
  5
AC03E
330
B144A
100
AcDbEntity
  8
0
100
AcDbPolyline
 90
        9
 70
     0
 43
0.0
 10
11710.3961093434
 20
5871.36524949022
 42
-0.4313481873912146
 10
11961.16178193249
 20
5914.755856048287
 42
-0.6814225353586246
 10
11996.20352142131
 20
5879.726251319691
 42
-0.2912012462252227
 10
12010.60654491253
 20
5692.435157231681
 10
12010.60654491253
 20
4951.171916406281
 10
12510.3961093434
 20
4951.171916406281
 10
12510.3961093434
 20
7181.171916406325
 10
11710.3961093434
 20
7181.171916406325
 10
11710.3961093434
 20
5871.36524949022
  0
LWPOLYLINE
  5
AC03F
330
B144A
100
AcDbEntity
  8
0
100
AcDbPolyline
 90
        5
 70
     1
 43
0.0
 10
12010.60654491253
 20
4951.171916406281
 10
11755.91000402815
 20
4951.171916406281
 10
11755.91000402815
 20
5631.457209263957
 42
0.4500709718572363
 10
12010.60654491253
 20
5692.435157231652
 10
12010.60654491253
 20
4951.171916406281
  0
ARC
  5
AC040
330
B144A
100
AcDbEntity
  8
0
100
AcDbCircle
 10
11856.17914068568
 20
5774.750008750183
 30
0.0
 40
152.0954421879083
100
AcDbArc
 50
53.7437419628992
 51
36.24889815847135
  0
ARC
  5
AC041
330
B144A
100
AcDbEntity
  8
0
100
AcDbCircle
 10
11856.24807980591
 20
5774.764068711775
 30
0.0
 40
174.9416628924599
100
AcDbArc
 50
53.15109948308578
 51
36.86874516371485
  0
CIRCLE
  5
AC042
330
B144A
100
AcDbEntity
  8
0
100
AcDbCircle
 10
11971.79849622109
 20
5890.354513457438
 30
0.0
 40
26.6188882392234
  0
CIRCLE
  5
AC043
330
B144A
100
AcDbEntity
  8
0
100
AcDbCircle
 10
9331.622300228248
 20
5890.354513457438
 30
0.0
 40
26.6188882392234
  0
ARC
  5
AC044
330
B144A
100
AcDbEntity
  8
0
100
AcDbCircle
 10
9216.07188381307
 20
5774.764068711775
 30
0.0
 40
174.9416628924599
100
AcDbArc
 50
53.15109948308578
 51
36.86874516371485
  0
ARC
  5
AC045
330
B144A
100
AcDbEntity
  8
0
100
AcDbCircle
 10
9216.00294469284
 20
5774.750008750183
 30
0.0
 40
152.0954421879083
100
AcDbArc
 50
53.7437419628992
 51
36.24889815847135
  0
LWPOLYLINE
  5
AC046
330
B144A
100
AcDbEntity
  8
0
100
AcDbPolyline
 90
        5
 70
     1
 43
0.0
 10
9370.430348919692
 20
4951.171916406281
 10
9115.733808035322
 20
4951.171916406281
 10
9115.733808035322
 20
5631.457209263957
 42
0.4500709718572363
 10
9370.430348919692
 20
5692.435157231652
 10
9370.430348919692
 20
4951.171916406281
  0
LWPOLYLINE
  5
AC047
330
B144A
100
AcDbEntity
  8
0
100
AcDbPolyline
 90
        9
 70
     0
 43
0.0
 10
9070.219913350578
 20
5871.36524949022
 42
-0.4313481873912146
 10
9320.985585939648
 20
5914.755856048287
 42
-0.6814225353586246
 10
9356.027325428484
 20
5879.726251319691
 42
-0.2912012462252227
 10
9370.430348919692
 20
5692.435157231681
 10
9370.430348919692
 20
4951.171916406281
 10
9670.219913350578
 20
4951.171916406281
 10
9670.219913350578
 20
7181.171916406325
 10
9070.219913350578
 20
7181.171916406325
 10
9070.219913350578
 20
5871.36524949022
  0
LWPOLYLINE
  5
AC048
330
B144A
100
AcDbEntity
  8
0
100
AcDbPolyline
 90
        5
 70
     0
 43
0.0
 10
9115.733808035322
 20
5631.457209263957
 10
9115.733808035322
 20
4951.171916406281
 10
9070.219913350578
 20
4951.171916406281
 10
9070.219913350578
 20
5678.162887933329
 42
0.0940184742794634
 10
9115.733808035322
 20
5631.457209263957
 42
0.0940184742794634
  0
LWPOLYLINE
  5
AC049
330
B144A
100
AcDbEntity
  8
0
100
AcDbPolyline
 90
        5
 70
     0
 43
0.0
 10
10435.82190603173
 20
5631.457209263957
 10
10435.82190603173
 20
4951.171916406281
 10
10390.30801134699
 20
4951.171916406281
 10
10390.30801134699
 20
5678.162887933329
 42
0.0940184742794634
 10
10435.82190603173
 20
5631.457209263957
 42
0.0940184742794634
  0
LWPOLYLINE
  5
AC04A
330
B144A
100
AcDbEntity
  8
0
100
AcDbPolyline
 90
        9
 70
     0
 43
0.0
 10
10390.30801134699
 20
5871.36524949022
 42
-0.4313481873912146
 10
10641.07368393607
 20
5914.755856048287
 42
-0.6814225353586246
 10
10676.11542342489
 20
5879.726251319691
 42
-0.2912012462252227
 10
10690.5184469161
 20
5692.435157231681
 10
10690.5184469161
 20
4951.171916406281
 10
11090.30801134699
 20
4951.171916406281
 10
11090.30801134699
 20
7181.171916406325
 10
10390.30801134699
 20
7181.171916406325
 10
10390.30801134699
 20
5871.36524949022
  0
LWPOLYLINE
  5
AC04B
330
B144A
100
AcDbEntity
  8
0
100
AcDbPolyline
 90
        5
 70
     1
 43
0.0
 10
10690.5184469161
 20
4951.171916406281
 10
10435.82190603173
 20
4951.171916406281
 10
10435.82190603173
 20
5631.457209263957
 42
0.4500709718572363
 10
10690.5184469161
 20
5692.435157231652
 10
10690.5184469161
 20
4951.171916406281
  0
ARC
  5
AC04C
330
B144A
100
AcDbEntity
  8
0
100
AcDbCircle
 10
10536.09104268925
 20
5774.750008750183
 30
0.0
 40
152.0954421879083
100
AcDbArc
 50
53.7437419628992
 51
36.24889815847135
  0
ARC
  5
AC04D
330
B144A
100
AcDbEntity
  8
0
100
AcDbCircle
 10
10536.1599818095
 20
5774.764068711775
 30
0.0
 40
174.9416628924599
100
AcDbArc
 50
53.15109948308578
 51
36.86874516371485
  0
CIRCLE
  5
AC04E
330
B144A
100
AcDbEntity
  8
0
100
AcDbCircle
 10
10651.71039822468
 20
5890.354513457438
 30
0.0
 40
26.6188882392234
  0
LWPOLYLINE
  5
AC04F
330
B144A
100
AcDbEntity
  8
0
100
AcDbPolyline
 90
        2
 70
     0
 43
0.0
 10
14350.57230533624
 20
4896.171916406281
 10
15350.57230533624
 20
4896.171916406281
  0
LWPOLYLINE
  5
AC050
330
B144A
100
AcDbEntity
  8
0
100
AcDbPolyline
 90
        2
 70
     0
 43
0.0
 10
12980.48420733981
 20
4896.171916406281
 10
13980.48420733982
 20
4896.171916406281
  0
LWPOLYLINE
  5
AC051
330
B144A
100
AcDbEntity
  8
0
100
AcDbPolyline
 90
        2
 70
     0
 43
0.0
 10
11610.3961093434
 20
4896.171916406281
 10
12610.3961093434
 20
4896.171916406281
  0
LWPOLYLINE
  5
AC052
330
B144A
100
AcDbEntity
  8
0
100
AcDbPolyline
 90
        2
 70
     0
 43
0.0
 10
10240.30801134699
 20
4896.171916406281
 10
11240.30801134699
 20
4896.171916406281
  0
LWPOLYLINE
  5
AC053
330
B144A
100
AcDbEntity
  8
0
100
AcDbPolyline
 90
        2
 70
     0
 43
0.0
 10
8870.219913350578
 20
4896.171916406281
 10
9870.21991335058
 20
4896.171916406281
  0
LWPOLYLINE
  5
AC054
330
B144A
100
AcDbEntity
  8
0
100
AcDbPolyline
 90
        2
 70
     0
 43
0.0
 10
8870.219913350578
 20
2163.036426392835
 10
9870.21991335058
 20
2163.036426392835
  0
LWPOLYLINE
  5
AC055
330
B144A
100
AcDbEntity
  8
0
100
AcDbPolyline
 90
        2
 70
     0
 43
0.0
 10
10240.30801134699
 20
2163.036426392835
 10
11240.30801134699
 20
2163.036426392835
  0
LWPOLYLINE
  5
AC056
330
B144A
100
AcDbEntity
  8
0
100
AcDbPolyline
 90
        2
 70
     0
 43
0.0
 10
11610.3961093434
 20
2163.036426392835
 10
12610.3961093434
 20
2163.036426392835
  0
LWPOLYLINE
  5
AC057
330
B144A
100
AcDbEntity
  8
0
100
AcDbPolyline
 90
        2
 70
     0
 43
0.0
 10
12980.48420733981
 20
2163.036426392835
 10
13980.48420733982
 20
2163.036426392835
  0
LWPOLYLINE
  5
AC058
330
B144A
100
AcDbEntity
  8
0
100
AcDbPolyline
 90
        2
 70
     0
 43
0.0
 10
14350.57230533624
 20
2163.036426392835
 10
15350.57230533624
 20
2163.036426392835
  0
CIRCLE
  5
AC059
330
B144A
100
AcDbEntity
  8
0
100
AcDbCircle
 10
10651.71039822468
 20
3157.219023443992
 30
0.0
 40
26.6188882392234
  0
ARC
  5
AC05A
330
B144A
100
AcDbEntity
  8
0
100
AcDbCircle
 10
10536.1599818095
 20
3041.628578698328
 30
0.0
 40
174.9416628924599
100
AcDbArc
 50
53.15109948308578
 51
36.86874516371485
  0
ARC
  5
AC05B
330
B144A
100
AcDbEntity
  8
0
100
AcDbCircle
 10
10536.09104268925
 20
3041.614518736737
 30
0.0
 40
152.0954421879083
100
AcDbArc
 50
53.7437419628992
 51
36.24889815847135
  0
LWPOLYLINE
  5
AC05C
330
B144A
100
AcDbEntity
  8
0
100
AcDbPolyline
 90
        5
 70
     1
 43
0.0
 10
10690.5184469161
 20
2218.036426392835
 10
10435.82190603173
 20
2218.036426392835
 10
10435.82190603173
 20
2898.321719250511
 42
0.4500709718572363
 10
10690.5184469161
 20
2959.299667218207
 10
10690.5184469161
 20
2218.036426392835
  0
LWPOLYLINE
  5
AC05D
330
B144A
100
AcDbEntity
  8
0
100
AcDbPolyline
 90
        9
 70
     0
 43
0.0
 10
10390.30801134699
 20
3138.229759476774
 42
-0.4313481873912146
 10
10641.07368393607
 20
3181.62036603484
 42
-0.6814225353586246
 10
10676.11542342489
 20
3146.590761306244
 42
-0.2912012462252227
 10
10690.5184469161
 20
2959.299667218235
 10
10690.5184469161
 20
2218.036426392835
 10
11090.30801134699
 20
2218.036426392835
 10
11090.30801134699
 20
4348.036426392877
 10
10390.30801134699
 20
4348.036426392877
 10
10390.30801134699
 20
3138.229759476774
  0
LWPOLYLINE
  5
AC05E
330
B144A
100
AcDbEntity
  8
0
100
AcDbPolyline
 90
        5
 70
     0
 43
0.0
 10
10435.82190603173
 20
2898.321719250511
 10
10435.82190603173
 20
2218.036426392835
 10
10390.30801134699
 20
2218.036426392835
 10
10390.30801134699
 20
2945.027397919883
 42
0.0940184742794634
 10
10435.82190603173
 20
2898.321719250511
 42
0.0940184742794634
  0
LWPOLYLINE
  5
AC05F
330
B144A
100
AcDbEntity
  8
0
100
AcDbPolyline
 90
        5
 70
     0
 43
0.0
 10
9115.733808035322
 20
2898.321719250511
 10
9115.733808035322
 20
2218.036426392835
 10
9070.219913350578
 20
2218.036426392835
 10
9070.219913350578
 20
2945.027397919883
 42
0.0940184742794634
 10
9115.733808035322
 20
2898.321719250511
 42
0.0940184742794634
  0
LWPOLYLINE
  5
AC060
330
B144A
100
AcDbEntity
  8
0
100
AcDbPolyline
 90
        9
 70
     0
 43
0.0
 10
9070.219913350578
 20
3138.229759476774
 42
-0.4313481873912146
 10
9320.985585939648
 20
3181.62036603484
 42
-0.6814225353586246
 10
9356.027325428484
 20
3146.590761306244
 42
-0.2912012462252227
 10
9370.430348919692
 20
2959.299667218235
 10
9370.430348919692
 20
2218.036426392835
 10
9670.219913350578
 20
2218.036426392835
 10
9670.219913350578
 20
4348.036426392877
 10
9070.219913350578
 20
4348.036426392877
 10
9070.219913350578
 20
3138.229759476774
  0
LWPOLYLINE
  5
AC061
330
B144A
100
AcDbEntity
  8
0
100
AcDbPolyline
 90
        5
 70
     1
 43
0.0
 10
9370.430348919692
 20
2218.036426392835
 10
9115.733808035322
 20
2218.036426392835
 10
9115.733808035322
 20
2898.321719250511
 42
0.4500709718572363
 10
9370.430348919692
 20
2959.299667218207
 10
9370.430348919692
 20
2218.036426392835
  0
ARC
  5
AC062
330
B144A
100
AcDbEntity
  8
0
100
AcDbCircle
 10
9216.00294469284
 20
3041.614518736737
 30
0.0
 40
152.0954421879083
100
AcDbArc
 50
53.7437419628992
 51
36.24889815847135
  0
ARC
  5
AC063
330
B144A
100
AcDbEntity
  8
0
100
AcDbCircle
 10
9216.07188381307
 20
3041.628578698328
 30
0.0
 40
174.9416628924599
100
AcDbArc
 50
53.15109948308578
 51
36.86874516371485
  0
CIRCLE
  5
AC064
330
B144A
100
AcDbEntity
  8
0
100
AcDbCircle
 10
9331.622300228248
 20
3157.219023443992
 30
0.0
 40
26.6188882392234
  0
CIRCLE
  5
AC065
330
B144A
100
AcDbEntity
  8
0
100
AcDbCircle
 10
11971.79849622109
 20
3157.219023443992
 30
0.0
 40
26.6188882392234
  0
ARC
  5
AC066
330
B144A
100
AcDbEntity
  8
0
100
AcDbCircle
 10
11856.24807980591
 20
3041.628578698328
 30
0.0
 40
174.9416628924599
100
AcDbArc
 50
53.15109948308578
 51
36.86874516371485
  0
ARC
  5
AC067
330
B144A
100
AcDbEntity
  8
0
100
AcDbCircle
 10
11856.17914068568
 20
3041.614518736737
 30
0.0
 40
152.0954421879083
100
AcDbArc
 50
53.7437419628992
 51
36.24889815847135
  0
LWPOLYLINE
  5
AC068
330
B144A
100
AcDbEntity
  8
0
100
AcDbPolyline
 90
        5
 70
     1
 43
0.0
 10
12010.60654491253
 20
2218.036426392835
 10
11755.91000402815
 20
2218.036426392835
 10
11755.91000402815
 20
2898.321719250511
 42
0.4500709718572363
 10
12010.60654491253
 20
2959.299667218207
 10
12010.60654491253
 20
2218.036426392835
  0
LWPOLYLINE
  5
AC069
330
B144A
100
AcDbEntity
  8
0
100
AcDbPolyline
 90
        9
 70
     0
 43
0.0
 10
11710.3961093434
 20
3138.229759476774
 42
-0.4313481873912146
 10
11961.16178193249
 20
3181.62036603484
 42
-0.6814225353586246
 10
11996.20352142131
 20
3146.590761306244
 42
-0.2912012462252227
 10
12010.60654491253
 20
2959.299667218235
 10
12010.60654491253
 20
2218.036426392835
 10
12510.3961093434
 20
2218.036426392835
 10
12510.3961093434
 20
4348.036426392877
 10
11710.3961093434
 20
4348.036426392877
 10
11710.3961093434
 20
3138.229759476774
  0
LWPOLYLINE
  5
AC06A
330
B144A
100
AcDbEntity
  8
0
100
AcDbPolyline
 90
        5
 70
     0
 43
0.0
 10
11755.91000402815
 20
2898.321719250511
 10
11755.91000402815
 20
2218.036426392835
 10
11710.3961093434
 20
2218.036426392835
 10
11710.3961093434
 20
2945.027397919883
 42
0.0940184742794634
 10
11755.91000402815
 20
2898.321719250511
 42
0.0940184742794634
  0
LWPOLYLINE
  5
AC06B
330
B144A
100
AcDbEntity
  8
0
100
AcDbPolyline
 90
        5
 70
     0
 43
0.0
 10
13075.99810202457
 20
2898.321719250511
 10
13075.99810202457
 20
2218.036426392835
 10
13030.48420733982
 20
2218.036426392835
 10
13030.48420733982
 20
2945.027397919883
 42
0.0940184742794634
 10
13075.99810202457
 20
2898.321719250511
 42
0.0940184742794634
  0
LWPOLYLINE
  5
AC06C
330
B144A
100
AcDbEntity
  8
0
100
AcDbPolyline
 90
        9
 70
     0
 43
0.0
 10
13030.48420733982
 20
3138.229759476774
 42
-0.4313481873912146
 10
13281.2498799289
 20
3181.62036603484
 42
-0.6814225353586246
 10
13316.29161941774
 20
3146.590761306244
 42
-0.2912012462252227
 10
13330.69464290894
 20
2959.299667218235
 10
13330.69464290894
 20
2218.036426392835
 10
13930.48420733982
 20
2218.036426392835
 10
13930.48420733982
 20
4348.036426392877
 10
13030.48420733982
 20
4348.036426392877
 10
13030.48420733982
 20
3138.229759476774
  0
LWPOLYLINE
  5
AC06D
330
B144A
100
AcDbEntity
  8
0
100
AcDbPolyline
 90
        5
 70
     1
 43
0.0
 10
13330.69464290894
 20
2218.036426392835
 10
13075.99810202457
 20
2218.036426392835
 10
13075.99810202457
 20
2898.321719250511
 42
0.4500709718572363
 10
13330.69464290894
 20
2959.299667218207
 10
13330.69464290894
 20
2218.036426392835
  0
ARC
  5
AC06E
330
B144A
100
AcDbEntity
  8
0
100
AcDbCircle
 10
13176.26723868209
 20
3041.614518736737
 30
0.0
 40
152.0954421879083
100
AcDbArc
 50
53.7437419628992
 51
36.24889815847135
  0
ARC
  5
AC06F
330
B144A
100
AcDbEntity
  8
0
100
AcDbCircle
 10
13176.33617780232
 20
3041.628578698328
 30
0.0
 40
174.9416628924599
100
AcDbArc
 50
53.15109948308578
 51
36.86874516371485
  0
CIRCLE
  5
AC070
330
B144A
100
AcDbEntity
  8
0
100
AcDbCircle
 10
13291.8865942175
 20
3157.219023443992
 30
0.0
 40
26.6188882392234
  0
CIRCLE
  5
AC071
330
B144A
100
AcDbEntity
  8
0
100
AcDbCircle
 10
14611.97469221391
 20
3157.219023443992
 30
0.0
 40
26.6188882392234
  0
ARC
  5
AC072
330
B144A
100
AcDbEntity
  8
0
100
AcDbCircle
 10
14496.42427579875
 20
3041.628578698328
 30
0.0
 40
174.9416628924599
100
AcDbArc
 50
53.15109948308578
 51
36.86874516371485
  0
ARC
  5
AC073
330
B144A
100
AcDbEntity
  8
0
100
AcDbCircle
 10
14496.3553366785
 20
3041.614518736737
 30
0.0
 40
152.0954421879083
100
AcDbArc
 50
53.7437419628992
 51
36.24889815847135
  0
LWPOLYLINE
  5
AC074
330
B144A
100
AcDbEntity
  8
0
100
AcDbPolyline
 90
        5
 70
     1
 43
0.0
 10
14650.78274090535
 20
2218.036426392835
 10
14396.08620002099
 20
2218.036426392835
 10
14396.08620002099
 20
2898.321719250511
 42
0.4500709718572363
 10
14650.78274090535
 20
2959.299667218207
 10
14650.78274090535
 20
2218.036426392835
  0
LWPOLYLINE
  5
AC075
330
B144A
100
AcDbEntity
  8
0
100
AcDbPolyline
 90
        9
 70
     0
 43
0.0
 10
14350.57230533624
 20
3138.229759476774
 42
-0.4313481873912146
 10
14601.33797792533
 20
3181.62036603484
 42
-0.6814225353586246
 10
14636.37971741414
 20
3146.590761306244
 42
-0.2912012462252227
 10
14650.78274090535
 20
2959.299667218235
 10
14650.78274090535
 20
2218.036426392835
 10
15350.57230533624
 20
2218.036426392835
 10
15350.57230533624
 20
4348.036426392877
 10
14350.57230533624
 20
4348.036426392877
 10
14350.57230533624
 20
3138.229759476774
  0
LWPOLYLINE
  5
AC076
330
B144A
100
AcDbEntity
  8
0
100
AcDbPolyline
 90
        5
 70
     0
 43
0.0
 10
14396.08620002099
 20
2898.321719250511
 10
14396.08620002099
 20
2218.036426392835
 10
14350.57230533624
 20
2218.036426392835
 10
14350.57230533624
 20
2945.027397919883
 42
0.0940184742794634
 10
14396.08620002099
 20
2898.321719250511
 42
0.0940184742794634
  0
CIRCLE
  5
AC077
330
B144A
100
AcDbEntity
  8
0
100
AcDbCircle
 10
23606.97841422533
 20
3157.219023443992
 30
0.0
 40
26.6188882392234
  0
ARC
  5
AC078
330
B144A
100
AcDbEntity
  8
0
100
AcDbCircle
 10
23491.42799781014
 20
3041.628578698328
 30
0.0
 40
174.9416628924599
100
AcDbArc
 50
53.15109948308578
 51
36.86874516371485
  0
ARC
  5
AC079
330
B144A
100
AcDbEntity
  8
0
100
AcDbCircle
 10
23491.35905868991
 20
3041.614518736737
 30
0.0
 40
152.0954421879083
100
AcDbArc
 50
53.7437419628992
 51
36.24889815847135
  0
LWPOLYLINE
  5
AC07A
330
B144A
100
AcDbEntity
  8
0
100
AcDbPolyline
 90
        5
 70
     1
 43
0.0
 10
23645.78646291676
 20
2218.036426392835
 10
23391.08992203239
 20
2218.036426392835
 10
23391.08992203239
 20
2898.321719250511
 42
0.4500709718572363
 10
23645.78646291676
 20
2959.299667218207
 10
23645.78646291676
 20
2218.036426392835
  0
LWPOLYLINE
  5
AC07B
330
B144A
100
AcDbEntity
  8
0
100
AcDbPolyline
 90
        9
 70
     0
 43
0.0
 10
23345.57602734765
 20
3138.229759476774
 42
-0.4313481873912146
 10
23596.34169993672
 20
3181.62036603484
 42
-0.6814225353586246
 10
23631.38343942555
 20
3146.590761306244
 42
-0.2912012462252227
 10
23645.78646291676
 20
2959.299667218235
 10
23645.78646291676
 20
2218.036426392835
 10
23945.57602734765
 20
2218.036426392835
 10
23945.57602734765
 20
4348.036426392877
 10
23345.57602734765
 20
4348.036426392877
 10
23345.57602734765
 20
3138.229759476774
  0
LWPOLYLINE
  5
AC07C
330
B144A
100
AcDbEntity
  8
0
100
AcDbPolyline
 90
        5
 70
     0
 43
0.0
 10
23391.08992203239
 20
2898.321719250511
 10
23391.08992203239
 20
2218.036426392835
 10
23345.57602734765
 20
2218.036426392835
 10
23345.57602734765
 20
2945.027397919883
 42
0.0940184742794634
 10
23391.08992203239
 20
2898.321719250511
 42
0.0940184742794634
  0
LWPOLYLINE
  5
AC07D
330
B144A
100
AcDbEntity
  8
0
100
AcDbPolyline
 90
        2
 70
     0
 43
0.0
 10
23145.57602734765
 20
2163.036426392835
 10
24145.57602734765
 20
2163.036426392835
  0
LWPOLYLINE
  5
AC07E
330
B144A
100
AcDbEntity
  8
0
100
AcDbPolyline
 90
        5
 70
     0
 43
0.0
 10
24384.35808571135
 20
2898.321719250511
 10
24384.35808571135
 20
2218.036426392835
 10
24338.8441910266
 20
2218.036426392835
 10
24338.8441910266
 20
2945.027397919883
 42
0.0940184742794634
 10
24384.35808571135
 20
2898.321719250511
 42
0.0940184742794634
  0
LWPOLYLINE
  5
AC07F
330
B144A
100
AcDbEntity
  8
0
100
AcDbPolyline
 90
        9
 70
     0
 43
0.0
 10
24338.8441910266
 20
3138.229759476774
 42
-0.4313481873912146
 10
24589.60986361568
 20
3181.62036603484
 42
-0.6814225353586246
 10
24624.65160310451
 20
3146.590761306244
 42
-0.2912012462252227
 10
24639.05462659571
 20
2959.299667218235
 10
24639.05462659571
 20
2218.036426392835
 10
24938.8441910266
 20
2218.036426392835
 10
24938.8441910266
 20
4748.036426392877
 10
24338.8441910266
 20
4748.036426392877
 10
24338.8441910266
 20
3138.229759476774
  0
LWPOLYLINE
  5
AC080
330
B144A
100
AcDbEntity
  8
0
100
AcDbPolyline
 90
        5
 70
     1
 43
0.0
 10
24639.05462659571
 20
2218.036426392835
 10
24384.35808571135
 20
2218.036426392835
 10
24384.35808571135
 20
2898.321719250511
 42
0.4500709718572363
 10
24639.05462659571
 20
2959.299667218207
 10
24639.05462659571
 20
2218.036426392835
  0
ARC
  5
AC081
330
B144A
100
AcDbEntity
  8
0
100
AcDbCircle
 10
24484.62722236886
 20
3041.614518736737
 30
0.0
 40
152.0954421879083
100
AcDbArc
 50
53.7437419628992
 51
36.24889815847135
  0
ARC
  5
AC082
330
B144A
100
AcDbEntity
  8
0
100
AcDbCircle
 10
24484.69616148909
 20
3041.628578698328
 30
0.0
 40
174.9416628924599
100
AcDbArc
 50
53.15109948308578
 51
36.86874516371485
  0
CIRCLE
  5
AC083
330
B144A
100
AcDbEntity
  8
0
100
AcDbCircle
 10
24600.24657790427
 20
3157.219023443992
 30
0.0
 40
26.6188882392234
  0
CIRCLE
  5
AC09F
330
B144A
100
AcDbEntity
  8
0
100
AcDbCircle
 10
24600.24657790427
 20
7201.354513457438
 30
0.0
 40
26.6188882392234
  0
ARC
  5
AC0A0
330
B144A
100
AcDbEntity
  8
0
100
AcDbCircle
 10
24484.69616148909
 20
7085.764068711775
 30
0.0
 40
174.9416628924599
100
AcDbArc
 50
53.15109948308578
 51
36.86874516371485
  0
ARC
  5
AC0A1
330
B144A
100
AcDbEntity
  8
0
100
AcDbCircle
 10
24484.62722236886
 20
7085.750008750183
 30
0.0
 40
152.0954421879083
100
AcDbArc
 50
53.7437419628992
 51
36.24889815847135
  0
LWPOLYLINE
  5
AC0A2
330
B144A
100
AcDbEntity
  8
0
100
AcDbPolyline
 90
        5
 70
     1
 43
0.0
 10
24639.05462659571
 20
6262.171916406281
 10
24384.35808571135
 20
6262.171916406281
 10
24384.35808571135
 20
6942.457209263958
 42
0.4500709718572363
 10
24639.05462659571
 20
7003.435157231653
 10
24639.05462659571
 20
6262.171916406281
  0
LWPOLYLINE
  5
AC0A3
330
B144A
100
AcDbEntity
  8
0
100
AcDbPolyline
 90
        9
 70
     0
 43
0.0
 10
24338.8441910266
 20
7182.365249490221
 42
-0.4313481873912146
 10
24589.60986361568
 20
7225.755856048285
 42
-0.6814225353586246
 10
24624.65160310451
 20
7190.726251319691
 42
-0.2912012462252227
 10
24639.05462659571
 20
7003.435157231681
 10
24639.05462659571
 20
6262.171916406281
 10
24938.8441910266
 20
6262.171916406281
 10
24938.8441910266
 20
8792.171916406323
 10
24338.8441910266
 20
8792.171916406323
 10
24338.8441910266
 20
7182.365249490221
  0
LWPOLYLINE
  5
AC0A4
330
B144A
100
AcDbEntity
  8
0
100
AcDbPolyline
 90
        5
 70
     0
 43
0.0
 10
24384.35808571135
 20
6942.457209263958
 10
24384.35808571135
 20
6262.171916406281
 10
24338.8441910266
 20
6262.171916406281
 10
24338.8441910266
 20
6989.162887933328
 42
0.0940184742794634
 10
24384.35808571135
 20
6942.457209263958
 42
0.0940184742794634
  0
LWPOLYLINE
  5
AC0A5
330
B144A
100
AcDbEntity
  8
0
100
AcDbPolyline
 90
        2
 70
     0
 43
0.0
 10
23145.57602734765
 20
6207.171916406282
 10
24145.57602734765
 20
6207.171916406282
  0
LWPOLYLINE
  5
AC0A6
330
B144A
100
AcDbEntity
  8
0
100
AcDbPolyline
 90
        5
 70
     0
 43
0.0
 10
23391.08992203239
 20
6942.457209263958
 10
23391.08992203239
 20
6262.171916406281
 10
23345.57602734765
 20
6262.171916406281
 10
23345.57602734765
 20
6989.162887933328
 42
0.0940184742794634
 10
23391.08992203239
 20
6942.457209263958
 42
0.0940184742794634
  0
LWPOLYLINE
  5
AC0A7
330
B144A
100
AcDbEntity
  8
0
100
AcDbPolyline
 90
        9
 70
     0
 43
0.0
 10
23345.57602734765
 20
7182.365249490221
 42
-0.4313481873912146
 10
23596.34169993672
 20
7225.755856048285
 42
-0.6814225353586246
 10
23631.38343942555
 20
7190.726251319691
 42
-0.2912012462252227
 10
23645.78646291676
 20
7003.435157231681
 10
23645.78646291676
 20
6262.171916406281
 10
23945.57602734765
 20
6262.171916406281
 10
23945.57602734765
 20
8392.171916406323
 10
23345.57602734765
 20
8392.171916406323
 10
23345.57602734765
 20
7182.365249490221
  0
LWPOLYLINE
  5
AC0A8
330
B144A
100
AcDbEntity
  8
0
100
AcDbPolyline
 90
        5
 70
     1
 43
0.0
 10
23645.78646291676
 20
6262.171916406281
 10
23391.08992203239
 20
6262.171916406281
 10
23391.08992203239
 20
6942.457209263958
 42
0.4500709718572363
 10
23645.78646291676
 20
7003.435157231653
 10
23645.78646291676
 20
6262.171916406281
  0
ARC
  5
AC0A9
330
B144A
100
AcDbEntity
  8
0
100
AcDbCircle
 10
23491.35905868991
 20
7085.750008750183
 30
0.0
 40
152.0954421879083
100
AcDbArc
 50
53.7437419628992
 51
36.24889815847135
  0
ARC
  5
AC0AA
330
B144A
100
AcDbEntity
  8
0
100
AcDbCircle
 10
23491.42799781014
 20
7085.764068711775
 30
0.0
 40
174.9416628924599
100
AcDbArc
 50
53.15109948308578
 51
36.86874516371485
  0
CIRCLE
  5
AC0AB
330
B144A
100
AcDbEntity
  8
0
100
AcDbCircle
 10
23606.97841422533
 20
7201.354513457438
 30
0.0
 40
26.6188882392234
  0
LWPOLYLINE
  5
AC0AC
330
B144A
100
AcDbEntity
  8
0
100
AcDbPolyline
 90
        2
 70
     0
 43
0.0
 10
24141.98945446307
 20
6207.171916406282
 10
25138.40288157848
 20
6207.171916406282
  0
LWPOLYLINE
  5
AC0AD
330
B144A
100
AcDbEntity
  8
0
100
AcDbPolyline
 90
        2
 70
     0
 43
0.0
 10
24141.98945446307
 20
6207.171916406282
 10
23145.57602734765
 20
6207.171916406282
  0
LWPOLYLINE
  5
AC0AE
330
B144A
100
AcDbEntity
  8
0
100
AcDbPolyline
 90
        2
 70
     0
 43
0.0
 10
24141.98945446307
 20
14295.44289643319
 10
23145.57602734765
 20
14295.44289643319
  0
LWPOLYLINE
  5
AC0AF
330
B144A
100
AcDbEntity
  8
0
100
AcDbPolyline
 90
        2
 70
     0
 43
0.0
 10
24141.98945446307
 20
14295.44289643319
 10
25138.40288157848
 20
14295.44289643319
  0
CIRCLE
  5
AC0B0
330
B144A
100
AcDbEntity
  8
0
100
AcDbCircle
 10
23606.97841422533
 20
15289.62549348434
 30
0.0
 40
26.6188882392234
  0
ARC
  5
AC0B1
330
B144A
100
AcDbEntity
  8
0
100
AcDbCircle
 10
23491.42799781014
 20
15174.03504873868
 30
0.0
 40
174.9416628924599
100
AcDbArc
 50
53.15109948308578
 51
36.86874516371485
  0
ARC
  5
AC0B2
330
B144A
100
AcDbEntity
  8
0
100
AcDbCircle
 10
23491.35905868991
 20
15174.02098877709
 30
0.0
 40
152.0954421879083
100
AcDbArc
 50
53.7437419628992
 51
36.24889815847135
  0
LWPOLYLINE
  5
AC0B3
330
B144A
100
AcDbEntity
  8
0
100
AcDbPolyline
 90
        5
 70
     1
 43
0.0
 10
23645.78646291676
 20
14350.44289643319
 10
23391.08992203239
 20
14350.44289643319
 10
23391.08992203239
 20
15030.72818929086
 42
0.4500709718572363
 10
23645.78646291676
 20
15091.70613725856
 10
23645.78646291676
 20
14350.44289643319
  0
LWPOLYLINE
  5
AC0B4
330
B144A
100
AcDbEntity
  8
0
100
AcDbPolyline
 90
        9
 70
     0
 43
0.0
 10
23345.57602734765
 20
15270.63622951712
 42
-0.4313481873912146
 10
23596.34169993672
 20
15314.02683607519
 42
-0.6814225353586246
 10
23631.38343942555
 20
15278.9972313466
 42
-0.2912012462252227
 10
23645.78646291676
 20
15091.70613725858
 10
23645.78646291676
 20
14350.44289643319
 10
23945.57602734765
 20
14350.44289643319
 10
23945.57602734765
 20
16480.44289643323
 10
23345.57602734765
 20
16480.44289643323
 10
23345.57602734765
 20
15270.63622951712
  0
LWPOLYLINE
  5
AC0B5
330
B144A
100
AcDbEntity
  8
0
100
AcDbPolyline
 90
        5
 70
     0
 43
0.0
 10
23391.08992203239
 20
15030.72818929086
 10
23391.08992203239
 20
14350.44289643319
 10
23345.57602734765
 20
14350.44289643319
 10
23345.57602734765
 20
15077.43386796023
 42
0.0940184742794634
 10
23391.08992203239
 20
15030.72818929086
 42
0.0940184742794634
  0
LWPOLYLINE
  5
AC0B6
330
B144A
100
AcDbEntity
  8
0
100
AcDbPolyline
 90
        2
 70
     0
 43
0.0
 10
23145.57602734765
 20
14295.44289643319
 10
24145.57602734765
 20
14295.44289643319
  0
LWPOLYLINE
  5
AC0B7
330
B144A
100
AcDbEntity
  8
0
100
AcDbPolyline
 90
        5
 70
     0
 43
0.0
 10
24384.35808571135
 20
15030.72818929086
 10
24384.35808571135
 20
14350.44289643319
 10
24338.8441910266
 20
14350.44289643319
 10
24338.8441910266
 20
15077.43386796023
 42
0.0940184742794634
 10
24384.35808571135
 20
15030.72818929086
 42
0.0940184742794634
  0
LWPOLYLINE
  5
AC0B8
330
B144A
100
AcDbEntity
  8
0
100
AcDbPolyline
 90
        9
 70
     0
 43
0.0
 10
24338.8441910266
 20
15270.63622951712
 42
-0.4313481873912146
 10
24589.60986361568
 20
15314.02683607519
 42
-0.6814225353586246
 10
24624.65160310451
 20
15278.9972313466
 42
-0.2912012462252227
 10
24639.05462659571
 20
15091.70613725858
 10
24639.05462659571
 20
14350.44289643319
 10
24938.8441910266
 20
14350.44289643319
 10
24938.8441910266
 20
16880.44289643323
 10
24338.8441910266
 20
16880.44289643323
 10
24338.8441910266
 20
15270.63622951712
  0
LWPOLYLINE
  5
AC0B9
330
B144A
100
AcDbEntity
  8
0
100
AcDbPolyline
 90
        5
 70
     1
 43
0.0
 10
24639.05462659571
 20
14350.44289643319
 10
24384.35808571135
 20
14350.44289643319
 10
24384.35808571135
 20
15030.72818929086
 42
0.4500709718572363
 10
24639.05462659571
 20
15091.70613725856
 10
24639.05462659571
 20
14350.44289643319
  0
ARC
  5
AC0BA
330
B144A
100
AcDbEntity
  8
0
100
AcDbCircle
 10
24484.62722236886
 20
15174.02098877709
 30
0.0
 40
152.0954421879083
100
AcDbArc
 50
53.7437419628992
 51
36.24889815847135
  0
ARC
  5
AC0BB
330
B144A
100
AcDbEntity
  8
0
100
AcDbCircle
 10
24484.69616148909
 20
15174.03504873868
 30
0.0
 40
174.9416628924599
100
AcDbArc
 50
53.15109948308578
 51
36.86874516371485
  0
CIRCLE
  5
AC0BC
330
B144A
100
AcDbEntity
  8
0
100
AcDbCircle
 10
24600.24657790427
 20
15289.62549348434
 30
0.0
 40
26.6188882392234
  0
CIRCLE
  5
AC0BD
330
B144A
100
AcDbEntity
  8
0
100
AcDbCircle
 10
24600.24657790427
 20
11245.49000347089
 30
0.0
 40
26.6188882392234
  0
ARC
  5
AC0BE
330
B144A
100
AcDbEntity
  8
0
100
AcDbCircle
 10
24484.69616148909
 20
11129.89955872523
 30
0.0
 40
174.9416628924599
100
AcDbArc
 50
53.15109948308578
 51
36.86874516371485
  0
ARC
  5
AC0BF
330
B144A
100
AcDbEntity
  8
0
100
AcDbCircle
 10
24484.62722236886
 20
11129.88549876364
 30
0.0
 40
152.0954421879083
100
AcDbArc
 50
53.7437419628992
 51
36.24889815847135
  0
LWPOLYLINE
  5
AC0C0
330
B144A
100
AcDbEntity
  8
0
100
AcDbPolyline
 90
        5
 70
     1
 43
0.0
 10
24639.05462659571
 20
10306.30740641974
 10
24384.35808571135
 20
10306.30740641974
 10
24384.35808571135
 20
10986.59269927741
 42
0.4500709718572363
 10
24639.05462659571
 20
11047.57064724511
 10
24639.05462659571
 20
10306.30740641974
  0
LWPOLYLINE
  5
AC0C1
330
B144A
100
AcDbEntity
  8
0
100
AcDbPolyline
 90
        9
 70
     0
 43
0.0
 10
24338.8441910266
 20
11226.50073950368
 42
-0.4313481873912146
 10
24589.60986361568
 20
11269.89134606174
 42
-0.6814225353586246
 10
24624.65160310451
 20
11234.86174133315
 42
-0.2912012462252227
 10
24639.05462659571
 20
11047.57064724514
 10
24639.05462659571
 20
10306.30740641974
 10
24938.8441910266
 20
10306.30740641974
 10
24938.8441910266
 20
12836.30740641978
 10
24338.8441910266
 20
12836.30740641978
 10
24338.8441910266
 20
11226.50073950368
  0
LWPOLYLINE
  5
AC0C2
330
B144A
100
AcDbEntity
  8
0
100
AcDbPolyline
 90
        5
 70
     0
 43
0.0
 10
24384.35808571135
 20
10986.59269927741
 10
24384.35808571135
 20
10306.30740641974
 10
24338.8441910266
 20
10306.30740641974
 10
24338.8441910266
 20
11033.29837794679
 42
0.0940184742794634
 10
24384.35808571135
 20
10986.59269927741
 42
0.0940184742794634
  0
LWPOLYLINE
  5
AC0C3
330
B144A
100
AcDbEntity
  8
0
100
AcDbPolyline
 90
        2
 70
     0
 43
0.0
 10
23145.57602734765
 20
10251.30740641974
 10
24145.57602734765
 20
10251.30740641974
  0
LWPOLYLINE
  5
AC0C4
330
B144A
100
AcDbEntity
  8
0
100
AcDbPolyline
 90
        5
 70
     0
 43
0.0
 10
23391.08992203239
 20
10986.59269927741
 10
23391.08992203239
 20
10306.30740641974
 10
23345.57602734765
 20
10306.30740641974
 10
23345.57602734765
 20
11033.29837794679
 42
0.0940184742794634
 10
23391.08992203239
 20
10986.59269927741
 42
0.0940184742794634
  0
LWPOLYLINE
  5
AC0C5
330
B144A
100
AcDbEntity
  8
0
100
AcDbPolyline
 90
        9
 70
     0
 43
0.0
 10
23345.57602734765
 20
11226.50073950368
 42
-0.4313481873912146
 10
23596.34169993672
 20
11269.89134606174
 42
-0.6814225353586246
 10
23631.38343942555
 20
11234.86174133315
 42
-0.2912012462252227
 10
23645.78646291676
 20
11047.57064724514
 10
23645.78646291676
 20
10306.30740641974
 10
23945.57602734765
 20
10306.30740641974
 10
23945.57602734765
 20
12436.30740641978
 10
23345.57602734765
 20
12436.30740641978
 10
23345.57602734765
 20
11226.50073950368
  0
LWPOLYLINE
  5
AC0C6
330
B144A
100
AcDbEntity
  8
0
100
AcDbPolyline
 90
        5
 70
     1
 43
0.0
 10
23645.78646291676
 20
10306.30740641974
 10
23391.08992203239
 20
10306.30740641974
 10
23391.08992203239
 20
10986.59269927741
 42
0.4500709718572363
 10
23645.78646291676
 20
11047.57064724511
 10
23645.78646291676
 20
10306.30740641974
  0
ARC
  5
AC0C7
330
B144A
100
AcDbEntity
  8
0
100
AcDbCircle
 10
23491.35905868991
 20
11129.88549876364
 30
0.0
 40
152.0954421879083
100
AcDbArc
 50
53.7437419628992
 51
36.24889815847135
  0
ARC
  5
AC0C8
330
B144A
100
AcDbEntity
  8
0
100
AcDbCircle
 10
23491.42799781014
 20
11129.89955872523
 30
0.0
 40
174.9416628924599
100
AcDbArc
 50
53.15109948308578
 51
36.86874516371485
  0
CIRCLE
  5
AC0C9
330
B144A
100
AcDbEntity
  8
0
100
AcDbCircle
 10
23606.97841422533
 20
11245.49000347089
 30
0.0
 40
26.6188882392234
  0
LWPOLYLINE
  5
AC0CA
330
B144A
100
AcDbEntity
  8
0
100
AcDbPolyline
 90
        2
 70
     0
 43
0.0
 10
24141.98945446307
 20
10251.30740641974
 10
25138.40288157848
 20
10251.30740641974
  0
LWPOLYLINE
  5
AC0CB
330
B144A
100
AcDbEntity
  8
0
100
AcDbPolyline
 90
        2
 70
     0
 43
0.0
 10
24141.98945446307
 20
10251.30740641974
 10
23145.57602734765
 20
10251.30740641974
  0
LWPOLYLINE
  5
AC0CE
330
B144A
100
AcDbEntity
  8
0
100
AcDbPolyline
 90
        5
 70
     0
 43
0.0
 10
27527.1875837631
 20
2893.321719250511
 10
27527.1875837631
 20
2213.036426392835
 10
27481.67368907836
 20
2213.036426392835
 10
27481.67368907836
 20
2940.027397919883
 42
0.0940184742794634
 10
27527.1875837631
 20
2893.321719250511
 42
0.0940184742794634
  0
LWPOLYLINE
  5
AC0CF
330
B144A
100
AcDbEntity
  8
0
100
AcDbPolyline
 90
        9
 70
     0
 43
0.0
 10
27481.67368907836
 20
3133.229759476774
 42
-0.4313481873912146
 10
27732.43936166743
 20
3176.62036603484
 42
-0.6814225353586246
 10
27767.48110115626
 20
3141.590761306244
 42
-0.2912012462252227
 10
27781.88412464747
 20
2954.299667218235
 10
27781.88412464747
 20
2213.036426392835
 10
28081.67368907836
 20
2213.036426392835
 10
28081.67368907836
 20
4343.036426392877
 10
27481.67368907836
 20
4343.036426392877
 10
27481.67368907836
 20
3133.229759476774
  0
LWPOLYLINE
  5
AC0D0
330
B144A
100
AcDbEntity
  8
0
100
AcDbPolyline
 90
        5
 70
     1
 43
0.0
 10
27781.88412464747
 20
2213.036426392835
 10
27527.1875837631
 20
2213.036426392835
 10
27527.1875837631
 20
2893.321719250511
 42
0.4500709718572363
 10
27781.88412464747
 20
2954.299667218207
 10
27781.88412464747
 20
2213.036426392835
  0
ARC
  5
AC0D1
330
B144A
100
AcDbEntity
  8
0
100
AcDbCircle
 10
27627.45672042062
 20
3036.614518736737
 30
0.0
 40
152.0954421879083
100
AcDbArc
 50
53.7437419628992
 51
36.24889815847135
  0
ARC
  5
AC0D2
330
B144A
100
AcDbEntity
  8
0
100
AcDbCircle
 10
27627.52565954085
 20
3036.628578698328
 30
0.0
 40
174.9416628924599
100
AcDbArc
 50
53.15109948308578
 51
36.86874516371485
  0
CIRCLE
  5
AC0D3
330
B144A
100
AcDbEntity
  8
0
100
AcDbCircle
 10
27743.07607595603
 20
3152.219023443992
 30
0.0
 40
26.6188882392234
  0
CIRCLE
  5
AC0D4
330
B144A
100
AcDbEntity
  8
0
100
AcDbCircle
 10
29143.28651152515
 20
3152.219023443992
 30
0.0
 40
26.6188882392234
  0
ARC
  5
AC0D5
330
B144A
100
AcDbEntity
  8
0
100
AcDbCircle
 10
29027.73609510997
 20
3036.628578698328
 30
0.0
 40
174.9416628924599
100
AcDbArc
 50
53.15109948308578
 51
36.86874516371485
  0
ARC
  5
AC0D6
330
B144A
100
AcDbEntity
  8
0
100
AcDbCircle
 10
29027.66715598974
 20
3036.614518736737
 30
0.0
 40
152.0954421879083
100
AcDbArc
 50
53.7437419628992
 51
36.24889815847135
  0
LWPOLYLINE
  5
AC0D7
330
B144A
100
AcDbEntity
  8
0
100
AcDbPolyline
 90
        5
 70
     1
 43
0.0
 10
29182.09456021659
 20
2213.036426392835
 10
28927.39801933223
 20
2213.036426392835
 10
28927.39801933223
 20
2893.321719250511
 42
0.4500709718572363
 10
29182.09456021659
 20
2954.299667218207
 10
29182.09456021659
 20
2213.036426392835
  0
LWPOLYLINE
  5
AC0D8
330
B144A
100
AcDbEntity
  8
0
100
AcDbPolyline
 90
        9
 70
     0
 43
0.0
 10
28881.88412464748
 20
3133.229759476774
 42
-0.4313481873912146
 10
29132.64979723655
 20
3176.62036603484
 42
-0.6814225353586246
 10
29167.69153672539
 20
3141.590761306244
 42
-0.2912012462252227
 10
29182.09456021659
 20
2954.299667218235
 10
29182.09456021659
 20
2213.036426392835
 10
29481.88412464748
 20
2213.036426392835
 10
29481.88412464748
 20
4343.036426392877
 10
28881.88412464748
 20
4343.036426392877
 10
28881.88412464748
 20
3133.229759476774
  0
LWPOLYLINE
  5
AC0D9
330
B144A
100
AcDbEntity
  8
0
100
AcDbPolyline
 90
        5
 70
     0
 43
0.0
 10
28927.39801933223
 20
2893.321719250511
 10
28927.39801933223
 20
2213.036426392835
 10
28881.88412464748
 20
2213.036426392835
 10
28881.88412464748
 20
2940.027397919883
 42
0.0940184742794634
 10
28927.39801933223
 20
2893.321719250511
 42
0.0940184742794634
  0
LWPOLYLINE
  5
AC0DA
330
B144A
100
AcDbEntity
  8
0
100
AcDbPolyline
 90
        5
 70
     0
 43
0.0
 10
29527.39801933223
 20
2893.321719250511
 10
29527.39801933223
 20
2213.036426392835
 10
29481.88412464748
 20
2213.036426392835
 10
29481.88412464748
 20
2940.027397919883
 42
0.0940184742794634
 10
29527.39801933223
 20
2893.321719250511
 42
0.0940184742794634
  0
LWPOLYLINE
  5
AC0DB
330
B144A
100
AcDbEntity
  8
0
100
AcDbPolyline
 90
        9
 70
     0
 43
0.0
 10
29481.88412464748
 20
3133.229759476774
 42
-0.4313481873912146
 10
29732.64979723655
 20
3176.62036603484
 42
-0.6814225353586246
 10
29767.69153672539
 20
3141.590761306244
 42
-0.2912012462252227
 10
29782.09456021659
 20
2954.299667218235
 10
29782.09456021659
 20
2213.036426392835
 10
30081.88412464748
 20
2213.036426392835
 10
30081.88412464748
 20
4343.036426392877
 10
29481.88412464748
 20
4343.036426392877
 10
29481.88412464748
 20
3133.229759476774
  0
LWPOLYLINE
  5
AC0DC
330
B144A
100
AcDbEntity
  8
0
100
AcDbPolyline
 90
        5
 70
     1
 43
0.0
 10
29782.09456021659
 20
2213.036426392835
 10
29527.39801933223
 20
2213.036426392835
 10
29527.39801933223
 20
2893.321719250511
 42
0.4500709718572363
 10
29782.09456021659
 20
2954.299667218207
 10
29782.09456021659
 20
2213.036426392835
  0
ARC
  5
AC0DD
330
B144A
100
AcDbEntity
  8
0
100
AcDbCircle
 10
29627.66715598974
 20
3036.614518736737
 30
0.0
 40
152.0954421879083
100
AcDbArc
 50
53.7437419628992
 51
36.24889815847135
  0
ARC
  5
AC0DE
330
B144A
100
AcDbEntity
  8
0
100
AcDbCircle
 10
29627.73609510998
 20
3036.628578698328
 30
0.0
 40
174.9416628924599
100
AcDbArc
 50
53.15109948308578
 51
36.86874516371485
  0
CIRCLE
  5
AC0DF
330
B144A
100
AcDbEntity
  8
0
100
AcDbCircle
 10
29743.28651152515
 20
3152.219023443992
 30
0.0
 40
26.6188882392234
  0
LWPOLYLINE
  5
AC0E6
330
B144A
100
AcDbEntity
  8
0
100
AcDbPolyline
 90
        5
 70
     0
 43
0.0
 10
30127.39801933223
 20
2893.321719250511
 10
30127.39801933223
 20
2213.036426392835
 10
30081.88412464748
 20
2213.036426392835
 10
30081.88412464748
 20
2940.027397919883
 42
0.0940184742794634
 10
30127.39801933223
 20
2893.321719250511
 42
0.0940184742794634
  0
LWPOLYLINE
  5
AC0E7
330
B144A
100
AcDbEntity
  8
0
100
AcDbPolyline
 90
        9
 70
     0
 43
0.0
 10
30081.88412464748
 20
3133.229759476774
 42
-0.4313481873912146
 10
30332.64979723655
 20
3176.62036603484
 42
-0.6814225353586246
 10
30367.69153672539
 20
3141.590761306244
 42
-0.2912012462252227
 10
30382.09456021659
 20
2954.299667218235
 10
30382.09456021659
 20
2213.036426392835
 10
30681.88412464748
 20
2213.036426392835
 10
30681.88412464748
 20
4343.036426392877
 10
30081.88412464748
 20
4343.036426392877
 10
30081.88412464748
 20
3133.229759476774
  0
LWPOLYLINE
  5
AC0E8
330
B144A
100
AcDbEntity
  8
0
100
AcDbPolyline
 90
        5
 70
     1
 43
0.0
 10
30382.09456021659
 20
2213.036426392835
 10
30127.39801933223
 20
2213.036426392835
 10
30127.39801933223
 20
2893.321719250511
 42
0.4500709718572363
 10
30382.09456021659
 20
2954.299667218207
 10
30382.09456021659
 20
2213.036426392835
  0
ARC
  5
AC0E9
330
B144A
100
AcDbEntity
  8
0
100
AcDbCircle
 10
30227.66715598974
 20
3036.614518736737
 30
0.0
 40
152.0954421879083
100
AcDbArc
 50
53.7437419628992
 51
36.24889815847135
  0
ARC
  5
AC0EA
330
B144A
100
AcDbEntity
  8
0
100
AcDbCircle
 10
30227.73609510998
 20
3036.628578698328
 30
0.0
 40
174.9416628924599
100
AcDbArc
 50
53.15109948308578
 51
36.86874516371485
  0
CIRCLE
  5
AC0EB
330
B144A
100
AcDbEntity
  8
0
100
AcDbCircle
 10
30343.28651152515
 20
3152.219023443992
 30
0.0
 40
26.6188882392234
  0
CIRCLE
  5
ACF98
330
B144A
100
AcDbEntity
  8
0
100
AcDbCircle
 10
30343.28651152515
 20
7196.354513457437
 30
0.0
 40
26.6188882392234
  0
ARC
  5
ACF99
330
B144A
100
AcDbEntity
  8
0
100
AcDbCircle
 10
30227.73609510998
 20
7080.764068711776
 30
0.0
 40
174.9416628924599
100
AcDbArc
 50
53.15109948308578
 51
36.86874516371485
  0
ARC
  5
ACF9A
330
B144A
100
AcDbEntity
  8
0
100
AcDbCircle
 10
30227.66715598974
 20
7080.750008750183
 30
0.0
 40
152.0954421879083
100
AcDbArc
 50
53.7437419628992
 51
36.24889815847135
  0
LWPOLYLINE
  5
ACF9B
330
B144A
100
AcDbEntity
  8
0
100
AcDbPolyline
 90
        5
 70
     1
 43
0.0
 10
30382.09456021659
 20
6257.171916406282
 10
30127.39801933223
 20
6257.171916406282
 10
30127.39801933223
 20
6937.457209263958
 42
0.4500709718572363
 10
30382.09456021659
 20
6998.435157231654
 10
30382.09456021659
 20
6257.171916406282
  0
LWPOLYLINE
  5
ACF9C
330
B144A
100
AcDbEntity
  8
0
100
AcDbPolyline
 90
        9
 70
     0
 43
0.0
 10
30081.88412464748
 20
7177.365249490219
 42
-0.4313481873912146
 10
30332.64979723655
 20
7220.755856048285
 42
-0.6814225353586246
 10
30367.69153672539
 20
7185.726251319692
 42
-0.2912012462252227
 10
30382.09456021659
 20
6998.435157231681
 10
30382.09456021659
 20
6257.171916406282
 10
30681.88412464748
 20
6257.171916406282
 10
30681.88412464748
 20
8787.171916406325
 10
30081.88412464748
 20
8787.171916406325
 10
30081.88412464748
 20
7177.365249490219
  0
LWPOLYLINE
  5
ACF9D
330
B144A
100
AcDbEntity
  8
0
100
AcDbPolyline
 90
        5
 70
     0
 43
0.0
 10
30127.39801933223
 20
6937.457209263958
 10
30127.39801933223
 20
6257.171916406282
 10
30081.88412464748
 20
6257.171916406282
 10
30081.88412464748
 20
6984.162887933329
 42
0.0940184742794634
 10
30127.39801933223
 20
6937.457209263958
 42
0.0940184742794634
  0
CIRCLE
  5
ACF9E
330
B144A
100
AcDbEntity
  8
0
100
AcDbCircle
 10
29743.28651152515
 20
7196.354513457437
 30
0.0
 40
26.6188882392234
  0
ARC
  5
ACF9F
330
B144A
100
AcDbEntity
  8
0
100
AcDbCircle
 10
29627.73609510998
 20
7080.764068711776
 30
0.0
 40
174.9416628924599
100
AcDbArc
 50
53.15109948308578
 51
36.86874516371485
  0
ARC
  5
ACFA0
330
B144A
100
AcDbEntity
  8
0
100
AcDbCircle
 10
29627.66715598974
 20
7080.750008750183
 30
0.0
 40
152.0954421879083
100
AcDbArc
 50
53.7437419628992
 51
36.24889815847135
  0
LWPOLYLINE
  5
ACFA1
330
B144A
100
AcDbEntity
  8
0
100
AcDbPolyline
 90
        5
 70
     1
 43
0.0
 10
29782.09456021659
 20
6257.171916406282
 10
29527.39801933223
 20
6257.171916406282
 10
29527.39801933223
 20
6937.457209263958
 42
0.4500709718572363
 10
29782.09456021659
 20
6998.435157231654
 10
29782.09456021659
 20
6257.171916406282
  0
LWPOLYLINE
  5
ACFA2
330
B144A
100
AcDbEntity
  8
0
100
AcDbPolyline
 90
        9
 70
     0
 43
0.0
 10
29481.88412464748
 20
7177.365249490219
 42
-0.4313481873912146
 10
29732.64979723655
 20
7220.755856048285
 42
-0.6814225353586246
 10
29767.69153672539
 20
7185.726251319692
 42
-0.2912012462252227
 10
29782.09456021659
 20
6998.435157231681
 10
29782.09456021659
 20
6257.171916406282
 10
30081.88412464748
 20
6257.171916406282
 10
30081.88412464748
 20
8787.171916406325
 10
29481.88412464748
 20
8787.171916406325
 10
29481.88412464748
 20
7177.365249490219
  0
LWPOLYLINE
  5
ACFA3
330
B144A
100
AcDbEntity
  8
0
100
AcDbPolyline
 90
        5
 70
     0
 43
0.0
 10
29527.39801933223
 20
6937.457209263958
 10
29527.39801933223
 20
6257.171916406282
 10
29481.88412464748
 20
6257.171916406282
 10
29481.88412464748
 20
6984.162887933329
 42
0.0940184742794634
 10
29527.39801933223
 20
6937.457209263958
 42
0.0940184742794634
  0
LWPOLYLINE
  5
ACFA4
330
B144A
100
AcDbEntity
  8
0
100
AcDbPolyline
 90
        5
 70
     0
 43
0.0
 10
28927.39801933223
 20
6937.457209263958
 10
28927.39801933223
 20
6257.171916406282
 10
28881.88412464748
 20
6257.171916406282
 10
28881.88412464748
 20
6984.162887933329
 42
0.0940184742794634
 10
28927.39801933223
 20
6937.457209263958
 42
0.0940184742794634
  0
LWPOLYLINE
  5
ACFA5
330
B144A
100
AcDbEntity
  8
0
100
AcDbPolyline
 90
        9
 70
     0
 43
0.0
 10
28881.88412464748
 20
7177.365249490219
 42
-0.4313481873912146
 10
29132.64979723655
 20
7220.755856048285
 42
-0.6814225353586246
 10
29167.69153672539
 20
7185.726251319692
 42
-0.2912012462252227
 10
29182.09456021659
 20
6998.435157231681
 10
29182.09456021659
 20
6257.171916406282
 10
29481.88412464748
 20
6257.171916406282
 10
29481.88412464748
 20
8787.171916406325
 10
28881.88412464748
 20
8787.171916406325
 10
28881.88412464748
 20
7177.365249490219
  0
LWPOLYLINE
  5
ACFA6
330
B144A
100
AcDbEntity
  8
0
100
AcDbPolyline
 90
        5
 70
     1
 43
0.0
 10
29182.09456021659
 20
6257.171916406282
 10
28927.39801933223
 20
6257.171916406282
 10
28927.39801933223
 20
6937.457209263958
 42
0.4500709718572363
 10
29182.09456021659
 20
6998.435157231654
 10
29182.09456021659
 20
6257.171916406282
  0
ARC
  5
ACFA7
330
B144A
100
AcDbEntity
  8
0
100
AcDbCircle
 10
29027.66715598974
 20
7080.750008750183
 30
0.0
 40
152.0954421879083
100
AcDbArc
 50
53.7437419628992
 51
36.24889815847135
  0
ARC
  5
ACFA8
330
B144A
100
AcDbEntity
  8
0
100
AcDbCircle
 10
29027.73609510997
 20
7080.764068711776
 30
0.0
 40
174.9416628924599
100
AcDbArc
 50
53.15109948308578
 51
36.86874516371485
  0
CIRCLE
  5
ACFA9
330
B144A
100
AcDbEntity
  8
0
100
AcDbCircle
 10
29143.28651152515
 20
7196.354513457437
 30
0.0
 40
26.6188882392234
  0
CIRCLE
  5
ACFAA
330
B144A
100
AcDbEntity
  8
0
100
AcDbCircle
 10
27743.07607595603
 20
7196.354513457437
 30
0.0
 40
26.6188882392234
  0
ARC
  5
ACFAB
330
B144A
100
AcDbEntity
  8
0
100
AcDbCircle
 10
27627.52565954085
 20
7080.764068711776
 30
0.0
 40
174.9416628924599
100
AcDbArc
 50
53.15109948308578
 51
36.86874516371485
  0
ARC
  5
ACFAC
330
B144A
100
AcDbEntity
  8
0
100
AcDbCircle
 10
27627.45672042062
 20
7080.750008750183
 30
0.0
 40
152.0954421879083
100
AcDbArc
 50
53.7437419628992
 51
36.24889815847135
  0
LWPOLYLINE
  5
ACFAD
330
B144A
100
AcDbEntity
  8
0
100
AcDbPolyline
 90
        5
 70
     1
 43
0.0
 10
27781.88412464747
 20
6257.171916406282
 10
27527.1875837631
 20
6257.171916406282
 10
27527.1875837631
 20
6937.457209263958
 42
0.4500709718572363
 10
27781.88412464747
 20
6998.435157231654
 10
27781.88412464747
 20
6257.171916406282
  0
LWPOLYLINE
  5
ACFAE
330
B144A
100
AcDbEntity
  8
0
100
AcDbPolyline
 90
        9
 70
     0
 43
0.0
 10
27481.67368907836
 20
7177.365249490219
 42
-0.4313481873912146
 10
27732.43936166743
 20
7220.755856048285
 42
-0.6814225353586246
 10
27767.48110115626
 20
7185.726251319692
 42
-0.2912012462252227
 10
27781.88412464747
 20
6998.435157231681
 10
27781.88412464747
 20
6257.171916406282
 10
28081.67368907836
 20
6257.171916406282
 10
28081.67368907836
 20
8787.171916406325
 10
27481.67368907836
 20
8787.171916406325
 10
27481.67368907836
 20
7177.365249490219
  0
LWPOLYLINE
  5
ACFAF
330
B144A
100
AcDbEntity
  8
0
100
AcDbPolyline
 90
        5
 70
     0
 43
0.0
 10
27527.1875837631
 20
6937.457209263958
 10
27527.1875837631
 20
6257.171916406282
 10
27481.67368907836
 20
6257.171916406282
 10
27481.67368907836
 20
6984.162887933329
 42
0.0940184742794634
 10
27527.1875837631
 20
6937.457209263958
 42
0.0940184742794634
  0
CIRCLE
  5
ACFB0
330
B144A
100
AcDbEntity
  8
0
100
AcDbCircle
 10
30943.28651152515
 20
7196.354513457437
 30
0.0
 40
26.6188882392234
  0
ARC
  5
ACFB1
330
B144A
100
AcDbEntity
  8
0
100
AcDbCircle
 10
30827.73609510997
 20
7080.764068711776
 30
0.0
 40
174.9416628924599
100
AcDbArc
 50
53.15109948308578
 51
36.86874516371485
  0
ARC
  5
ACFB2
330
B144A
100
AcDbEntity
  8
0
100
AcDbCircle
 10
30827.66715598974
 20
7080.750008750183
 30
0.0
 40
152.0954421879083
100
AcDbArc
 50
53.7437419628992
 51
36.24889815847135
  0
LWPOLYLINE
  5
ACFB3
330
B144A
100
AcDbEntity
  8
0
100
AcDbPolyline
 90
        5
 70
     1
 43
0.0
 10
30982.09456021659
 20
6257.171916406282
 10
30727.39801933222
 20
6257.171916406282
 10
30727.39801933222
 20
6937.457209263958
 42
0.4500709718572363
 10
30982.09456021659
 20
6998.435157231654
 10
30982.09456021659
 20
6257.171916406282
  0
LWPOLYLINE
  5
ACFB4
330
B144A
100
AcDbEntity
  8
0
100
AcDbPolyline
 90
        9
 70
     0
 43
0.0
 10
30681.88412464748
 20
7177.365249490219
 42
-0.4313481873912146
 10
30932.64979723655
 20
7220.755856048285
 42
-0.6814225353586246
 10
30967.69153672539
 20
7185.726251319692
 42
-0.2912012462252227
 10
30982.09456021659
 20
6998.435157231681
 10
30982.09456021659
 20
6257.171916406282
 10
31281.88412464748
 20
6257.171916406282
 10
31281.88412464748
 20
8787.171916406325
 10
30681.88412464748
 20
8787.171916406325
 10
30681.88412464748
 20
7177.365249490219
  0
LWPOLYLINE
  5
ACFB5
330
B144A
100
AcDbEntity
  8
0
100
AcDbPolyline
 90
        5
 70
     0
 43
0.0
 10
30727.39801933222
 20
6937.457209263958
 10
30727.39801933222
 20
6257.171916406282
 10
30681.88412464748
 20
6257.171916406282
 10
30681.88412464748
 20
6984.162887933329
 42
0.0940184742794634
 10
30727.39801933222
 20
6937.457209263958
 42
0.0940184742794634
  0
LWPOLYLINE
  5
ACFB6
330
B144A
100
AcDbEntity
  8
0
100
AcDbPolyline
 90
        5
 70
     0
 43
0.0
 10
31327.39801933222
 20
6937.457209263958
 10
31327.39801933222
 20
6257.171916406282
 10
31281.88412464748
 20
6257.171916406282
 10
31281.88412464748
 20
6984.162887933329
 42
0.0940184742794634
 10
31327.39801933222
 20
6937.457209263958
 42
0.0940184742794634
  0
LWPOLYLINE
  5
ACFB7
330
B144A
100
AcDbEntity
  8
0
100
AcDbPolyline
 90
        9
 70
     0
 43
0.0
 10
31281.88412464748
 20
7177.365249490219
 42
-0.4313481873912146
 10
31532.64979723656
 20
7220.755856048285
 42
-0.6814225353586246
 10
31567.69153672539
 20
7185.726251319692
 42
-0.2912012462252227
 10
31582.09456021659
 20
6998.435157231681
 10
31582.09456021659
 20
6257.171916406282
 10
31881.88412464748
 20
6257.171916406282
 10
31881.88412464748
 20
8787.171916406325
 10
31281.88412464748
 20
8787.171916406325
 10
31281.88412464748
 20
7177.365249490219
  0
LWPOLYLINE
  5
ACFB8
330
B144A
100
AcDbEntity
  8
0
100
AcDbPolyline
 90
        5
 70
     1
 43
0.0
 10
31582.09456021659
 20
6257.171916406282
 10
31327.39801933222
 20
6257.171916406282
 10
31327.39801933222
 20
6937.457209263958
 42
0.4500709718572363
 10
31582.09456021659
 20
6998.435157231654
 10
31582.09456021659
 20
6257.171916406282
  0
ARC
  5
ACFB9
330
B144A
100
AcDbEntity
  8
0
100
AcDbCircle
 10
31427.66715598974
 20
7080.750008750183
 30
0.0
 40
152.0954421879083
100
AcDbArc
 50
53.7437419628992
 51
36.24889815847135
  0
ARC
  5
ACFBA
330
B144A
100
AcDbEntity
  8
0
100
AcDbCircle
 10
31427.73609510997
 20
7080.764068711776
 30
0.0
 40
174.9416628924599
100
AcDbArc
 50
53.15109948308578
 51
36.86874516371485
  0
CIRCLE
  5
ACFBB
330
B144A
100
AcDbEntity
  8
0
100
AcDbCircle
 10
31543.28651152515
 20
7196.354513457437
 30
0.0
 40
26.6188882392234
  0
LWPOLYLINE
  5
ACFBC
330
B144A
100
AcDbEntity
  8
0
100
AcDbPolyline
 90
        5
 70
     0
 43
0.0
 10
31927.39801933222
 20
6937.457209263958
 10
31927.39801933222
 20
6257.171916406282
 10
31881.88412464748
 20
6257.171916406282
 10
31881.88412464748
 20
6984.162887933329
 42
0.0940184742794634
 10
31927.39801933222
 20
6937.457209263958
 42
0.0940184742794634
  0
LWPOLYLINE
  5
ACFBD
330
B144A
100
AcDbEntity
  8
0
100
AcDbPolyline
 90
        9
 70
     0
 43
0.0
 10
31881.88412464748
 20
7177.365249490219
 42
-0.4313481873912146
 10
32132.64979723656
 20
7220.755856048285
 42
-0.6814225353586246
 10
32167.69153672539
 20
7185.726251319692
 42
-0.2912012462252227
 10
32182.09456021659
 20
6998.435157231681
 10
32182.09456021659
 20
6257.171916406282
 10
32481.88412464748
 20
6257.171916406282
 10
32481.88412464748
 20
8787.171916406325
 10
31881.88412464748
 20
8787.171916406325
 10
31881.88412464748
 20
7177.365249490219
  0
LWPOLYLINE
  5
ACFBE
330
B144A
100
AcDbEntity
  8
0
100
AcDbPolyline
 90
        5
 70
     1
 43
0.0
 10
32182.09456021659
 20
6257.171916406282
 10
31927.39801933222
 20
6257.171916406282
 10
31927.39801933222
 20
6937.457209263958
 42
0.4500709718572363
 10
32182.09456021659
 20
6998.435157231654
 10
32182.09456021659
 20
6257.171916406282
  0
ARC
  5
ACFBF
330
B144A
100
AcDbEntity
  8
0
100
AcDbCircle
 10
32027.66715598974
 20
7080.750008750183
 30
0.0
 40
152.0954421879083
100
AcDbArc
 50
53.7437419628992
 51
36.24889815847135
  0
ARC
  5
ACFC0
330
B144A
100
AcDbEntity
  8
0
100
AcDbCircle
 10
32027.73609510997
 20
7080.764068711776
 30
0.0
 40
174.9416628924599
100
AcDbArc
 50
53.15109948308578
 51
36.86874516371485
  0
CIRCLE
  5
ACFC1
330
B144A
100
AcDbEntity
  8
0
100
AcDbCircle
 10
32143.28651152515
 20
7196.354513457437
 30
0.0
 40
26.6188882392234
  0
VIEWPORT
  5
4E
330
B1448
100
AcDbEntity
 67
     1
  8
0
100
AcDbViewport
 10
0.0
 20
0.0
 30
0.0
 40
851.2853464419466
 41
428.7008504942788
 68
     1
 69
     1
 12
5438.728388405139
 22
103.0511397757678
 13
0.0
 23
0.0
 14
1.0
 24
1.0
 15
0.0
 25
0.0
 16
0.0
 26
0.0
 36
1.0
 17
0.0
 27
0.0
 37
0.0
 42
50.0
 43
0.0
 44
0.0
 45
428.7008504942788
 50
0.0
 51
0.0
 72
   100
 90
   557232
  1

281
     0
 71
     0
 74
     0
110
0.0
120
0.0
130
0.0
111
1.0
121
0.0
131
0.0
112
0.0
122
1.0
132
0.0
 79
     0
146
0.0
170
     0
 61
     5
348
B1496
292
     1
282
     1
141
0.0
142
0.0
 63
   256
  0
TEXT
  5
6A0D
330
B1448
100
AcDbEntity
 67
     1
  8
CLOTHES_RAIL
100
AcDbText
 10
1166.029996061232
 20
36.51875448083099
 30
0.0
 40
1.6
  1

  7
STILE1
 72
     1
 11
1166.029996061232
 21
36.51875448083099
 31
0.0
100
AcDbText
  0
TEXT
  5
220D4
330
B1448
100
AcDbEntity
 67
     1
  8
CLOTHES_RAIL
100
AcDbText
 10
1075.854083628048
 20
54.2187253812249
 30
0.0
 40
1.504
  1

  7
STILE4
100
AcDbText
  0
TEXT
  5
220D5
330
B1448
100
AcDbEntity
 67
     1
  8
0
100
AcDbText
 10
1099.486943584454
 20
54.27519572975143
 30
0.0
 40
1.296
  1

  7
STILE1
 72
     1
 11
1099.486943584454
 21
54.27519572975143
 31
0.0
100
AcDbText
  0
TEXT
  5
220D7
330
B1448
100
AcDbEntity
 67
     1
  8
0
100
AcDbText
 10
1163.382376406764
 20
54.27519572975143
 30
0.0
 40
1.296
  1

  7
STILE1
 72
     1
 11
1163.382376406764
 21
54.27519572975143
 31
0.0
100
AcDbText
  0
VIEWPORT
  5
7996C
330
B1448
100
AcDbEntity
 67
     1
  8
RETE
100
AcDbViewport
 10
5724.75813952323
 20
94.80832444904343
 30
0.0
 40
191.5
 41
236.132465228796
 68
     2
 69
     2
 12
215823.6079317253
 22
34568.76605440148
 13
0.0
 23
0.0
 14
1.0
 24
1.0
 15
0.0
 25
0.0
 16
0.0
 26
0.0
 36
1.0
 17
167108.1207671265
 27
-11328.71929700901
 37
0.0
 42
50.0
 43
0.0
 44
0.0
 45
5903.311630719954
 50
0.0
 51
0.0
 72
   100
 90
   557232
  1

281
     0
 71
     0
 74
     0
110
0.0
120
0.0
130
0.0
111
1.0
121
0.0
131
0.0
112
0.0
122
1.0
132
0.0
 79
     0
146
0.0
170
     0
 61
     5
348
B1496
292
     1
282
     1
141
0.0
142
0.0
 63
   256
  0
LINE
  5
97E00
330
B1448
100
AcDbEntity
 67
     1
  8
RIPIANI
100
AcDbLine
 10
5820.50813952323
 20
24.42642567457204
 30
0.0
 11
5820.50813952323
 21
-45.57357432542768
 31
0.0
  0
LINE
  5
97E05
330
B1448
100
AcDbEntity
 67
     1
  8
0
100
AcDbLine
 10
5650.50813952323
 20
-38.07357432542761
 30
0.0
 11
5673.88152325309
 21
-38.07357432542762
 31
0.0
  0
LINE
  5
97E06
330
B1448
100
AcDbEntity
 67
     1
  8
RIPIANI
100
AcDbLine
 10
5650.50813952323
 20
-45.57357432542761
 30
0.0
 11
5820.50813952323
 21
-45.57357432542768
 31
0.0
  0
TEXT
  5
97E0E
330
B1448
100
AcDbEntity
 67
     1
  8
0
100
AcDbText
 10
5660.24129088937
 20
-44.53779677976007
 30
0.0
 40
1.689599999999999
  1
.DWG
  7
STILE4
100
AcDbText
  0
LINE
  5
97E3C
330
B1448
100
AcDbEntity
 67
     1
  8
RIPIANI
100
AcDbLine
 10
5628.50813952323
 20
-41.82357432542767
 30
0.0
 11
5673.88152325309
 21
-41.82357432542771
 31
0.0
  0
TEXT
  5
97E47
330
B1448
100
AcDbEntity
 67
     1
  8
CLOTHES_RAIL
100
AcDbText
 10
5702.521198378377
 20
-33.21312498230677
 30
0.0
 40
2.5
  1
MOBILE SHELVING SYSTEM MODEL "VELA/BINARIA"
  7
STILE1
 72
     1
 11
5750.257433497425
 21
-33.21312498230677
 31
0.0
100
AcDbText
  0
TEXT
  5
97E48
330
B1448
100
AcDbEntity
 67
     1
  8
CLOTHES_RAIL
100
AcDbText
 10
5723.58890671171
 20
-40.71312498230677
 30
0.0
 40
2.5
  1
WARDROBE CONFIGURATIONS
  7
STILE1
 72
     1
 11
5750.257433497425
 21
-40.71312498230677
 31
0.0
100
AcDbText
  0
TEXT
  5
97E56
330
B1448
100
AcDbEntity
 67
     1
  8
0
100
AcDbText
 10
5635.619679721409
 20
-44.53779677976007
 30
0.0
 40
1.689599999999999
  1
BINARIA-VELA-WR
  7
STILE4
100
AcDbText
  0
LWPOLYLINE
  5
97E5B
330
B1448
100
AcDbEntity
 67
     1
  8
CLOTHES_RAIL
  6
Continuous
100
AcDbPolyline
 90
       15
 70
   128
 43
0.0
 10
5664.319098491812
 20
-36.22039648048771
 10
5664.319098491812
 20
-28.46717463803993
 10
5666.346089322976
 20
-28.46717463803993
 42
-0.316444976687396
 10
5667.365045214904
 20
-29.03206694489745
 10
5669.380908387647
 20
-32.43244509159917
 10
5669.436271072108
 20
-32.43244509159917
 10
5669.436271072108
 20
-28.46717463803993
 10
5671.684747092073
 20
-28.46717463803993
 10
5671.684747092073
 20
-36.22039648048771
 10
5670.034305197542
 20
-36.22039648048771
 42
-0.312959769389874
 10
5669.015349305614
 20
-35.65553862458513
 10
5666.62293719624
 20
-31.7900036853489
 10
5666.567643413688
 20
-31.7900036853489
 10
5666.567643413688
 20
-36.22039648048771
 10
5664.319098491812
 20
-36.22039648048771
  0
LWPOLYLINE
  5
97E5C
330
B1448
100
AcDbEntity
 67
     1
  8
CLOTHES_RAIL
  6
Continuous
100
AcDbPolyline
 90
       15
 70
   128
 43
0.0
 10
5644.791849414121
 20
-36.22039648048771
 10
5644.791849414121
 20
-28.46717463803993
 10
5646.818840245284
 20
-28.46717463803993
 42
-0.316444976687396
 10
5647.837796137212
 20
-29.03206694489745
 10
5649.853659309954
 20
-32.43244509159917
 10
5649.909021994417
 20
-32.43244509159917
 10
5649.909021994417
 20
-28.46717463803993
 10
5652.157498014382
 20
-28.46717463803993
 10
5652.157498014382
 20
-36.22039648048771
 10
5650.50705611985
 20
-36.22039648048771
 42
-0.312959769389874
 10
5649.488100227923
 20
-35.65553862458513
 10
5647.095688118549
 20
-31.7900036853489
 10
5647.040394335996
 20
-31.7900036853489
 10
5647.040394335996
 20
-36.22039648048771
 10
5644.791849414121
 20
-36.22039648048771
  0
LWPOLYLINE
  5
97E5D
330
B1448
100
AcDbEntity
 67
     1
  8
CLOTHES_RAIL
  6
Continuous
100
AcDbPolyline
 90
        9
 70
   128
 43
0.0
 10
5659.844332866811
 20
-28.46720908899488
 10
5659.844332866811
 20
-30.28367013500196
 10
5657.518411100318
 20
-30.28367013500196
 10
5657.518411100318
 20
-36.22039648048771
 10
5655.1370232965
 20
-36.22039648048771
 10
5655.1370232965
 20
-30.28367013500196
 10
5652.866360861604
 20
-30.28367013500196
 10
5652.866360861604
 20
-28.46720908899488
 10
5659.844332866811
 20
-28.46720908899488
  0
LWPOLYLINE
  5
97E5E
330
B1448
100
AcDbEntity
 67
     1
  8
CLOTHES_RAIL
  6
Continuous
100
AcDbPolyline
 90
        4
 70
     1
 43
0.0
 10
5660.586406434521
 20
-28.46720908899488
 10
5662.967794238341
 20
-28.46720908899488
 10
5662.967794238341
 20
-36.22039648048771
 10
5660.586406434521
 20
-36.22039648048771
  0
LWPOLYLINE
  5
97E5F
330
B1448
100
AcDbEntity
 67
     1
  8
CLOTHES_RAIL
  6
Continuous
100
AcDbPolyline
 90
       11
 70
   128
 43
0.0
 10
5636.28518518886
 20
-28.46724353994973
 10
5636.28518518886
 20
-30.25045941451572
 10
5632.563655240943
 20
-30.25045941451572
 10
5632.563655240943
 20
-31.78996923439411
 10
5635.166528233565
 20
-31.78996923439411
 10
5635.166528233565
 20
-33.45143543448086
 10
5632.563655240943
 20
-33.45143543448086
 10
5632.563655240943
 20
-36.22039648048771
 10
5630.182267437125
 20
-36.22039648048771
 10
5630.182267437125
 20
-28.46724353994973
 10
5636.28518518886
 20
-28.46724353994973
  0
LWPOLYLINE
  5
97E60
330
B1448
100
AcDbEntity
 67
     1
  8
CLOTHES_RAIL
  6
Continuous
100
AcDbPolyline
 90
        5
 70
   128
 43
0.0
 10
5640.006887391551
 20
-30.60482193621716
 10
5640.671446310823
 20
-32.88657757857812
 10
5639.220475444938
 20
-32.88657757857812
 10
5639.885034364208
 20
-30.60482193621716
 10
5640.006887391551
 20
-30.60482193621716
  0
LWPOLYLINE
  5
97E61
330
B1448
100
AcDbEntity
 67
     1
  8
CLOTHES_RAIL
  6
Continuous
100
AcDbPolyline
 90
       16
 70
   129
 43
0.0
 10
5641.136720660441
 20
-34.54794042580057
 10
5641.136720660441
 20
-34.54794042580057
 10
5641.623946310821
 20
-36.22039648048771
 10
5644.13828034945
 20
-36.22039648048771
 10
5641.790103266118
 20
-29.16490982684213
 42
0.1089385125692126
 10
5641.535266069767
 20
-28.61148707243616
 42
0.1589313772246072
 10
5641.295349565985
 20
-28.46578963330632
 42
0.058673645385263
 10
5640.970446148061
 20
-28.43396391755392
 10
5640.970446148061
 20
-28.43396391755392
 10
5639.065480599017
 20
-28.43396391755392
 42
0.058673645385263
 10
5638.740577181096
 20
-28.46578963330632
 42
0.1589313772246072
 10
5638.500660677312
 20
-28.61148707243616
 42
0.1089385125692126
 10
5638.245823480962
 20
-29.16490982684213
 10
5635.89764639763
 20
-36.22039648048771
 10
5638.278965299539
 20
-36.22039648048771
 10
5638.755215299539
 20
-34.54794042580057
  0
LWPOLYLINE
  5
9F317
330
B1448
100
AcDbEntity
 67
     1
  8
RIPIANI
100
AcDbPolyline
 90
        4
 70
     1
 43
0.0
 10
5628.50813952323
 20
-45.57357432542768
 10
5628.50813952323
 20
216.4264256745723
 10
5820.50813952323
 20
216.4264256745723
 10
5820.50813952323
 20
-45.57357432542768
  0
LINE
  5
9F31B
330
B1448
100
AcDbEntity
 67
     1
  8
0
100
AcDbLine
 10
5628.50813952323
 20
-38.07357432542767
 30
0.0
 11
5670.588191806098
 21
-38.07357432542771
 31
0.0
  0
TEXT
  5
9F31D
330
B1448
100
AcDbEntity
 67
     1
  8
0
100
AcDbText
 10
5643.254368161313
 20
-40.82492040620856
 30
0.0
 40
2.0
  1
02.03.2015
  7
STILE4
100
AcDbText
  0
LINE
  5
9F31E
330
B1448
100
AcDbEntity
 67
     1
  8
0
100
AcDbLine
 10
5628.50813952323
 20
-26.25196840229718
 30
0.0
 11
5670.588191806098
 21
-26.25196840229721
 31
0.0
  0
LWPOLYLINE
  5
9F320
330
B1448
100
AcDbEntity
 67
     1
  8
RIPIANI
100
AcDbPolyline
 90
        4
 70
     1
 43
0.0
 10
5628.50813952323
 20
-26.25196840229718
 10
5628.50813952323
 20
-38.07357432542761
 10
5673.88152325309
 20
-38.07357432542761
 10
5673.88152325309
 20
-26.25196840229718
  0
LWPOLYLINE
  5
9F321
330
B1448
100
AcDbEntity
 67
     1
  8
RIPIANI
100
AcDbPolyline
 90
        4
 70
     1
 43
0.0
 10
5628.50813952323
 20
-38.07357432542761
 10
5628.50813952323
 20
-45.57357432542768
 10
5673.88152325309
 20
-45.57357432542768
 10
5673.88152325309
 20
-38.07357432542761
  0
LINE
  5
9F322
330
B1448
100
AcDbEntity
 67
     1
  8
RIPIANI
100
AcDbLine
 10
5673.88152325309
 20
-26.25196840229718
 30
0.0
 11
5820.50813952323
 21
-26.25196840229718
 31
0.0
  0
VIEWPORT
  5
A0224
330
B1448
100
AcDbEntity
 67
     1
  8
RETE
100
AcDbViewport
 10
5526.66357023484
 20
94.80832444904343
 30
0.0
 40
191.5
 41
236.132465228796
 68
     3
 69
     3
 12
215823.6079317253
 22
34568.76605440148
 13
0.0
 23
0.0
 14
1.0
 24
1.0
 15
0.0
 25
0.0
 16
0.0
 26
0.0
 36
1.0
 17
176664.735461242
 27
-9778.968366194693
 37
0.0
 42
50.0
 43
0.0
 44
0.0
 45
5274.119454668937
 50
0.0
 51
0.0
 72
   100
 90
   557232
  1

281
     0
 71
     0
 74
     0
110
0.0
120
0.0
130
0.0
111
1.0
121
0.0
131
0.0
112
0.0
122
1.0
132
0.0
 79
     0
146
0.0
170
     0
 61
     5
348
B1496
292
     1
282
     1
141
0.0
142
0.0
 63
   256
  0
LINE
  5
A0226
330
B1448
100
AcDbEntity
 67
     1
  8
RIPIANI
100
AcDbLine
 10
5622.41357023484
 20
24.42642567457204
 30
0.0
 11
5622.41357023484
 21
-45.57357432542768
 31
0.0
  0
LWPOLYLINE
  5
A0235
330
B1448
100
AcDbEntity
 67
     1
  8
RIPIANI
100
AcDbPolyline
 90
        4
 70
     1
 43
0.0
 10
5430.41357023484
 20
-45.57357432542768
 10
5430.41357023484
 20
216.4264256745723
 10
5622.41357023484
 20
216.4264256745723
 10
5622.41357023484
 20
-45.57357432542768
  0
LINE
  5
A0552
330
B1448
100
AcDbEntity
 67
     1
  8
0
100
AcDbLine
 10
5452.41357023484
 20
-38.07357432542761
 30
0.0
 11
5475.786953964698
 21
-38.07357432542762
 31
0.0
  0
LINE
  5
A0553
330
B1448
100
AcDbEntity
 67
     1
  8
RIPIANI
100
AcDbLine
 10
5452.41357023484
 20
-45.57357432542761
 30
0.0
 11
5622.41357023484
 21
-45.57357432542768
 31
0.0
  0
TEXT
  5
A0554
330
B1448
100
AcDbEntity
 67
     1
  8
0
100
AcDbText
 10
5462.14672160098
 20
-44.53779677976007
 30
0.0
 40
1.689599999999999
  1
.DWG
  7
STILE4
100
AcDbText
  0
LINE
  5
A0555
330
B1448
100
AcDbEntity
 67
     1
  8
RIPIANI
100
AcDbLine
 10
5430.41357023484
 20
-41.82357432542767
 30
0.0
 11
5475.786953964698
 21
-41.82357432542771
 31
0.0
  0
TEXT
  5
A0556
330
B1448
100
AcDbEntity
 67
     1
  8
CLOTHES_RAIL
100
AcDbText
 10
5504.426629089988
 20
-33.21312498230677
 30
0.0
 40
2.5
  1
MOBILE SHELVING SYSTEM MODEL "VELA/BINARIA"
  7
STILE1
 72
     1
 11
5552.162864209035
 21
-33.21312498230677
 31
0.0
100
AcDbText
  0
TEXT
  5
A0557
330
B1448
100
AcDbEntity
 67
     1
  8
CLOTHES_RAIL
100
AcDbText
 10
5525.494337423321
 20
-40.71312498230677
 30
0.0
 40
2.5
  1
WARDROBE CONFIGURATIONS
  7
STILE1
 72
     1
 11
5552.162864209035
 21
-40.71312498230677
 31
0.0
100
AcDbText
  0
TEXT
  5
A0558
330
B1448
100
AcDbEntity
 67
     1
  8
0
100
AcDbText
 10
5437.525110433019
 20
-44.53779677976007
 30
0.0
 40
1.689599999999999
  1
BINARIA-VELA-WR
  7
STILE4
100
AcDbText
  0
LWPOLYLINE
  5
A0559
330
B1448
100
AcDbEntity
 67
     1
  8
CLOTHES_RAIL
  6
Continuous
100
AcDbPolyline
 90
       15
 70
   128
 43
0.0
 10
5466.224529203422
 20
-36.22039648048771
 10
5466.224529203422
 20
-28.46717463803993
 10
5468.251520034586
 20
-28.46717463803993
 42
-0.316444976687396
 10
5469.270475926514
 20
-29.03206694489745
 10
5471.286339099256
 20
-32.43244509159917
 10
5471.341701783718
 20
-32.43244509159917
 10
5471.341701783718
 20
-28.46717463803993
 10
5473.590177803683
 20
-28.46717463803993
 10
5473.590177803683
 20
-36.22039648048771
 10
5471.939735909153
 20
-36.22039648048771
 42
-0.312959769389874
 10
5470.920780017224
 20
-35.65553862458513
 10
5468.52836790785
 20
-31.7900036853489
 10
5468.473074125298
 20
-31.7900036853489
 10
5468.473074125298
 20
-36.22039648048771
 10
5466.224529203422
 20
-36.22039648048771
  0
LWPOLYLINE
  5
A055A
330
B1448
100
AcDbEntity
 67
     1
  8
CLOTHES_RAIL
  6
Continuous
100
AcDbPolyline
 90
       15
 70
   128
 43
0.0
 10
5446.697280125732
 20
-36.22039648048771
 10
5446.697280125732
 20
-28.46717463803993
 10
5448.724270956895
 20
-28.46717463803993
 42
-0.316444976687396
 10
5449.743226848822
 20
-29.03206694489745
 10
5451.759090021564
 20
-32.43244509159917
 10
5451.814452706026
 20
-32.43244509159917
 10
5451.814452706026
 20
-28.46717463803993
 10
5454.062928725992
 20
-28.46717463803993
 10
5454.062928725992
 20
-36.22039648048771
 10
5452.412486831462
 20
-36.22039648048771
 42
-0.312959769389874
 10
5451.393530939535
 20
-35.65553862458513
 10
5449.001118830159
 20
-31.7900036853489
 10
5448.945825047606
 20
-31.7900036853489
 10
5448.945825047606
 20
-36.22039648048771
 10
5446.697280125732
 20
-36.22039648048771
  0
LWPOLYLINE
  5
A055B
330
B1448
100
AcDbEntity
 67
     1
  8
CLOTHES_RAIL
  6
Continuous
100
AcDbPolyline
 90
        9
 70
   128
 43
0.0
 10
5461.749763578423
 20
-28.46720908899488
 10
5461.749763578423
 20
-30.28367013500196
 10
5459.42384181193
 20
-30.28367013500196
 10
5459.42384181193
 20
-36.22039648048771
 10
5457.042454008109
 20
-36.22039648048771
 10
5457.042454008109
 20
-30.28367013500196
 10
5454.771791573215
 20
-30.28367013500196
 10
5454.771791573215
 20
-28.46720908899488
 10
5461.749763578423
 20
-28.46720908899488
  0
LWPOLYLINE
  5
A055C
330
B1448
100
AcDbEntity
 67
     1
  8
CLOTHES_RAIL
  6
Continuous
100
AcDbPolyline
 90
        4
 70
     1
 43
0.0
 10
5462.49183714613
 20
-28.46720908899488
 10
5464.87322494995
 20
-28.46720908899488
 10
5464.87322494995
 20
-36.22039648048771
 10
5462.49183714613
 20
-36.22039648048771
  0
LWPOLYLINE
  5
A055D
330
B1448
100
AcDbEntity
 67
     1
  8
CLOTHES_RAIL
  6
Continuous
100
AcDbPolyline
 90
       11
 70
   128
 43
0.0
 10
5438.190615900471
 20
-28.46724353994973
 10
5438.190615900471
 20
-30.25045941451572
 10
5434.469085952553
 20
-30.25045941451572
 10
5434.469085952553
 20
-31.78996923439411
 10
5437.071958945176
 20
-31.78996923439411
 10
5437.071958945176
 20
-33.45143543448086
 10
5434.469085952553
 20
-33.45143543448086
 10
5434.469085952553
 20
-36.22039648048771
 10
5432.087698148734
 20
-36.22039648048771
 10
5432.087698148734
 20
-28.46724353994973
 10
5438.190615900471
 20
-28.46724353994973
  0
LWPOLYLINE
  5
A055E
330
B1448
100
AcDbEntity
 67
     1
  8
CLOTHES_RAIL
  6
Continuous
100
AcDbPolyline
 90
        5
 70
   128
 43
0.0
 10
5441.912318103162
 20
-30.60482193621716
 10
5442.576877022433
 20
-32.88657757857812
 10
5441.125906156548
 20
-32.88657757857812
 10
5441.790465075818
 20
-30.60482193621716
 10
5441.912318103162
 20
-30.60482193621716
  0
LWPOLYLINE
  5
A055F
330
B1448
100
AcDbEntity
 67
     1
  8
CLOTHES_RAIL
  6
Continuous
100
AcDbPolyline
 90
       16
 70
   129
 43
0.0
 10
5443.042151372053
 20
-34.54794042580057
 10
5443.042151372053
 20
-34.54794042580057
 10
5443.529377022432
 20
-36.22039648048771
 10
5446.043711061061
 20
-36.22039648048771
 10
5443.695533977728
 20
-29.16490982684213
 42
0.1089385125692126
 10
5443.440696781376
 20
-28.61148707243616
 42
0.1589313772246072
 10
5443.200780277596
 20
-28.46578963330632
 42
0.058673645385263
 10
5442.875876859673
 20
-28.43396391755392
 10
5442.875876859673
 20
-28.43396391755392
 10
5440.970911310627
 20
-28.43396391755392
 42
0.058673645385263
 10
5440.646007892707
 20
-28.46578963330632
 42
0.1589313772246072
 10
5440.406091388922
 20
-28.61148707243616
 42
0.1089385125692126
 10
5440.151254192572
 20
-29.16490982684213
 10
5437.803077109239
 20
-36.22039648048771
 10
5440.184396011148
 20
-36.22039648048771
 10
5440.660646011148
 20
-34.54794042580057
  0
LINE
  5
A0560
330
B1448
100
AcDbEntity
 67
     1
  8
0
100
AcDbLine
 10
5430.41357023484
 20
-38.07357432542767
 30
0.0
 11
5472.493622517709
 21
-38.07357432542771
 31
0.0
  0
TEXT
  5
A0561
330
B1448
100
AcDbEntity
 67
     1
  8
0
100
AcDbText
 10
5445.159798872925
 20
-40.82492040620856
 30
0.0
 40
2.0
  1
02.03.2015
  7
STILE4
100
AcDbText
  0
LINE
  5
A0562
330
B1448
100
AcDbEntity
 67
     1
  8
0
100
AcDbLine
 10
5430.41357023484
 20
-26.25196840229718
 30
0.0
 11
5472.493622517709
 21
-26.25196840229721
 31
0.0
  0
LWPOLYLINE
  5
A0563
330
B1448
100
AcDbEntity
 67
     1
  8
RIPIANI
100
AcDbPolyline
 90
        4
 70
     1
 43
0.0
 10
5430.41357023484
 20
-26.25196840229718
 10
5430.41357023484
 20
-38.07357432542761
 10
5475.786953964698
 20
-38.07357432542761
 10
5475.786953964698
 20
-26.25196840229718
  0
LWPOLYLINE
  5
A0564
330
B1448
100
AcDbEntity
 67
     1
  8
RIPIANI
100
AcDbPolyline
 90
        4
 70
     1
 43
0.0
 10
5430.41357023484
 20
-38.07357432542761
 10
5430.41357023484
 20
-45.57357432542768
 10
5475.786953964698
 20
-45.57357432542768
 10
5475.786953964698
 20
-38.07357432542761
  0
LINE
  5
A0565
330
B1448
100
AcDbEntity
 67
     1
  8
RIPIANI
100
AcDbLine
 10
5475.786953964698
 20
-26.25196840229718
 30
0.0
 11
5622.41357023484
 21
-26.25196840229718
 31
0.0
  0
LINE
  5
A05D1
330
B1448
100
AcDbEntity
 67
     1
  8
RIPIANI
100
AcDbLine
 10
5403.971933088409
 20
23.52456288579168
 30
0.0
 11
5403.971933088409
 21
-46.47543711420802
 31
0.0
  0
LWPOLYLINE
  5
A05D2
330
B1448
100
AcDbEntity
 67
     1
  8
RIPIANI
100
AcDbPolyline
 90
        4
 70
     1
 43
0.0
 10
5211.97193308841
 20
-46.47543711420802
 10
5211.97193308841
 20
215.524562885792
 10
5403.971933088409
 20
215.524562885792
 10
5403.971933088409
 20
-46.47543711420802
  0
LINE
  5
A05D3
330
B1448
100
AcDbEntity
 67
     1
  8
0
100
AcDbLine
 10
5233.971933088409
 20
-38.97543711420798
 30
0.0
 11
5257.345316818266
 21
-38.97543711420798
 31
0.0
  0
LINE
  5
A05D4
330
B1448
100
AcDbEntity
 67
     1
  8
RIPIANI
100
AcDbLine
 10
5233.971933088409
 20
-46.47543711420797
 30
0.0
 11
5403.971933088409
 21
-46.47543711420802
 31
0.0
  0
TEXT
  5
A05D5
330
B1448
100
AcDbEntity
 67
     1
  8
0
100
AcDbText
 10
5243.70508445455
 20
-45.43965956854042
 30
0.0
 40
1.689599999999999
  1
.DWG
  7
STILE4
100
AcDbText
  0
LINE
  5
A05D6
330
B1448
100
AcDbEntity
 67
     1
  8
RIPIANI
100
AcDbLine
 10
5211.97193308841
 20
-42.72543711420802
 30
0.0
 11
5257.345316818266
 21
-42.72543711420806
 31
0.0
  0
TEXT
  5
A05D7
330
B1448
100
AcDbEntity
 67
     1
  8
CLOTHES_RAIL
100
AcDbText
 10
5285.984991943557
 20
-34.11498777108713
 30
0.0
 40
2.5
  1
MOBILE SHELVING SYSTEM MODEL "VELA/BINARIA"
  7
STILE1
 72
     1
 11
5333.721227062605
 21
-34.11498777108713
 31
0.0
100
AcDbText
  0
TEXT
  5
A05D8
330
B1448
100
AcDbEntity
 67
     1
  8
CLOTHES_RAIL
100
AcDbText
 10
5307.05270027689
 20
-41.61498777108713
 30
0.0
 40
2.5
  1
WARDROBE CONFIGURATIONS
  7
STILE1
 72
     1
 11
5333.721227062605
 21
-41.61498777108713
 31
0.0
100
AcDbText
  0
TEXT
  5
A05D9
330
B1448
100
AcDbEntity
 67
     1
  8
0
100
AcDbText
 10
5219.083473286588
 20
-45.43965956854042
 30
0.0
 40
1.689599999999999
  1
BINARIA-VELA-WR
  7
STILE4
100
AcDbText
  0
LWPOLYLINE
  5
A05DA
330
B1448
100
AcDbEntity
 67
     1
  8
CLOTHES_RAIL
  6
Continuous
100
AcDbPolyline
 90
       15
 70
   128
 43
0.0
 10
5247.782892056991
 20
-37.12225926926806
 10
5247.782892056991
 20
-29.36903742682029
 10
5249.809882888154
 20
-29.36903742682029
 42
-0.316444976687396
 10
5250.828838780082
 20
-29.93392973367783
 10
5252.844701952825
 20
-33.33430788037953
 10
5252.900064637286
 20
-33.33430788037953
 10
5252.900064637286
 20
-29.36903742682029
 10
5255.148540657252
 20
-29.36903742682029
 10
5255.148540657252
 20
-37.12225926926806
 10
5253.498098762722
 20
-37.12225926926806
 42
-0.312959769389874
 10
5252.479142870793
 20
-36.55740141336549
 10
5250.086730761418
 20
-32.69186647412927
 10
5250.031436978869
 20
-32.69186647412927
 10
5250.031436978869
 20
-37.12225926926806
 10
5247.782892056991
 20
-37.12225926926806
  0
LWPOLYLINE
  5
A05DB
330
B1448
100
AcDbEntity
 67
     1
  8
CLOTHES_RAIL
  6
Continuous
100
AcDbPolyline
 90
       15
 70
   128
 43
0.0
 10
5228.2556429793
 20
-37.12225926926806
 10
5228.2556429793
 20
-29.36903742682029
 10
5230.282633810464
 20
-29.36903742682029
 42
-0.316444976687396
 10
5231.301589702391
 20
-29.93392973367783
 10
5233.317452875134
 20
-33.33430788037953
 10
5233.372815559595
 20
-33.33430788037953
 10
5233.372815559595
 20
-29.36903742682029
 10
5235.621291579558
 20
-29.36903742682029
 10
5235.621291579558
 20
-37.12225926926806
 10
5233.97084968503
 20
-37.12225926926806
 42
-0.312959769389874
 10
5232.951893793102
 20
-36.55740141336549
 10
5230.559481683728
 20
-32.69186647412927
 10
5230.504187901175
 20
-32.69186647412927
 10
5230.504187901175
 20
-37.12225926926806
 10
5228.2556429793
 20
-37.12225926926806
  0
LWPOLYLINE
  5
A05DC
330
B1448
100
AcDbEntity
 67
     1
  8
CLOTHES_RAIL
  6
Continuous
100
AcDbPolyline
 90
        9
 70
   128
 43
0.0
 10
5243.308126431992
 20
-29.36907187777525
 10
5243.308126431992
 20
-31.18553292378233
 10
5240.982204665498
 20
-31.18553292378233
 10
5240.982204665498
 20
-37.12225926926806
 10
5238.600816861679
 20
-37.12225926926806
 10
5238.600816861679
 20
-31.18553292378233
 10
5236.330154426783
 20
-31.18553292378233
 10
5236.330154426783
 20
-29.36907187777525
 10
5243.308126431992
 20
-29.36907187777525
  0
LWPOLYLINE
  5
A05DD
330
B1448
100
AcDbEntity
 67
     1
  8
CLOTHES_RAIL
  6
Continuous
100
AcDbPolyline
 90
        4
 70
     1
 43
0.0
 10
5244.050199999701
 20
-29.36907187777525
 10
5246.431587803519
 20
-29.36907187777525
 10
5246.431587803519
 20
-37.12225926926806
 10
5244.050199999701
 20
-37.12225926926806
  0
LWPOLYLINE
  5
A05DE
330
B1448
100
AcDbEntity
 67
     1
  8
CLOTHES_RAIL
  6
Continuous
100
AcDbPolyline
 90
       11
 70
   128
 43
0.0
 10
5219.74897875404
 20
-29.36910632873009
 10
5219.74897875404
 20
-31.15232220329609
 10
5216.027448806123
 20
-31.15232220329609
 10
5216.027448806123
 20
-32.69183202317448
 10
5218.630321798745
 20
-32.69183202317448
 10
5218.630321798745
 20
-34.35329822326123
 10
5216.027448806123
 20
-34.35329822326123
 10
5216.027448806123
 20
-37.12225926926806
 10
5213.646061002304
 20
-37.12225926926806
 10
5213.646061002304
 20
-29.36910632873009
 10
5219.74897875404
 20
-29.36910632873009
  0
LWPOLYLINE
  5
A05DF
330
B1448
100
AcDbEntity
 67
     1
  8
CLOTHES_RAIL
  6
Continuous
100
AcDbPolyline
 90
        5
 70
   128
 43
0.0
 10
5223.470680956729
 20
-31.50668472499752
 10
5224.135239876002
 20
-33.78844036735848
 10
5222.684269010118
 20
-33.78844036735848
 10
5223.348827929387
 20
-31.50668472499752
 10
5223.470680956729
 20
-31.50668472499752
  0
LWPOLYLINE
  5
A05E0
330
B1448
100
AcDbEntity
 67
     1
  8
CLOTHES_RAIL
  6
Continuous
100
AcDbPolyline
 90
       16
 70
   129
 43
0.0
 10
5224.60051422562
 20
-35.44980321458093
 10
5224.60051422562
 20
-35.44980321458093
 10
5225.087739876001
 20
-37.12225926926806
 10
5227.60207391463
 20
-37.12225926926806
 10
5225.253896831298
 20
-30.06677261562249
 42
0.1089385125692126
 10
5224.999059634946
 20
-29.51334986121652
 42
0.1589313772246072
 10
5224.759143131164
 20
-29.36765242208669
 42
0.058673645385263
 10
5224.434239713242
 20
-29.33582670633428
 10
5224.434239713242
 20
-29.33582670633428
 10
5222.529274164196
 20
-29.33582670633428
 42
0.058673645385263
 10
5222.204370746274
 20
-29.36765242208669
 42
0.1589313772246072
 10
5221.964454242492
 20
-29.51334986121652
 42
0.1089385125692126
 10
5221.709617046141
 20
-30.06677261562249
 10
5219.361439962809
 20
-37.12225926926806
 10
5221.742758864717
 20
-37.12225926926806
 10
5222.219008864716
 20
-35.44980321458093
  0
LINE
  5
A05E1
330
B1448
100
AcDbEntity
 67
     1
  8
0
100
AcDbLine
 10
5211.97193308841
 20
-38.97543711420802
 30
0.0
 11
5254.051985371278
 21
-38.97543711420806
 31
0.0
  0
TEXT
  5
A05E2
330
B1448
100
AcDbEntity
 67
     1
  8
0
100
AcDbText
 10
5226.718161726491
 20
-41.72678319498892
 30
0.0
 40
2.0
  1
02.03.2015
  7
STILE4
100
AcDbText
  0
LINE
  5
A05E3
330
B1448
100
AcDbEntity
 67
     1
  8
0
100
AcDbLine
 10
5211.97193308841
 20
-27.15383119107754
 30
0.0
 11
5254.051985371278
 21
-27.15383119107757
 31
0.0
  0
LWPOLYLINE
  5
A05E4
330
B1448
100
AcDbEntity
 67
     1
  8
RIPIANI
100
AcDbPolyline
 90
        4
 70
     1
 43
0.0
 10
5211.97193308841
 20
-27.15383119107754
 10
5211.97193308841
 20
-38.97543711420798
 10
5257.345316818266
 20
-38.97543711420798
 10
5257.345316818266
 20
-27.15383119107754
  0
LWPOLYLINE
  5
A05E5
330
B1448
100
AcDbEntity
 67
     1
  8
RIPIANI
100
AcDbPolyline
 90
        4
 70
     1
 43
0.0
 10
5211.97193308841
 20
-38.97543711420798
 10
5211.97193308841
 20
-46.47543711420804
 10
5257.345316818266
 20
-46.47543711420804
 10
5257.345316818266
 20
-38.97543711420798
  0
LINE
  5
A05E6
330
B1448
100
AcDbEntity
 67
     1
  8
RIPIANI
100
AcDbLine
 10
5257.345316818266
 20
-27.15383119107754
 30
0.0
 11
5403.971933088409
 21
-27.15383119107754
 31
0.0
  0
VIEWPORT
  5
A05EA
330
B1448
100
AcDbEntity
 67
     1
  8
RETE
100
AcDbViewport
 10
5308.221933088409
 20
93.90646166026305
 30
0.0
 40
191.5
 41
236.132465228796
 68
     4
 69
     4
 12
215823.6079317253
 22
34568.76605440148
 13
0.0
 23
0.0
 14
1.0
 24
1.0
 15
0.0
 25
0.0
 16
0.0
 26
0.0
 36
1.0
 17
183262.9885359334
 27
-9667.563718929574
 37
0.0
 42
50.0
 43
0.0
 44
0.0
 45
5700.595139329438
 50
0.0
 51
0.0
 72
   100
 90
   557232
  1

281
     0
 71
     0
 74
     0
110
0.0
120
0.0
130
0.0
111
1.0
121
0.0
131
0.0
112
0.0
122
1.0
132
0.0
 79
     0
146
0.0
170
     0
 61
     5
348
B1496
292
     1
282
     1
141
0.0
142
0.0
 63
   256
  0
ENDSEC
  0
SECTION
  2
OBJECTS
  0
DICTIONARY
  5
B143A
330
0
100
AcDbDictionary
281
     1
  3
ACAD_DETAILVIEWSTYLE
350
B14B8
  3
ACAD_GROUP
350
B143B
  3
ACAD_LAYOUT
350
B1447
  3
ACAD_MATERIAL
350
B1450
  3
ACAD_MLEADERSTYLE
350
B14AC
  3
ACAD_MLINESTYLE
350
B1444
  3
ACAD_PLOTSETTINGS
350
B1446
  3
ACAD_PLOTSTYLENAME
350
B143C
  3
ACAD_SCALELIST
350
B146F
  3
ACAD_SECTIONVIEWSTYLE
350
B14B9
  3
ACAD_TABLESTYLE
350
B14AA
  3
ACAD_VISUALSTYLE
350
B1491
  3
ACDB_RECOMPOSE_DATA
350
B14C0
  3
AcDbVariableDictionary
350
B14B3
  3
APPDATA
350
B14AE
  3
PRINTCONFIG
350
B14BD
  0
SUN
  5
B14BC
330
B144D
100
AcDbSun
 90
        1
290
     0
 63
     7
421
 16777215
 40
1.0
291
     1
 91
  2455826
 92
 54000000
292
     0
 70
     2
 71
   256
280
     1
  0
DICTIONARY
  5
B14BA
330
B144A
100
AcDbDictionary
280
     1
281
     1
  3
DIM_BOUNDING_BOXES_V1
360
B14BB
  0
DICTIONARY
  5
B14B8
102
{ACAD_REACTORS
330
B143A
102
}
330
B143A
100
AcDbDictionary
281
     1
  0
DICTIONARY
  5
B143B
102
{ACAD_REACTORS
330
B143A
102
}
330
B143A
100
AcDbDictionary
281
     1
  0
DICTIONARY
  5
B1447
102
{ACAD_REACTORS
330
B143A
102
}
330
B143A
100
AcDbDictionary
281
     1
  3
Foglio1
350
B1449
  3
Model
350
B144B
  0
DICTIONARY
  5
B1450
102
{ACAD_REACTORS
330
B143A
102
}
330
B143A
100
AcDbDictionary
281
     1
  3
ByBlock
350
B1452
  3
ByLayer
350
B1451
  3
Global
350
B1453
  0
DICTIONARY
  5
B14AC
102
{ACAD_REACTORS
330
B143A
102
}
330
B143A
100
AcDbDictionary
281
     1
  3
Standard
350
B14AD
  0
DICTIONARY
  5
B1444
102
{ACAD_REACTORS
330
B143A
102
}
330
B143A
100
AcDbDictionary
281
     1
  3
Standard
350
B1445
  0
DICTIONARY
  5
B1446
102
{ACAD_REACTORS
330
B143A
102
}
330
B143A
100
AcDbDictionary
281
     1
  0
ACDBDICTIONARYWDFLT
  5
B143C
102
{ACAD_REACTORS
330
B143A
102
}
330
B143A
100
AcDbDictionary
281
     1
  3
Normal
350
B143D
100
AcDbDictionaryWithDefault
340
B143D
  0
DICTIONARY
  5
B146F
102
{ACAD_REACTORS
330
B143A
102
}
330
B143A
100
AcDbDictionary
281
     1
  3
A0
350
B1470
  3
A1
350
B1471
  3
A2
350
B1472
  3
A3
350
B1473
  3
A4
350
B1474
  3
A5
350
B1475
  3
A6
350
B1476
  3
A7
350
B1477
  3
A8
350
B1478
  3
A9
350
B1479
  3
B0
350
B147A
  3
B1
350
B147B
  3
B2
350
B147C
  3
B3
350
B147D
  3
B4
350
B147E
  3
B5
350
B147F
  3
B6
350
B1480
  3
B7
350
B1481
  3
B8
350
B1482
  3
B9
350
B1483
  3
C0
350
B1484
  3
C1
350
B1485
  3
C2
350
B1486
  3
C3
350
B1487
  3
C4
350
B1488
  3
C5
350
B1489
  3
C6
350
B148A
  3
C7
350
B148B
  3
C8
350
B148C
  3
C9
350
B148D
  3
D0
350
B148E
  3
D1
350
B148F
  3
D2
350
B1490
  0
DICTIONARY
  5
B14B9
102
{ACAD_REACTORS
330
B143A
102
}
330
B143A
100
AcDbDictionary
281
     1
  0
DICTIONARY
  5
B14AA
102
{ACAD_REACTORS
330
B143A
102
}
330
B143A
100
AcDbDictionary
281
     1
  3
Standard
350
B14AB
  0
DICTIONARY
  5
B1491
102
{ACAD_REACTORS
330
B143A
102
}
330
B143A
100
AcDbDictionary
281
     1
  3
2dWireframe
350
B1496
  3
Basic
350
B1499
  3
Brighten
350
B149D
  3
ColorChange
350
B14A1
  3
Conceptual
350
B149B
  3
Dim
350
B149C
  3
EdgeColorOff
350
B14A4
  3
Facepattern
350
B14A0
  3
Flat
350
B1492
  3
FlatWithEdges
350
B1493
  3
Gouraud
350
B1494
  3
GouraudWithEdges
350
B1495
  3
Hidden
350
B1498
  3
JitterOff
350
B14A2
  3
Linepattern
350
B149F
  3
OverhangOff
350
B14A3
  3
Realistic
350
B149A
  3
Shaded
350
B14A9
  3
Shaded with edges
350
B14A8
  3
Shades of Gray
350
B14A5
  3
Sketchy
350
B14A6
  3
Thicken
350
B149E
  3
Wireframe
350
B1497
  3
X-Ray
350
B14A7
  0
XRECORD
  5
B14C0
102
{ACAD_REACTORS
330
B143A
102
}
330
B143A
100
AcDbXrecord
280
     1
 90
        1
330
B14AB
  0
DICTIONARY
  5
B14B3
102
{ACAD_REACTORS
330
B143A
102
}
330
B143A
100
AcDbDictionary
281
     1
  3
CANNOSCALE
350
B14B4
  3
CMLEADERSTYLE
350
B14B6
  3
CTABLESTYLE
350
B14B5
  3
MSLTSCALE
350
B14B7
  0
DICTIONARY
  5
B14AE
102
{ACAD_REACTORS
330
B143A
102
}
330
B143A
100
AcDbDictionary
281
     1
  0
DICTIONARYVAR
  5
B14BD
102
{ACAD_REACTORS
330
B143A
102
}
330
B143A
100
DictionaryVariables
280
     0
  1
0
  0
DICTIONARY
  5
B14BB
102
{ACAD_REACTORS
330
B14BA
102
}
330
B14BA
100
AcDbDictionary
281
     1
  0
LAYOUT
  5
B1449
102
{ACAD_REACTORS
330
B1447
102
}
330
B1447
100
AcDbPlotSettings
  1

  2
none_device
  4

  6

 40
0.0
 41
0.0
 42
0.0
 43
0.0
 44
0.0
 45
0.0
 46
0.0
 47
0.0
 48
0.0
 49
0.0
140
0.0
141
0.0
142
1.0
143
1.0
 70
   688
 72
     0
 73
     0
 74
     5
  7

 75
    16
 76
     0
 77
     2
 78
   300
147
1.0
148
0.0
149
0.0
100
AcDbLayout
  1
Foglio1
 70
     1
 71
     1
 10
0.0
 20
0.0
 11
0.0
 21
0.0
 12
0.0
 22
0.0
 32
0.0
 14
5211.97193308841
 24
-46.47543711420804
 34
0.0
 15
5820.50813952323
 25
216.4264256745723
 35
0.0
146
0.0
 13
0.0
 23
0.0
 33
0.0
 16
1.0
 26
0.0
 36
0.0
 17
0.0
 27
1.0
 37
0.0
 76
     0
330
B1448
331
4E
  0
LAYOUT
  5
B144B
102
{ACAD_REACTORS
330
B1447
102
}
330
B1447
100
AcDbPlotSettings
  1

  2
none_device
  4
Letter_(8.50_x_11.00_Inches)
  6

 40
6.35
 41
6.35
 42
6.35
 43
6.35
 44
215.9
 45
279.4
 46
0.0
 47
0.0
 48
0.0
 49
0.0
140
0.0
141
0.0
142
1.0
143
1.0
 70
  1712
 72
     0
 73
     0
 74
     0
  7

 75
     0
 76
     0
 77
     2
 78
   300
147
1.0
148
0.0
149
0.0
100
AcDbLayout
  1
Model
 70
     1
 71
     0
 10
0.0
 20
0.0
 11
12.0
 21
9.0
 12
0.0
 22
0.0
 32
0.0
 14
-0.000000000007276
 24
0.0
 34
0.0
 15
34375.89773943181
 25
17955.95716581255
 35
0.0
146
0.0
 13
0.0
 23
0.0
 33
0.0
 16
1.0
 26
0.0
 36
0.0
 17
0.0
 27
1.0
 37
0.0
 76
     0
330
B144A
331
B144D
  0
MATERIAL
  5
B1452
102
{ACAD_REACTORS
330
B1450
102
}
330
B1450
100
AcDbMaterial
  1
ByBlock
 72
     1
 94
      127
  0
MATERIAL
  5
B1451
102
{ACAD_REACTORS
330
B1450
102
}
330
B1450
100
AcDbMaterial
  1
ByLayer
 72
     1
 94
      127
  0
MATERIAL
  5
B1453
102
{ACAD_REACTORS
330
B1450
102
}
330
B1450
100
AcDbMaterial
  1
Global
 72
     1
 94
      127
  0
MLEADERSTYLE
  5
B14AD
102
{ACAD_REACTORS
330
B14AC
102
}
330
B14AC
100
AcDbMLeaderStyle
179
     2
170
     2
171
     1
172
     0
 90
        2
 40
0.0
 41
0.0
173
     1
 91
-1056964608
340
B1441
 92
       -2
290
     1
 42
0.09
291
     1
 43
0.36
  3
Standard
341
0
 44
0.18
300

342
B143F
174
     1
178
     1
175
     1
176
     0
 93
-1056964608
 45
0.18
292
     0
297
     0
 46
0.18
343
0
 94
-1056964608
 47
1.0
 49
1.0
140
1.0
293
     1
141
0.0
294
     1
177
     0
142
1.0
295
     0
296
     0
143
0.125
271
     0
272
     9
273
     9
298
     0
  0
MLINESTYLE
  5
B1445
102
{ACAD_REACTORS
330
B1444
102
}
330
B1444
100
AcDbMlineStyle
  2
Standard
 70
     0
  3

 62
   256
 51
90.0
 52
90.0
 71
     2
 49
0.5
 62
   256
  6
BYLAYER
 49
-0.5
 62
   256
  6
BYLAYER
  0
ACDBPLACEHOLDER
  5
B143D
102
{ACAD_REACTORS
330
B143C
102
}
330
B143C
  0
SCALE
  5
B1470
102
{ACAD_REACTORS
330
B146F
102
}
330
B146F
100
AcDbScale
 70
     0
300
1:1
140
1.0
141
1.0
290
     1
  0
SCALE
  5
B1471
102
{ACAD_REACTORS
330
B146F
102
}
330
B146F
100
AcDbScale
 70
     0
300
1:2
140
1.0
141
2.0
290
     0
  0
SCALE
  5
B1472
102
{ACAD_REACTORS
330
B146F
102
}
330
B146F
100
AcDbScale
 70
     0
300
1:4
140
1.0
141
4.0
290
     0
  0
SCALE
  5
B1473
102
{ACAD_REACTORS
330
B146F
102
}
330
B146F
100
AcDbScale
 70
     0
300
1:5
140
1.0
141
5.0
290
     0
  0
SCALE
  5
B1474
102
{ACAD_REACTORS
330
B146F
102
}
330
B146F
100
AcDbScale
 70
     0
300
1:8
140
1.0
141
8.0
290
     0
  0
SCALE
  5
B1475
102
{ACAD_REACTORS
330
B146F
102
}
330
B146F
100
AcDbScale
 70
     0
300
1:10
140
1.0
141
10.0
290
     0
  0
SCALE
  5
B1476
102
{ACAD_REACTORS
330
B146F
102
}
330
B146F
100
AcDbScale
 70
     0
300
1:16
140
1.0
141
16.0
290
     0
  0
SCALE
  5
B1477
102
{ACAD_REACTORS
330
B146F
102
}
330
B146F
100
AcDbScale
 70
     0
300
1:20
140
1.0
141
20.0
290
     0
  0
SCALE
  5
B1478
102
{ACAD_REACTORS
330
B146F
102
}
330
B146F
100
AcDbScale
 70
     0
300
1:30
140
1.0
141
30.0
290
     0
  0
SCALE
  5
B1479
102
{ACAD_REACTORS
330
B146F
102
}
330
B146F
100
AcDbScale
 70
     0
300
1:40
140
1.0
141
40.0
290
     0
  0
SCALE
  5
B147A
102
{ACAD_REACTORS
330
B146F
102
}
330
B146F
100
AcDbScale
 70
     0
300
1:50
140
1.0
141
50.0
290
     0
  0
SCALE
  5
B147B
102
{ACAD_REACTORS
330
B146F
102
}
330
B146F
100
AcDbScale
 70
     0
300
1:100
140
1.0
141
100.0
290
     0
  0
SCALE
  5
B147C
102
{ACAD_REACTORS
330
B146F
102
}
330
B146F
100
AcDbScale
 70
     0
300
2:1
140
2.0
141
1.0
290
     0
  0
SCALE
  5
B147D
102
{ACAD_REACTORS
330
B146F
102
}
330
B146F
100
AcDbScale
 70
     0
300
4:1
140
4.0
141
1.0
290
     0
  0
SCALE
  5
B147E
102
{ACAD_REACTORS
330
B146F
102
}
330
B146F
100
AcDbScale
 70
     0
300
8:1
140
8.0
141
1.0
290
     0
  0
SCALE
  5
B147F
102
{ACAD_REACTORS
330
B146F
102
}
330
B146F
100
AcDbScale
 70
     0
300
10:1
140
10.0
141
1.0
290
     0
  0
SCALE
  5
B1480
102
{ACAD_REACTORS
330
B146F
102
}
330
B146F
100
AcDbScale
 70
     0
300
100:1
140
100.0
141
1.0
290
     0
  0
SCALE
  5
B1481
102
{ACAD_REACTORS
330
B146F
102
}
330
B146F
100
AcDbScale
 70
     0
300
1/128" = 1'-0"
140
0.0078125
141
12.0
290
     0
  0
SCALE
  5
B1482
102
{ACAD_REACTORS
330
B146F
102
}
330
B146F
100
AcDbScale
 70
     0
300
1/64" = 1'-0"
140
0.015625
141
12.0
290
     0
  0
SCALE
  5
B1483
102
{ACAD_REACTORS
330
B146F
102
}
330
B146F
100
AcDbScale
 70
     0
300
1/32" = 1'-0"
140
0.03125
141
12.0
290
     0
  0
SCALE
  5
B1484
102
{ACAD_REACTORS
330
B146F
102
}
330
B146F
100
AcDbScale
 70
     0
300
1/16" = 1'-0"
140
0.0625
141
12.0
290
     0
  0
SCALE
  5
B1485
102
{ACAD_REACTORS
330
B146F
102
}
330
B146F
100
AcDbScale
 70
     0
300
3/32" = 1'-0"
140
0.09375
141
12.0
290
     0
  0
SCALE
  5
B1486
102
{ACAD_REACTORS
330
B146F
102
}
330
B146F
100
AcDbScale
 70
     0
300
1/8" = 1'-0"
140
0.125
141
12.0
290
     0
  0
SCALE
  5
B1487
102
{ACAD_REACTORS
330
B146F
102
}
330
B146F
100
AcDbScale
 70
     0
300
3/16" = 1'-0"
140
0.1875
141
12.0
290
     0
  0
SCALE
  5
B1488
102
{ACAD_REACTORS
330
B146F
102
}
330
B146F
100
AcDbScale
 70
     0
300
1/4" = 1'-0"
140
0.25
141
12.0
290
     0
  0
SCALE
  5
B1489
102
{ACAD_REACTORS
330
B146F
102
}
330
B146F
100
AcDbScale
 70
     0
300
3/8" = 1'-0"
140
0.375
141
12.0
290
     0
  0
SCALE
  5
B148A
102
{ACAD_REACTORS
330
B146F
102
}
330
B146F
100
AcDbScale
 70
     0
300
1/2" = 1'-0"
140
0.5
141
12.0
290
     0
  0
SCALE
  5
B148B
102
{ACAD_REACTORS
330
B146F
102
}
330
B146F
100
AcDbScale
 70
     0
300
3/4" = 1'-0"
140
0.75
141
12.0
290
     0
  0
SCALE
  5
B148C
102
{ACAD_REACTORS
330
B146F
102
}
330
B146F
100
AcDbScale
 70
     0
300
1" = 1'-0"
140
1.0
141
12.0
290
     0
  0
SCALE
  5
B148D
102
{ACAD_REACTORS
330
B146F
102
}
330
B146F
100
AcDbScale
 70
     0
300
1-1/2" = 1'-0"
140
1.5
141
12.0
290
     0
  0
SCALE
  5
B148E
102
{ACAD_REACTORS
330
B146F
102
}
330
B146F
100
AcDbScale
 70
     0
300
3" = 1'-0"
140
3.0
141
12.0
290
     0
  0
SCALE
  5
B148F
102
{ACAD_REACTORS
330
B146F
102
}
330
B146F
100
AcDbScale
 70
     0
300
6" = 1'-0"
140
6.0
141
12.0
290
     0
  0
SCALE
  5
B1490
102
{ACAD_REACTORS
330
B146F
102
}
330
B146F
100
AcDbScale
 70
     0
300
1'-0" = 1'-0"
140
12.0
141
12.0
290
     0
  0
TABLESTYLE
  5
B14AB
102
{ACAD_REACTORS
330
B14AA
102
}
102
{ACAD_XDICTIONARY
360
B14BE
102
}
330
B14AA
100
AcDbTableStyle
  3
Standard
 70
     0
 71
     0
 40
0.06
 41
0.06
280
     0
281
     0
  7
STANDARD
140
0.18
170
     2
 62
     0
 63
   257
283
     0
 90
        4
 91
        0
  1

274
    -2
284
     1
 64
     0
275
    -2
285
     1
 65
     0
276
    -2
286
     1
 66
     0
277
    -2
287
     1
 67
     0
278
    -2
288
     1
 68
     0
279
    -2
289
     1
 69
     0
  7
STANDARD
140
0.25
170
     5
 62
     0
 63
   257
283
     0
 90
        4
 91
        0
  1

274
    -2
284
     1
 64
     0
275
    -2
285
     1
 65
     0
276
    -2
286
     1
 66
     0
277
    -2
287
     1
 67
     0
278
    -2
288
     1
 68
     0
279
    -2
289
     1
 69
     0
  7
STANDARD
140
0.18
170
     5
 62
     0
 63
   257
283
     0
 90
        4
 91
        0
  1

274
    -2
284
     1
 64
     0
275
    -2
285
     1
 65
     0
276
    -2
286
     1
 66
     0
277
    -2
287
     1
 67
     0
278
    -2
288
     1
 68
     0
279
    -2
289
     1
 69
     0
  0
VISUALSTYLE
  5
B1496
102
{ACAD_REACTORS
330
B1491
102
}
330
B1491
100
AcDbVisualStyle
  2
2dWireframe
 70
     4
177
     3
291
     0
 70
    58
 90
        0
176
     1
 90
        2
176
     1
 90
        0
176
     1
 90
        0
176
     1
 40
0.6
176
     1
 40
30.0
176
     1
 62
     7
420
 16777215
176
     1
 90
        1
176
     1
 90
        4
176
     1
 62
     7
176
     1
 62
   257
176
     1
 90
        1
176
     1
 90
        1
176
     1
 40
1.0
176
     1
 90
        0
176
     1
 62
   257
176
     1
 40
1.0
176
     1
 90
        1
176
     1
 90
        6
176
     1
 90
        2
176
     1
 62
     7
176
     1
 90
        5
176
     1
 90
        0
176
     1
 90
        0
176
     1
290
     0
176
     1
 90
        1
176
     1
 40
0.0
176
     1
 90
        0
176
     1
290
     1
176
     1
290
     1
176
     1
290
     0
176
     1
290
     0
176
     1
290
     0
176
     1
290
     0
176
     1
290
     0
176
     1
290
     0
176
     1
290
     0
176
     1
 90
       50
176
     1
 40
0.0
176
     1
 40
1.0
176
     1
 90
        0
176
     1
 62
    18
420
        0
176
     1
 90
       50
176
     1
 90
        3
176
     1
 62
     5
420
      255
176
     1
290
     0
176
     1
 90
       50
176
     1
 90
       50
176
     1
 90
       50
176
     1
290
     0
176
     1
 90
       50
176
     1
 62
   256
176
     0
 40
1.0
176
     0
 90
        2
176
     1
  1
strokes_ogs.tif
176
     1
290
     0
176
     1
 40
1.0
176
     1
 40
1.0
176
     1
  0
VISUALSTYLE
  5
B1499
102
{ACAD_REACTORS
330
B1491
102
}
330
B1491
100
AcDbVisualStyle
  2
Basic
 70
     7
177
     3
291
     1
 70
    58
 90
        1
176
     1
 90
        0
176
     1
 90
        1
176
     1
 90
        0
176
     1
 40
0.6
176
     1
 40
30.0
176
     1
 62
     7
420
 16777215
176
     1
 90
        0
176
     1
 90
        4
176
     1
 62
     7
176
     1
 62
   257
176
     1
 90
        1
176
     1
 90
        1
176
     1
 40
1.0
176
     1
 90
        8
176
     1
 62
     7
176
     1
 40
1.0
176
     1
 90
        1
176
     1
 90
        6
176
     1
 90
        2
176
     1
 62
     7
176
     1
 90
        5
176
     1
 90
        0
176
     1
 90
        0
176
     1
290
     0
176
     1
 90
        1
176
     1
 40
0.0
176
     1
 90
        0
176
     1
290
     0
176
     1
290
     1
176
     1
290
     1
176
     1
290
     0
176
     1
290
     0
176
     1
290
     0
176
     1
290
     0
176
     1
290
     0
176
     1
290
     0
176
     1
 90
       50
176
     1
 40
0.0
176
     1
 40
1.0
176
     1
 90
        0
176
     1
 62
    18
420
        0
176
     1
 90
       50
176
     1
 90
        3
176
     1
 62
     5
420
      255
176
     1
290
     0
176
     1
 90
       50
176
     1
 90
       50
176
     1
 90
       50
176
     1
290
     0
176
     1
 90
       50
176
     1
 62
   256
176
     0
 40
1.0
176
     0
 90
        2
176
     1
  1
strokes_ogs.tif
176
     1
290
     0
176
     1
 40
1.0
176
     1
 40
1.0
176
     1
  0
VISUALSTYLE
  5
B149D
102
{ACAD_REACTORS
330
B1491
102
}
330
B1491
100
AcDbVisualStyle
  2
Brighten
 70
    12
177
     3
291
     1
 70
    58
 90
        2
176
     1
 90
        2
176
     1
 90
        0
176
     1
 90
        0
176
     1
 40
0.6
176
     1
 40
30.0
176
     1
 62
     7
420
 16777215
176
     1
 90
        1
176
     1
 90
        4
176
     1
 62
     7
176
     1
 62
   257
176
     1
 90
        1
176
     1
 90
        1
176
     1
 40
1.0
176
     1
 90
        8
176
     1
 62
     7
176
     1
 40
1.0
176
     1
 90
        1
176
     1
 90
        6
176
     1
 90
        2
176
     1
 62
     7
176
     1
 90
        5
176
     1
 90
        0
176
     1
 90
        0
176
     1
290
     0
176
     1
 90
        1
176
     1
 40
50.0
176
     1
 90
        0
176
     1
290
     0
176
     1
290
     1
176
     1
290
     1
176
     1
290
     0
176
     1
290
     0
176
     1
290
     0
176
     1
290
     0
176
     1
290
     0
176
     1
290
     0
176
     1
 90
       50
176
     1
 40
0.0
176
     1
 40
1.0
176
     1
 90
        0
176
     1
 62
    18
420
        0
176
     1
 90
       50
176
     1
 90
        3
176
     1
 62
     5
420
      255
176
     1
290
     0
176
     1
 90
       50
176
     1
 90
       50
176
     1
 90
       50
176
     1
290
     0
176
     1
 90
       50
176
     1
 62
   256
176
     0
 40
1.0
176
     0
 90
        2
176
     1
  1
strokes_ogs.tif
176
     1
290
     0
176
     1
 40
1.0
176
     1
 40
1.0
176
     1
  0
VISUALSTYLE
  5
B14A1
102
{ACAD_REACTORS
330
B1491
102
}
330
B1491
100
AcDbVisualStyle
  2
ColorChange
 70
    16
177
     3
291
     1
 70
    58
 90
        2
176
     1
 90
        2
176
     1
 90
        3
176
     1
 90
        0
176
     1
 40
0.6
176
     1
 40
30.0
176
     1
 62
     8
420
  8421504
176
     1
 90
        1
176
     1
 90
        4
176
     1
 62
     7
176
     1
 62
   257
176
     1
 90
        1
176
     1
 90
        1
176
     1
 40
1.0
176
     1
 90
        8
176
     1
 62
     8
420
  8421504
176
     1
 40
1.0
176
     1
 90
        1
176
     1
 90
        6
176
     1
 90
        2
176
     1
 62
     7
176
     1
 90
        5
176
     1
 90
        0
176
     1
 90
        0
176
     1
290
     0
176
     1
 90
        1
176
     1
 40
0.0
176
     1
 90
        0
176
     1
290
     0
176
     1
290
     1
176
     1
290
     1
176
     1
290
     0
176
     1
290
     0
176
     1
290
     0
176
     1
290
     0
176
     1
290
     0
176
     1
290
     0
176
     1
 90
       50
176
     1
 40
0.0
176
     1
 40
1.0
176
     1
 90
        0
176
     1
 62
    18
420
        0
176
     1
 90
       50
176
     1
 90
        3
176
     1
 62
     5
420
      255
176
     1
290
     0
176
     1
 90
       50
176
     1
 90
       50
176
     1
 90
       50
176
     1
290
     0
176
     1
 90
       50
176
     1
 62
   256
176
     0
 40
1.0
176
     0
 90
        2
176
     1
  1
strokes_ogs.tif
176
     1
290
     0
176
     1
 40
1.0
176
     1
 40
1.0
176
     1
  0
VISUALSTYLE
  5
B149B
102
{ACAD_REACTORS
330
B1491
102
}
330
B1491
100
AcDbVisualStyle
  2
Conceptual
 70
     9
177
     3
291
     0
 70
    58
 90
        3
176
     1
 90
        2
176
     1
 90
        0
176
     1
 90
        0
176
     1
 40
0.6
176
     1
 40
30.0
176
     1
 62
     7
420
 16777215
176
     1
 90
        2
176
     1
 90
        2
176
     1
 62
     7
176
     1
 62
   257
176
     1
 90
        1
176
     1
 90
        1
176
     1
 40
179.0
176
     1
 90
        8
176
     1
 62
     7
176
     1
 40
1.0
176
     1
 90
        1
176
     1
 90
        6
176
     1
 90
        2
176
     1
 62
     7
176
     1
 90
        3
176
     1
 90
        0
176
     1
 90
        0
176
     1
290
     0
176
     1
 90
        1
176
     1
 40
0.0
176
     1
 90
        0
176
     1
290
     0
176
     1
290
     1
176
     1
290
     1
176
     1
290
     0
176
     1
290
     0
176
     1
290
     0
176
     1
290
     0
176
     1
290
     0
176
     1
290
     0
176
     1
 90
       50
176
     1
 40
0.0
176
     1
 40
1.0
176
     1
 90
        0
176
     1
 62
    18
420
        0
176
     1
 90
       50
176
     1
 90
        3
176
     1
 62
     5
420
      255
176
     1
290
     0
176
     1
 90
       50
176
     1
 90
       50
176
     1
 90
       50
176
     1
290
     0
176
     1
 90
       50
176
     1
 62
   256
176
     0
 40
1.0
176
     0
 90
        2
176
     1
  1
strokes_ogs.tif
176
     1
290
     0
176
     1
 40
1.0
176
     1
 40
1.0
176
     1
  0
VISUALSTYLE
  5
B149C
102
{ACAD_REACTORS
330
B1491
102
}
330
B1491
100
AcDbVisualStyle
  2
Dim
 70
    11
177
     3
291
     1
 70
    58
 90
        2
176
     1
 90
        2
176
     1
 90
        0
176
     1
 90
        0
176
     1
 40
0.6
176
     1
 40
30.0
176
     1
 62
     7
420
 16777215
176
     1
 90
        1
176
     1
 90
        4
176
     1
 62
     7
176
     1
 62
   257
176
     1
 90
        1
176
     1
 90
        1
176
     1
 40
1.0
176
     1
 90
        8
176
     1
 62
     7
176
     1
 40
1.0
176
     1
 90
        1
176
     1
 90
        6
176
     1
 90
        2
176
     1
 62
     7
176
     1
 90
        5
176
     1
 90
        0
176
     1
 90
        0
176
     1
290
     0
176
     1
 90
        1
176
     1
 40
-50.0
176
     1
 90
        0
176
     1
290
     0
176
     1
290
     1
176
     1
290
     1
176
     1
290
     0
176
     1
290
     0
176
     1
290
     0
176
     1
290
     0
176
     1
290
     0
176
     1
290
     0
176
     1
 90
       50
176
     1
 40
0.0
176
     1
 40
1.0
176
     1
 90
        0
176
     1
 62
    18
420
        0
176
     1
 90
       50
176
     1
 90
        3
176
     1
 62
     5
420
      255
176
     1
290
     0
176
     1
 90
       50
176
     1
 90
       50
176
     1
 90
       50
176
     1
290
     0
176
     1
 90
       50
176
     1
 62
   256
176
     0
 40
1.0
176
     0
 90
        2
176
     1
  1
strokes_ogs.tif
176
     1
290
     0
176
     1
 40
1.0
176
     1
 40
1.0
176
     1
  0
VISUALSTYLE
  5
B14A4
102
{ACAD_REACTORS
330
B1491
102
}
330
B1491
100
AcDbVisualStyle
  2
EdgeColorOff
 70
    22
177
     3
291
     1
 70
    58
 90
        2
176
     0
 90
        2
176
     0
 90
        0
176
     0
 90
        0
176
     0
 40
0.6
176
     0
 40
30.0
176
     0
 62
     7
420
 16777215
176
     0
 90
        1
176
     0
 90
        4
176
     0
 62
     7
176
     0
 62
   257
176
     0
 90
        1
176
     0
 90
        1
176
     0
 40
1.0
176
     0
 90
        8
176
     2
 62
     7
176
     0
 40
1.0
176
     0
 90
        1
176
     0
 90
        6
176
     0
 90
        2
176
     0
 62
     7
176
     0
 90
        5
176
     0
 90
        0
176
     0
 90
        0
176
     0
290
     0
176
     0
 90
        1
176
     0
 40
0.0
176
     0
 90
        0
176
     0
290
     0
176
     0
290
     1
176
     0
290
     1
176
     0
290
     0
176
     0
290
     0
176
     0
290
     0
176
     0
290
     0
176
     0
290
     0
176
     0
290
     0
176
     0
 90
       50
176
     0
 40
0.0
176
     0
 40
1.0
176
     0
 90
        0
176
     0
 62
    18
420
        0
176
     0
 90
       50
176
     0
 90
        3
176
     0
 62
     5
420
      255
176
     0
290
     0
176
     0
 90
       50
176
     0
 90
       50
176
     0
 90
       50
176
     0
290
     0
176
     0
 90
       50
176
     0
 62
   256
176
     0
 40
1.0
176
     0
 90
        2
176
     0
  1
strokes_ogs.tif
176
     0
290
     0
176
     0
 40
1.0
176
     0
 40
1.0
176
     0
  0
VISUALSTYLE
  5
B14A0
102
{ACAD_REACTORS
330
B1491
102
}
330
B1491
100
AcDbVisualStyle
  2
Facepattern
 70
    15
177
     3
291
     1
 70
    58
 90
        2
176
     1
 90
        2
176
     1
 90
        0
176
     1
 90
        0
176
     1
 40
0.6
176
     1
 40
30.0
176
     1
 62
     7
420
 16777215
176
     1
 90
        1
176
     1
 90
        4
176
     1
 62
     7
176
     1
 62
   257
176
     1
 90
        1
176
     1
 90
        1
176
     1
 40
1.0
176
     1
 90
        8
176
     1
 62
     7
176
     1
 40
1.0
176
     1
 90
        1
176
     1
 90
        6
176
     1
 90
        2
176
     1
 62
     7
176
     1
 90
        5
176
     1
 90
        0
176
     1
 90
        0
176
     1
290
     0
176
     1
 90
        1
176
     1
 40
0.0
176
     1
 90
        0
176
     1
290
     0
176
     1
290
     1
176
     1
290
     1
176
     1
290
     0
176
     1
290
     0
176
     1
290
     0
176
     1
290
     0
176
     1
290
     0
176
     1
290
     0
176
     1
 90
       50
176
     1
 40
0.0
176
     1
 40
1.0
176
     1
 90
        0
176
     1
 62
    18
420
        0
176
     1
 90
       50
176
     1
 90
        3
176
     1
 62
     5
420
      255
176
     1
290
     0
176
     1
 90
       50
176
     1
 90
       50
176
     1
 90
       50
176
     1
290
     0
176
     1
 90
       50
176
     1
 62
   256
176
     0
 40
1.0
176
     0
 90
        2
176
     1
  1
strokes_ogs.tif
176
     1
290
     0
176
     1
 40
1.0
176
     1
 40
1.0
176
     1
  0
VISUALSTYLE
  5
B1492
102
{ACAD_REACTORS
330
B1491
102
}
330
B1491
100
AcDbVisualStyle
  2
Flat
 70
     0
177
     3
291
     1
 70
    58
 90
        2
176
     1
 90
        1
176
     1
 90
        1
176
     1
 90
        2
176
     1
 40
0.6
176
     1
 40
30.0
176
     1
 62
     7
420
 16777215
176
     1
 90
        0
176
     1
 90
        0
176
     1
 62
     7
176
     1
 62
   257
176
     1
 90
        1
176
     1
 90
        1
176
     1
 40
1.0
176
     1
 90
        8
176
     1
 62
     7
176
     1
 40
1.0
176
     1
 90
        1
176
     1
 90
        6
176
     1
 90
        2
176
     1
 62
     7
176
     1
 90
        5
176
     1
 90
        0
176
     1
 90
        0
176
     1
290
     0
176
     1
 90
       13
176
     1
 40
0.0
176
     1
 90
        0
176
     1
290
     0
176
     1
290
     1
176
     1
290
     1
176
     1
290
     0
176
     1
290
     0
176
     1
290
     0
176
     1
290
     0
176
     1
290
     0
176
     1
290
     0
176
     1
 90
       50
176
     1
 40
0.0
176
     1
 40
1.0
176
     1
 90
        0
176
     1
 62
    18
420
        0
176
     1
 90
       50
176
     1
 90
        3
176
     1
 62
     5
420
      255
176
     1
290
     0
176
     1
 90
       50
176
     1
 90
       50
176
     1
 90
       50
176
     1
290
     0
176
     1
 90
       50
176
     1
 62
   256
176
     0
 40
1.0
176
     0
 90
        2
176
     1
  1
strokes_ogs.tif
176
     1
290
     0
176
     1
 40
1.0
176
     1
 40
1.0
176
     1
  0
VISUALSTYLE
  5
B1493
102
{ACAD_REACTORS
330
B1491
102
}
330
B1491
100
AcDbVisualStyle
  2
FlatWithEdges
 70
     1
177
     3
291
     1
 70
    58
 90
        2
176
     1
 90
        1
176
     1
 90
        1
176
     1
 90
        2
176
     1
 40
0.6
176
     1
 40
30.0
176
     1
 62
     7
420
 16777215
176
     1
 90
        1
176
     1
 90
        0
176
     1
 62
     7
176
     1
 62
   257
176
     1
 90
        1
176
     1
 90
        1
176
     1
 40
1.0
176
     1
 90
        0
176
     1
 62
   257
176
     1
 40
1.0
176
     1
 90
        1
176
     1
 90
        6
176
     1
 90
        2
176
     1
 62
     7
176
     1
 90
        5
176
     1
 90
        0
176
     1
 90
        0
176
     1
290
     0
176
     1
 90
       13
176
     1
 40
0.0
176
     1
 90
        0
176
     1
290
     0
176
     1
290
     1
176
     1
290
     1
176
     1
290
     0
176
     1
290
     0
176
     1
290
     0
176
     1
290
     0
176
     1
290
     0
176
     1
290
     0
176
     1
 90
       50
176
     1
 40
0.0
176
     1
 40
1.0
176
     1
 90
        0
176
     1
 62
    18
420
        0
176
     1
 90
       50
176
     1
 90
        3
176
     1
 62
     5
420
      255
176
     1
290
     0
176
     1
 90
       50
176
     1
 90
       50
176
     1
 90
       50
176
     1
290
     0
176
     1
 90
       50
176
     1
 62
   256
176
     0
 40
1.0
176
     0
 90
        2
176
     1
  1
strokes_ogs.tif
176
     1
290
     0
176
     1
 40
1.0
176
     1
 40
1.0
176
     1
  0
VISUALSTYLE
  5
B1494
102
{ACAD_REACTORS
330
B1491
102
}
330
B1491
100
AcDbVisualStyle
  2
Gouraud
 70
     2
177
     3
291
     1
 70
    58
 90
        2
176
     1
 90
        2
176
     1
 90
        1
176
     1
 90
        2
176
     1
 40
0.6
176
     1
 40
30.0
176
     1
 62
     7
420
 16777215
176
     1
 90
        0
176
     1
 90
        0
176
     1
 62
     7
176
     1
 62
   257
176
     1
 90
        1
176
     1
 90
        1
176
     1
 40
1.0
176
     1
 90
        0
176
     1
 62
     7
176
     1
 40
1.0
176
     1
 90
        1
176
     1
 90
        6
176
     1
 90
        2
176
     1
 62
     7
176
     1
 90
        5
176
     1
 90
        0
176
     1
 90
        0
176
     1
290
     0
176
     1
 90
       13
176
     1
 40
0.0
176
     1
 90
        0
176
     1
290
     0
176
     1
290
     1
176
     1
290
     1
176
     1
290
     0
176
     1
290
     0
176
     1
290
     0
176
     1
290
     0
176
     1
290
     0
176
     1
290
     0
176
     1
 90
       50
176
     1
 40
0.0
176
     1
 40
1.0
176
     1
 90
        0
176
     1
 62
    18
420
        0
176
     1
 90
       50
176
     1
 90
        3
176
     1
 62
     5
420
      255
176
     1
290
     0
176
     1
 90
       50
176
     1
 90
       50
176
     1
 90
       50
176
     1
290
     0
176
     1
 90
       50
176
     1
 62
   256
176
     0
 40
1.0
176
     0
 90
        2
176
     1
  1
strokes_ogs.tif
176
     1
290
     0
176
     1
 40
1.0
176
     1
 40
1.0
176
     1
  0
VISUALSTYLE
  5
B1495
102
{ACAD_REACTORS
330
B1491
102
}
330
B1491
100
AcDbVisualStyle
  2
GouraudWithEdges
 70
     3
177
     3
291
     1
 70
    58
 90
        2
176
     1
 90
        2
176
     1
 90
        1
176
     1
 90
        2
176
     1
 40
0.6
176
     1
 40
30.0
176
     1
 62
     7
420
 16777215
176
     1
 90
        1
176
     1
 90
        0
176
     1
 62
     7
176
     1
 62
   257
176
     1
 90
        1
176
     1
 90
        1
176
     1
 40
1.0
176
     1
 90
        0
176
     1
 62
   257
176
     1
 40
1.0
176
     1
 90
        1
176
     1
 90
        6
176
     1
 90
        2
176
     1
 62
     7
176
     1
 90
        5
176
     1
 90
        0
176
     1
 90
        0
176
     1
290
     0
176
     1
 90
       13
176
     1
 40
0.0
176
     1
 90
        0
176
     1
290
     0
176
     1
290
     1
176
     1
290
     1
176
     1
290
     0
176
     1
290
     0
176
     1
290
     0
176
     1
290
     0
176
     1
290
     0
176
     1
290
     0
176
     1
 90
       50
176
     1
 40
0.0
176
     1
 40
1.0
176
     1
 90
        0
176
     1
 62
    18
420
        0
176
     1
 90
       50
176
     1
 90
        3
176
     1
 62
     5
420
      255
176
     1
290
     0
176
     1
 90
       50
176
     1
 90
       50
176
     1
 90
       50
176
     1
290
     0
176
     1
 90
       50
176
     1
 62
   256
176
     0
 40
1.0
176
     0
 90
        2
176
     1
  1
strokes_ogs.tif
176
     1
290
     0
176
     1
 40
1.0
176
     1
 40
1.0
176
     1
  0
VISUALSTYLE
  5
B1498
102
{ACAD_REACTORS
330
B1491
102
}
330
B1491
100
AcDbVisualStyle
  2
Hidden
 70
     6
177
     3
291
     0
 70
    58
 90
        1
176
     1
 90
        2
176
     1
 90
        2
176
     1
 90
        0
176
     1
 40
0.6
176
     1
 40
30.0
176
     1
 62
     7
420
 16777215
176
     1
 90
        2
176
     1
 90
        2
176
     1
 62
     7
176
     1
 62
   257
176
     1
 90
        2
176
     1
 90
        1
176
     1
 40
40.0
176
     1
 90
        0
176
     1
 62
   257
176
     1
 40
1.0
176
     1
 90
        1
176
     1
 90
        6
176
     1
 90
        2
176
     1
 62
     7
176
     1
 90
        3
176
     1
 90
        0
176
     1
 90
        0
176
     1
290
     0
176
     1
 90
        1
176
     1
 40
0.0
176
     1
 90
        0
176
     1
290
     0
176
     1
290
     1
176
     1
290
     1
176
     1
290
     0
176
     1
290
     0
176
     1
290
     0
176
     1
290
     0
176
     1
290
     0
176
     1
290
     0
176
     1
 90
       50
176
     1
 40
0.0
176
     1
 40
1.0
176
     1
 90
        0
176
     1
 62
    18
420
        0
176
     1
 90
       50
176
     1
 90
        3
176
     1
 62
     5
420
      255
176
     1
290
     0
176
     1
 90
       50
176
     1
 90
       50
176
     1
 90
       50
176
     1
290
     0
176
     1
 90
       50
176
     1
 62
   256
176
     0
 40
1.0
176
     0
 90
        2
176
     1
  1
strokes_ogs.tif
176
     1
290
     0
176
     1
 40
1.0
176
     1
 40
1.0
176
     1
  0
VISUALSTYLE
  5
B14A2
102
{ACAD_REACTORS
330
B1491
102
}
330
B1491
100
AcDbVisualStyle
  2
JitterOff
 70
    20
177
     3
291
     1
 70
    58
 90
        2
176
     0
 90
        2
176
     0
 90
        0
176
     0
 90
        0
176
     0
 40
0.6
176
     0
 40
30.0
176
     0
 62
     7
420
 16777215
176
     0
 90
        1
176
     0
 90
        4
176
     0
 62
     7
176
     0
 62
   257
176
     0
 90
        1
176
     0
 90
        1
176
     0
 40
1.0
176
     0
 90
       10
176
     2
 62
     7
176
     0
 40
1.0
176
     0
 90
        1
176
     0
 90
        6
176
     0
 90
        2
176
     0
 62
     7
176
     0
 90
        5
176
     0
 90
        0
176
     0
 90
        0
176
     0
290
     0
176
     0
 90
        1
176
     0
 40
0.0
176
     0
 90
        0
176
     0
290
     0
176
     0
290
     1
176
     0
290
     1
176
     0
290
     0
176
     0
290
     0
176
     0
290
     0
176
     0
290
     0
176
     0
290
     0
176
     0
290
     0
176
     0
 90
       50
176
     0
 40
0.0
176
     0
 40
1.0
176
     0
 90
        0
176
     0
 62
    18
420
        0
176
     0
 90
       50
176
     0
 90
        3
176
     0
 62
     5
420
      255
176
     0
290
     0
176
     0
 90
       50
176
     0
 90
       50
176
     0
 90
       50
176
     0
290
     0
176
     0
 90
       50
176
     0
 62
   256
176
     0
 40
1.0
176
     0
 90
        2
176
     0
  1
strokes_ogs.tif
176
     0
290
     0
176
     0
 40
1.0
176
     0
 40
1.0
176
     0
  0
VISUALSTYLE
  5
B149F
102
{ACAD_REACTORS
330
B1491
102
}
330
B1491
100
AcDbVisualStyle
  2
Linepattern
 70
    14
177
     3
291
     1
 70
    58
 90
        2
176
     1
 90
        2
176
     1
 90
        0
176
     1
 90
        0
176
     1
 40
0.6
176
     1
 40
30.0
176
     1
 62
     7
420
 16777215
176
     1
 90
        1
176
     1
 90
        4
176
     1
 62
     7
176
     1
 62
   257
176
     1
 90
        7
176
     1
 90
        7
176
     1
 40
1.0
176
     1
 90
        8
176
     1
 62
     7
176
     1
 40
1.0
176
     1
 90
        1
176
     1
 90
        6
176
     1
 90
        2
176
     1
 62
     7
176
     1
 90
        5
176
     1
 90
        0
176
     1
 90
        0
176
     1
290
     0
176
     1
 90
        1
176
     1
 40
0.0
176
     1
 90
        0
176
     1
290
     0
176
     1
290
     1
176
     1
290
     1
176
     1
290
     0
176
     1
290
     0
176
     1
290
     0
176
     1
290
     0
176
     1
290
     0
176
     1
290
     0
176
     1
 90
       50
176
     1
 40
0.0
176
     1
 40
1.0
176
     1
 90
        0
176
     1
 62
    18
420
        0
176
     1
 90
       50
176
     1
 90
        3
176
     1
 62
     5
420
      255
176
     1
290
     0
176
     1
 90
       50
176
     1
 90
       50
176
     1
 90
       50
176
     1
290
     0
176
     1
 90
       50
176
     1
 62
   256
176
     0
 40
1.0
176
     0
 90
        2
176
     1
  1
strokes_ogs.tif
176
     1
290
     0
176
     1
 40
1.0
176
     1
 40
1.0
176
     1
  0
VISUALSTYLE
  5
B14A3
102
{ACAD_REACTORS
330
B1491
102
}
330
B1491
100
AcDbVisualStyle
  2
OverhangOff
 70
    21
177
     3
291
     1
 70
    58
 90
        2
176
     0
 90
        2
176
     0
 90
        0
176
     0
 90
        0
176
     0
 40
0.6
176
     0
 40
30.0
176
     0
 62
     7
420
 16777215
176
     0
 90
        1
176
     0
 90
        4
176
     0
 62
     7
176
     0
 62
   257
176
     0
 90
        1
176
     0
 90
        1
176
     0
 40
1.0
176
     0
 90
        9
176
     2
 62
     7
176
     0
 40
1.0
176
     0
 90
        1
176
     0
 90
        6
176
     0
 90
        2
176
     0
 62
     7
176
     0
 90
        5
176
     0
 90
        0
176
     0
 90
        0
176
     0
290
     0
176
     0
 90
        1
176
     0
 40
0.0
176
     0
 90
        0
176
     0
290
     0
176
     0
290
     1
176
     0
290
     1
176
     0
290
     0
176
     0
290
     0
176
     0
290
     0
176
     0
290
     0
176
     0
290
     0
176
     0
290
     0
176
     0
 90
       50
176
     0
 40
0.0
176
     0
 40
1.0
176
     0
 90
        0
176
     0
 62
    18
420
        0
176
     0
 90
       50
176
     0
 90
        3
176
     0
 62
     5
420
      255
176
     0
290
     0
176
     0
 90
       50
176
     0
 90
       50
176
     0
 90
       50
176
     0
290
     0
176
     0
 90
       50
176
     0
 62
   256
176
     0
 40
1.0
176
     0
 90
        2
176
     0
  1
strokes_ogs.tif
176
     0
290
     0
176
     0
 40
1.0
176
     0
 40
1.0
176
     0
  0
VISUALSTYLE
  5
B149A
102
{ACAD_REACTORS
330
B1491
102
}
330
B1491
100
AcDbVisualStyle
  2
Realistic
 70
     8
177
     3
291
     0
 70
    58
 90
        2
176
     1
 90
        3
176
     1
 90
        0
176
     1
 90
        2
176
     1
 40
0.6
176
     1
 40
30.0
176
     1
 62
     7
420
 16777215
176
     1
 90
        0
176
     1
 90
        0
176
     1
 62
     7
176
     1
 62
   257
176
     1
 90
        1
176
     1
 90
        1
176
     1
 40
1.0
176
     1
 90
        8
176
     1
 62
   257
176
     1
 40
1.0
176
     1
 90
        1
176
     1
 90
        6
176
     1
 90
        2
176
     1
 62
     7
176
     1
 90
        3
176
     1
 90
        0
176
     1
 90
        0
176
     1
290
     0
176
     1
 90
       13
176
     1
 40
0.0
176
     1
 90
        0
176
     1
290
     0
176
     1
290
     1
176
     1
290
     1
176
     1
290
     0
176
     1
290
     0
176
     1
290
     0
176
     1
290
     0
176
     1
290
     0
176
     1
290
     0
176
     1
 90
       50
176
     1
 40
0.0
176
     1
 40
1.0
176
     1
 90
        0
176
     1
 62
    18
420
        0
176
     1
 90
       50
176
     1
 90
        3
176
     1
 62
     5
420
      255
176
     1
290
     0
176
     1
 90
       50
176
     1
 90
       50
176
     1
 90
       50
176
     1
290
     0
176
     1
 90
       50
176
     1
 62
   256
176
     0
 40
1.0
176
     0
 90
        2
176
     1
  1
strokes_ogs.tif
176
     1
290
     0
176
     1
 40
1.0
176
     1
 40
1.0
176
     1
  0
VISUALSTYLE
  5
B14A9
102
{ACAD_REACTORS
330
B1491
102
}
330
B1491
100
AcDbVisualStyle
  2
Shaded
 70
    27
177
     3
291
     0
 70
    58
 90
        2
176
     1
 90
        2
176
     1
 90
        1
176
     1
 90
        2
176
     1
 40
0.6
176
     1
 40
30.0
176
     1
 62
     7
420
 16777215
176
     1
 90
        0
176
     1
 90
        4
176
     1
 62
     7
176
     1
 62
   257
176
     1
 90
        1
176
     1
 90
        1
176
     1
 40
1.0
176
     1
 90
        8
176
     1
 62
   257
176
     1
 40
1.0
176
     1
 90
        1
176
     1
 90
        6
176
     1
 90
        2
176
     1
 62
     8
420
  7895160
176
     1
 90
        3
176
     1
 90
        0
176
     1
 90
        0
176
     1
290
     0
176
     1
 90
        5
176
     1
 40
0.0
176
     1
 90
        0
176
     1
290
     0
176
     1
290
     1
176
     1
290
     1
176
     1
290
     0
176
     1
290
     0
176
     1
290
     0
176
     1
290
     0
176
     1
290
     0
176
     1
290
     0
176
     1
 90
       50
176
     1
 40
0.0
176
     1
 40
1.0
176
     1
 90
        0
176
     1
 62
    18
420
        0
176
     1
 90
       50
176
     1
 90
        3
176
     1
 62
     5
420
      255
176
     1
290
     0
176
     1
 90
       50
176
     1
 90
       50
176
     1
 90
       50
176
     1
290
     0
176
     1
 90
       50
176
     1
 62
   256
176
     0
 40
1.0
176
     0
 90
        2
176
     1
  1
strokes_ogs.tif
176
     1
290
     0
176
     1
 40
1.0
176
     1
 40
1.0
176
     1
  0
VISUALSTYLE
  5
B14A8
102
{ACAD_REACTORS
330
B1491
102
}
330
B1491
100
AcDbVisualStyle
  2
Shaded with edges
 70
    26
177
     3
291
     0
 70
    58
 90
        2
176
     1
 90
        2
176
     1
 90
        1
176
     1
 90
        2
176
     1
 40
0.6
176
     1
 40
30.0
176
     1
 62
     7
420
 16777215
176
     1
 90
        1
176
     1
 90
       10
176
     1
 62
     7
176
     1
 62
   257
176
     1
 90
        2
176
     1
 90
        1
176
     1
 40
1.0
176
     1
 90
        8
176
     1
 62
   257
176
     1
 40
1.0
176
     1
 90
        1
176
     1
 90
        6
176
     1
 90
        2
176
     1
 62
     7
176
     1
 90
        3
176
     1
 90
        0
176
     1
 90
        0
176
     1
290
     0
176
     1
 90
        5
176
     1
 40
0.0
176
     1
 90
        0
176
     1
290
     0
176
     1
290
     1
176
     1
290
     1
176
     1
290
     0
176
     1
290
     0
176
     1
290
     0
176
     1
290
     0
176
     1
290
     0
176
     1
290
     0
176
     1
 90
       50
176
     1
 40
0.0
176
     1
 40
1.0
176
     1
 90
        0
176
     1
 62
    18
420
        0
176
     1
 90
       50
176
     1
 90
        3
176
     1
 62
     5
420
      255
176
     1
290
     0
176
     1
 90
       50
176
     1
 90
       50
176
     1
 90
       50
176
     1
290
     0
176
     1
 90
       50
176
     1
 62
   256
176
     0
 40
1.0
176
     0
 90
        2
176
     1
  1
strokes_ogs.tif
176
     1
290
     0
176
     1
 40
1.0
176
     1
 40
1.0
176
     1
  0
VISUALSTYLE
  5
B14A5
102
{ACAD_REACTORS
330
B1491
102
}
330
B1491
100
AcDbVisualStyle
  2
Shades of Gray
 70
    23
177
     3
291
     0
 70
    58
 90
        2
176
     1
 90
        2
176
     1
 90
        3
176
     1
 90
        0
176
     1
 40
0.6
176
     1
 40
30.0
176
     1
 62
     7
420
 16777215
176
     1
 90
        2
176
     1
 90
        2
176
     1
 62
     7
176
     1
 62
     7
176
     1
 90
        1
176
     1
 90
        1
176
     1
 40
40.0
176
     1
 90
        8
176
     1
 62
     7
176
     1
 40
1.0
176
     1
 90
        1
176
     1
 90
        6
176
     1
 90
        2
176
     1
 62
     7
176
     1
 90
        3
176
     1
 90
        0
176
     1
 90
        0
176
     1
290
     0
176
     1
 90
        1
176
     1
 40
0.0
176
     1
 90
        0
176
     1
290
     0
176
     1
290
     1
176
     1
290
     1
176
     1
290
     0
176
     1
290
     0
176
     1
290
     0
176
     1
290
     0
176
     1
290
     0
176
     1
290
     0
176
     1
 90
       50
176
     1
 40
0.0
176
     1
 40
1.0
176
     1
 90
        0
176
     1
 62
    18
420
        0
176
     1
 90
       50
176
     1
 90
        3
176
     1
 62
     5
420
      255
176
     1
290
     0
176
     1
 90
       50
176
     1
 90
       50
176
     1
 90
       50
176
     1
290
     0
176
     1
 90
       50
176
     1
 62
   256
176
     0
 40
1.0
176
     0
 90
        2
176
     1
  1
strokes_ogs.tif
176
     1
290
     0
176
     1
 40
1.0
176
     1
 40
1.0
176
     1
  0
VISUALSTYLE
  5
B14A6
102
{ACAD_REACTORS
330
B1491
102
}
330
B1491
100
AcDbVisualStyle
  2
Sketchy
 70
    24
177
     3
291
     0
 70
    58
 90
        1
176
     1
 90
        2
176
     1
 90
        2
176
     1
 90
        0
176
     1
 40
0.6
176
     1
 40
30.0
176
     1
 62
     7
420
 16777215
176
     1
 90
        2
176
     1
 90
        2
176
     1
 62
     7
176
     1
 62
     7
176
     1
 90
        1
176
     1
 90
        1
176
     1
 40
40.0
176
     1
 90
       11
176
     1
 62
     7
176
     1
 40
1.0
176
     1
 90
        1
176
     1
 90
        6
176
     1
 90
        2
176
     1
 62
     7
176
     1
 90
        6
176
     1
 90
        0
176
     1
 90
        0
176
     1
290
     0
176
     1
 90
        1
176
     1
 40
0.0
176
     1
 90
        0
176
     1
290
     0
176
     1
290
     1
176
     1
290
     1
176
     1
290
     0
176
     1
290
     0
176
     1
290
     0
176
     1
290
     0
176
     1
290
     0
176
     1
290
     0
176
     1
 90
       50
176
     1
 40
0.0
176
     1
 40
1.0
176
     1
 90
        0
176
     1
 62
    18
420
        0
176
     1
 90
       50
176
     1
 90
        3
176
     1
 62
     5
420
      255
176
     1
290
     0
176
     1
 90
       50
176
     1
 90
       50
176
     1
 90
       50
176
     1
290
     0
176
     1
 90
       50
176
     1
 62
   256
176
     0
 40
1.0
176
     0
 90
        2
176
     1
  1
strokes_ogs.tif
176
     1
290
     0
176
     1
 40
1.0
176
     1
 40
1.0
176
     1
  0
VISUALSTYLE
  5
B149E
102
{ACAD_REACTORS
330
B1491
102
}
330
B1491
100
AcDbVisualStyle
  2
Thicken
 70
    13
177
     3
291
     1
 70
    58
 90
        2
176
     1
 90
        2
176
     1
 90
        0
176
     1
 90
        0
176
     1
 40
0.6
176
     1
 40
30.0
176
     1
 62
     7
420
 16777215
176
     1
 90
        1
176
     1
 90
        4
176
     1
 62
     7
176
     1
 62
   257
176
     1
 90
        1
176
     1
 90
        1
176
     1
 40
1.0
176
     1
 90
       12
176
     1
 62
     7
176
     1
 40
1.0
176
     1
 90
        1
176
     1
 90
        6
176
     1
 90
        2
176
     1
 62
     7
176
     1
 90
        5
176
     1
 90
        0
176
     1
 90
        0
176
     1
290
     0
176
     1
 90
        1
176
     1
 40
0.0
176
     1
 90
        0
176
     1
290
     0
176
     1
290
     1
176
     1
290
     1
176
     1
290
     0
176
     1
290
     0
176
     1
290
     0
176
     1
290
     0
176
     1
290
     0
176
     1
290
     0
176
     1
 90
       50
176
     1
 40
0.0
176
     1
 40
1.0
176
     1
 90
        0
176
     1
 62
    18
420
        0
176
     1
 90
       50
176
     1
 90
        3
176
     1
 62
     5
420
      255
176
     1
290
     0
176
     1
 90
       50
176
     1
 90
       50
176
     1
 90
       50
176
     1
290
     0
176
     1
 90
       50
176
     1
 62
   256
176
     0
 40
1.0
176
     0
 90
        2
176
     1
  1
strokes_ogs.tif
176
     1
290
     0
176
     1
 40
1.0
176
     1
 40
1.0
176
     1
  0
VISUALSTYLE
  5
B1497
102
{ACAD_REACTORS
330
B1491
102
}
330
B1491
100
AcDbVisualStyle
  2
Wireframe
 70
     5
177
     3
291
     0
 70
    58
 90
        0
176
     1
 90
        2
176
     1
 90
        0
176
     1
 90
        0
176
     1
 40
0.6
176
     1
 40
30.0
176
     1
 62
     7
420
 16777215
176
     1
 90
        1
176
     1
 90
        4
176
     1
 62
     7
176
     1
 62
   257
176
     1
 90
        1
176
     1
 90
        1
176
     1
 40
1.0
176
     1
 90
        0
176
     1
 62
   257
176
     1
 40
1.0
176
     1
 90
        1
176
     1
 90
        6
176
     1
 90
        2
176
     1
 62
     7
176
     1
 90
        3
176
     1
 90
        0
176
     1
 90
        0
176
     1
290
     0
176
     1
 90
        1
176
     1
 40
0.0
176
     1
 90
        0
176
     1
290
     0
176
     1
290
     1
176
     1
290
     1
176
     1
290
     0
176
     1
290
     0
176
     1
290
     0
176
     1
290
     0
176
     1
290
     0
176
     1
290
     0
176
     1
 90
       50
176
     1
 40
0.0
176
     1
 40
1.0
176
     1
 90
        0
176
     1
 62
    18
420
        0
176
     1
 90
       50
176
     1
 90
        3
176
     1
 62
     5
420
      255
176
     1
290
     0
176
     1
 90
       50
176
     1
 90
       50
176
     1
 90
       50
176
     1
290
     0
176
     1
 90
       50
176
     1
 62
   256
176
     0
 40
1.0
176
     0
 90
        2
176
     1
  1
strokes_ogs.tif
176
     1
290
     0
176
     1
 40
1.0
176
     1
 40
1.0
176
     1
  0
VISUALSTYLE
  5
B14A7
102
{ACAD_REACTORS
330
B1491
102
}
330
B1491
100
AcDbVisualStyle
  2
X-Ray
 70
    25
177
     3
291
     0
 70
    58
 90
        2
176
     1
 90
        2
176
     1
 90
        1
176
     1
 90
        1
176
     1
 40
0.5
176
     1
 40
30.0
176
     1
 62
     7
420
 16777215
176
     1
 90
        1
176
     1
 90
        0
176
     1
 62
     7
176
     1
 62
   257
176
     1
 90
        1
176
     1
 90
        1
176
     1
 40
1.0
176
     1
 90
        8
176
     1
 62
     7
176
     1
 40
1.0
176
     1
 90
        1
176
     1
 90
        6
176
     1
 90
        2
176
     1
 62
     7
176
     1
 90
        3
176
     1
 90
        0
176
     1
 90
        0
176
     1
290
     0
176
     1
 90
       13
176
     1
 40
0.0
176
     1
 90
        0
176
     1
290
     0
176
     1
290
     1
176
     1
290
     1
176
     1
290
     0
176
     1
290
     0
176
     1
290
     0
176
     1
290
     0
176
     1
290
     0
176
     1
290
     0
176
     1
 90
       50
176
     1
 40
0.0
176
     1
 40
1.0
176
     1
 90
        0
176
     1
 62
    18
420
        0
176
     1
 90
       50
176
     1
 90
        3
176
     1
 62
     5
420
      255
176
     1
290
     0
176
     1
 90
       50
176
     1
 90
       50
176
     1
 90
       50
176
     1
290
     0
176
     1
 90
       50
176
     1
 62
   256
176
     0
 40
1.0
176
     0
 90
        2
176
     1
  1
strokes_ogs.tif
176
     1
290
     0
176
     1
 40
1.0
176
     1
 40
1.0
176
     1
  0
DICTIONARYVAR
  5
B14B4
102
{ACAD_REACTORS
330
B14B3
102
}
330
B14B3
100
DictionaryVariables
280
     0
  1
1:1
  0
DICTIONARYVAR
  5
B14B6
102
{ACAD_REACTORS
330
B14B3
102
}
330
B14B3
100
DictionaryVariables
280
     0
  1
Standard
  0
DICTIONARYVAR
  5
B14B5
102
{ACAD_REACTORS
330
B14B3
102
}
330
B14B3
100
DictionaryVariables
280
     0
  1
Standard
  0
DICTIONARYVAR
  5
B14B7
102
{ACAD_REACTORS
330
B14B3
102
}
330
B14B3
100
DictionaryVariables
280
     0
  1
0
  0
DICTIONARY
  5
B14BE
330
B14AB
100
AcDbDictionary
280
     1
281
     1
  3
ACAD_ROUNDTRIP_2008_TABLESTYLE_CELLSTYLEMAP
360
B14BF
  0
CELLSTYLEMAP
  5
B14BF
102
{ACAD_REACTORS
330
B14BE
102
}
330
B14BE
100
AcDbCellStyleMap
 90
        3
300
CELLSTYLE
  1
TABLEFORMAT_BEGIN
 90
        5
170
     1
 91
        0
 92
    32768
 62
   257
 93
        1
300
CONTENTFORMAT
  1
CONTENTFORMAT_BEGIN
 90
        0
 91
        0
 92
        4
 93
        0
300

 40
0.0
140
1.0
 94
        5
 62
     0
340
B143F
144
0.25
309
CONTENTFORMAT_END
171
     1
301
MARGIN
  1
CELLMARGIN_BEGIN
 40
0.06
 40
0.06
 40
0.06
 40
0.06
 40
0.06
 40
0.06
309
CELLMARGIN_END
 94
        6
 95
        1
302
GRIDFORMAT
  1
GRIDFORMAT_BEGIN
 90
        0
 91
        1
 62
     0
 92
       -2
340
B1441
 93
        0
 40
0.045
309
GRIDFORMAT_END
 95
        2
302
GRIDFORMAT
  1
GRIDFORMAT_BEGIN
 90
        0
 91
        1
 62
     0
 92
       -2
340
B1441
 93
        0
 40
0.045
309
GRIDFORMAT_END
 95
        4
302
GRIDFORMAT
  1
GRIDFORMAT_BEGIN
 90
        0
 91
        1
 62
     0
 92
       -2
340
B1441
 93
        0
 40
0.045
309
GRIDFORMAT_END
 95
        8
302
GRIDFORMAT
  1
GRIDFORMAT_BEGIN
 90
        0
 91
        1
 62
     0
 92
       -2
340
B1441
 93
        0
 40
0.045
309
GRIDFORMAT_END
 95
       16
302
GRIDFORMAT
  1
GRIDFORMAT_BEGIN
 90
        0
 91
        1
 62
     0
 92
       -2
340
B1441
 93
        0
 40
0.045
309
GRIDFORMAT_END
 95
       32
302
GRIDFORMAT
  1
GRIDFORMAT_BEGIN
 90
        0
 91
        1
 62
     0
 92
       -2
340
B1441
 93
        0
 40
0.045
309
GRIDFORMAT_END
309
TABLEFORMAT_END
  1
CELLSTYLE_BEGIN
 90
        1
 91
        1
300
_TITLE
309
CELLSTYLE_END
300
CELLSTYLE
  1
TABLEFORMAT_BEGIN
 90
        5
170
     1
 91
        0
 92
        0
 62
   257
 93
        1
300
CONTENTFORMAT
  1
CONTENTFORMAT_BEGIN
 90
        0
 91
        0
 92
        4
 93
        0
300

 40
0.0
140
1.0
 94
        5
 62
     0
340
B143F
144
0.18
309
CONTENTFORMAT_END
171
     1
301
MARGIN
  1
CELLMARGIN_BEGIN
 40
0.06
 40
0.06
 40
0.06
 40
0.06
 40
0.06
 40
0.06
309
CELLMARGIN_END
 94
        6
 95
        1
302
GRIDFORMAT
  1
GRIDFORMAT_BEGIN
 90
        0
 91
        1
 62
     0
 92
       -2
340
B1441
 93
        0
 40
0.045
309
GRIDFORMAT_END
 95
        2
302
GRIDFORMAT
  1
GRIDFORMAT_BEGIN
 90
        0
 91
        1
 62
     0
 92
       -2
340
B1441
 93
        0
 40
0.045
309
GRIDFORMAT_END
 95
        4
302
GRIDFORMAT
  1
GRIDFORMAT_BEGIN
 90
        0
 91
        1
 62
     0
 92
       -2
340
B1441
 93
        0
 40
0.045
309
GRIDFORMAT_END
 95
        8
302
GRIDFORMAT
  1
GRIDFORMAT_BEGIN
 90
        0
 91
        1
 62
     0
 92
       -2
340
B1441
 93
        0
 40
0.045
309
GRIDFORMAT_END
 95
       16
302
GRIDFORMAT
  1
GRIDFORMAT_BEGIN
 90
        0
 91
        1
 62
     0
 92
       -2
340
B1441
 93
        0
 40
0.045
309
GRIDFORMAT_END
 95
       32
302
GRIDFORMAT
  1
GRIDFORMAT_BEGIN
 90
        0
 91
        1
 62
     0
 92
       -2
340
B1441
 93
        0
 40
0.045
309
GRIDFORMAT_END
309
TABLEFORMAT_END
  1
CELLSTYLE_BEGIN
 90
        2
 91
        1
300
_HEADER
309
CELLSTYLE_END
300
CELLSTYLE
  1
TABLEFORMAT_BEGIN
 90
        5
170
     1
 91
        0
 92
        0
 62
   257
 93
        1
300
CONTENTFORMAT
  1
CONTENTFORMAT_BEGIN
 90
        0
 91
        0
 92
        4
 93
        0
300

 40
0.0
140
1.0
 94
        2
 62
     0
340
B143F
144
0.18
309
CONTENTFORMAT_END
171
     1
301
MARGIN
  1
CELLMARGIN_BEGIN
 40
0.06
 40
0.06
 40
0.06
 40
0.06
 40
0.06
 40
0.06
309
CELLMARGIN_END
 94
        6
 95
        1
302
GRIDFORMAT
  1
GRIDFORMAT_BEGIN
 90
        0
 91
        1
 62
     0
 92
       -2
340
B1441
 93
        0
 40
0.045
309
GRIDFORMAT_END
 95
        2
302
GRIDFORMAT
  1
GRIDFORMAT_BEGIN
 90
        0
 91
        1
 62
     0
 92
       -2
340
B1441
 93
        0
 40
0.045
309
GRIDFORMAT_END
 95
        4
302
GRIDFORMAT
  1
GRIDFORMAT_BEGIN
 90
        0
 91
        1
 62
     0
 92
       -2
340
B1441
 93
        0
 40
0.045
309
GRIDFORMAT_END
 95
        8
302
GRIDFORMAT
  1
GRIDFORMAT_BEGIN
 90
        0
 91
        1
 62
     0
 92
       -2
340
B1441
 93
        0
 40
0.045
309
GRIDFORMAT_END
 95
       16
302
GRIDFORMAT
  1
GRIDFORMAT_BEGIN
 90
        0
 91
        1
 62
     0
 92
       -2
340
B1441
 93
        0
 40
0.045
309
GRIDFORMAT_END
 95
       32
302
GRIDFORMAT
  1
GRIDFORMAT_BEGIN
 90
        0
 91
        1
 62
     0
 92
       -2
340
B1441
 93
        0
 40
0.045
309
GRIDFORMAT_END
309
TABLEFORMAT_END
  1
CELLSTYLE_BEGIN
 90
        3
 91
        2
300
_DATA
309
CELLSTYLE_END
  0
ENDSEC
  0
EOF
