  0
SECTION
  2
HEADER
  9
$ACADVER
  1
AC1009
  9
$DWGCODEPAGE
  3
ansi_1252
  9
$INSBASE
 10
0.0
 20
0.0
 30
0.0
  9
$EXTMIN
 10
0.0
 20
0.0
 30
0.0
  9
$EXTMAX
 10
16604.78053853537
 20
13369.76757320156
 30
0.0
  9
$LIMMIN
 10
0.0
 20
0.0
  9
$LIMMAX
 10
12.0
 20
9.0
  9
$ORTHOMODE
 70
     1
  9
$REGENMODE
 70
     1
  9
$FILLMODE
 70
     1
  9
$QTEXTMODE
 70
     0
  9
$MIRRTEXT
 70
     0
  9
$DRAGMODE
 70
     2
  9
$LTSCALE
 40
5.0
  9
$OSMODE
 70
 16383
  9
$ATTMODE
 70
     1
  9
$TEXTSIZE
 40
19.0
  9
$TRACEWID
 40
0.05
  9
$TEXTSTYLE
  7
STILE1
  9
$CLAYER
  8
0
  9
$CELTYPE
  6
BYLAYER
  9
$CECOLOR
 62
   256
  9
$DIMSCALE
 40
50.0
  9
$DIMASZ
 40
2.5
  9
$DIMEXO
 40
1.0
  9
$DIMDLI
 40
0.0
  9
$DIMRND
 40
0.0
  9
$DIMDLE
 40
0.0
  9
$DIMEXE
 40
1.0
  9
$DIMTP
 40
0.0
  9
$DIMTM
 40
0.0
  9
$DIMTXT
 40
2.5
  9
$DIMCEN
 40
1.0
  9
$DIMTSZ
 40
0.0
  9
$DIMTOL
 70
     0
  9
$DIMLIM
 70
     0
  9
$DIMTIH
 70
     0
  9
$DIMTOH
 70
     0
  9
$DIMSE1
 70
     0
  9
$DIMSE2
 70
     0
  9
$DIMTAD
 70
     1
  9
$DIMZIN
 70
     8
  9
$DIMBLK
  1

  9
$DIMASO
 70
     1
  9
$DIMSHO
 70
     0
  9
$DIMPOST
  1

  9
$DIMAPOST
  1

  9
$DIMALT
 70
     0
  9
$DIMALTD
 70
     2
  9
$DIMALTF
 40
25.4
  9
$DIMLFAC
 40
1.0
  9
$DIMTOFL
 70
     1
  9
$DIMTVP
 40
0.0
  9
$DIMTIX
 70
     1
  9
$DIMSOXD
 70
     0
  9
$DIMSAH
 70
     0
  9
$DIMBLK1
  1

  9
$DIMBLK2
  1

  9
$DIMSTYLE
  2
STANDARD
  9
$DIMCLRD
 70
     0
  9
$DIMCLRE
 70
     0
  9
$DIMCLRT
 70
     0
  9
$DIMTFAC
 40
1.0
  9
$DIMGAP
 40
1.5
  9
$LUNITS
 70
     2
  9
$LUPREC
 70
     4
  9
$SKETCHINC
 40
0.1
  9
$FILLETRAD
 40
20.0
  9
$AUNITS
 70
     0
  9
$AUPREC
 70
     0
  9
$MENU
  1
acad
  9
$ELEVATION
 40
0.0
  9
$PELEVATION
 40
0.0
  9
$THICKNESS
 40
0.0
  9
$LIMCHECK
 70
     0
  9
$CHAMFERA
 40
1200.0
  9
$CHAMFERB
 40
1200.0
  9
$SKPOLY
 70
     0
  9
$TDCREATE
 40
2450277.504307755
  9
$TDUPDATE
 40
2459748.768382222
  9
$TDINDWG
 40
26.3758669792
  9
$TDUSRTIMER
 40
0.000222662
  9
$USRTIMER
 70
     1
  9
$ANGBASE
 50
0.0
  9
$ANGDIR
 70
     0
  9
$PDMODE
 70
     0
  9
$PDSIZE
 40
0.0
  9
$PLINEWID
 40
0.0
  9
$COORDS
 70
     1
  9
$SPLFRAME
 70
     0
  9
$SPLINETYPE
 70
     6
  9
$SPLINESEGS
 70
     8
  9
$ATTDIA
 70
     0
  9
$ATTREQ
 70
     1
  9
$HANDLING
 70
     1
  9
$HANDSEED
  5
115811
  9
$SURFTAB1
 70
     6
  9
$SURFTAB2
 70
     6
  9
$SURFTYPE
 70
     6
  9
$SURFU
 70
     6
  9
$SURFV
 70
     6
  9
$UCSNAME
  2

  9
$UCSORG
 10
0.0
 20
0.0
 30
0.0
  9
$UCSXDIR
 10
1.0
 20
0.0
 30
0.0
  9
$UCSYDIR
 10
0.0
 20
1.0
 30
0.0
  9
$PUCSNAME
  2

  9
$PUCSORG
 10
0.0
 20
0.0
 30
0.0
  9
$PUCSXDIR
 10
1.0
 20
0.0
 30
0.0
  9
$PUCSYDIR
 10
0.0
 20
1.0
 30
0.0
  9
$USERI1
 70
     0
  9
$USERI2
 70
     0
  9
$USERI3
 70
     0
  9
$USERI4
 70
     0
  9
$USERI5
 70
     0
  9
$USERR1
 40
0.0
  9
$USERR2
 40
0.0
  9
$USERR3
 40
0.0
  9
$USERR4
 40
0.0
  9
$USERR5
 40
0.0
  9
$WORLDVIEW
 70
     0
  9
$SHADEDGE
 70
     3
  9
$SHADEDIF
 70
    70
  9
$TILEMODE
 70
     1
  9
$MAXACTVP
 70
    16
  9
$PLIMCHECK
 70
     0
  9
$PEXTMIN
 10
0.0
 20
0.0
 30
0.0
  9
$PEXTMAX
 10
0.0
 20
0.0
 30
0.0
  9
$PLIMMIN
 10
0.0
 20
0.0
  9
$PLIMMAX
 10
0.0
 20
0.0
  9
$UNITMODE
 70
     0
  9
$VISRETAIN
 70
     0
  9
$PLINEGEN
 70
     0
  9
$PSLTSCALE
 70
     1
  0
ENDSEC
  0
SECTION
  2
TABLES
  0
TABLE
  2
VPORT
 70
     1
  0
VPORT
  2
*ACTIVE
 70
     0
 10
0.0
 20
0.0
 11
1.0
 21
1.0
 12
5778.776080939013
 22
-8341.640938991997
 13
0.0
 23
0.0
 14
1.0
 24
1.0
 15
0.0
 25
0.0
 16
0.0
 26
0.0
 36
59565.77524901567
 17
2523.614304318805
 27
15026.52481898522
 37
0.0
 40
13514.45795579026
 41
2.221621621621621
 42
50.0
 43
0.0
 44
0.0
 50
0.0
 51
0.0
 71
     0
 72
   100
 73
     1
 74
     1
 75
     0
 76
     0
 77
     0
 78
     0
  0
ENDTAB
  0
TABLE
  2
LTYPE
 70
     1
  0
LTYPE
  2
CONTINUOUS
 70
     0
  3
Solid line
 72
    65
 73
     0
 40
0.0
  0
ENDTAB
  0
TABLE
  2
LAYER
 70
     2
  0
LAYER
  2
0
 70
     0
 62
     7
  6
CONTINUOUS
  0
ENDTAB
  0
TABLE
  2
STYLE
 70
     2
  0
STYLE
  2
STANDARD
 70
     0
 40
0.0
 41
1.0
 50
0.0
 71
     0
 42
2.5
  3
txt
  4

  0
STYLE
  2
STILE1
 70
     0
 40
0.0
 41
1.0
 50
0.0
 71
     0
 42
19.0
  3
ROMANS.SHX
  4

  0
ENDTAB
  0
TABLE
  2
VIEW
 70
     0
  0
ENDTAB
  0
TABLE
  2
UCS
 70
     0
  0
ENDTAB
  0
TABLE
  2
APPID
 70
    40
  0
APPID
  2
ACAD
 70
     0
  0
APPID
  2
DCO15
 70
     0
  0
APPID
  2
ACAECLAYERSTANDARD
 70
     0
  0
APPID
  2
ACDBDYNAMICBLOCKGUID
 70
     0
  0
APPID
  2
ACDBBLOCKREPETAG
 70
     0
  0
APPID
  2
ACAD_PSEXT
 70
     0
  0
APPID
  2
ACAD_DSTYLE_DIMJAG
 70
     0
  0
APPID
  2
ACAD_DSTYLE_DIMTALN
 70
     0
  0
APPID
  2
ACAD_DSTYLE_DIMRADIAL_EXTE
 70
     0
  0
APPID
  2
RAK
 70
     0
  0
APPID
  2
ACLAYERTOOLS
 70
     0
  0
APPID
  2
REVIT
 70
     0
  0
APPID
  2
ACAD_MLEADERVER
 70
     0
  0
APPID
  2
ACAD_DSTYLE_DIMBREAK
 70
     0
  0
APPID
  2
ACCMTRANSPARENCY
 70
     0
  0
APPID
  2
ACAD_NAV_VCDISPLAY
 70
     0
  0
APPID
  2
GRADIENTCOLOR1ACI
 70
     0
  0
APPID
  2
GRADIENTCOLOR2ACI
 70
     0
  0
APPID
  2
PROGE_PRINT_SETTINGS
 70
     0
  0
APPID
  2
AA_WLPR
 70
     0
  0
APPID
  2
AA_WLENT
 70
     0
  0
APPID
  2
AA_WLTP
 70
     0
  0
APPID
  2
AA_WLBK
 70
     0
  0
APPID
  2
ACAD_DSTYLE_DIMJOGGED_JOGA
 70
     0
  0
APPID
  2
$DDT_AUDIT_GENERATED__2CAF
 70
     0
  0
APPID
  2
ACAD_DSTYLE_DIMEXT_LENGTH
 70
     0
  0
APPID
  2
ACAD_DSTYLE_DIMEXT_ENABLED
 70
     0
  0
APPID
  2
ACAD_DSTYLE_DIMJOGGED_JOG0
 70
     0
  0
APPID
  2
ACAD_DSTYLE_DIMARC_LENGTH_
 70
     0
  0
APPID
  2
C_AND_O
 70
     0
  0
APPID
  2
AVE_FINISH
 70
     0
  0
APPID
  2
AVE_RENDER
 70
     0
  0
APPID
  2
AVE_ENTITY_MATERIAL
 70
     0
  0
APPID
  2
AVE_MATERIAL
 70
     0
  0
APPID
  2
ADDC5$_$SETUP-
 70
     0
  0
APPID
  2
ADDC4$_$SETUP-
 70
     0
  0
APPID
  2
ADDC4$_$ARTSETUP-
 70
     0
  0
APPID
  2
GENIUS_GENODEF_13
 70
     0
  0
APPID
  2
GENIUS_GENOBJ-N-REC_13
 70
     0
  0
APPID
  2
GENIUS_GENREC_14
 70
     0
  0
ENDTAB
  0
TABLE
  2
DIMSTYLE
 70
     1
  0
DIMSTYLE
  2
STANDARD
 70
     0
  3

  4

  5

  6

  7

 40
1.0
 41
0.18
 42
0.0625
 43
0.38
 44
0.18
 45
0.0
 46
0.0
 47
0.0
 48
0.0
140
0.18
141
0.09
142
0.0
143
25.4
144
1.0
145
0.0
146
1.0
147
0.09
 71
     0
 72
     0
 73
     1
 74
     1
 75
     0
 76
     0
 77
     0
 78
     0
170
     0
171
     2
172
     0
173
     0
174
     0
175
     0
176
     0
177
     0
178
     0
  0
ENDTAB
  0
ENDSEC
  0
SECTION
  2
BLOCKS
  0
BLOCK
  8
0
  2
$MODEL_SPACE
 70
     0
 10
0.0
 20
0.0
 30
0.0
  3
$MODEL_SPACE
  1

  0
ENDBLK
  5
1151B0
  8
0
  0
BLOCK
 67
     1
  8
0
  2
$PAPER_SPACE
 70
     0
 10
0.0
 20
0.0
 30
0.0
  3
$PAPER_SPACE
  1

  0
ENDBLK
  5
1151AC
 67
     1
  8
0
  0
ENDSEC
  0
SECTION
  2
ENTITIES
  0
LINE
  5
E1391
  8
0
 10
8025.371948238463
 20
987.6576470269353
 30
0.0
 11
8025.371948238463
 21
0.0
 31
0.0
  0
TEXT
  5
E1392
  8
0
 10
6252.7084966879
 20
778.7322304035334
 30
0.0
 40
125.0
  1
2022-06
  7
STILE1
 72
     1
 11
6687.604330021233
 21
778.7322304035334
 31
0.0
  0
LINE
  5
E1393
  8
0
 10
5350.247965492308
 20
687.6610921230165
 30
0.0
 11
5350.247965492308
 21
987.6576470269353
 31
0.0
  0
LINE
  5
E1394
  8
0
 10
2675.123982746154
 20
987.6576470269353
 30
0.0
 11
2675.123982746154
 21
0.0
 31
0.0
  0
POLYLINE
  5
E1395
  8
0
 66
     1
 10
0.0
 20
0.0
 30
0.0
 70
     1
  0
VERTEX
  5
11554D
  8
0
 10
0.0
 20
987.6576470269353
 30
0.0
  0
VERTEX
  5
11554E
  8
0
 10
8025.371948238463
 20
987.6576470269353
 30
0.0
  0
VERTEX
  5
11554F
  8
0
 10
8025.371948238463
 20
0.0
 30
0.0
  0
VERTEX
  5
115550
  8
0
 10
0.0
 20
0.0
 30
0.0
  0
SEQEND
  5
115797
  8
0
  0
POLYLINE
  5
E1396
  8
0
 66
     1
 10
0.0
 20
0.0
 30
0.0
  0
VERTEX
  5
115551
  8
0
 10
2675.123982746154
 20
687.661092123016
 30
0.0
  0
VERTEX
  5
115552
  8
0
 10
8025.371948238463
 20
687.6610921230168
 30
0.0
  0
SEQEND
  5
115798
  8
0
  0
TEXT
  5
E1397
  8
0
 10
3484.840736835664
 20
170.1637904425171
 30
0.0
 40
125.0
  1
This drawing is property of Fantin S.r.l. 
  7
STILE1
 72
     1
 11
5499.721689216617
 21
170.1637904425171
 31
0.0
  0
POLYLINE
  5
E1398
  8
0
  6
CONTINUOUS
 66
     1
 10
0.0
 20
0.0
 30
0.0
 70
     1
  0
VERTEX
  5
115553
  8
0
  6
CONTINUOUS
 10
847.7226611692438
 20
383.6228027346076
 30
0.0
  0
VERTEX
  5
115554
  8
0
  6
CONTINUOUS
 10
847.7226611692438
 20
383.6228027346076
 30
0.0
  0
VERTEX
  5
115555
  8
0
  6
CONTINUOUS
 10
872.0839436817907
 20
299.9999999999997
 30
0.0
  0
VERTEX
  5
115556
  8
0
  6
CONTINUOUS
 10
997.8006456140432
 20
299.9999999999997
 30
0.0
  0
VERTEX
  5
115557
  8
0
  6
CONTINUOUS
 10
880.3917914489284
 20
652.7743326826017
 30
0.0
 42
0.1089385125692126
  0
VERTEX
  5
115558
  8
0
  6
CONTINUOUS
 10
867.6499316329131
 20
680.4454704024826
 30
0.0
 42
0.1589313772246072
  0
VERTEX
  5
115559
  8
0
  6
CONTINUOUS
 10
855.6541064428161
 20
687.7303423592817
 30
0.0
 42
0.058673645385263
  0
VERTEX
  5
11555A
  8
0
  6
CONTINUOUS
 10
839.4089355459447
 20
689.3216281465718
 30
0.0
  0
VERTEX
  5
11555B
  8
0
  6
CONTINUOUS
 10
839.4089355459447
 20
689.3216281465718
 30
0.0
  0
VERTEX
  5
11555C
  8
0
  6
CONTINUOUS
 10
744.1606580931694
 20
689.3216281465718
 30
0.0
 42
0.058673645385263
  0
VERTEX
  5
11555D
  8
0
  6
CONTINUOUS
 10
727.9154871962947
 20
687.7303423592817
 30
0.0
 42
0.1589313772246072
  0
VERTEX
  5
11555E
  8
0
  6
CONTINUOUS
 10
715.9196620061985
 20
680.4454704024826
 30
0.0
 42
0.1089385125692126
  0
VERTEX
  5
11555F
  8
0
  6
CONTINUOUS
 10
703.1778021901849
 20
652.7743326826017
 30
0.0
  0
VERTEX
  5
115560
  8
0
  6
CONTINUOUS
 10
585.768948029726
 20
299.9999999999997
 30
0.0
  0
VERTEX
  5
115561
  8
0
  6
CONTINUOUS
 10
704.8348931223154
 20
299.9999999999997
 30
0.0
  0
VERTEX
  5
115562
  8
0
  6
CONTINUOUS
 10
728.6473931185901
 20
383.6228027346076
 30
0.0
  0
SEQEND
  5
115799
  8
0
  6
CONTINUOUS
  0
POLYLINE
  5
E1399
  8
0
  6
CONTINUOUS
 66
     1
 10
0.0
 20
0.0
 30
0.0
  0
VERTEX
  5
115563
  8
0
  6
CONTINUOUS
 10
791.2309977225952
 20
580.7787272136192
 30
0.0
  0
VERTEX
  5
115564
  8
0
  6
CONTINUOUS
 10
824.458943684584
 20
466.6909450956151
 30
0.0
  0
VERTEX
  5
115565
  8
0
  6
CONTINUOUS
 10
751.9104003906241
 20
466.6909450956151
 30
0.0
  0
VERTEX
  5
115566
  8
0
  6
CONTINUOUS
 10
785.13834635727
 20
580.7787272136192
 30
0.0
  0
VERTEX
  5
115567
  8
0
  6
CONTINUOUS
 10
791.2309977225952
 20
580.7787272136192
 30
0.0
  0
SEQEND
  5
11579A
  8
0
  6
CONTINUOUS
  0
POLYLINE
  5
E139A
  8
0
  6
CONTINUOUS
 66
     1
 10
0.0
 20
0.0
 30
0.0
  0
VERTEX
  5
115568
  8
0
  6
CONTINUOUS
 10
605.1458875834936
 20
687.6576470269353
 30
0.0
  0
VERTEX
  5
115569
  8
0
  6
CONTINUOUS
 10
605.1458875834936
 20
598.4968532994384
 30
0.0
  0
VERTEX
  5
11556A
  8
0
  6
CONTINUOUS
 10
419.0693901898336
 20
598.4968532994384
 30
0.0
  0
VERTEX
  5
11556B
  8
0
  6
CONTINUOUS
 10
419.0693901898336
 20
521.52136230492
 30
0.0
  0
VERTEX
  5
11556C
  8
0
  6
CONTINUOUS
 10
549.2130398191512
 20
521.52136230492
 30
0.0
  0
VERTEX
  5
11556D
  8
0
  6
CONTINUOUS
 10
549.2130398191512
 20
438.4480523003727
 30
0.0
  0
VERTEX
  5
11556E
  8
0
  6
CONTINUOUS
 10
419.0693901898336
 20
438.4480523003727
 30
0.0
  0
VERTEX
  5
11556F
  8
0
  6
CONTINUOUS
 10
419.0693901898336
 20
299.9999999999997
 30
0.0
  0
VERTEX
  5
115570
  8
0
  6
CONTINUOUS
 10
300.0
 20
299.9999999999997
 30
0.0
  0
VERTEX
  5
115571
  8
0
  6
CONTINUOUS
 10
300.0
 20
687.6576470269353
 30
0.0
  0
VERTEX
  5
115572
  8
0
  6
CONTINUOUS
 10
605.1458875834936
 20
687.6576470269353
 30
0.0
  0
SEQEND
  5
11579B
  8
0
  6
CONTINUOUS
  0
POLYLINE
  5
E139B
  8
0
  6
CONTINUOUS
 66
     1
 10
0.0
 20
0.0
 30
0.0
 70
     1
  0
VERTEX
  5
115573
  8
0
  6
CONTINUOUS
 10
1820.206949869171
 20
687.6593695743937
 30
0.0
  0
VERTEX
  5
115574
  8
0
  6
CONTINUOUS
 10
1939.276340059005
 20
687.6593695743937
 30
0.0
  0
VERTEX
  5
115575
  8
0
  6
CONTINUOUS
 10
1939.276340059005
 20
299.9999999999997
 30
0.0
  0
VERTEX
  5
115576
  8
0
  6
CONTINUOUS
 10
1820.206949869171
 20
299.9999999999997
 30
0.0
  0
SEQEND
  5
11579C
  8
0
  6
CONTINUOUS
  0
POLYLINE
  5
E139C
  8
0
  6
CONTINUOUS
 66
     1
 10
0.0
 20
0.0
 30
0.0
  0
VERTEX
  5
115577
  8
0
  6
CONTINUOUS
 10
1783.103271485306
 20
687.6593695743937
 30
0.0
  0
VERTEX
  5
115578
  8
0
  6
CONTINUOUS
 10
1783.103271485306
 20
596.8363172747192
 30
0.0
  0
VERTEX
  5
115579
  8
0
  6
CONTINUOUS
 10
1666.80718316231
 20
596.8363172747192
 30
0.0
  0
VERTEX
  5
11557A
  8
0
  6
CONTINUOUS
 10
1666.80718316231
 20
299.9999999999997
 30
0.0
  0
VERTEX
  5
11557B
  8
0
  6
CONTINUOUS
 10
1547.737792972475
 20
299.9999999999997
 30
0.0
  0
VERTEX
  5
11557C
  8
0
  6
CONTINUOUS
 10
1547.737792972475
 20
596.8363172747192
 30
0.0
  0
VERTEX
  5
11557D
  8
0
  6
CONTINUOUS
 10
1434.204671224579
 20
596.8363172747192
 30
0.0
  0
VERTEX
  5
11557E
  8
0
  6
CONTINUOUS
 10
1434.204671224579
 20
687.6593695743937
 30
0.0
  0
VERTEX
  5
11557F
  8
0
  6
CONTINUOUS
 10
1783.103271485306
 20
687.6593695743937
 30
0.0
  0
SEQEND
  5
11579D
  8
0
  6
CONTINUOUS
  0
POLYLINE
  5
E139D
  8
0
  6
CONTINUOUS
 66
     1
 10
0.0
 20
0.0
 30
0.0
  0
VERTEX
  5
115580
  8
0
  6
CONTINUOUS
 10
1030.479098847136
 20
299.9999999999997
 30
0.0
  0
VERTEX
  5
115581
  8
0
  6
CONTINUOUS
 10
1030.479098847136
 20
687.661092123016
 30
0.0
  0
VERTEX
  5
115582
  8
0
  6
CONTINUOUS
 10
1131.828640410675
 20
687.661092123016
 30
0.0
 42
-0.316444976687396
  0
VERTEX
  5
115583
  8
0
  6
CONTINUOUS
 10
1182.776435003616
 20
659.4164767791514
 30
0.0
  0
VERTEX
  5
115584
  8
0
  6
CONTINUOUS
 10
1283.569593643768
 20
489.3975694442633
 30
0.0
  0
VERTEX
  5
115585
  8
0
  6
CONTINUOUS
 10
1286.337727867066
 20
489.3975694442633
 30
0.0
  0
VERTEX
  5
115586
  8
0
  6
CONTINUOUS
 10
1286.337727867066
 20
687.661092123016
 30
0.0
  0
VERTEX
  5
115587
  8
0
  6
CONTINUOUS
 10
1398.761528860777
 20
687.661092123016
 30
0.0
  0
VERTEX
  5
115588
  8
0
  6
CONTINUOUS
 10
1398.761528860777
 20
299.9999999999997
 30
0.0
  0
VERTEX
  5
115589
  8
0
  6
CONTINUOUS
 10
1316.239434136078
 20
299.9999999999997
 30
0.0
 42
-0.312959769389874
  0
VERTEX
  5
11558A
  8
0
  6
CONTINUOUS
 10
1265.29163953848
 20
328.2428927952421
 30
0.0
  0
VERTEX
  5
11558B
  8
0
  6
CONTINUOUS
 10
1145.671034073457
 20
521.5196397574612
 30
0.0
  0
VERTEX
  5
11558C
  8
0
  6
CONTINUOUS
 10
1142.906344942748
 20
521.5196397574612
 30
0.0
  0
VERTEX
  5
11558D
  8
0
  6
CONTINUOUS
 10
1142.906344942748
 20
299.9999999999997
 30
0.0
  0
VERTEX
  5
11558E
  8
0
  6
CONTINUOUS
 10
1030.479098847136
 20
299.9999999999997
 30
0.0
  0
SEQEND
  5
11579E
  8
0
  6
CONTINUOUS
  0
POLYLINE
  5
E139E
  8
0
  6
CONTINUOUS
 66
     1
 10
0.0
 20
0.0
 30
0.0
  0
VERTEX
  5
11558F
  8
0
  6
CONTINUOUS
 10
2006.841552732512
 20
299.9999999999997
 30
0.0
  0
VERTEX
  5
115590
  8
0
  6
CONTINUOUS
 10
2006.841552732512
 20
687.661092123016
 30
0.0
  0
VERTEX
  5
115591
  8
0
  6
CONTINUOUS
 10
2108.191094296053
 20
687.661092123016
 30
0.0
 42
-0.316444976687396
  0
VERTEX
  5
115592
  8
0
  6
CONTINUOUS
 10
2159.138888884337
 20
659.4164767791514
 30
0.0
  0
VERTEX
  5
115593
  8
0
  6
CONTINUOUS
 10
2259.932047529146
 20
489.3975694442633
 30
0.0
  0
VERTEX
  5
115594
  8
0
  6
CONTINUOUS
 10
2262.700181747787
 20
489.3975694442633
 30
0.0
  0
VERTEX
  5
115595
  8
0
  6
CONTINUOUS
 10
2262.700181747787
 20
687.661092123016
 30
0.0
  0
VERTEX
  5
115596
  8
0
  6
CONTINUOUS
 10
2375.123982746154
 20
687.661092123016
 30
0.0
  0
VERTEX
  5
115597
  8
0
  6
CONTINUOUS
 10
2375.123982746154
 20
299.9999999999997
 30
0.0
  0
VERTEX
  5
115598
  8
0
  6
CONTINUOUS
 10
2292.601888021454
 20
299.9999999999997
 30
0.0
 42
-0.312959769389874
  0
VERTEX
  5
115599
  8
0
  6
CONTINUOUS
 10
2241.654093428515
 20
328.2428927952421
 30
0.0
  0
VERTEX
  5
11559A
  8
0
  6
CONTINUOUS
 10
2122.033487958833
 20
521.5196397574612
 30
0.0
  0
VERTEX
  5
11559B
  8
0
  6
CONTINUOUS
 10
2119.268798828125
 20
521.5196397574612
 30
0.0
  0
VERTEX
  5
11559C
  8
0
  6
CONTINUOUS
 10
2119.268798828125
 20
299.9999999999997
 30
0.0
  0
VERTEX
  5
11559D
  8
0
  6
CONTINUOUS
 10
2006.841552732512
 20
299.9999999999997
 30
0.0
  0
SEQEND
  5
11579F
  8
0
  6
CONTINUOUS
  0
TEXT
  5
E139F
  8
0
 10
3841.492948767253
 20
778.7322304035334
 30
0.0
 40
125.0
  1
Just
  7
STILE1
 72
     1
 11
4032.062145195825
 21
778.7322304035334
 31
0.0
  0
TEXT
  5
E13A0
  8
0
 10
3173.906836621409
 20
432.2479967307316
 30
0.0
 40
125.0
  1
Questo disegno è di proprietà di Fantin S.r.l.   
  7
STILE1
 72
     1
 11
5596.525884240456
 21
432.2479967307316
 31
0.0
  0
POLYLINE
  5
E13DB
  8
0
 66
     1
 10
0.0
 20
0.0
 30
0.0
 70
     1
  0
VERTEX
  5
11559E
  8
0
 10
8025.371948238467
 20
13369.76757320156
 30
0.0
  0
VERTEX
  5
11559F
  8
0
 10
0.0000000000043201
 20
13369.76757320156
 30
0.0
  0
VERTEX
  5
1155A0
  8
0
 10
0.0000000000029559
 20
7609.767573201563
 30
0.0
  0
VERTEX
  5
1155A1
  8
0
 10
8025.371948238467
 20
7609.767573201563
 30
0.0
  0
SEQEND
  5
1157A0
  8
0
  0
POLYLINE
  5
E13DD
  8
0
 66
     1
 10
0.0
 20
0.0
 30
0.0
 70
     1
  0
VERTEX
  5
1155A2
  8
0
 10
8025.371948238467
 20
7055.730931143116
 30
0.0
  0
VERTEX
  5
1155A3
  8
0
 10
0.0000000000029559
 20
7055.730931143116
 30
0.0
  0
VERTEX
  5
1155A4
  8
0
 10
0.000000000001819
 20
1541.694289085379
 30
0.0
  0
VERTEX
  5
1155A5
  8
0
 10
8025.371948238463
 20
1541.69428908538
 30
0.0
  0
SEQEND
  5
1157A1
  8
0
  0
POLYLINE
  5
107E97
  8
0
 66
     1
 10
0.0
 20
0.0
 30
0.0
 70
     1
  0
VERTEX
  5
1155A6
  8
0
 10
6865.631237160886
 20
13026.73093114392
 30
0.0
  0
VERTEX
  5
1155A7
  8
0
 10
7230.631237160882
 20
13026.73093114392
 30
0.0
  0
VERTEX
  5
1155A8
  8
0
 10
7230.631237160882
 20
11224.73093114384
 30
0.0
  0
VERTEX
  5
1155A9
  8
0
 10
6865.631237160886
 20
11224.73093114384
 30
0.0
  0
SEQEND
  5
1157A2
  8
0
  0
POLYLINE
  5
107E98
  8
0
 66
     1
 10
0.0
 20
0.0
 30
0.0
 70
     1
  0
VERTEX
  5
1155AA
  8
0
 10
900.0000000000039
 20
13026.73093114392
 30
0.0
  0
VERTEX
  5
1155AB
  8
0
 10
950.0000000000039
 20
13026.73093114392
 30
0.0
  0
VERTEX
  5
1155AC
  8
0
 10
950.0000000000039
 20
11224.73093114384
 30
0.0
  0
VERTEX
  5
1155AD
  8
0
 10
900.0000000000039
 20
11224.73093114384
 30
0.0
  0
SEQEND
  5
1157A3
  8
0
  0
POLYLINE
  5
107E99
  8
0
 66
     1
 10
0.0
 20
0.0
 30
0.0
 70
     1
  0
VERTEX
  5
1155AE
  8
0
 10
600.0000000000038
 20
13026.73093114392
 30
0.0
  0
VERTEX
  5
1155AF
  8
0
 10
900.000000000003
 20
13026.73093114392
 30
0.0
  0
VERTEX
  5
1155B0
  8
0
 10
900.000000000003
 20
11224.73093114384
 30
0.0
  0
VERTEX
  5
1155B1
  8
0
 10
600.0000000000038
 20
11224.73093114384
 30
0.0
  0
SEQEND
  5
1157A4
  8
0
  0
POLYLINE
  5
107EA5
  8
0
 66
     1
 10
0.0
 20
0.0
 30
0.0
 70
     1
  0
VERTEX
  5
1155B2
  8
0
 10
7230.631237160882
 20
13026.73093114392
 30
0.0
  0
VERTEX
  5
1155B3
  8
0
 10
7255.631237160883
 20
13026.73093114392
 30
0.0
  0
VERTEX
  5
1155B4
  8
0
 10
7255.631237160883
 20
11224.73093114384
 30
0.0
  0
VERTEX
  5
1155B5
  8
0
 10
7230.631237160882
 20
11224.73093114384
 30
0.0
  0
SEQEND
  5
1157A5
  8
0
  0
POLYLINE
  5
107EF3
  8
0
 66
     1
 10
0.0
 20
0.0
 30
0.0
 70
     1
  0
VERTEX
  5
1155B6
  8
0
 10
600.0000000000063
 20
5811.69428908579
 30
0.0
  0
VERTEX
  5
1155B7
  8
0
 10
900.0000000000055
 20
5811.69428908579
 30
0.0
  0
VERTEX
  5
1155B8
  8
0
 10
900.0000000000063
 20
4910.694289085737
 30
0.0
  0
VERTEX
  5
1155B9
  8
0
 10
600.0000000000063
 20
4910.694289085737
 30
0.0
  0
SEQEND
  5
1157A6
  8
0
  0
POLYLINE
  5
107EF4
  8
0
 66
     1
 10
0.0
 20
0.0
 30
0.0
 70
     1
  0
VERTEX
  5
1155BA
  8
0
 10
900.0000000000069
 20
6712.694289085837
 30
0.0
  0
VERTEX
  5
1155BB
  8
0
 10
950.0000000000067
 20
6712.694289085837
 30
0.0
  0
VERTEX
  5
1155BC
  8
0
 10
950.0000000000067
 20
4910.694289085737
 30
0.0
  0
VERTEX
  5
1155BD
  8
0
 10
900.0000000000069
 20
4910.694289085737
 30
0.0
  0
SEQEND
  5
1157A7
  8
0
  0
POLYLINE
  5
107EF5
  8
0
 66
     1
 10
0.0
 20
0.0
 30
0.0
 70
     1
  0
VERTEX
  5
1155BE
  8
0
 10
6865.631237160889
 20
6712.694289085837
 30
0.0
  0
VERTEX
  5
1155BF
  8
0
 10
7230.631237160888
 20
6712.694289085837
 30
0.0
  0
VERTEX
  5
1155C0
  8
0
 10
7230.631237160888
 20
4910.694289085737
 30
0.0
  0
VERTEX
  5
1155C1
  8
0
 10
6865.631237160889
 20
4910.694289085737
 30
0.0
  0
SEQEND
  5
1157A8
  8
0
  0
POLYLINE
  5
107EF6
  8
0
 66
     1
 10
0.0
 20
0.0
 30
0.0
 70
     1
  0
VERTEX
  5
1155C2
  8
0
 10
15445.0398274578
 20
6466.730931143584
 30
0.0
  0
VERTEX
  5
1155C3
  8
0
 10
15810.03982745779
 20
6466.730931143584
 30
0.0
  0
VERTEX
  5
1155C4
  8
0
 10
15810.03982745779
 20
4664.730931143477
 30
0.0
  0
VERTEX
  5
1155C5
  8
0
 10
15445.0398274578
 20
4664.730931143477
 30
0.0
  0
SEQEND
  5
1157A9
  8
0
  0
POLYLINE
  5
107EF7
  8
0
 66
     1
 10
0.0
 20
0.0
 30
0.0
 70
     1
  0
VERTEX
  5
1155C6
  8
0
 10
9479.408590296918
 20
6466.730931143584
 30
0.0
  0
VERTEX
  5
1155C7
  8
0
 10
9529.408590296918
 20
6466.730931143584
 30
0.0
  0
VERTEX
  5
1155C8
  8
0
 10
9529.408590296918
 20
4664.730931143477
 30
0.0
  0
VERTEX
  5
1155C9
  8
0
 10
9479.408590296918
 20
4664.730931143477
 30
0.0
  0
SEQEND
  5
1157AA
  8
0
  0
POLYLINE
  5
107EFE
  8
0
 66
     1
 10
0.0
 20
0.0
 30
0.0
 70
     1
  0
VERTEX
  5
1155CA
  8
0
 10
15810.03982745779
 20
5115.230931143504
 30
0.0
  0
VERTEX
  5
1155CB
  8
0
 10
15835.0398274578
 20
5115.230931143504
 30
0.0
  0
VERTEX
  5
1155CC
  8
0
 10
15835.0398274578
 20
4664.730931143477
 30
0.0
  0
VERTEX
  5
1155CD
  8
0
 10
15810.03982745779
 20
4664.730931143477
 30
0.0
  0
SEQEND
  5
1157AB
  8
0
  0
POLYLINE
  5
107F22
  8
0
 66
     1
 10
0.0
 20
0.0
 30
0.0
 70
     1
  0
VERTEX
  5
1155CE
  8
0
 10
600.0000000000063
 20
5811.69428908579
 30
0.0
  0
VERTEX
  5
1155CF
  8
0
 10
900.0000000000055
 20
5811.69428908579
 30
0.0
  0
VERTEX
  5
1155D0
  8
0
 10
900.0000000000063
 20
6712.694289085837
 30
0.0
  0
VERTEX
  5
1155D1
  8
0
 10
600.0000000000063
 20
6712.694289085837
 30
0.0
  0
SEQEND
  5
1157AC
  8
0
  0
POLYLINE
  5
107F37
  8
0
 66
     1
 10
0.0
 20
0.0
 30
0.0
 70
     1
  0
VERTEX
  5
1155D2
  8
0
 10
649.2500000000067
 20
6250.694289085815
 30
0.0
  0
VERTEX
  5
1155D3
  8
0
 10
650.7500000000065
 20
6250.694289085815
 30
0.0
  0
VERTEX
  5
1155D4
  8
0
 10
650.7500000000065
 20
6262.694289085811
 30
0.0
  0
VERTEX
  5
1155D5
  8
0
 10
649.2500000000067
 20
6262.694289085811
 30
0.0
  0
SEQEND
  5
1157AD
  8
0
  0
CIRCLE
  5
107F38
  8
0
 10
650.000000000006
 20
6257.194289085811
 30
0.0
 40
11.49999999999636
  0
CIRCLE
  5
107F39
  8
0
 10
650.000000000006
 20
5367.194289085748
 30
0.0
 40
11.49999999999636
  0
POLYLINE
  5
107F3A
  8
0
 66
     1
 10
0.0
 20
0.0
 30
0.0
 70
     1
  0
VERTEX
  5
1155D6
  8
0
 10
649.2500000000067
 20
5360.69428908577
 30
0.0
  0
VERTEX
  5
1155D7
  8
0
 10
650.7500000000065
 20
5360.69428908577
 30
0.0
  0
VERTEX
  5
1155D8
  8
0
 10
650.7500000000065
 20
5372.694289085748
 30
0.0
  0
VERTEX
  5
1155D9
  8
0
 10
649.2500000000067
 20
5372.694289085748
 30
0.0
  0
SEQEND
  5
1157AE
  8
0
  0
CIRCLE
  5
107F5B
  8
0
 10
9229.40859029692
 20
6233.73093114356
 30
0.0
 40
11.49999999999636
  0
POLYLINE
  5
107F5C
  8
0
 66
     1
 10
0.0
 20
0.0
 30
0.0
 70
     1
  0
VERTEX
  5
1155DA
  8
0
 10
9228.658590296922
 20
6227.230931143579
 30
0.0
  0
VERTEX
  5
1155DB
  8
0
 10
9230.158590296922
 20
6227.230931143579
 30
0.0
  0
VERTEX
  5
1155DC
  8
0
 10
9230.158590296922
 20
6239.230931143559
 30
0.0
  0
VERTEX
  5
1155DD
  8
0
 10
9228.658590296922
 20
6239.230931143559
 30
0.0
  0
SEQEND
  5
1157AF
  8
0
  0
POLYLINE
  5
107F5E
  8
0
 66
     1
 10
0.0
 20
0.0
 30
0.0
 70
     1
  0
VERTEX
  5
1155DE
  8
0
 10
9179.408590296922
 20
5115.230931143504
 30
0.0
  0
VERTEX
  5
1155DF
  8
0
 10
9479.40859029692
 20
5115.230931143504
 30
0.0
  0
VERTEX
  5
1155E0
  8
0
 10
9479.40859029692
 20
4664.730931143477
 30
0.0
  0
VERTEX
  5
1155E1
  8
0
 10
9179.408590296922
 20
4664.730931143477
 30
0.0
  0
SEQEND
  5
1157B0
  8
0
  0
POLYLINE
  5
107F5F
  8
0
 66
     1
 10
0.0
 20
0.0
 30
0.0
 70
     1
  0
VERTEX
  5
1155E2
  8
0
 10
9179.408590296922
 20
5565.730931143531
 30
0.0
  0
VERTEX
  5
1155E3
  8
0
 10
9479.40859029692
 20
5565.730931143531
 30
0.0
  0
VERTEX
  5
1155E4
  8
0
 10
9479.40859029692
 20
5115.230931143504
 30
0.0
  0
VERTEX
  5
1155E5
  8
0
 10
9179.408590296922
 20
5115.230931143504
 30
0.0
  0
SEQEND
  5
1157B1
  8
0
  0
POLYLINE
  5
107F60
  8
0
 66
     1
 10
0.0
 20
0.0
 30
0.0
 70
     1
  0
VERTEX
  5
1155E6
  8
0
 10
9179.408590296922
 20
6466.730931143584
 30
0.0
  0
VERTEX
  5
1155E7
  8
0
 10
9479.40859029692
 20
6466.730931143584
 30
0.0
  0
VERTEX
  5
1155E8
  8
0
 10
9479.40859029692
 20
6016.230931143559
 30
0.0
  0
VERTEX
  5
1155E9
  8
0
 10
9179.408590296922
 20
6016.230931143559
 30
0.0
  0
SEQEND
  5
1157B2
  8
0
  0
POLYLINE
  5
107F61
  8
0
 66
     1
 10
0.0
 20
0.0
 30
0.0
 70
     1
  0
VERTEX
  5
1155EA
  8
0
 10
9179.408590296922
 20
6016.230931143559
 30
0.0
  0
VERTEX
  5
1155EB
  8
0
 10
9479.40859029692
 20
6016.230931143559
 30
0.0
  0
VERTEX
  5
1155EC
  8
0
 10
9479.40859029692
 20
5565.730931143531
 30
0.0
  0
VERTEX
  5
1155ED
  8
0
 10
9179.408590296922
 20
5565.730931143531
 30
0.0
  0
SEQEND
  5
1157B3
  8
0
  0
POLYLINE
  5
107F63
  8
0
 66
     1
 10
0.0
 20
0.0
 30
0.0
 70
     1
  0
VERTEX
  5
1155EE
  8
0
 10
9228.658590296922
 20
5780.012795432945
 30
0.0
  0
VERTEX
  5
1155EF
  8
0
 10
9230.158590296922
 20
5780.012795432945
 30
0.0
  0
VERTEX
  5
1155F0
  8
0
 10
9230.158590296922
 20
5792.012795432928
 30
0.0
  0
VERTEX
  5
1155F1
  8
0
 10
9228.658590296922
 20
5792.012795432928
 30
0.0
  0
SEQEND
  5
1157B4
  8
0
  0
CIRCLE
  5
107F64
  8
0
 10
9229.40859029692
 20
5786.512795432924
 30
0.0
 40
11.49999999999636
  0
CIRCLE
  5
107F65
  8
0
 10
9229.40859029692
 20
4896.512795432875
 30
0.0
 40
11.49999999999636
  0
POLYLINE
  5
107F66
  8
0
 66
     1
 10
0.0
 20
0.0
 30
0.0
 70
     1
  0
VERTEX
  5
1155F2
  8
0
 10
9228.658590296922
 20
4890.012795432895
 30
0.0
  0
VERTEX
  5
1155F3
  8
0
 10
9230.158590296922
 20
4890.012795432895
 30
0.0
  0
VERTEX
  5
1155F4
  8
0
 10
9230.158590296922
 20
4902.012795432875
 30
0.0
  0
VERTEX
  5
1155F5
  8
0
 10
9228.658590296922
 20
4902.012795432875
 30
0.0
  0
SEQEND
  5
1157B5
  8
0
  0
POLYLINE
  5
107F67
  8
0
 66
     1
 10
0.0
 20
0.0
 30
0.0
 70
     1
  0
VERTEX
  5
1155F6
  8
0
 10
9228.658590296922
 20
5337.230931143527
 30
0.0
  0
VERTEX
  5
1155F7
  8
0
 10
9230.158590296922
 20
5337.230931143527
 30
0.0
  0
VERTEX
  5
1155F8
  8
0
 10
9230.158590296922
 20
5349.230931143509
 30
0.0
  0
VERTEX
  5
1155F9
  8
0
 10
9228.658590296922
 20
5349.230931143509
 30
0.0
  0
SEQEND
  5
1157B6
  8
0
  0
CIRCLE
  5
107F68
  8
0
 10
9229.40859029692
 20
5343.730931143511
 30
0.0
 40
11.49999999999636
  0
POLYLINE
  5
10A431
  8
0
 66
     1
 10
0.0
 20
0.0
 30
0.0
 70
     1
  0
VERTEX
  5
1155FA
  8
0
 10
7230.631237160888
 20
5811.69428908579
 30
0.0
  0
VERTEX
  5
1155FB
  8
0
 10
7255.631237160888
 20
5811.69428908579
 30
0.0
  0
VERTEX
  5
1155FC
  8
0
 10
7255.631237160888
 20
6712.69428908583
 30
0.0
  0
VERTEX
  5
1155FD
  8
0
 10
7230.631237160888
 20
6712.69428908583
 30
0.0
  0
SEQEND
  5
1157B7
  8
0
  0
POLYLINE
  5
10A432
  8
0
 66
     1
 10
0.0
 20
0.0
 30
0.0
 70
     1
  0
VERTEX
  5
1155FE
  8
0
 10
7230.631237160888
 20
5811.69428908579
 30
0.0
  0
VERTEX
  5
1155FF
  8
0
 10
7255.631237160888
 20
5811.69428908579
 30
0.0
  0
VERTEX
  5
115600
  8
0
 10
7255.631237160888
 20
4910.694289085737
 30
0.0
  0
VERTEX
  5
115601
  8
0
 10
7230.631237160888
 20
4910.694289085737
 30
0.0
  0
SEQEND
  5
1157B8
  8
0
  0
POLYLINE
  5
10A433
  8
0
 66
     1
 10
0.0
 20
0.0
 30
0.0
 70
     1
  0
VERTEX
  5
115602
  8
0
 10
15810.0398274578
 20
5565.730931143531
 30
0.0
  0
VERTEX
  5
115603
  8
0
 10
15835.0398274578
 20
5565.730931143531
 30
0.0
  0
VERTEX
  5
115604
  8
0
 10
15835.0398274578
 20
5115.230931143504
 30
0.0
  0
VERTEX
  5
115605
  8
0
 10
15810.03982745779
 20
5115.230931143504
 30
0.0
  0
SEQEND
  5
1157B9
  8
0
  0
POLYLINE
  5
10A434
  8
0
 66
     1
 10
0.0
 20
0.0
 30
0.0
 70
     1
  0
VERTEX
  5
115606
  8
0
 10
15810.0398274578
 20
6466.730931143584
 30
0.0
  0
VERTEX
  5
115607
  8
0
 10
15835.0398274578
 20
6466.730931143584
 30
0.0
  0
VERTEX
  5
115608
  8
0
 10
15835.0398274578
 20
6016.230931143559
 30
0.0
  0
VERTEX
  5
115609
  8
0
 10
15810.0398274578
 20
6016.230931143559
 30
0.0
  0
SEQEND
  5
1157BA
  8
0
  0
POLYLINE
  5
10A435
  8
0
 66
     1
 10
0.0
 20
0.0
 30
0.0
 70
     1
  0
VERTEX
  5
11560A
  8
0
 10
15810.0398274578
 20
6016.230931143559
 30
0.0
  0
VERTEX
  5
11560B
  8
0
 10
15835.0398274578
 20
6016.230931143559
 30
0.0
  0
VERTEX
  5
11560C
  8
0
 10
15835.0398274578
 20
5565.730931143531
 30
0.0
  0
VERTEX
  5
11560D
  8
0
 10
15810.0398274578
 20
5565.730931143531
 30
0.0
  0
SEQEND
  5
1157BB
  8
0
  0
POLYLINE
  5
10EBA1
  8
0
 66
     1
 10
0.0
 20
0.0
 30
0.0
 70
     1
  0
VERTEX
  5
11560E
  8
0
 10
2335.315618580447
 20
9989.767573201652
 30
0.0
  0
VERTEX
  5
11560F
  8
0
 10
2635.315618580447
 20
9989.767573201652
 30
0.0
  0
VERTEX
  5
115610
  8
0
 10
2635.315618580447
 20
8209.767573201552
 30
0.0
  0
VERTEX
  5
115611
  8
0
 10
2335.315618580447
 20
8209.767573201552
 30
0.0
  0
SEQEND
  5
1157BC
  8
0
  0
POLYLINE
  5
10ECA3
  8
0
 66
     1
 10
0.0
 20
0.0
 30
0.0
 70
     1
  0
VERTEX
  5
115612
  8
0
 10
2935.315618580446
 20
9989.767573201652
 30
0.0
  0
VERTEX
  5
115613
  8
0
 10
2635.315618580448
 20
9989.767573201652
 30
0.0
  0
VERTEX
  5
115614
  8
0
 10
2635.315618580448
 20
8209.767573201552
 30
0.0
  0
VERTEX
  5
115615
  8
0
 10
2935.315618580446
 20
8209.767573201552
 30
0.0
  0
SEQEND
  5
1157BD
  8
0
  0
POLYLINE
  5
10EDD7
  8
0
 66
     1
 10
0.0
 20
0.0
 30
0.0
 70
     1
  0
VERTEX
  5
115616
  8
0
 10
2635.315618580447
 20
9939.767573201654
 30
0.0
  0
VERTEX
  5
115617
  8
0
 10
2635.315618580447
 20
9989.767573201652
 30
0.0
  0
VERTEX
  5
115618
  8
0
 10
2335.315618580447
 20
9989.767573201652
 30
0.0
  0
VERTEX
  5
115619
  8
0
 10
2335.315618580446
 20
8209.767573201552
 30
0.0
  0
VERTEX
  5
11561A
  8
0
 10
2635.315618580447
 20
8209.767573201552
 30
0.0
  0
VERTEX
  5
11561B
  8
0
 10
2635.315618580448
 20
8259.767573201552
 30
0.0
  0
VERTEX
  5
11561C
  8
0
 10
2360.315618580447
 20
8259.767573201552
 30
0.0
  0
VERTEX
  5
11561D
  8
0
 10
2360.315618580447
 20
9939.767573201654
 30
0.0
  0
VERTEX
  5
11561E
  8
0
 10
2635.315618580447
 20
9939.767573201654
 30
0.0
  0
SEQEND
  5
1157BE
  8
0
  0
POLYLINE
  5
10EF2D
  8
0
 66
     1
 10
0.0
 20
0.0
 30
0.0
 70
     1
  0
VERTEX
  5
11561F
  8
0
 10
649.2500000000067
 20
2580.694289085412
 30
0.0
  0
VERTEX
  5
115620
  8
0
 10
650.7500000000065
 20
2580.694289085412
 30
0.0
  0
VERTEX
  5
115621
  8
0
 10
650.7500000000065
 20
2592.694289085392
 30
0.0
  0
VERTEX
  5
115622
  8
0
 10
649.2500000000067
 20
2592.694289085392
 30
0.0
  0
SEQEND
  5
1157BF
  8
0
  0
CIRCLE
  5
10EF2E
  8
0
 10
650.000000000006
 20
2587.194289085392
 30
0.0
 40
11.49999999999636
  0
POLYLINE
  5
10EF31
  8
0
 66
     1
 10
0.0
 20
0.0
 30
0.0
 70
     1
  0
VERTEX
  5
115623
  8
0
 10
600.0000000000063
 20
3031.69428908543
 30
0.0
  0
VERTEX
  5
115624
  8
0
 10
900.0000000000055
 20
3031.69428908543
 30
0.0
  0
VERTEX
  5
115625
  8
0
 10
900.0000000000063
 20
3921.694289085478
 30
0.0
  0
VERTEX
  5
115626
  8
0
 10
600.0000000000063
 20
3921.694289085478
 30
0.0
  0
SEQEND
  5
1157C0
  8
0
  0
POLYLINE
  5
10EF32
  8
0
 66
     1
 10
0.0
 20
0.0
 30
0.0
 70
     1
  0
VERTEX
  5
115627
  8
0
 10
900.0000000000069
 20
3031.694289085437
 30
0.0
  0
VERTEX
  5
115628
  8
0
 10
950.0000000000067
 20
3031.694289085437
 30
0.0
  0
VERTEX
  5
115629
  8
0
 10
950.0000000000067
 20
2141.694289085381
 30
0.0
  0
VERTEX
  5
11562A
  8
0
 10
900.0000000000069
 20
2141.694289085381
 30
0.0
  0
SEQEND
  5
1157C1
  8
0
  0
POLYLINE
  5
10EF33
  8
0
 66
     1
 10
0.0
 20
0.0
 30
0.0
 70
     1
  0
VERTEX
  5
11562B
  8
0
 10
600.0000000000063
 20
3031.69428908543
 30
0.0
  0
VERTEX
  5
11562C
  8
0
 10
900.0000000000055
 20
3031.69428908543
 30
0.0
  0
VERTEX
  5
11562D
  8
0
 10
900.0000000000063
 20
2141.694289085381
 30
0.0
  0
VERTEX
  5
11562E
  8
0
 10
600.0000000000063
 20
2141.694289085381
 30
0.0
  0
SEQEND
  5
1157C2
  8
0
  0
POLYLINE
  5
10EF39
  8
0
 66
     1
 10
0.0
 20
0.0
 30
0.0
 70
     1
  0
VERTEX
  5
11562F
  8
0
 10
1138.500000000012
 20
3467.194289085437
 30
0.0
  0
VERTEX
  5
115630
  8
0
 10
1138.500000000012
 20
3487.194289085437
 30
0.0
  0
VERTEX
  5
115631
  8
0
 10
1183.500000000011
 20
3487.194289085437
 30
0.0
  0
VERTEX
  5
115632
  8
0
 10
1183.500000000011
 20
3467.194289085437
 30
0.0
  0
SEQEND
  5
1157C3
  8
0
  0
ARC
  5
10EF3A
  8
0
 10
1183.500000000011
 20
3477.194289085457
 30
0.0
 40
10.0
 50
270.0
 51
90.0
  0
POLYLINE
  5
10EF3B
  8
0
 66
     1
 10
0.0
 20
0.0
 30
0.0
 70
     1
  0
VERTEX
  5
115633
  8
0
 10
1183.500000000011
 20
3467.194289085368
 30
0.0
 42
0.9999999999999998
  0
VERTEX
  5
115634
  8
0
 10
1183.500000000011
 20
3487.194289085368
 30
0.0
  0
SEQEND
  5
1157C4
  8
0
  0
POLYLINE
  5
10EF3C
  8
0
 66
     1
 10
0.0
 20
0.0
 30
0.0
 70
     1
  0
VERTEX
  5
115635
  8
0
 10
1200.00000000001
 20
3921.694289085478
 30
0.0
  0
VERTEX
  5
115636
  8
0
 10
900.0000000000094
 20
3921.694289085478
 30
0.0
  0
VERTEX
  5
115637
  8
0
 10
900.0000000000085
 20
3031.694289085437
 30
0.0
  0
VERTEX
  5
115638
  8
0
 10
1200.000000000008
 20
3031.694289085437
 30
0.0
  0
SEQEND
  5
1157C5
  8
0
  0
POLYLINE
  5
10EF3D
  8
0
 66
     1
 10
0.0
 20
0.0
 30
0.0
 70
     1
  0
VERTEX
  5
115639
  8
0
 10
900.0000000000078
 20
3871.694289085477
 30
0.0
  0
VERTEX
  5
11563A
  8
0
 10
900.0000000000078
 20
3921.694289085478
 30
0.0
  0
VERTEX
  5
11563B
  8
0
 10
600.0000000000084
 20
3921.694289085478
 30
0.0
  0
VERTEX
  5
11563C
  8
0
 10
600.0000000000084
 20
3031.69428908543
 30
0.0
  0
VERTEX
  5
11563D
  8
0
 10
625.0000000000084
 20
3031.694289085437
 30
0.0
  0
VERTEX
  5
11563E
  8
0
 10
625.0000000000084
 20
3031.694289085437
 30
0.0
  0
VERTEX
  5
11563F
  8
0
 10
625.0000000000084
 20
3031.694289085437
 30
0.0
  0
VERTEX
  5
115640
  8
0
 10
625.0000000000084
 20
3871.694289085477
 30
0.0
  0
VERTEX
  5
115641
  8
0
 10
900.0000000000078
 20
3871.694289085477
 30
0.0
  0
SEQEND
  5
1157C6
  8
0
  0
POLYLINE
  5
10EF60
  8
0
 66
     1
 10
0.0
 20
0.0
 30
0.0
 70
     1
  0
VERTEX
  5
115642
  8
0
 10
9717.908590296922
 20
3689.694289085474
 30
0.0
  0
VERTEX
  5
115643
  8
0
 10
9717.908590296922
 20
3709.694289085474
 30
0.0
  0
VERTEX
  5
115644
  8
0
 10
9762.908590296924
 20
3709.694289085474
 30
0.0
  0
VERTEX
  5
115645
  8
0
 10
9762.908590296924
 20
3689.694289085474
 30
0.0
  0
SEQEND
  5
1157C7
  8
0
  0
ARC
  5
10EF61
  8
0
 10
9762.908590296924
 20
3699.694289085473
 30
0.0
 40
10.0
 50
270.0
 51
90.0
  0
POLYLINE
  5
10EF62
  8
0
 66
     1
 10
0.0
 20
0.0
 30
0.0
 70
     1
  0
VERTEX
  5
115646
  8
0
 10
9762.908590296924
 20
3689.694289085394
 30
0.0
 42
0.9999999999999998
  0
VERTEX
  5
115647
  8
0
 10
9762.908590296924
 20
3709.694289085386
 30
0.0
  0
SEQEND
  5
1157C8
  8
0
  0
POLYLINE
  5
10EF63
  8
0
 66
     1
 10
0.0
 20
0.0
 30
0.0
 70
     1
  0
VERTEX
  5
115648
  8
0
 10
9779.40859029692
 20
3921.694289085495
 30
0.0
  0
VERTEX
  5
115649
  8
0
 10
9479.40859029692
 20
3921.694289085495
 30
0.0
  0
VERTEX
  5
11564A
  8
0
 10
9479.40859029692
 20
3476.694289085467
 30
0.0
  0
VERTEX
  5
11564B
  8
0
 10
9779.408590296918
 20
3476.694289085467
 30
0.0
  0
SEQEND
  5
1157C9
  8
0
  0
CIRCLE
  5
10EFB5
  8
0
 10
9229.40859029692
 20
2809.694289085422
 30
0.0
 40
11.49999999999636
  0
POLYLINE
  5
10EFB6
  8
0
 66
     1
 10
0.0
 20
0.0
 30
0.0
 70
     1
  0
VERTEX
  5
11564C
  8
0
 10
9228.658590296922
 20
2803.194289085439
 30
0.0
  0
VERTEX
  5
11564D
  8
0
 10
9230.158590296922
 20
2803.194289085439
 30
0.0
  0
VERTEX
  5
11564E
  8
0
 10
9230.158590296922
 20
2815.194289085422
 30
0.0
  0
VERTEX
  5
11564F
  8
0
 10
9228.658590296922
 20
2815.194289085422
 30
0.0
  0
SEQEND
  5
1157CA
  8
0
  0
POLYLINE
  5
10EFB7
  8
0
 66
     1
 10
0.0
 20
0.0
 30
0.0
 70
     1
  0
VERTEX
  5
115650
  8
0
 10
9228.658590296922
 20
2355.976153374804
 30
0.0
  0
VERTEX
  5
115651
  8
0
 10
9230.158590296922
 20
2355.976153374804
 30
0.0
  0
VERTEX
  5
115652
  8
0
 10
9230.158590296922
 20
2367.976153374786
 30
0.0
  0
VERTEX
  5
115653
  8
0
 10
9228.658590296922
 20
2367.976153374786
 30
0.0
  0
SEQEND
  5
1157CB
  8
0
  0
CIRCLE
  5
10EFB8
  8
0
 10
9229.40859029692
 20
2362.476153374786
 30
0.0
 40
11.49999999999636
  0
CIRCLE
  5
10EFB9
  8
0
 10
9229.40859029692
 20
3252.476153374838
 30
0.0
 40
11.49999999999636
  0
POLYLINE
  5
10EFBA
  8
0
 66
     1
 10
0.0
 20
0.0
 30
0.0
 70
     1
  0
VERTEX
  5
115654
  8
0
 10
9228.658590296922
 20
3245.976153374859
 30
0.0
  0
VERTEX
  5
115655
  8
0
 10
9230.158590296922
 20
3245.976153374859
 30
0.0
  0
VERTEX
  5
115656
  8
0
 10
9230.158590296922
 20
3257.976153374842
 30
0.0
  0
VERTEX
  5
115657
  8
0
 10
9228.658590296922
 20
3257.976153374842
 30
0.0
  0
SEQEND
  5
1157CC
  8
0
  0
POLYLINE
  5
10EFBB
  8
0
 66
     1
 10
0.0
 20
0.0
 30
0.0
 70
     1
  0
VERTEX
  5
115658
  8
0
 10
9179.408590296922
 20
3476.694289085467
 30
0.0
  0
VERTEX
  5
115659
  8
0
 10
9479.40859029692
 20
3476.694289085467
 30
0.0
  0
VERTEX
  5
11565A
  8
0
 10
9479.40859029692
 20
3031.694289085445
 30
0.0
  0
VERTEX
  5
11565B
  8
0
 10
9179.408590296922
 20
3031.694289085445
 30
0.0
  0
SEQEND
  5
1157CD
  8
0
  0
POLYLINE
  5
10EFBC
  8
0
 66
     1
 10
0.0
 20
0.0
 30
0.0
 70
     1
  0
VERTEX
  5
11565C
  8
0
 10
9179.408590296922
 20
3921.694289085495
 30
0.0
  0
VERTEX
  5
11565D
  8
0
 10
9479.40859029692
 20
3921.694289085495
 30
0.0
  0
VERTEX
  5
11565E
  8
0
 10
9479.40859029692
 20
3476.694289085467
 30
0.0
  0
VERTEX
  5
11565F
  8
0
 10
9179.408590296922
 20
3476.694289085467
 30
0.0
  0
SEQEND
  5
1157CE
  8
0
  0
POLYLINE
  5
10EFBD
  8
0
 66
     1
 10
0.0
 20
0.0
 30
0.0
 70
     1
  0
VERTEX
  5
115660
  8
0
 10
9179.408590296922
 20
3031.694289085445
 30
0.0
  0
VERTEX
  5
115661
  8
0
 10
9479.40859029692
 20
3031.694289085445
 30
0.0
  0
VERTEX
  5
115662
  8
0
 10
9479.40859029692
 20
2586.694289085418
 30
0.0
  0
VERTEX
  5
115663
  8
0
 10
9179.408590296922
 20
2586.694289085418
 30
0.0
  0
SEQEND
  5
1157CF
  8
0
  0
POLYLINE
  5
10EFBE
  8
0
 66
     1
 10
0.0
 20
0.0
 30
0.0
 70
     1
  0
VERTEX
  5
115664
  8
0
 10
9179.408590296922
 20
2586.694289085418
 30
0.0
  0
VERTEX
  5
115665
  8
0
 10
9479.40859029692
 20
2586.694289085418
 30
0.0
  0
VERTEX
  5
115666
  8
0
 10
9479.40859029692
 20
2141.694289085391
 30
0.0
  0
VERTEX
  5
115667
  8
0
 10
9179.408590296922
 20
2141.694289085391
 30
0.0
  0
SEQEND
  5
1157D0
  8
0
  0
POLYLINE
  5
10EFC7
  8
0
 66
     1
 10
0.0
 20
0.0
 30
0.0
 70
     1
  0
VERTEX
  5
115668
  8
0
 10
9479.408590296918
 20
3476.694289085467
 30
0.0
  0
VERTEX
  5
115669
  8
0
 10
9529.408590296918
 20
3476.694289085467
 30
0.0
  0
VERTEX
  5
11566A
  8
0
 10
9529.408590296918
 20
2141.694289085391
 30
0.0
  0
VERTEX
  5
11566B
  8
0
 10
9479.408590296918
 20
2141.694289085391
 30
0.0
  0
SEQEND
  5
1157D1
  8
0
  0
POLYLINE
  5
10EFC9
  8
0
 66
     1
 10
0.0
 20
0.0
 30
0.0
 70
     1
  0
VERTEX
  5
11566C
  8
0
 10
9479.408590296918
 20
3871.694289085502
 30
0.0
  0
VERTEX
  5
11566D
  8
0
 10
9479.408590296918
 20
3921.694289085495
 30
0.0
  0
VERTEX
  5
11566E
  8
0
 10
9179.408590296922
 20
3921.694289085495
 30
0.0
  0
VERTEX
  5
11566F
  8
0
 10
9179.408590296922
 20
3476.694289085467
 30
0.0
  0
VERTEX
  5
115670
  8
0
 10
9204.408590296918
 20
3476.694289085467
 30
0.0
  0
VERTEX
  5
115671
  8
0
 10
9204.408590296918
 20
3476.694289085467
 30
0.0
  0
VERTEX
  5
115672
  8
0
 10
9204.408590296918
 20
3476.694289085467
 30
0.0
  0
VERTEX
  5
115673
  8
0
 10
9204.408590296918
 20
3871.694289085502
 30
0.0
  0
VERTEX
  5
115674
  8
0
 10
9479.408590296918
 20
3871.694289085502
 30
0.0
  0
SEQEND
  5
1157D2
  8
0
  0
POLYLINE
  5
10F8E4
  8
0
 66
     1
 10
0.0
 20
0.0
 30
0.0
 70
     1
  0
VERTEX
  5
115675
  8
0
 10
4070.631237160887
 20
9989.767573201523
 30
0.0
  0
VERTEX
  5
115676
  8
0
 10
4370.631237160888
 20
9989.767573201523
 30
0.0
  0
VERTEX
  5
115677
  8
0
 10
4370.631237160888
 20
8209.767573201432
 30
0.0
  0
VERTEX
  5
115678
  8
0
 10
4070.631237160887
 20
8209.767573201432
 30
0.0
  0
SEQEND
  5
1157D3
  8
0
  0
POLYLINE
  5
10F8E5
  8
0
 66
     1
 10
0.0
 20
0.0
 30
0.0
 70
     1
  0
VERTEX
  5
115679
  8
0
 10
4670.631237160888
 20
9989.767573201523
 30
0.0
  0
VERTEX
  5
11567A
  8
0
 10
4370.631237160888
 20
9989.767573201523
 30
0.0
  0
VERTEX
  5
11567B
  8
0
 10
4370.631237160888
 20
8209.767573201432
 30
0.0
  0
VERTEX
  5
11567C
  8
0
 10
4670.631237160888
 20
8209.767573201432
 30
0.0
  0
SEQEND
  5
1157D4
  8
0
  0
POLYLINE
  5
10F8E6
  8
0
 66
     1
 10
0.0
 20
0.0
 30
0.0
 70
     1
  0
VERTEX
  5
11567D
  8
0
 10
4370.631237160888
 20
9939.767573201529
 30
0.0
  0
VERTEX
  5
11567E
  8
0
 10
4370.631237160888
 20
9989.767573201523
 30
0.0
  0
VERTEX
  5
11567F
  8
0
 10
4070.631237160887
 20
9989.767573201523
 30
0.0
  0
VERTEX
  5
115680
  8
0
 10
4070.631237160887
 20
8209.767573201432
 30
0.0
  0
VERTEX
  5
115681
  8
0
 10
4370.631237160888
 20
8209.767573201432
 30
0.0
  0
VERTEX
  5
115682
  8
0
 10
4370.631237160888
 20
8259.767573201425
 30
0.0
  0
VERTEX
  5
115683
  8
0
 10
4095.631237160886
 20
8259.767573201425
 30
0.0
  0
VERTEX
  5
115684
  8
0
 10
4095.631237160886
 20
9939.767573201529
 30
0.0
  0
VERTEX
  5
115685
  8
0
 10
4370.631237160888
 20
9939.767573201529
 30
0.0
  0
SEQEND
  5
1157D5
  8
0
  0
POLYLINE
  5
10F8E7
  8
0
 66
     1
 10
0.0
 20
0.0
 30
0.0
 70
     1
  0
VERTEX
  5
115686
  8
0
 10
9479.408590296918
 20
9939.767573201663
 30
0.0
  0
VERTEX
  5
115687
  8
0
 10
9479.408590296918
 20
9989.767573201652
 30
0.0
  0
VERTEX
  5
115688
  8
0
 10
9179.408590296915
 20
9989.767573201652
 30
0.0
  0
VERTEX
  5
115689
  8
0
 10
9179.408590296915
 20
8209.767573201569
 30
0.0
  0
VERTEX
  5
11568A
  8
0
 10
9479.408590296918
 20
8209.767573201569
 30
0.0
  0
VERTEX
  5
11568B
  8
0
 10
9479.408590296918
 20
8259.767573201569
 30
0.0
  0
VERTEX
  5
11568C
  8
0
 10
9204.408590296916
 20
8259.767573201569
 30
0.0
  0
VERTEX
  5
11568D
  8
0
 10
9204.408590296916
 20
9939.767573201663
 30
0.0
  0
VERTEX
  5
11568E
  8
0
 10
9479.408590296918
 20
9939.767573201663
 30
0.0
  0
SEQEND
  5
1157D6
  8
0
  0
POLYLINE
  5
10F8E8
  8
0
 66
     1
 10
0.0
 20
0.0
 30
0.0
 70
     1
  0
VERTEX
  5
11568F
  8
0
 10
9779.408590296916
 20
9989.767573201652
 30
0.0
  0
VERTEX
  5
115690
  8
0
 10
9479.408590296918
 20
9989.767573201652
 30
0.0
  0
VERTEX
  5
115691
  8
0
 10
9479.408590296918
 20
8209.767573201569
 30
0.0
  0
VERTEX
  5
115692
  8
0
 10
9779.408590296916
 20
8209.767573201569
 30
0.0
  0
SEQEND
  5
1157D7
  8
0
  0
POLYLINE
  5
10F8E9
  8
0
 66
     1
 10
0.0
 20
0.0
 30
0.0
 70
     1
  0
VERTEX
  5
115693
  8
0
 10
9179.408590296915
 20
9989.767573201652
 30
0.0
  0
VERTEX
  5
115694
  8
0
 10
9479.408590296918
 20
9989.767573201652
 30
0.0
  0
VERTEX
  5
115695
  8
0
 10
9479.408590296918
 20
8209.767573201569
 30
0.0
  0
VERTEX
  5
115696
  8
0
 10
9179.408590296915
 20
8209.767573201569
 30
0.0
  0
SEQEND
  5
1157D8
  8
0
  0
POLYLINE
  5
10F8F8
  8
0
 66
     1
 10
0.0
 20
0.0
 30
0.0
 70
     1
  0
VERTEX
  5
115697
  8
0
 10
10914.72420887735
 20
9989.767573201534
 30
0.0
  0
VERTEX
  5
115698
  8
0
 10
11214.72420887736
 20
9989.767573201534
 30
0.0
  0
VERTEX
  5
115699
  8
0
 10
11214.72420887736
 20
8209.767573201447
 30
0.0
  0
VERTEX
  5
11569A
  8
0
 10
10914.72420887735
 20
8209.767573201447
 30
0.0
  0
SEQEND
  5
1157D9
  8
0
  0
POLYLINE
  5
10F8F9
  8
0
 66
     1
 10
0.0
 20
0.0
 30
0.0
 70
     1
  0
VERTEX
  5
11569B
  8
0
 10
11514.72420887736
 20
9989.767573201534
 30
0.0
  0
VERTEX
  5
11569C
  8
0
 10
11214.72420887736
 20
9989.767573201534
 30
0.0
  0
VERTEX
  5
11569D
  8
0
 10
11214.72420887736
 20
8209.767573201447
 30
0.0
  0
VERTEX
  5
11569E
  8
0
 10
11514.72420887736
 20
8209.767573201447
 30
0.0
  0
SEQEND
  5
1157DA
  8
0
  0
POLYLINE
  5
10F8FA
  8
0
 66
     1
 10
0.0
 20
0.0
 30
0.0
 70
     1
  0
VERTEX
  5
11569F
  8
0
 10
11214.72420887736
 20
9939.767573201547
 30
0.0
  0
VERTEX
  5
1156A0
  8
0
 10
11214.72420887736
 20
9989.767573201534
 30
0.0
  0
VERTEX
  5
1156A1
  8
0
 10
10914.72420887735
 20
9989.767573201534
 30
0.0
  0
VERTEX
  5
1156A2
  8
0
 10
10914.72420887735
 20
8209.767573201447
 30
0.0
  0
VERTEX
  5
1156A3
  8
0
 10
11214.72420887736
 20
8209.767573201447
 30
0.0
  0
VERTEX
  5
1156A4
  8
0
 10
11214.72420887736
 20
8259.767573201447
 30
0.0
  0
VERTEX
  5
1156A5
  8
0
 10
10939.72420887735
 20
8259.767573201447
 30
0.0
  0
VERTEX
  5
1156A6
  8
0
 10
10939.72420887735
 20
9939.767573201547
 30
0.0
  0
VERTEX
  5
1156A7
  8
0
 10
11214.72420887736
 20
9939.767573201547
 30
0.0
  0
SEQEND
  5
1157DB
  8
0
  0
POLYLINE
  5
10FA03
  8
0
 66
     1
 10
0.0
 20
0.0
 30
0.0
 70
     1
  0
VERTEX
  5
1156A8
  8
0
 10
11068.22420887736
 20
8259.767573201447
 30
0.0
  0
VERTEX
  5
1156A9
  8
0
 10
11068.22420887736
 20
9739.767573201603
 30
0.0
  0
VERTEX
  5
1156AA
  8
0
 10
11086.22420887735
 20
9739.767573201603
 30
0.0
  0
VERTEX
  5
1156AB
  8
0
 10
11086.22420887735
 20
8259.767573201447
 30
0.0
  0
SEQEND
  5
1157DC
  8
0
  0
POLYLINE
  5
10FAFD
  8
0
 66
     1
 10
0.0
 20
0.0
 30
0.0
 70
     1
  0
VERTEX
  5
1156AC
  8
0
 10
4095.63123716089
 20
9109.76757320147
 30
0.0
  0
VERTEX
  5
1156AD
  8
0
 10
4370.631237160888
 20
9109.76757320147
 30
0.0
  0
VERTEX
  5
1156AE
  8
0
 10
4370.631237160888
 20
9089.767573201472
 30
0.0
  0
VERTEX
  5
1156AF
  8
0
 10
4095.63123716089
 20
9089.767573201472
 30
0.0
  0
SEQEND
  5
1157DD
  8
0
  0
POLYLINE
  5
112919
  8
0
 66
     1
 10
0.0
 20
0.0
 30
0.0
 70
     1
  0
VERTEX
  5
1156B0
  8
0
 10
4095.63123716089
 20
9409.767573201472
 30
0.0
  0
VERTEX
  5
1156B1
  8
0
 10
4370.631237160888
 20
9409.767573201472
 30
0.0
  0
VERTEX
  5
1156B2
  8
0
 10
4370.631237160888
 20
9389.767573201472
 30
0.0
  0
VERTEX
  5
1156B3
  8
0
 10
4095.63123716089
 20
9389.767573201472
 30
0.0
  0
SEQEND
  5
1157DE
  8
0
  0
POLYLINE
  5
11291A
  8
0
 66
     1
 10
0.0
 20
0.0
 30
0.0
 70
     1
  0
VERTEX
  5
1156B4
  8
0
 10
4095.63123716089
 20
9709.767573201472
 30
0.0
  0
VERTEX
  5
1156B5
  8
0
 10
4370.631237160888
 20
9709.767573201472
 30
0.0
  0
VERTEX
  5
1156B6
  8
0
 10
4370.631237160888
 20
9689.76757320147
 30
0.0
  0
VERTEX
  5
1156B7
  8
0
 10
4095.63123716089
 20
9689.76757320147
 30
0.0
  0
SEQEND
  5
1157DF
  8
0
  0
POLYLINE
  5
11291B
  8
0
 66
     1
 10
0.0
 20
0.0
 30
0.0
 70
     1
  0
VERTEX
  5
1156B8
  8
0
 10
4095.63123716089
 20
8489.767573201472
 30
0.0
  0
VERTEX
  5
1156B9
  8
0
 10
4370.631237160888
 20
8489.767573201472
 30
0.0
  0
VERTEX
  5
1156BA
  8
0
 10
4370.631237160888
 20
8509.767573201472
 30
0.0
  0
VERTEX
  5
1156BB
  8
0
 10
4095.63123716089
 20
8509.767573201472
 30
0.0
  0
SEQEND
  5
1157E0
  8
0
  0
POLYLINE
  5
11291C
  8
0
 66
     1
 10
0.0
 20
0.0
 30
0.0
 70
     1
  0
VERTEX
  5
1156BC
  8
0
 10
4095.63123716089
 20
8789.76757320147
 30
0.0
  0
VERTEX
  5
1156BD
  8
0
 10
4370.631237160888
 20
8789.76757320147
 30
0.0
  0
VERTEX
  5
1156BE
  8
0
 10
4370.631237160888
 20
8809.767573201472
 30
0.0
  0
VERTEX
  5
1156BF
  8
0
 10
4095.63123716089
 20
8809.767573201472
 30
0.0
  0
SEQEND
  5
1157E1
  8
0
  0
POLYLINE
  5
11291F
  8
0
 66
     1
 10
0.0
 20
0.0
 30
0.0
 70
     1
  0
VERTEX
  5
1156C0
  8
0
 10
2360.315618580449
 20
9409.767573201472
 30
0.0
  0
VERTEX
  5
1156C1
  8
0
 10
2635.315618580448
 20
9409.767573201472
 30
0.0
  0
VERTEX
  5
1156C2
  8
0
 10
2635.315618580448
 20
9389.767573201472
 30
0.0
  0
VERTEX
  5
1156C3
  8
0
 10
2360.315618580449
 20
9389.767573201472
 30
0.0
  0
SEQEND
  5
1157E2
  8
0
  0
POLYLINE
  5
112920
  8
0
 66
     1
 10
0.0
 20
0.0
 30
0.0
 70
     1
  0
VERTEX
  5
1156C4
  8
0
 10
2360.315618580449
 20
8789.76757320147
 30
0.0
  0
VERTEX
  5
1156C5
  8
0
 10
2635.315618580448
 20
8789.76757320147
 30
0.0
  0
VERTEX
  5
1156C6
  8
0
 10
2635.315618580448
 20
8809.767573201472
 30
0.0
  0
VERTEX
  5
1156C7
  8
0
 10
2360.315618580449
 20
8809.767573201472
 30
0.0
  0
SEQEND
  5
1157E3
  8
0
  0
POLYLINE
  5
112924
  8
0
 66
     1
 10
0.0
 20
0.0
 30
0.0
 70
     1
  0
VERTEX
  5
1156C8
  8
0
 10
9204.408590296916
 20
9759.767573201723
 30
0.0
  0
VERTEX
  5
1156C9
  8
0
 10
9479.408590296918
 20
9759.767573201723
 30
0.0
  0
VERTEX
  5
1156CA
  8
0
 10
9479.408590296918
 20
9739.767573201723
 30
0.0
  0
VERTEX
  5
1156CB
  8
0
 10
9204.408590296916
 20
9739.767573201723
 30
0.0
  0
SEQEND
  5
1157E4
  8
0
  0
POLYLINE
  5
112927
  8
0
 66
     1
 10
0.0
 20
0.0
 30
0.0
 70
     1
  0
VERTEX
  5
1156CC
  8
0
 10
10939.72420887736
 20
9759.767573201603
 30
0.0
  0
VERTEX
  5
1156CD
  8
0
 10
11214.72420887736
 20
9759.767573201603
 30
0.0
  0
VERTEX
  5
1156CE
  8
0
 10
11214.72420887736
 20
9739.767573201603
 30
0.0
  0
VERTEX
  5
1156CF
  8
0
 10
10939.72420887736
 20
9739.767573201603
 30
0.0
  0
SEQEND
  5
1157E5
  8
0
  0
POLYLINE
  5
112939
  8
0
 66
     1
 10
0.0
 20
0.0
 30
0.0
 70
     1
  0
VERTEX
  5
1156D0
  8
0
 10
9204.408590296916
 20
9709.110718952232
 30
0.0
  0
VERTEX
  5
1156D1
  8
0
 10
9246.893871671162
 20
9666.625437577995
 30
0.0
 42
0.1989123673797145
  0
VERTEX
  5
1156D2
  8
0
 10
9261.036007294893
 20
9660.767573201723
 30
0.0
  0
VERTEX
  5
1156D3
  8
0
 10
9354.408590296918
 20
9660.767573201723
 30
0.0
  0
VERTEX
  5
1156D4
  8
0
 10
9447.781173298938
 20
9660.767573201723
 30
0.0
 42
0.1989123673797145
  0
VERTEX
  5
1156D5
  8
0
 10
9461.92330892267
 20
9666.625437577995
 30
0.0
  0
VERTEX
  5
1156D6
  8
0
 10
9479.408590296918
 20
9684.110718952234
 30
0.0
  0
VERTEX
  5
1156D7
  8
0
 10
9479.408590296911
 20
9695.42442745123
 30
0.0
  0
VERTEX
  5
1156D8
  8
0
 10
9456.266454673172
 20
9672.282291827472
 30
0.0
 42
-0.1989123673796878
  0
VERTEX
  5
1156D9
  8
0
 10
9447.78117329894
 20
9668.767573201725
 30
0.0
  0
VERTEX
  5
1156DA
  8
0
 10
9354.408590296918
 20
9668.767573201725
 30
0.0
  0
VERTEX
  5
1156DB
  8
0
 10
9261.036007294888
 20
9668.767573201725
 30
0.0
 42
-0.1989123673796878
  0
VERTEX
  5
1156DC
  8
0
 10
9252.550725920652
 20
9672.282291827472
 30
0.0
  0
VERTEX
  5
1156DD
  8
0
 10
9204.408590296916
 20
9720.424427451228
 30
0.0
  0
SEQEND
  5
1157E6
  8
0
  0
POLYLINE
  5
112944
  8
0
 66
     1
 10
0.0
 20
0.0
 30
0.0
 70
     1
  0
VERTEX
  5
1156DE
  8
0
 10
625.0000000000095
 20
3041.69428908543
 30
0.0
  0
VERTEX
  5
1156DF
  8
0
 10
900.0000000000085
 20
3041.69428908543
 30
0.0
  0
VERTEX
  5
1156E0
  8
0
 10
900.0000000000055
 20
3031.69428908543
 30
0.0
  0
VERTEX
  5
1156E1
  8
0
 10
625.0000000000084
 20
3031.69428908543
 30
0.0
  0
SEQEND
  5
1157E7
  8
0
  0
POLYLINE
  5
112945
  8
0
 66
     1
 10
0.0
 20
0.0
 30
0.0
 70
     1
  0
VERTEX
  5
1156E2
  8
0
 10
2360.315618580452
 20
3041.694289085311
 30
0.0
  0
VERTEX
  5
1156E3
  8
0
 10
2635.315618580451
 20
3041.694289085311
 30
0.0
  0
VERTEX
  5
1156E4
  8
0
 10
2635.315618580451
 20
3031.694289085308
 30
0.0
  0
VERTEX
  5
1156E5
  8
0
 10
2360.315618580452
 20
3031.694289085308
 30
0.0
  0
SEQEND
  5
1157E8
  8
0
  0
POLYLINE
  5
112948
  8
0
 66
     1
 10
0.0
 20
0.0
 30
0.0
 70
     1
  0
VERTEX
  5
1156E6
  8
0
 10
2635.315618580449
 20
3871.694289085359
 30
0.0
  0
VERTEX
  5
1156E7
  8
0
 10
2635.315618580449
 20
3921.694289085359
 30
0.0
  0
VERTEX
  5
1156E8
  8
0
 10
2335.31561858045
 20
3921.694289085359
 30
0.0
  0
VERTEX
  5
1156E9
  8
0
 10
2335.31561858045
 20
3031.694289085308
 30
0.0
  0
VERTEX
  5
1156EA
  8
0
 10
2360.31561858045
 20
3031.694289085314
 30
0.0
  0
VERTEX
  5
1156EB
  8
0
 10
2360.31561858045
 20
3031.694289085314
 30
0.0
  0
VERTEX
  5
1156EC
  8
0
 10
2360.31561858045
 20
3031.694289085314
 30
0.0
  0
VERTEX
  5
1156ED
  8
0
 10
2360.31561858045
 20
3871.694289085359
 30
0.0
  0
VERTEX
  5
1156EE
  8
0
 10
2635.315618580449
 20
3871.694289085359
 30
0.0
  0
SEQEND
  5
1157E9
  8
0
  0
POLYLINE
  5
112949
  8
0
 66
     1
 10
0.0
 20
0.0
 30
0.0
 70
     1
  0
VERTEX
  5
1156EF
  8
0
 10
2935.315618580452
 20
3921.694289085359
 30
0.0
  0
VERTEX
  5
1156F0
  8
0
 10
2635.315618580452
 20
3921.694289085359
 30
0.0
  0
VERTEX
  5
1156F1
  8
0
 10
2635.315618580451
 20
3031.694289085314
 30
0.0
  0
VERTEX
  5
1156F2
  8
0
 10
2935.31561858045
 20
3031.694289085314
 30
0.0
  0
SEQEND
  5
1157EA
  8
0
  0
POLYLINE
  5
11294A
  8
0
 66
     1
 10
0.0
 20
0.0
 30
0.0
 70
     1
  0
VERTEX
  5
1156F3
  8
0
 10
2918.815618580453
 20
3467.194289085246
 30
0.0
 42
0.9999999999999998
  0
VERTEX
  5
1156F4
  8
0
 10
2918.815618580453
 20
3487.194289085246
 30
0.0
  0
SEQEND
  5
1157EB
  8
0
  0
ARC
  5
11294B
  8
0
 10
2918.815618580453
 20
3477.194289085338
 30
0.0
 40
10.0
 50
270.0
 51
90.0
  0
POLYLINE
  5
11294C
  8
0
 66
     1
 10
0.0
 20
0.0
 30
0.0
 70
     1
  0
VERTEX
  5
1156F5
  8
0
 10
2873.815618580455
 20
3467.194289085313
 30
0.0
  0
VERTEX
  5
1156F6
  8
0
 10
2873.815618580455
 20
3487.194289085314
 30
0.0
  0
VERTEX
  5
1156F7
  8
0
 10
2918.815618580453
 20
3487.194289085314
 30
0.0
  0
VERTEX
  5
1156F8
  8
0
 10
2918.815618580453
 20
3467.194289085313
 30
0.0
  0
SEQEND
  5
1157EC
  8
0
  0
POLYLINE
  5
11294D
  8
0
 66
     1
 10
0.0
 20
0.0
 30
0.0
 70
     1
  0
VERTEX
  5
1156F9
  8
0
 10
2335.315618580447
 20
3031.694289085308
 30
0.0
  0
VERTEX
  5
1156FA
  8
0
 10
2635.315618580448
 20
3031.694289085308
 30
0.0
  0
VERTEX
  5
1156FB
  8
0
 10
2635.315618580448
 20
2141.694289085259
 30
0.0
  0
VERTEX
  5
1156FC
  8
0
 10
2335.315618580448
 20
2141.694289085259
 30
0.0
  0
SEQEND
  5
1157ED
  8
0
  0
POLYLINE
  5
11294E
  8
0
 66
     1
 10
0.0
 20
0.0
 30
0.0
 70
     1
  0
VERTEX
  5
1156FD
  8
0
 10
2635.315618580448
 20
3031.694289085314
 30
0.0
  0
VERTEX
  5
1156FE
  8
0
 10
2685.315618580448
 20
3031.694289085314
 30
0.0
  0
VERTEX
  5
1156FF
  8
0
 10
2685.315618580448
 20
2141.694289085259
 30
0.0
  0
VERTEX
  5
115700
  8
0
 10
2635.315618580448
 20
2141.694289085259
 30
0.0
  0
SEQEND
  5
1157EE
  8
0
  0
POLYLINE
  5
11294F
  8
0
 66
     1
 10
0.0
 20
0.0
 30
0.0
 70
     1
  0
VERTEX
  5
115701
  8
0
 10
2335.315618580447
 20
3031.694289085308
 30
0.0
  0
VERTEX
  5
115702
  8
0
 10
2635.315618580448
 20
3031.694289085308
 30
0.0
  0
VERTEX
  5
115703
  8
0
 10
2635.315618580448
 20
3921.694289085359
 30
0.0
  0
VERTEX
  5
115704
  8
0
 10
2335.315618580448
 20
3921.694289085359
 30
0.0
  0
SEQEND
  5
1157EF
  8
0
  0
CIRCLE
  5
112950
  8
0
 10
2385.315618580447
 20
2587.194289085271
 30
0.0
 40
11.49999999999636
  0
POLYLINE
  5
112951
  8
0
 66
     1
 10
0.0
 20
0.0
 30
0.0
 70
     1
  0
VERTEX
  5
115705
  8
0
 10
2384.565618580448
 20
2580.694289085291
 30
0.0
  0
VERTEX
  5
115706
  8
0
 10
2386.065618580448
 20
2580.694289085291
 30
0.0
  0
VERTEX
  5
115707
  8
0
 10
2386.065618580448
 20
2592.694289085271
 30
0.0
  0
VERTEX
  5
115708
  8
0
 10
2384.565618580448
 20
2592.694289085271
 30
0.0
  0
SEQEND
  5
1157F0
  8
0
  0
POLYLINE
  5
11296C
  8
0
 66
     1
 10
0.0
 20
0.0
 30
0.0
 70
     1
  0
VERTEX
  5
115709
  8
0
 10
2360.315618580452
 20
3491.694289085311
 30
0.0
  0
VERTEX
  5
11570A
  8
0
 10
2635.315618580451
 20
3491.694289085311
 30
0.0
  0
VERTEX
  5
11570B
  8
0
 10
2635.315618580451
 20
3471.694289085311
 30
0.0
  0
VERTEX
  5
11570C
  8
0
 10
2360.315618580452
 20
3471.694289085311
 30
0.0
  0
SEQEND
  5
1157F1
  8
0
  0
POLYLINE
  5
11297C
  8
0
 66
     1
 10
0.0
 20
0.0
 30
0.0
 70
     1
  0
VERTEX
  5
11570D
  8
0
 10
11214.72420887736
 20
3871.694289085379
 30
0.0
  0
VERTEX
  5
11570E
  8
0
 10
11214.72420887736
 20
3921.694289085374
 30
0.0
  0
VERTEX
  5
11570F
  8
0
 10
10914.72420887736
 20
3921.694289085374
 30
0.0
  0
VERTEX
  5
115710
  8
0
 10
10914.72420887736
 20
3476.694289085344
 30
0.0
  0
VERTEX
  5
115711
  8
0
 10
10939.72420887736
 20
3476.694289085344
 30
0.0
  0
VERTEX
  5
115712
  8
0
 10
10939.72420887736
 20
3476.694289085344
 30
0.0
  0
VERTEX
  5
115713
  8
0
 10
10939.72420887736
 20
3476.694289085344
 30
0.0
  0
VERTEX
  5
115714
  8
0
 10
10939.72420887736
 20
3871.694289085379
 30
0.0
  0
VERTEX
  5
115715
  8
0
 10
11214.72420887736
 20
3871.694289085379
 30
0.0
  0
SEQEND
  5
1157F2
  8
0
  0
POLYLINE
  5
11297D
  8
0
 66
     1
 10
0.0
 20
0.0
 30
0.0
 70
     1
  0
VERTEX
  5
115716
  8
0
 10
11214.72420887736
 20
3476.694289085344
 30
0.0
  0
VERTEX
  5
115717
  8
0
 10
11264.72420887736
 20
3476.694289085344
 30
0.0
  0
VERTEX
  5
115718
  8
0
 10
11264.72420887736
 20
2141.694289085268
 30
0.0
  0
VERTEX
  5
115719
  8
0
 10
11214.72420887736
 20
2141.694289085268
 30
0.0
  0
SEQEND
  5
1157F3
  8
0
  0
POLYLINE
  5
11297E
  8
0
 66
     1
 10
0.0
 20
0.0
 30
0.0
 70
     1
  0
VERTEX
  5
11571A
  8
0
 10
10914.72420887736
 20
2586.694289085297
 30
0.0
  0
VERTEX
  5
11571B
  8
0
 10
11214.72420887736
 20
2586.694289085297
 30
0.0
  0
VERTEX
  5
11571C
  8
0
 10
11214.72420887736
 20
2141.694289085268
 30
0.0
  0
VERTEX
  5
11571D
  8
0
 10
10914.72420887736
 20
2141.694289085268
 30
0.0
  0
SEQEND
  5
1157F4
  8
0
  0
POLYLINE
  5
11297F
  8
0
 66
     1
 10
0.0
 20
0.0
 30
0.0
 70
     1
  0
VERTEX
  5
11571E
  8
0
 10
10914.72420887736
 20
3031.694289085323
 30
0.0
  0
VERTEX
  5
11571F
  8
0
 10
11214.72420887736
 20
3031.694289085323
 30
0.0
  0
VERTEX
  5
115720
  8
0
 10
11214.72420887736
 20
2586.694289085297
 30
0.0
  0
VERTEX
  5
115721
  8
0
 10
10914.72420887736
 20
2586.694289085297
 30
0.0
  0
SEQEND
  5
1157F5
  8
0
  0
POLYLINE
  5
112980
  8
0
 66
     1
 10
0.0
 20
0.0
 30
0.0
 70
     1
  0
VERTEX
  5
115722
  8
0
 10
10914.72420887736
 20
3921.694289085374
 30
0.0
  0
VERTEX
  5
115723
  8
0
 10
11214.72420887736
 20
3921.694289085374
 30
0.0
  0
VERTEX
  5
115724
  8
0
 10
11214.72420887736
 20
3476.694289085344
 30
0.0
  0
VERTEX
  5
115725
  8
0
 10
10914.72420887736
 20
3476.694289085344
 30
0.0
  0
SEQEND
  5
1157F6
  8
0
  0
POLYLINE
  5
112981
  8
0
 66
     1
 10
0.0
 20
0.0
 30
0.0
 70
     1
  0
VERTEX
  5
115726
  8
0
 10
10914.72420887736
 20
3476.694289085344
 30
0.0
  0
VERTEX
  5
115727
  8
0
 10
11214.72420887736
 20
3476.694289085344
 30
0.0
  0
VERTEX
  5
115728
  8
0
 10
11214.72420887736
 20
3031.694289085323
 30
0.0
  0
VERTEX
  5
115729
  8
0
 10
10914.72420887736
 20
3031.694289085323
 30
0.0
  0
SEQEND
  5
1157F7
  8
0
  0
POLYLINE
  5
112982
  8
0
 66
     1
 10
0.0
 20
0.0
 30
0.0
 70
     1
  0
VERTEX
  5
11572A
  8
0
 10
10963.97420887736
 20
3245.976153374737
 30
0.0
  0
VERTEX
  5
11572B
  8
0
 10
10965.47420887736
 20
3245.976153374737
 30
0.0
  0
VERTEX
  5
11572C
  8
0
 10
10965.47420887736
 20
3257.97615337472
 30
0.0
  0
VERTEX
  5
11572D
  8
0
 10
10963.97420887736
 20
3257.97615337472
 30
0.0
  0
SEQEND
  5
1157F8
  8
0
  0
CIRCLE
  5
112983
  8
0
 10
10964.72420887736
 20
3252.476153374716
 30
0.0
 40
11.49999999999636
  0
CIRCLE
  5
112984
  8
0
 10
10964.72420887736
 20
2362.476153374665
 30
0.0
 40
11.49999999999636
  0
POLYLINE
  5
112985
  8
0
 66
     1
 10
0.0
 20
0.0
 30
0.0
 70
     1
  0
VERTEX
  5
11572E
  8
0
 10
10963.97420887736
 20
2355.976153374683
 30
0.0
  0
VERTEX
  5
11572F
  8
0
 10
10965.47420887736
 20
2355.976153374683
 30
0.0
  0
VERTEX
  5
115730
  8
0
 10
10965.47420887736
 20
2367.976153374665
 30
0.0
  0
VERTEX
  5
115731
  8
0
 10
10963.97420887736
 20
2367.976153374665
 30
0.0
  0
SEQEND
  5
1157F9
  8
0
  0
POLYLINE
  5
112986
  8
0
 66
     1
 10
0.0
 20
0.0
 30
0.0
 70
     1
  0
VERTEX
  5
115732
  8
0
 10
10963.97420887736
 20
2803.194289085317
 30
0.0
  0
VERTEX
  5
115733
  8
0
 10
10965.47420887736
 20
2803.194289085317
 30
0.0
  0
VERTEX
  5
115734
  8
0
 10
10965.47420887736
 20
2815.194289085301
 30
0.0
  0
VERTEX
  5
115735
  8
0
 10
10963.97420887736
 20
2815.194289085301
 30
0.0
  0
SEQEND
  5
1157FA
  8
0
  0
CIRCLE
  5
112987
  8
0
 10
10964.72420887736
 20
2809.694289085301
 30
0.0
 40
11.49999999999636
  0
POLYLINE
  5
112988
  8
0
 66
     1
 10
0.0
 20
0.0
 30
0.0
 70
     1
  0
VERTEX
  5
115736
  8
0
 10
11514.72420887736
 20
3921.694289085374
 30
0.0
  0
VERTEX
  5
115737
  8
0
 10
11214.72420887736
 20
3921.694289085374
 30
0.0
  0
VERTEX
  5
115738
  8
0
 10
11214.72420887736
 20
3476.694289085344
 30
0.0
  0
VERTEX
  5
115739
  8
0
 10
11514.72420887736
 20
3476.694289085344
 30
0.0
  0
SEQEND
  5
1157FB
  8
0
  0
POLYLINE
  5
112989
  8
0
 66
     1
 10
0.0
 20
0.0
 30
0.0
 70
     1
  0
VERTEX
  5
11573A
  8
0
 10
11498.22420887736
 20
3689.694289085273
 30
0.0
 42
0.9999999999999998
  0
VERTEX
  5
11573B
  8
0
 10
11498.22420887736
 20
3709.694289085265
 30
0.0
  0
SEQEND
  5
1157FC
  8
0
  0
ARC
  5
11298A
  8
0
 10
11498.22420887736
 20
3699.694289085351
 30
0.0
 40
10.0
 50
270.0
 51
90.0
  0
POLYLINE
  5
11298B
  8
0
 66
     1
 10
0.0
 20
0.0
 30
0.0
 70
     1
  0
VERTEX
  5
11573C
  8
0
 10
11453.22420887736
 20
3689.694289085352
 30
0.0
  0
VERTEX
  5
11573D
  8
0
 10
11453.22420887736
 20
3709.694289085354
 30
0.0
  0
VERTEX
  5
11573E
  8
0
 10
11498.22420887736
 20
3709.694289085354
 30
0.0
  0
VERTEX
  5
11573F
  8
0
 10
11498.22420887736
 20
3689.694289085352
 30
0.0
  0
SEQEND
  5
1157FD
  8
0
  0
POLYLINE
  5
11298C
  8
0
 66
     1
 10
0.0
 20
0.0
 30
0.0
 70
     1
  0
VERTEX
  5
115740
  8
0
 10
10939.72420887736
 20
3691.694289085327
 30
0.0
  0
VERTEX
  5
115741
  8
0
 10
11214.72420887736
 20
3691.694289085327
 30
0.0
  0
VERTEX
  5
115742
  8
0
 10
11214.72420887736
 20
3671.694289085329
 30
0.0
  0
VERTEX
  5
115743
  8
0
 10
10939.72420887736
 20
3671.694289085329
 30
0.0
  0
SEQEND
  5
1157FE
  8
0
  0
POLYLINE
  5
1135EA
  8
0
 66
     1
 10
0.0
 20
0.0
 30
0.0
 70
     1
  0
VERTEX
  5
115744
  8
0
 10
9204.408590296925
 20
3486.694289085466
 30
0.0
  0
VERTEX
  5
115745
  8
0
 10
9479.408590296922
 20
3486.694289085466
 30
0.0
  0
VERTEX
  5
115746
  8
0
 10
9479.40859029692
 20
3476.694289085467
 30
0.0
  0
VERTEX
  5
115747
  8
0
 10
9204.408590296922
 20
3476.694289085467
 30
0.0
  0
SEQEND
  5
1157FF
  8
0
  0
POLYLINE
  5
1135F6
  8
0
 66
     1
 10
0.0
 20
0.0
 30
0.0
 70
     1
  0
VERTEX
  5
115748
  8
0
 10
10939.72420887737
 20
3486.694289085344
 30
0.0
  0
VERTEX
  5
115749
  8
0
 10
11214.72420887736
 20
3486.694289085344
 30
0.0
  0
VERTEX
  5
11574A
  8
0
 10
11214.72420887736
 20
3476.694289085344
 30
0.0
  0
VERTEX
  5
11574B
  8
0
 10
10939.72420887736
 20
3476.694289085344
 30
0.0
  0
SEQEND
  5
115800
  8
0
  0
POLYLINE
  5
113CF0
  8
0
 66
     1
 10
0.0
 20
0.0
 30
0.0
 70
     1
  0
VERTEX
  5
11574C
  8
0
 10
8579.408590296913
 20
13369.76757320156
 30
0.0
  0
VERTEX
  5
11574D
  8
0
 10
16604.78053853537
 20
13369.76757320156
 30
0.0
  0
VERTEX
  5
11574E
  8
0
 10
16604.78053853537
 20
7609.767573201563
 30
0.0
  0
VERTEX
  5
11574F
  8
0
 10
8579.408590296913
 20
7609.767573201563
 30
0.0
  0
SEQEND
  5
115801
  8
0
  0
POLYLINE
  5
113CF2
  8
0
 66
     1
 10
0.0
 20
0.0
 30
0.0
 70
     1
  0
VERTEX
  5
115750
  8
0
 10
8579.408590296913
 20
7055.730931143116
 30
0.0
  0
VERTEX
  5
115751
  8
0
 10
16604.78053853537
 20
7055.730931143116
 30
0.0
  0
VERTEX
  5
115752
  8
0
 10
16604.78053853537
 20
1541.694289085379
 30
0.0
  0
VERTEX
  5
115753
  8
0
 10
8579.408590296915
 20
1541.69428908538
 30
0.0
  0
SEQEND
  5
115802
  8
0
  0
POLYLINE
  5
113D0A
  8
0
 66
     1
 10
0.0
 20
0.0
 30
0.0
 70
     1
  0
VERTEX
  5
115754
  8
0
 10
11498.22420887736
 20
9164.767573201603
 30
0.0
 42
0.9999999999999998
  0
VERTEX
  5
115755
  8
0
 10
11498.22420887736
 20
9184.7675732016
 30
0.0
  0
SEQEND
  5
115803
  8
0
  0
ARC
  5
113D0B
  8
0
 10
11498.22420887736
 20
9174.76757320168
 30
0.0
 40
10.0
 50
270.0
 51
90.0
  0
POLYLINE
  5
113D0C
  8
0
 66
     1
 10
0.0
 20
0.0
 30
0.0
 70
     1
  0
VERTEX
  5
115756
  8
0
 10
11453.22420887736
 20
9164.767573201683
 30
0.0
  0
VERTEX
  5
115757
  8
0
 10
11453.22420887736
 20
9184.767573201689
 30
0.0
  0
VERTEX
  5
115758
  8
0
 10
11498.22420887736
 20
9184.767573201689
 30
0.0
  0
VERTEX
  5
115759
  8
0
 10
11498.22420887736
 20
9164.767573201683
 30
0.0
  0
SEQEND
  5
115804
  8
0
  0
POLYLINE
  5
113D0D
  8
0
 66
     1
 10
0.0
 20
0.0
 30
0.0
 70
     1
  0
VERTEX
  5
11575A
  8
0
 10
9717.908590296922
 20
9164.767573201803
 30
0.0
  0
VERTEX
  5
11575B
  8
0
 10
9717.908590296922
 20
9184.767573201803
 30
0.0
  0
VERTEX
  5
11575C
  8
0
 10
9762.908590296924
 20
9184.767573201803
 30
0.0
  0
VERTEX
  5
11575D
  8
0
 10
9762.908590296924
 20
9164.767573201803
 30
0.0
  0
SEQEND
  5
115805
  8
0
  0
ARC
  5
113D0E
  8
0
 10
9762.908590296924
 20
9174.767573201803
 30
0.0
 40
10.0
 50
270.0
 51
90.0
  0
POLYLINE
  5
113D0F
  8
0
 66
     1
 10
0.0
 20
0.0
 30
0.0
 70
     1
  0
VERTEX
  5
11575E
  8
0
 10
9762.908590296924
 20
9164.767573201723
 30
0.0
 42
0.9999999999999998
  0
VERTEX
  5
11575F
  8
0
 10
9762.908590296924
 20
9184.767573201723
 30
0.0
  0
SEQEND
  5
115806
  8
0
  0
POLYLINE
  5
113D1C
  8
0
 66
     1
 10
0.0
 20
0.0
 30
0.0
 70
     1
  0
VERTEX
  5
115760
  8
0
 10
9228.658590296911
 20
12194.23093114391
 30
0.0
  0
VERTEX
  5
115761
  8
0
 10
9230.158590296911
 20
12194.23093114391
 30
0.0
  0
VERTEX
  5
115762
  8
0
 10
9230.158590296911
 20
12206.23093114388
 30
0.0
  0
VERTEX
  5
115763
  8
0
 10
9228.658590296911
 20
12206.23093114388
 30
0.0
  0
SEQEND
  5
115807
  8
0
  0
CIRCLE
  5
113D1D
  8
0
 10
9229.408590296911
 20
12200.73093114388
 30
0.0
 40
11.49999999999636
  0
POLYLINE
  5
113D1E
  8
0
 66
     1
 10
0.0
 20
0.0
 30
0.0
 70
     1
  0
VERTEX
  5
115764
  8
0
 10
15810.03982745779
 20
13026.73093114392
 30
0.0
  0
VERTEX
  5
115765
  8
0
 10
15835.03982745779
 20
13026.73093114392
 30
0.0
  0
VERTEX
  5
115766
  8
0
 10
15835.03982745779
 20
11224.73093114384
 30
0.0
  0
VERTEX
  5
115767
  8
0
 10
15810.03982745779
 20
11224.73093114384
 30
0.0
  0
SEQEND
  5
115808
  8
0
  0
POLYLINE
  5
113D1F
  8
0
 66
     1
 10
0.0
 20
0.0
 30
0.0
 70
     1
  0
VERTEX
  5
115768
  8
0
 10
9179.408590296915
 20
13026.73093114392
 30
0.0
  0
VERTEX
  5
115769
  8
0
 10
9479.408590296911
 20
13026.73093114392
 30
0.0
  0
VERTEX
  5
11576A
  8
0
 10
9479.408590296911
 20
11224.73093114384
 30
0.0
  0
VERTEX
  5
11576B
  8
0
 10
9179.408590296915
 20
11224.73093114384
 30
0.0
  0
SEQEND
  5
115809
  8
0
  0
POLYLINE
  5
113D20
  8
0
 66
     1
 10
0.0
 20
0.0
 30
0.0
 70
     1
  0
VERTEX
  5
11576C
  8
0
 10
9479.408590296911
 20
13026.73093114392
 30
0.0
  0
VERTEX
  5
11576D
  8
0
 10
9529.408590296911
 20
13026.73093114392
 30
0.0
  0
VERTEX
  5
11576E
  8
0
 10
9529.408590296911
 20
11224.73093114384
 30
0.0
  0
VERTEX
  5
11576F
  8
0
 10
9479.408590296911
 20
11224.73093114384
 30
0.0
  0
SEQEND
  5
11580A
  8
0
  0
POLYLINE
  5
113D21
  8
0
 66
     1
 10
0.0
 20
0.0
 30
0.0
 70
     1
  0
VERTEX
  5
115770
  8
0
 10
15445.03982745778
 20
13026.73093114392
 30
0.0
  0
VERTEX
  5
115771
  8
0
 10
15810.03982745779
 20
13026.73093114392
 30
0.0
  0
VERTEX
  5
115772
  8
0
 10
15810.03982745779
 20
11224.73093114384
 30
0.0
  0
VERTEX
  5
115773
  8
0
 10
15445.03982745778
 20
11224.73093114384
 30
0.0
  0
SEQEND
  5
11580B
  8
0
  0
POLYLINE
  5
113D28
  8
0
 66
     1
 10
0.0
 20
0.0
 30
0.0
 70
     1
  0
VERTEX
  5
115774
  8
0
 10
900.0000000000044
 20
9939.767573201783
 30
0.0
  0
VERTEX
  5
115775
  8
0
 10
900.0000000000044
 20
9989.767573201783
 30
0.0
  0
VERTEX
  5
115776
  8
0
 10
600.0000000000047
 20
9989.767573201783
 30
0.0
  0
VERTEX
  5
115777
  8
0
 10
600.0000000000045
 20
8209.767573201683
 30
0.0
  0
VERTEX
  5
115778
  8
0
 10
900.0000000000044
 20
8209.767573201683
 30
0.0
  0
VERTEX
  5
115779
  8
0
 10
900.0000000000055
 20
8259.767573201683
 30
0.0
  0
VERTEX
  5
11577A
  8
0
 10
625.0000000000045
 20
8259.767573201683
 30
0.0
  0
VERTEX
  5
11577B
  8
0
 10
625.0000000000045
 20
9939.767573201783
 30
0.0
  0
VERTEX
  5
11577C
  8
0
 10
900.0000000000044
 20
9939.767573201783
 30
0.0
  0
SEQEND
  5
11580C
  8
0
  0
POLYLINE
  5
113D29
  8
0
 66
     1
 10
0.0
 20
0.0
 30
0.0
 70
     1
  0
VERTEX
  5
11577D
  8
0
 10
1200.000000000004
 20
9989.767573201783
 30
0.0
  0
VERTEX
  5
11577E
  8
0
 10
900.0000000000055
 20
9989.767573201783
 30
0.0
  0
VERTEX
  5
11577F
  8
0
 10
900.0000000000055
 20
8209.767573201683
 30
0.0
  0
VERTEX
  5
115780
  8
0
 10
1200.000000000004
 20
8209.767573201683
 30
0.0
  0
SEQEND
  5
11580D
  8
0
  0
POLYLINE
  5
113D2A
  8
0
 66
     1
 10
0.0
 20
0.0
 30
0.0
 70
     1
  0
VERTEX
  5
115781
  8
0
 10
600.0000000000047
 20
9989.767573201783
 30
0.0
  0
VERTEX
  5
115782
  8
0
 10
900.0000000000044
 20
9989.767573201783
 30
0.0
  0
VERTEX
  5
115783
  8
0
 10
900.0000000000044
 20
8209.767573201683
 30
0.0
  0
VERTEX
  5
115784
  8
0
 10
600.0000000000047
 20
8209.767573201683
 30
0.0
  0
SEQEND
  5
11580E
  8
0
  0
POLYLINE
  5
114861
  8
0
 66
     1
 10
0.0
 20
0.0
 30
0.0
 70
     1
  0
VERTEX
  5
115785
  8
0
 10
11068.22420887736
 20
9668.767573201603
 30
0.0
  0
VERTEX
  5
115786
  8
0
 10
10996.35162587532
 20
9668.767573201603
 30
0.0
 42
-0.1989123673796878
  0
VERTEX
  5
115787
  8
0
 10
10987.86634450109
 20
9672.282291827352
 30
0.0
  0
VERTEX
  5
115788
  8
0
 10
10939.72420887735
 20
9720.42442745111
 30
0.0
  0
VERTEX
  5
115789
  8
0
 10
10939.72420887735
 20
9709.110718952112
 30
0.0
  0
VERTEX
  5
11578A
  8
0
 10
10982.2094902516
 20
9666.625437577875
 30
0.0
 42
0.1989123673797145
  0
VERTEX
  5
11578B
  8
0
 10
10996.35162587533
 20
9660.767573201603
 30
0.0
  0
VERTEX
  5
11578C
  8
0
 10
11068.22420887736
 20
9660.767573201603
 30
0.0
  0
SEQEND
  5
11580F
  8
0
  0
POLYLINE
  5
114862
  8
0
 66
     1
 10
0.0
 20
0.0
 30
0.0
 70
     1
  0
VERTEX
  5
11578D
  8
0
 10
11086.22420887735
 20
9660.767573201603
 30
0.0
  0
VERTEX
  5
11578E
  8
0
 10
11089.72420887735
 20
9660.767573201603
 30
0.0
  0
VERTEX
  5
11578F
  8
0
 10
11183.09679187937
 20
9660.767573201603
 30
0.0
 42
0.1989123673797145
  0
VERTEX
  5
115790
  8
0
 10
11197.2389275031
 20
9666.625437577875
 30
0.0
  0
VERTEX
  5
115791
  8
0
 10
11214.72420887735
 20
9684.110718952112
 30
0.0
  0
VERTEX
  5
115792
  8
0
 10
11214.72420887734
 20
9695.42442745111
 30
0.0
  0
VERTEX
  5
115793
  8
0
 10
11191.58207325361
 20
9672.282291827352
 30
0.0
 42
-0.1989123673796878
  0
VERTEX
  5
115794
  8
0
 10
11183.09679187938
 20
9668.767573201603
 30
0.0
  0
VERTEX
  5
115795
  8
0
 10
11089.72420887735
 20
9668.767573201603
 30
0.0
  0
VERTEX
  5
115796
  8
0
 10
11086.22420887735
 20
9668.767573201603
 30
0.0
  0
SEQEND
  5
115810
  8
0
  0
VIEWPORT
  5
DAB74
 67
     1
  8
0
 10
0.0
 20
0.0
 30
0.0
 40
10.87270777479893
 41
8.16
 68
     1
 69
     1
1001
ACAD
1000
MVIEW
1002
{
1070
    16
1010
0.0
1020
0.0
1030
0.0
1010
0.0
1020
0.0
1030
1.0
1040
0.0
1040
8.16
1040
6.065999999999998
1040
3.851238605898123
1040
50.0
1040
0.0
1040
0.0
1070
    16
1070
   100
1070
     1
1070
     3
1070
     0
1070
     0
1070
     0
1070
     0
1040
0.0
1040
0.0
1040
0.0
1040
0.5
1040
0.5
1040
0.0
1040
0.0
1070
     0
1002
{
1002
}
1002
}
  0
VIEWPORT
  5
DAB75
 67
     1
  8
0
 10
5.25
 20
4.0
 30
0.0
 40
8.4
 41
6.4
 68
     2
 69
     2
1001
ACAD
1000
MVIEW
1002
{
1070
    16
1010
0.0
1020
0.0
1030
0.0
1010
0.0
1020
0.0
1030
1.0
1040
0.0
1040
12730.99251508979
1040
-238.8342129778575
1040
5240.682605436173
1040
50.0
1040
0.0
1040
0.0
1070
     0
1070
   100
1070
     1
1070
     3
1070
     0
1070
     0
1070
     0
1070
     0
1040
0.0
1040
0.0
1040
0.0
1040
0.5
1040
0.5
1040
0.0
1040
0.0
1070
     0
1002
{
1002
}
1002
}
  0
ENDSEC
  0
EOF
