  0
SECTION
  2
HEADER
  9
$ACADVER
  1
AC1032
  9
$ACADMAINTVER
 90
       55
  9
$DWGCODEPAGE
  3
ANSI_1252
  9
$LASTSAVEDBY
  1
ucom07
  9
$REQUIREDVERSIONS
160
                 0
  9
$INSBASE
 10
0.0
 20
0.0
 30
0.0
  9
$EXTMIN
 10
0.0
 20
0.0
 30
0.0
  9
$EXTMAX
 10
14788.33810698144
 20
13369.76757320157
 30
0.0
  9
$LIMMIN
 10
0.0
 20
0.0
  9
$LIMMAX
 10
12.0
 20
9.0
  9
$ORTHOMODE
 70
     1
  9
$REGENMODE
 70
     1
  9
$FILLMODE
 70
     1
  9
$QTEXTMODE
 70
     0
  9
$MIRRTEXT
 70
     0
  9
$LTSCALE
 40
5.0
  9
$ATTMODE
 70
     1
  9
$TEXTSIZE
 40
19.0
  9
$TRACEWID
 40
0.05
  9
$TEXTSTYLE
  7
STILE1
  9
$CLAYER
  8
0
  9
$CELTYPE
  6
ByLayer
  9
$CECOLOR
 62
   256
  9
$CELTSCALE
 40
1.0
  9
$DISPSILH
 70
     0
  9
$DIMSCALE
 40
50.0
  9
$DIMASZ
 40
2.5
  9
$DIMEXO
 40
1.0
  9
$DIMDLI
 40
0.0
  9
$DIMRND
 40
0.0
  9
$DIMDLE
 40
0.0
  9
$DIMEXE
 40
1.0
  9
$DIMTP
 40
0.0
  9
$DIMTM
 40
0.0
  9
$DIMTXT
 40
2.5
  9
$DIMCEN
 40
1.0
  9
$DIMTSZ
 40
0.0
  9
$DIMTOL
 70
     0
  9
$DIMLIM
 70
     0
  9
$DIMTIH
 70
     0
  9
$DIMTOH
 70
     0
  9
$DIMSE1
 70
     0
  9
$DIMSE2
 70
     0
  9
$DIMTAD
 70
     1
  9
$DIMZIN
 70
     8
  9
$DIMBLK
  1

  9
$DIMASO
 70
     1
  9
$DIMSHO
 70
     0
  9
$DIMPOST
  1

  9
$DIMAPOST
  1

  9
$DIMALT
 70
     0
  9
$DIMALTD
 70
     2
  9
$DIMALTF
 40
25.4
  9
$DIMLFAC
 40
1.0
  9
$DIMTOFL
 70
     1
  9
$DIMTVP
 40
0.0
  9
$DIMTIX
 70
     1
  9
$DIMSOXD
 70
     0
  9
$DIMSAH
 70
     0
  9
$DIMBLK1
  1

  9
$DIMBLK2
  1

  9
$DIMSTYLE
  2
STANDARD
  9
$DIMCLRD
 70
     0
  9
$DIMCLRE
 70
     0
  9
$DIMCLRT
 70
     0
  9
$DIMTFAC
 40
1.0
  9
$DIMGAP
 40
1.5
  9
$DIMJUST
 70
     0
  9
$DIMSD1
 70
     0
  9
$DIMSD2
 70
     0
  9
$DIMTOLJ
 70
     1
  9
$DIMTZIN
 70
     0
  9
$DIMALTZ
 70
     0
  9
$DIMALTTZ
 70
     0
  9
$DIMUPT
 70
     0
  9
$DIMDEC
 70
     4
  9
$DIMTDEC
 70
     4
  9
$DIMALTU
 70
     2
  9
$DIMALTTD
 70
     2
  9
$DIMTXSTY
  7
STANDARD
  9
$DIMAUNIT
 70
     0
  9
$DIMADEC
 70
     0
  9
$DIMALTRND
 40
0.0
  9
$DIMAZIN
 70
     0
  9
$DIMDSEP
 70
    46
  9
$DIMATFIT
 70
     3
  9
$DIMFRAC
 70
     0
  9
$DIMLDRBLK
  1

  9
$DIMLUNIT
 70
     2
  9
$DIMLWD
 70
    -2
  9
$DIMLWE
 70
    -2
  9
$DIMTMOVE
 70
     2
  9
$DIMFXL
 40
1.0
  9
$DIMFXLON
 70
     0
  9
$DIMJOGANG
 40
0.7853981633974483
  9
$DIMTFILL
 70
     0
  9
$DIMTFILLCLR
 70
     0
  9
$DIMARCSYM
 70
     0
  9
$DIMLTYPE
  6

  9
$DIMLTEX1
  6

  9
$DIMLTEX2
  6

  9
$DIMTXTDIRECTION
 70
     0
  9
$LUNITS
 70
     2
  9
$LUPREC
 70
     4
  9
$SKETCHINC
 40
0.1
  9
$FILLETRAD
 40
20.0
  9
$AUNITS
 70
     0
  9
$AUPREC
 70
     0
  9
$MENU
  1
acad
  9
$ELEVATION
 40
0.0
  9
$PELEVATION
 40
0.0
  9
$THICKNESS
 40
0.0
  9
$LIMCHECK
 70
     0
  9
$CHAMFERA
 40
1200.0
  9
$CHAMFERB
 40
1200.0
  9
$CHAMFERC
 40
0.0
  9
$CHAMFERD
 40
0.0
  9
$SKPOLY
 70
     0
  9
$TDCREATE
 40
2450277.504307755
  9
$TDUCREATE
 40
2450277.420974421
  9
$TDUPDATE
 40
2460453.62478515
  9
$TDUUPDATE
 40
2460453.541451817
  9
$TDINDWG
 40
26.3780634028
  9
$TDUSRTIMER
 40
0.001324537
  9
$USRTIMER
 70
     1
  9
$ANGBASE
 50
0.0
  9
$ANGDIR
 70
     0
  9
$PDMODE
 70
     0
  9
$PDSIZE
 40
0.0
  9
$PLINEWID
 40
0.0
  9
$SPLFRAME
 70
     0
  9
$SPLINETYPE
 70
     6
  9
$SPLINESEGS
 70
     8
  9
$HANDSEED
  5
115C06
  9
$SURFTAB1
 70
     6
  9
$SURFTAB2
 70
     6
  9
$SURFTYPE
 70
     6
  9
$SURFU
 70
     6
  9
$SURFV
 70
     6
  9
$UCSBASE
  2

  9
$UCSNAME
  2

  9
$UCSORG
 10
0.0
 20
0.0
 30
0.0
  9
$UCSXDIR
 10
1.0
 20
0.0
 30
0.0
  9
$UCSYDIR
 10
0.0
 20
1.0
 30
0.0
  9
$UCSORTHOREF
  2

  9
$UCSORTHOVIEW
 70
     0
  9
$UCSORGTOP
 10
0.0
 20
0.0
 30
0.0
  9
$UCSORGBOTTOM
 10
0.0
 20
0.0
 30
0.0
  9
$UCSORGLEFT
 10
0.0
 20
0.0
 30
0.0
  9
$UCSORGRIGHT
 10
0.0
 20
0.0
 30
0.0
  9
$UCSORGFRONT
 10
0.0
 20
0.0
 30
0.0
  9
$UCSORGBACK
 10
0.0
 20
0.0
 30
0.0
  9
$PUCSBASE
  2

  9
$PUCSNAME
  2

  9
$PUCSORG
 10
0.0
 20
0.0
 30
0.0
  9
$PUCSXDIR
 10
1.0
 20
0.0
 30
0.0
  9
$PUCSYDIR
 10
0.0
 20
1.0
 30
0.0
  9
$PUCSORTHOREF
  2

  9
$PUCSORTHOVIEW
 70
     0
  9
$PUCSORGTOP
 10
0.0
 20
0.0
 30
0.0
  9
$PUCSORGBOTTOM
 10
0.0
 20
0.0
 30
0.0
  9
$PUCSORGLEFT
 10
0.0
 20
0.0
 30
0.0
  9
$PUCSORGRIGHT
 10
0.0
 20
0.0
 30
0.0
  9
$PUCSORGFRONT
 10
0.0
 20
0.0
 30
0.0
  9
$PUCSORGBACK
 10
0.0
 20
0.0
 30
0.0
  9
$USERI1
 70
     0
  9
$USERI2
 70
     0
  9
$USERI3
 70
     0
  9
$USERI4
 70
     0
  9
$USERI5
 70
     0
  9
$USERR1
 40
0.0
  9
$USERR2
 40
0.0
  9
$USERR3
 40
0.0
  9
$USERR4
 40
0.0
  9
$USERR5
 40
0.0
  9
$WORLDVIEW
 70
     0
  9
$SHADEDGE
 70
     3
  9
$SHADEDIF
 70
    70
  9
$TILEMODE
 70
     1
  9
$MAXACTVP
 70
    16
  9
$PINSBASE
 10
0.0
 20
0.0
 30
0.0
  9
$PLIMCHECK
 70
     0
  9
$PEXTMIN
 10
0.0
 20
0.0
 30
0.0
  9
$PEXTMAX
 10
0.0
 20
0.0
 30
0.0
  9
$PLIMMIN
 10
0.0
 20
0.0
  9
$PLIMMAX
 10
0.0
 20
0.0
  9
$UNITMODE
 70
     0
  9
$VISRETAIN
 70
     0
  9
$PLINEGEN
 70
     0
  9
$PSLTSCALE
 70
     1
  9
$TREEDEPTH
 70
  3020
  9
$CMLSTYLE
  2
Standard
  9
$CMLJUST
 70
     0
  9
$CMLSCALE
 40
1.0
  9
$PROXYGRAPHICS
 70
     1
  9
$MEASUREMENT
 70
     0
  9
$CELWEIGHT
370
    -1
  9
$ENDCAPS
280
     0
  9
$JOINSTYLE
280
     0
  9
$LWDISPLAY
290
     0
  9
$INSUNITS
 70
     0
  9
$HYPERLINKBASE
  1

  9
$STYLESHEET
  1

  9
$XEDIT
290
     1
  9
$CEPSNTYPE
380
     0
  9
$PSTYLEMODE
290
     1
  9
$FINGERPRINTGUID
  2
{2089f920-0ecd-4e02-92bf-dce6a987ef3d}
  9
$VERSIONGUID
  2
{FAEB1C32-E019-11D5-929B-00C0DF256EC4}
  9
$EXTNAMES
290
     1
  9
$PSVPSCALE
 40
0.0
  9
$OLESTARTUP
290
     0
  9
$SORTENTS
280
   127
  9
$INDEXCTL
280
     0
  9
$HIDETEXT
280
     1
  9
$XCLIPFRAME
280
     2
  9
$HALOGAP
280
     0
  9
$OBSCOLOR
 70
   257
  9
$OBSLTYPE
280
     0
  9
$INTERSECTIONDISPLAY
280
     0
  9
$INTERSECTIONCOLOR
 70
   257
  9
$DIMASSOC
280
     2
  9
$PROJECTNAME
  1

  9
$CAMERADISPLAY
290
     0
  9
$LENSLENGTH
 40
50.0
  9
$CAMERAHEIGHT
 40
0.0
  9
$STEPSPERSEC
 40
2.0
  9
$STEPSIZE
 40
6.0
  9
$3DDWFPREC
 40
2.0
  9
$PSOLWIDTH
 40
0.25
  9
$PSOLHEIGHT
 40
4.0
  9
$LOFTANG1
 40
1.570796326794897
  9
$LOFTANG2
 40
1.570796326794897
  9
$LOFTMAG1
 40
0.0
  9
$LOFTMAG2
 40
0.0
  9
$LOFTPARAM
 70
     7
  9
$LOFTNORMALS
280
     1
  9
$LATITUDE
 40
37.795
  9
$LONGITUDE
 40
-122.394
  9
$NORTHDIRECTION
 40
0.0
  9
$TIMEZONE
 70
 -8000
  9
$LIGHTGLYPHDISPLAY
280
     1
  9
$TILEMODELIGHTSYNCH
280
     1
  9
$SOLIDHIST
280
     0
  9
$SHOWHIST
280
     1
  9
$DWFFRAME
280
     2
  9
$DGNFRAME
280
     2
  9
$REALWORLDSCALE
290
     1
  9
$INTERFERECOLOR
 62
   256
  9
$CSHADOW
280
     0
  9
$SHADOWPLANELOCATION
 40
0.0
  0
ENDSEC
  0
SECTION
  2
CLASSES
  0
CLASS
  1
ACDBDICTIONARYWDFLT
  2
AcDbDictionaryWithDefault
  3
ObjectDBX Classes
 90
        0
 91
        3
280
     0
281
     0
  0
CLASS
  1
MATERIAL
  2
AcDbMaterial
  3
ObjectDBX Classes
 90
     1153
 91
        3
280
     0
281
     0
  0
CLASS
  1
SCALE
  2
AcDbScale
  3
ObjectDBX Classes
 90
     1153
 91
        3
280
     0
281
     0
  0
CLASS
  1
VISUALSTYLE
  2
AcDbVisualStyle
  3
ObjectDBX Classes
 90
     4095
 91
        3
280
     0
281
     0
  0
CLASS
  1
TABLESTYLE
  2
AcDbTableStyle
  3
ObjectDBX Classes
 90
     4095
 91
        3
280
     0
281
     0
  0
CLASS
  1
MLEADERSTYLE
  2
AcDbMLeaderStyle
  3
ACDB_MLEADERSTYLE_CLASS
 90
     4095
 91
        3
280
     0
281
     0
  0
CLASS
  1
DICTIONARYVAR
  2
AcDbDictionaryVar
  3
ObjectDBX Classes
 90
        0
 91
        3
280
     0
281
     0
  0
CLASS
  1
SUN
  2
AcDbSun
  3
SCENEOE
 90
     1153
 91
        3
280
     0
281
     0
  0
CLASS
  1
CELLSTYLEMAP
  2
AcDbCellStyleMap
  3
ObjectDBX Classes
 90
     1152
 91
        3
280
     0
281
     0
  0
ENDSEC
  0
SECTION
  2
TABLES
  0
TABLE
  2
VPORT
  5
115B6C
330
0
100
AcDbSymbolTable
 70
     1
  0
VPORT
  5
115B83
330
115B6C
100
AcDbSymbolTableRecord
100
AcDbViewportTableRecord
  2
*ACTIVE
 70
     0
 10
0.0
 20
0.0
 11
1.0
 21
1.0
 12
10398.7024915006
 22
-9776.915129440651
 13
0.0
 23
0.0
 14
1.0
 24
1.0
 15
0.0
 25
0.0
 16
0.0
 26
0.0
 36
1.0
 17
-3004.533438009879
 27
16461.79891604143
 37
0.0
 40
13637.1629246656
 41
1.944065484311051
 42
50.0
 43
0.0
 44
0.0
 50
0.0
 51
0.0
 71
    16
 72
   100
 73
     1
 74
     1
 75
     0
 76
     0
 77
     0
 78
     0
281
     0
 65
     0
110
0.0
120
0.0
130
0.0
111
1.0
121
0.0
131
0.0
112
0.0
122
1.0
132
0.0
 79
     0
146
0.0
348
115BDE
 60
     3
 61
     5
292
     1
282
     1
141
0.0
142
0.0
 63
   256
361
115C01
  0
ENDTAB
  0
TABLE
  2
LTYPE
  5
115B69
330
0
100
AcDbSymbolTable
 70
     1
  0
LTYPE
  5
115B77
330
115B69
100
AcDbSymbolTableRecord
100
AcDbLinetypeTableRecord
  2
ByBlock
 70
     0
  3

 72
    65
 73
     0
 40
0.0
  0
LTYPE
  5
115B78
330
115B69
100
AcDbSymbolTableRecord
100
AcDbLinetypeTableRecord
  2
ByLayer
 70
     0
  3

 72
    65
 73
     0
 40
0.0
  0
LTYPE
  5
115B79
330
115B69
100
AcDbSymbolTableRecord
100
AcDbLinetypeTableRecord
  2
CONTINUOUS
 70
     0
  3
Solid line
 72
    65
 73
     0
 40
0.0
  0
ENDTAB
  0
TABLE
  2
LAYER
  5
115B67
330
0
100
AcDbSymbolTable
 70
     1
  0
LAYER
  5
115B74
330
115B67
100
AcDbSymbolTableRecord
100
AcDbLayerTableRecord
  2
0
 70
     0
 62
     7
  6
CONTINUOUS
370
    -3
390
115B73
347
115B89
348
0
  0
ENDTAB
  0
TABLE
  2
STYLE
  5
115B68
330
0
100
AcDbSymbolTable
 70
     2
  0
STYLE
  5
115B75
330
115B68
100
AcDbSymbolTableRecord
100
AcDbTextStyleTableRecord
  2
STANDARD
 70
     0
 40
0.0
 41
1.0
 50
0.0
 71
     0
 42
2.5
  3
txt
  4

  0
STYLE
  5
115B8B
330
115B68
100
AcDbSymbolTableRecord
100
AcDbTextStyleTableRecord
  2
STILE1
 70
     0
 40
0.0
 41
1.0
 50
0.0
 71
     0
 42
19.0
  3
ROMANS.SHX
  4

  0
ENDTAB
  0
TABLE
  2
VIEW
  5
115B6A
330
0
100
AcDbSymbolTable
 70
     0
  0
ENDTAB
  0
TABLE
  2
UCS
  5
115B6B
330
0
100
AcDbSymbolTable
 70
     0
  0
ENDTAB
  0
TABLE
  2
APPID
  5
115B6D
330
0
100
AcDbSymbolTable
 70
    40
  0
APPID
  5
115B76
330
115B6D
100
AcDbSymbolTableRecord
100
AcDbRegAppTableRecord
  2
ACAD
 70
     0
  0
APPID
  5
115B8D
330
115B6D
100
AcDbSymbolTableRecord
100
AcDbRegAppTableRecord
  2
DCO15
 70
     0
  0
APPID
  5
115B8E
330
115B6D
100
AcDbSymbolTableRecord
100
AcDbRegAppTableRecord
  2
ACAECLAYERSTANDARD
 70
     0
  0
APPID
  5
115B8F
330
115B6D
100
AcDbSymbolTableRecord
100
AcDbRegAppTableRecord
  2
ACDBDYNAMICBLOCKGUID
 70
     0
  0
APPID
  5
115B90
330
115B6D
100
AcDbSymbolTableRecord
100
AcDbRegAppTableRecord
  2
ACDBBLOCKREPETAG
 70
     0
  0
APPID
  5
115B91
330
115B6D
100
AcDbSymbolTableRecord
100
AcDbRegAppTableRecord
  2
ACAD_PSEXT
 70
     0
  0
APPID
  5
115B92
330
115B6D
100
AcDbSymbolTableRecord
100
AcDbRegAppTableRecord
  2
ACAD_DSTYLE_DIMJAG
 70
     0
  0
APPID
  5
115B93
330
115B6D
100
AcDbSymbolTableRecord
100
AcDbRegAppTableRecord
  2
ACAD_DSTYLE_DIMTALN
 70
     0
  0
APPID
  5
115B94
330
115B6D
100
AcDbSymbolTableRecord
100
AcDbRegAppTableRecord
  2
ACAD_DSTYLE_DIMRADIAL_EXTE
 70
     0
  0
APPID
  5
115B95
330
115B6D
100
AcDbSymbolTableRecord
100
AcDbRegAppTableRecord
  2
RAK
 70
     0
  0
APPID
  5
115B96
330
115B6D
100
AcDbSymbolTableRecord
100
AcDbRegAppTableRecord
  2
ACLAYERTOOLS
 70
     0
  0
APPID
  5
115B97
330
115B6D
100
AcDbSymbolTableRecord
100
AcDbRegAppTableRecord
  2
REVIT
 70
     0
  0
APPID
  5
115B98
330
115B6D
100
AcDbSymbolTableRecord
100
AcDbRegAppTableRecord
  2
ACAD_MLEADERVER
 70
     0
  0
APPID
  5
115B99
330
115B6D
100
AcDbSymbolTableRecord
100
AcDbRegAppTableRecord
  2
ACAD_DSTYLE_DIMBREAK
 70
     0
  0
APPID
  5
115B9A
330
115B6D
100
AcDbSymbolTableRecord
100
AcDbRegAppTableRecord
  2
ACCMTRANSPARENCY
 70
     0
  0
APPID
  5
115B9B
330
115B6D
100
AcDbSymbolTableRecord
100
AcDbRegAppTableRecord
  2
ACAD_NAV_VCDISPLAY
 70
     0
  0
APPID
  5
115B9C
330
115B6D
100
AcDbSymbolTableRecord
100
AcDbRegAppTableRecord
  2
GRADIENTCOLOR1ACI
 70
     0
  0
APPID
  5
115B9D
330
115B6D
100
AcDbSymbolTableRecord
100
AcDbRegAppTableRecord
  2
GRADIENTCOLOR2ACI
 70
     0
  0
APPID
  5
115B9E
330
115B6D
100
AcDbSymbolTableRecord
100
AcDbRegAppTableRecord
  2
PROGE_PRINT_SETTINGS
 70
     0
  0
APPID
  5
115B9F
330
115B6D
100
AcDbSymbolTableRecord
100
AcDbRegAppTableRecord
  2
AA_WLPR
 70
     0
  0
APPID
  5
115BA0
330
115B6D
100
AcDbSymbolTableRecord
100
AcDbRegAppTableRecord
  2
AA_WLENT
 70
     0
  0
APPID
  5
115BA1
330
115B6D
100
AcDbSymbolTableRecord
100
AcDbRegAppTableRecord
  2
AA_WLTP
 70
     0
  0
APPID
  5
115BA2
330
115B6D
100
AcDbSymbolTableRecord
100
AcDbRegAppTableRecord
  2
AA_WLBK
 70
     0
  0
APPID
  5
115BA3
330
115B6D
100
AcDbSymbolTableRecord
100
AcDbRegAppTableRecord
  2
ACAD_DSTYLE_DIMJOGGED_JOGA
 70
     0
  0
APPID
  5
115BA4
330
115B6D
100
AcDbSymbolTableRecord
100
AcDbRegAppTableRecord
  2
$DDT_AUDIT_GENERATED__2CAF
 70
     0
  0
APPID
  5
115BA5
330
115B6D
100
AcDbSymbolTableRecord
100
AcDbRegAppTableRecord
  2
ACAD_DSTYLE_DIMEXT_LENGTH
 70
     0
  0
APPID
  5
115BA6
330
115B6D
100
AcDbSymbolTableRecord
100
AcDbRegAppTableRecord
  2
ACAD_DSTYLE_DIMEXT_ENABLED
 70
     0
  0
APPID
  5
115BA7
330
115B6D
100
AcDbSymbolTableRecord
100
AcDbRegAppTableRecord
  2
ACAD_DSTYLE_DIMJOGGED_JOG0
 70
     0
  0
APPID
  5
115BA8
330
115B6D
100
AcDbSymbolTableRecord
100
AcDbRegAppTableRecord
  2
ACAD_DSTYLE_DIMARC_LENGTH_
 70
     0
  0
APPID
  5
115BA9
330
115B6D
100
AcDbSymbolTableRecord
100
AcDbRegAppTableRecord
  2
C_AND_O
 70
     0
  0
APPID
  5
115BAA
330
115B6D
100
AcDbSymbolTableRecord
100
AcDbRegAppTableRecord
  2
AVE_FINISH
 70
     0
  0
APPID
  5
115BAB
330
115B6D
100
AcDbSymbolTableRecord
100
AcDbRegAppTableRecord
  2
AVE_RENDER
 70
     0
  0
APPID
  5
115BAC
330
115B6D
100
AcDbSymbolTableRecord
100
AcDbRegAppTableRecord
  2
AVE_ENTITY_MATERIAL
 70
     0
  0
APPID
  5
115BAD
330
115B6D
100
AcDbSymbolTableRecord
100
AcDbRegAppTableRecord
  2
AVE_MATERIAL
 70
     0
  0
APPID
  5
115BAE
330
115B6D
100
AcDbSymbolTableRecord
100
AcDbRegAppTableRecord
  2
ADDC5$_$SETUP-
 70
     0
  0
APPID
  5
115BAF
330
115B6D
100
AcDbSymbolTableRecord
100
AcDbRegAppTableRecord
  2
ADDC4$_$SETUP-
 70
     0
  0
APPID
  5
115BB0
330
115B6D
100
AcDbSymbolTableRecord
100
AcDbRegAppTableRecord
  2
ADDC4$_$ARTSETUP-
 70
     0
  0
APPID
  5
115BB1
330
115B6D
100
AcDbSymbolTableRecord
100
AcDbRegAppTableRecord
  2
GENIUS_GENODEF_13
 70
     0
  0
APPID
  5
115BB2
330
115B6D
100
AcDbSymbolTableRecord
100
AcDbRegAppTableRecord
  2
GENIUS_GENOBJ-N-REC_13
 70
     0
  0
APPID
  5
115BB3
330
115B6D
100
AcDbSymbolTableRecord
100
AcDbRegAppTableRecord
  2
GENIUS_GENREC_14
 70
     0
  0
ENDTAB
  0
TABLE
  2
DIMSTYLE
  5
115B6E
330
0
100
AcDbSymbolTable
 70
     1
100
AcDbDimStyleTable
  0
DIMSTYLE
105
115BB4
330
115B6E
100
AcDbSymbolTableRecord
100
AcDbDimStyleTableRecord
  2
STANDARD
 70
     0
178
     0
340
115B8B
  0
ENDTAB
  0
TABLE
  2
BLOCK_RECORD
  5
115B66
330
0
100
AcDbSymbolTable
 70
     0
  0
BLOCK_RECORD
  5
115B80
102
{ACAD_XDICTIONARY
360
115BF8
102
}
330
115B66
100
AcDbSymbolTableRecord
100
AcDbBlockTableRecord
  2
*Model_Space
340
115B81
 70
     0
280
     1
281
     0
  0
BLOCK_RECORD
  5
115B7E
330
115B66
100
AcDbSymbolTableRecord
100
AcDbBlockTableRecord
  2
*Paper_Space
340
115B7F
 70
     0
280
     1
281
     0
  0
ENDTAB
  0
ENDSEC
  0
SECTION
  2
BLOCKS
  0
BLOCK
  5
115BB5
330
115B80
100
AcDbEntity
  8
0
100
AcDbBlockBegin
  2
*Model_Space
 70
     0
 10
0.0
 20
0.0
 30
0.0
  3
*Model_Space
  1

  0
ENDBLK
  5
1151B0
330
115B80
100
AcDbEntity
  8
0
100
AcDbBlockEnd
  0
BLOCK
  5
115BB6
330
115B7E
100
AcDbEntity
 67
     1
  8
0
100
AcDbBlockBegin
  2
*Paper_Space
 70
     0
 10
0.0
 20
0.0
 30
0.0
  3
*Paper_Space
  1

  0
ENDBLK
  5
1151AC
330
115B7E
100
AcDbEntity
 67
     1
  8
0
100
AcDbBlockEnd
  0
ENDSEC
  0
SECTION
  2
ENTITIES
  0
LINE
  5
E1391
330
115B80
100
AcDbEntity
  8
0
100
AcDbLine
 10
8025.371948238463
 20
987.6576470269353
 30
0.0
 11
8025.371948238463
 21
0.0
 31
0.0
  0
TEXT
  5
E1392
330
115B80
100
AcDbEntity
  8
0
100
AcDbText
 10
6252.7084966879
 20
778.7322304035334
 30
0.0
 40
125.0
  1
2024-06
  7
STILE1
 72
     1
 11
6687.604330021233
 21
778.7322304035334
 31
0.0
100
AcDbText
  0
LINE
  5
E1393
330
115B80
100
AcDbEntity
  8
0
100
AcDbLine
 10
5350.247965492308
 20
687.6610921230165
 30
0.0
 11
5350.247965492308
 21
987.6576470269353
 31
0.0
  0
LINE
  5
E1394
330
115B80
100
AcDbEntity
  8
0
100
AcDbLine
 10
2675.123982746154
 20
987.6576470269353
 30
0.0
 11
2675.123982746154
 21
0.0
 31
0.0
  0
LWPOLYLINE
  5
E1395
330
115B80
100
AcDbEntity
  8
0
100
AcDbPolyline
 90
        4
 70
     1
 43
0.0
 10
0.0
 20
987.6576470269353
 10
8025.371948238463
 20
987.6576470269353
 10
8025.371948238463
 20
0.0
 10
0.0
 20
0.0
  0
LWPOLYLINE
  5
E1396
330
115B80
100
AcDbEntity
  8
0
100
AcDbPolyline
 90
        2
 70
     0
 43
0.0
 10
2675.123982746154
 20
687.661092123016
 10
8025.371948238463
 20
687.6610921230168
  0
TEXT
  5
E1397
330
115B80
100
AcDbEntity
  8
0
100
AcDbText
 10
3484.840736835664
 20
170.1637904425171
 30
0.0
 40
125.0
  1
This drawing is property of Fantin S.r.l. 
  7
STILE1
 72
     1
 11
5499.721689216617
 21
170.1637904425171
 31
0.0
100
AcDbText
  0
LWPOLYLINE
  5
E1398
330
115B80
100
AcDbEntity
  8
0
  6
Continuous
100
AcDbPolyline
 90
       16
 70
     1
 43
0.0
 10
847.7226611692438
 20
383.6228027346076
 10
847.7226611692438
 20
383.6228027346076
 10
872.0839436817907
 20
299.9999999999997
 10
997.8006456140432
 20
299.9999999999997
 10
880.3917914489284
 20
652.7743326826017
 42
0.1089385125692126
 10
867.6499316329131
 20
680.4454704024826
 42
0.1589313772246072
 10
855.6541064428161
 20
687.7303423592817
 42
0.058673645385263
 10
839.4089355459447
 20
689.3216281465718
 10
839.4089355459447
 20
689.3216281465718
 10
744.1606580931694
 20
689.3216281465718
 42
0.058673645385263
 10
727.9154871962947
 20
687.7303423592817
 42
0.1589313772246072
 10
715.9196620061985
 20
680.4454704024826
 42
0.1089385125692126
 10
703.1778021901849
 20
652.7743326826017
 10
585.768948029726
 20
299.9999999999997
 10
704.8348931223154
 20
299.9999999999997
 10
728.6473931185901
 20
383.6228027346076
  0
LWPOLYLINE
  5
E1399
330
115B80
100
AcDbEntity
  8
0
  6
Continuous
100
AcDbPolyline
 90
        5
 70
     0
 43
0.0
 10
791.2309977225952
 20
580.7787272136192
 10
824.458943684584
 20
466.6909450956151
 10
751.9104003906241
 20
466.6909450956151
 10
785.13834635727
 20
580.7787272136192
 10
791.2309977225952
 20
580.7787272136192
  0
LWPOLYLINE
  5
E139A
330
115B80
100
AcDbEntity
  8
0
  6
Continuous
100
AcDbPolyline
 90
       11
 70
     0
 43
0.0
 10
605.1458875834936
 20
687.6576470269353
 10
605.1458875834936
 20
598.4968532994384
 10
419.0693901898336
 20
598.4968532994384
 10
419.0693901898336
 20
521.52136230492
 10
549.2130398191512
 20
521.52136230492
 10
549.2130398191512
 20
438.4480523003727
 10
419.0693901898336
 20
438.4480523003727
 10
419.0693901898336
 20
299.9999999999997
 10
300.0
 20
299.9999999999997
 10
300.0
 20
687.6576470269353
 10
605.1458875834936
 20
687.6576470269353
  0
LWPOLYLINE
  5
E139B
330
115B80
100
AcDbEntity
  8
0
  6
Continuous
100
AcDbPolyline
 90
        4
 70
     1
 43
0.0
 10
1820.206949869171
 20
687.6593695743937
 10
1939.276340059005
 20
687.6593695743937
 10
1939.276340059005
 20
299.9999999999997
 10
1820.206949869171
 20
299.9999999999997
  0
LWPOLYLINE
  5
E139C
330
115B80
100
AcDbEntity
  8
0
  6
Continuous
100
AcDbPolyline
 90
        9
 70
     0
 43
0.0
 10
1783.103271485306
 20
687.6593695743937
 10
1783.103271485306
 20
596.8363172747192
 10
1666.80718316231
 20
596.8363172747192
 10
1666.80718316231
 20
299.9999999999997
 10
1547.737792972475
 20
299.9999999999997
 10
1547.737792972475
 20
596.8363172747192
 10
1434.204671224579
 20
596.8363172747192
 10
1434.204671224579
 20
687.6593695743937
 10
1783.103271485306
 20
687.6593695743937
  0
LWPOLYLINE
  5
E139D
330
115B80
100
AcDbEntity
  8
0
  6
Continuous
100
AcDbPolyline
 90
       15
 70
     0
 43
0.0
 10
1030.479098847136
 20
299.9999999999997
 10
1030.479098847136
 20
687.661092123016
 10
1131.828640410675
 20
687.661092123016
 42
-0.316444976687396
 10
1182.776435003616
 20
659.4164767791514
 10
1283.569593643768
 20
489.3975694442633
 10
1286.337727867066
 20
489.3975694442633
 10
1286.337727867066
 20
687.661092123016
 10
1398.761528860777
 20
687.661092123016
 10
1398.761528860777
 20
299.9999999999997
 10
1316.239434136078
 20
299.9999999999997
 42
-0.312959769389874
 10
1265.29163953848
 20
328.2428927952421
 10
1145.671034073457
 20
521.5196397574612
 10
1142.906344942748
 20
521.5196397574612
 10
1142.906344942748
 20
299.9999999999997
 10
1030.479098847136
 20
299.9999999999997
  0
LWPOLYLINE
  5
E139E
330
115B80
100
AcDbEntity
  8
0
  6
Continuous
100
AcDbPolyline
 90
       15
 70
     0
 43
0.0
 10
2006.841552732512
 20
299.9999999999997
 10
2006.841552732512
 20
687.661092123016
 10
2108.191094296053
 20
687.661092123016
 42
-0.316444976687396
 10
2159.138888884337
 20
659.4164767791514
 10
2259.932047529146
 20
489.3975694442633
 10
2262.700181747787
 20
489.3975694442633
 10
2262.700181747787
 20
687.661092123016
 10
2375.123982746154
 20
687.661092123016
 10
2375.123982746154
 20
299.9999999999997
 10
2292.601888021454
 20
299.9999999999997
 42
-0.312959769389874
 10
2241.654093428515
 20
328.2428927952421
 10
2122.033487958833
 20
521.5196397574612
 10
2119.268798828125
 20
521.5196397574612
 10
2119.268798828125
 20
299.9999999999997
 10
2006.841552732512
 20
299.9999999999997
  0
TEXT
  5
E139F
330
115B80
100
AcDbEntity
  8
0
100
AcDbText
 10
3841.492948767253
 20
778.7322304035334
 30
0.0
 40
125.0
  1
Just
  7
STILE1
 72
     1
 11
4032.062145195825
 21
778.7322304035334
 31
0.0
100
AcDbText
  0
TEXT
  5
E13A0
330
115B80
100
AcDbEntity
  8
0
100
AcDbText
 10
3173.906836621409
 20
432.2479967307316
 30
0.0
 40
125.0
  1
Questo disegno è di proprietà di Fantin S.r.l.   
  7
STILE1
 72
     1
 11
5596.525884240456
 21
432.2479967307316
 31
0.0
100
AcDbText
  0
LWPOLYLINE
  5
E13DB
330
115B80
100
AcDbEntity
  8
0
100
AcDbPolyline
 90
        4
 70
     1
 43
0.0
 10
7025.371948238467
 20
13369.76757320156
 10
0.0000000000043201
 20
13369.76757320156
 10
0.0000000000029559
 20
7609.767573201563
 10
7025.371948238467
 20
7609.767573201565
  0
LWPOLYLINE
  5
E13DD
330
115B80
100
AcDbEntity
  8
0
100
AcDbPolyline
 90
        4
 70
     1
 43
0.0
 10
7025.371948238467
 20
7055.73093114312
 10
0.0000000000029559
 20
7055.730931143116
 10
0.000000000001819
 20
1541.694289085379
 10
7025.371948238463
 20
1541.694289085384
  0
LWPOLYLINE
  5
107E97
330
115B80
100
AcDbEntity
  8
0
100
AcDbPolyline
 90
        4
 70
     1
 43
0.0
 10
5496.114900360744
 20
13026.73093114392
 10
5861.114900360741
 20
13026.73093114392
 10
5861.114900360741
 20
11224.73093114384
 10
5496.114900360744
 20
11224.73093114384
  0
LWPOLYLINE
  5
107E98
330
115B80
100
AcDbEntity
  8
0
100
AcDbPolyline
 90
        4
 70
     1
 43
0.0
 10
900.0000000000039
 20
13026.73093114392
 10
950.0000000000039
 20
13026.73093114392
 10
950.0000000000039
 20
11224.73093114384
 10
900.0000000000039
 20
11224.73093114384
  0
LWPOLYLINE
  5
107E99
330
115B80
100
AcDbEntity
  8
0
100
AcDbPolyline
 90
        4
 70
     1
 43
0.0
 10
600.0000000000038
 20
13026.73093114392
 10
900.000000000003
 20
13026.73093114392
 10
900.000000000003
 20
11224.73093114384
 10
600.0000000000038
 20
11224.73093114384
  0
LWPOLYLINE
  5
107EA5
330
115B80
100
AcDbEntity
  8
0
100
AcDbPolyline
 90
        4
 70
     1
 43
0.0
 10
5861.114900360741
 20
13026.73093114392
 10
5886.114900360742
 20
13026.73093114392
 10
5886.114900360742
 20
11224.73093114384
 10
5861.114900360741
 20
11224.73093114384
  0
LWPOLYLINE
  5
107EF3
330
115B80
100
AcDbEntity
  8
0
100
AcDbPolyline
 90
        4
 70
     1
 43
0.0
 10
600.0000000000063
 20
5811.69428908579
 10
900.0000000000055
 20
5811.69428908579
 10
900.0000000000063
 20
4910.694289085737
 10
600.0000000000063
 20
4910.694289085737
  0
LWPOLYLINE
  5
107EF4
330
115B80
100
AcDbEntity
  8
0
100
AcDbPolyline
 90
        4
 70
     1
 43
0.0
 10
900.0000000000069
 20
6712.694289085837
 10
950.0000000000067
 20
6712.694289085837
 10
950.0000000000067
 20
4910.694289085737
 10
900.0000000000069
 20
4910.694289085737
  0
LWPOLYLINE
  5
107EF5
330
115B80
100
AcDbEntity
  8
0
100
AcDbPolyline
 90
        4
 70
     1
 43
0.0
 10
5496.114900360748
 20
6712.694289085841
 10
5861.114900360747
 20
6712.694289085841
 10
5861.114900360747
 20
4910.694289085741
 10
5496.114900360748
 20
4910.694289085741
  0
LWPOLYLINE
  5
107EF6
330
115B80
100
AcDbEntity
  8
0
100
AcDbPolyline
 90
        4
 70
     1
 43
0.0
 10
13259.08105910373
 20
6466.730931143591
 10
13624.08105910372
 20
6466.730931143591
 10
13624.08105910372
 20
4664.730931143485
 10
13259.08105910373
 20
4664.730931143485
  0
LWPOLYLINE
  5
107EF7
330
115B80
100
AcDbEntity
  8
0
100
AcDbPolyline
 90
        4
 70
     1
 43
0.0
 10
8662.96615874299
 20
6466.730931143587
 10
8712.96615874299
 20
6466.730931143587
 10
8712.96615874299
 20
4664.730931143481
 10
8662.96615874299
 20
4664.730931143481
  0
LWPOLYLINE
  5
107EFE
330
115B80
100
AcDbEntity
  8
0
100
AcDbPolyline
 90
        4
 70
     1
 43
0.0
 10
13624.08105910372
 20
5115.230931143511
 10
13649.08105910373
 20
5115.230931143511
 10
13649.08105910373
 20
4664.730931143485
 10
13624.08105910372
 20
4664.730931143485
  0
LWPOLYLINE
  5
107F22
330
115B80
100
AcDbEntity
  8
0
100
AcDbPolyline
 90
        4
 70
     1
 43
0.0
 10
600.0000000000063
 20
5811.69428908579
 10
900.0000000000055
 20
5811.69428908579
 10
900.0000000000063
 20
6712.694289085837
 10
600.0000000000063
 20
6712.694289085837
  0
LWPOLYLINE
  5
107F37
330
115B80
100
AcDbEntity
  8
0
100
AcDbPolyline
 90
        4
 70
     1
 43
0.0
 10
649.2500000000067
 20
6250.694289085815
 10
650.7500000000065
 20
6250.694289085815
 10
650.7500000000065
 20
6262.694289085811
 10
649.2500000000067
 20
6262.694289085811
  0
CIRCLE
  5
107F38
330
115B80
100
AcDbEntity
  8
0
100
AcDbCircle
 10
650.000000000006
 20
6257.194289085811
 30
0.0
 40
11.49999999999636
  0
CIRCLE
  5
107F39
330
115B80
100
AcDbEntity
  8
0
100
AcDbCircle
 10
650.000000000006
 20
5367.194289085748
 30
0.0
 40
11.49999999999636
  0
LWPOLYLINE
  5
107F3A
330
115B80
100
AcDbEntity
  8
0
100
AcDbPolyline
 90
        4
 70
     1
 43
0.0
 10
649.2500000000067
 20
5360.69428908577
 10
650.7500000000065
 20
5360.69428908577
 10
650.7500000000065
 20
5372.694289085748
 10
649.2500000000067
 20
5372.694289085748
  0
CIRCLE
  5
107F5B
330
115B80
100
AcDbEntity
  8
0
100
AcDbCircle
 10
8412.966158742991
 20
6233.730931143564
 30
0.0
 40
11.49999999999636
  0
LWPOLYLINE
  5
107F5C
330
115B80
100
AcDbEntity
  8
0
100
AcDbPolyline
 90
        4
 70
     1
 43
0.0
 10
8412.216158742993
 20
6227.230931143583
 10
8413.716158742993
 20
6227.230931143583
 10
8413.716158742993
 20
6239.230931143563
 10
8412.216158742993
 20
6239.230931143563
  0
LWPOLYLINE
  5
107F5E
330
115B80
100
AcDbEntity
  8
0
100
AcDbPolyline
 90
        4
 70
     1
 43
0.0
 10
8362.966158742993
 20
5115.230931143507
 10
8662.966158742991
 20
5115.230931143507
 10
8662.966158742991
 20
4664.730931143481
 10
8362.966158742993
 20
4664.730931143481
  0
LWPOLYLINE
  5
107F5F
330
115B80
100
AcDbEntity
  8
0
100
AcDbPolyline
 90
        4
 70
     1
 43
0.0
 10
8362.966158742993
 20
5565.730931143535
 10
8662.966158742991
 20
5565.730931143535
 10
8662.966158742991
 20
5115.230931143507
 10
8362.966158742993
 20
5115.230931143507
  0
LWPOLYLINE
  5
107F60
330
115B80
100
AcDbEntity
  8
0
100
AcDbPolyline
 90
        4
 70
     1
 43
0.0
 10
8362.966158742993
 20
6466.730931143587
 10
8662.966158742991
 20
6466.730931143587
 10
8662.966158742991
 20
6016.230931143563
 10
8362.966158742993
 20
6016.230931143563
  0
LWPOLYLINE
  5
107F61
330
115B80
100
AcDbEntity
  8
0
100
AcDbPolyline
 90
        4
 70
     1
 43
0.0
 10
8362.966158742993
 20
6016.230931143563
 10
8662.966158742991
 20
6016.230931143563
 10
8662.966158742991
 20
5565.730931143535
 10
8362.966158742993
 20
5565.730931143535
  0
LWPOLYLINE
  5
107F63
330
115B80
100
AcDbEntity
  8
0
100
AcDbPolyline
 90
        4
 70
     1
 43
0.0
 10
8412.216158742993
 20
5780.012795432948
 10
8413.716158742993
 20
5780.012795432948
 10
8413.716158742993
 20
5792.012795432932
 10
8412.216158742993
 20
5792.012795432932
  0
CIRCLE
  5
107F64
330
115B80
100
AcDbEntity
  8
0
100
AcDbCircle
 10
8412.966158742991
 20
5786.512795432927
 30
0.0
 40
11.49999999999636
  0
CIRCLE
  5
107F65
330
115B80
100
AcDbEntity
  8
0
100
AcDbCircle
 10
8412.966158742991
 20
4896.512795432878
 30
0.0
 40
11.49999999999636
  0
LWPOLYLINE
  5
107F66
330
115B80
100
AcDbEntity
  8
0
100
AcDbPolyline
 90
        4
 70
     1
 43
0.0
 10
8412.216158742993
 20
4890.012795432898
 10
8413.716158742993
 20
4890.012795432898
 10
8413.716158742993
 20
4902.012795432878
 10
8412.216158742993
 20
4902.012795432878
  0
LWPOLYLINE
  5
107F67
330
115B80
100
AcDbEntity
  8
0
100
AcDbPolyline
 90
        4
 70
     1
 43
0.0
 10
8412.216158742993
 20
5337.230931143531
 10
8413.716158742993
 20
5337.230931143531
 10
8413.716158742993
 20
5349.230931143513
 10
8412.216158742993
 20
5349.230931143513
  0
CIRCLE
  5
107F68
330
115B80
100
AcDbEntity
  8
0
100
AcDbCircle
 10
8412.966158742991
 20
5343.730931143515
 30
0.0
 40
11.49999999999636
  0
LWPOLYLINE
  5
10A431
330
115B80
100
AcDbEntity
  8
0
100
AcDbPolyline
 90
        4
 70
     1
 43
0.0
 10
5861.114900360747
 20
5811.694289085794
 10
5886.114900360747
 20
5811.694289085794
 10
5886.114900360747
 20
6712.694289085834
 10
5861.114900360747
 20
6712.694289085834
  0
LWPOLYLINE
  5
10A432
330
115B80
100
AcDbEntity
  8
0
100
AcDbPolyline
 90
        4
 70
     1
 43
0.0
 10
5861.114900360747
 20
5811.694289085794
 10
5886.114900360747
 20
5811.694289085794
 10
5886.114900360747
 20
4910.694289085741
 10
5861.114900360747
 20
4910.694289085741
  0
LWPOLYLINE
  5
10A433
330
115B80
100
AcDbEntity
  8
0
100
AcDbPolyline
 90
        4
 70
     1
 43
0.0
 10
13624.08105910373
 20
5565.730931143538
 10
13649.08105910373
 20
5565.730931143538
 10
13649.08105910373
 20
5115.230931143511
 10
13624.08105910372
 20
5115.230931143511
  0
LWPOLYLINE
  5
10A434
330
115B80
100
AcDbEntity
  8
0
100
AcDbPolyline
 90
        4
 70
     1
 43
0.0
 10
13624.08105910373
 20
6466.730931143591
 10
13649.08105910373
 20
6466.730931143591
 10
13649.08105910373
 20
6016.230931143567
 10
13624.08105910373
 20
6016.230931143567
  0
LWPOLYLINE
  5
10A435
330
115B80
100
AcDbEntity
  8
0
100
AcDbPolyline
 90
        4
 70
     1
 43
0.0
 10
13624.08105910373
 20
6016.230931143567
 10
13649.08105910373
 20
6016.230931143567
 10
13649.08105910373
 20
5565.730931143538
 10
13624.08105910373
 20
5565.730931143538
  0
LWPOLYLINE
  5
10EBA1
330
115B80
100
AcDbEntity
  8
0
100
AcDbPolyline
 90
        4
 70
     1
 43
0.0
 10
2335.315618580447
 20
9989.767573201652
 10
2635.315618580447
 20
9989.767573201652
 10
2635.315618580447
 20
8209.767573201552
 10
2335.315618580447
 20
8209.767573201552
  0
LWPOLYLINE
  5
10ECA3
330
115B80
100
AcDbEntity
  8
0
100
AcDbPolyline
 90
        4
 70
     1
 43
0.0
 10
2935.315618580446
 20
9989.767573201652
 10
2635.315618580448
 20
9989.767573201652
 10
2635.315618580448
 20
8209.767573201552
 10
2935.315618580446
 20
8209.767573201552
  0
LWPOLYLINE
  5
10EDD7
330
115B80
100
AcDbEntity
  8
0
100
AcDbPolyline
 90
        9
 70
     1
 43
0.0
 10
2635.315618580447
 20
9939.767573201654
 10
2635.315618580447
 20
9989.767573201652
 10
2335.315618580447
 20
9989.767573201652
 10
2335.315618580446
 20
8209.767573201552
 10
2635.315618580447
 20
8209.767573201552
 10
2635.315618580448
 20
8259.767573201552
 10
2360.315618580447
 20
8259.767573201552
 10
2360.315618580447
 20
9939.767573201654
 10
2635.315618580447
 20
9939.767573201654
  0
LWPOLYLINE
  5
10EF2D
330
115B80
100
AcDbEntity
  8
0
100
AcDbPolyline
 90
        4
 70
     1
 43
0.0
 10
649.2500000000067
 20
2580.694289085412
 10
650.7500000000065
 20
2580.694289085412
 10
650.7500000000065
 20
2592.694289085392
 10
649.2500000000067
 20
2592.694289085392
  0
CIRCLE
  5
10EF2E
330
115B80
100
AcDbEntity
  8
0
100
AcDbCircle
 10
650.000000000006
 20
2587.194289085392
 30
0.0
 40
11.49999999999636
  0
LWPOLYLINE
  5
10EF31
330
115B80
100
AcDbEntity
  8
0
100
AcDbPolyline
 90
        4
 70
     1
 43
0.0
 10
600.0000000000063
 20
3031.69428908543
 10
900.0000000000055
 20
3031.69428908543
 10
900.0000000000063
 20
3921.694289085478
 10
600.0000000000063
 20
3921.694289085478
  0
LWPOLYLINE
  5
10EF32
330
115B80
100
AcDbEntity
  8
0
100
AcDbPolyline
 90
        4
 70
     1
 43
0.0
 10
900.0000000000069
 20
3031.694289085437
 10
950.0000000000067
 20
3031.694289085437
 10
950.0000000000067
 20
2141.694289085381
 10
900.0000000000069
 20
2141.694289085381
  0
LWPOLYLINE
  5
10EF33
330
115B80
100
AcDbEntity
  8
0
100
AcDbPolyline
 90
        4
 70
     1
 43
0.0
 10
600.0000000000063
 20
3031.69428908543
 10
900.0000000000055
 20
3031.69428908543
 10
900.0000000000063
 20
2141.694289085381
 10
600.0000000000063
 20
2141.694289085381
  0
LWPOLYLINE
  5
10EF39
330
115B80
100
AcDbEntity
  8
0
100
AcDbPolyline
 90
        4
 70
     1
 43
0.0
 10
1138.500000000012
 20
3467.194289085437
 10
1138.500000000012
 20
3487.194289085437
 10
1183.500000000011
 20
3487.194289085437
 10
1183.500000000011
 20
3467.194289085437
  0
ARC
  5
10EF3A
330
115B80
100
AcDbEntity
  8
0
100
AcDbCircle
 10
1183.500000000011
 20
3477.194289085457
 30
0.0
 40
10.0
100
AcDbArc
 50
270.0
 51
90.0
  0
LWPOLYLINE
  5
10EF3B
330
115B80
100
AcDbEntity
  8
0
100
AcDbPolyline
 90
        2
 70
     1
 43
0.0
 10
1183.500000000011
 20
3467.194289085368
 42
0.9999999999999998
 10
1183.500000000011
 20
3487.194289085368
  0
LWPOLYLINE
  5
10EF3C
330
115B80
100
AcDbEntity
  8
0
100
AcDbPolyline
 90
        4
 70
     1
 43
0.0
 10
1200.00000000001
 20
3921.694289085478
 10
900.0000000000094
 20
3921.694289085478
 10
900.0000000000085
 20
3031.694289085437
 10
1200.000000000008
 20
3031.694289085437
  0
LWPOLYLINE
  5
10EF3D
330
115B80
100
AcDbEntity
  8
0
100
AcDbPolyline
 90
        9
 70
     1
 43
0.0
 10
900.0000000000078
 20
3871.694289085477
 10
900.0000000000078
 20
3921.694289085478
 10
600.0000000000084
 20
3921.694289085478
 10
600.0000000000084
 20
3031.69428908543
 10
625.0000000000084
 20
3031.694289085437
 10
625.0000000000084
 20
3031.694289085437
 10
625.0000000000084
 20
3031.694289085437
 10
625.0000000000084
 20
3871.694289085477
 10
900.0000000000078
 20
3871.694289085477
  0
LWPOLYLINE
  5
10EF60
330
115B80
100
AcDbEntity
  8
0
100
AcDbPolyline
 90
        4
 70
     1
 43
0.0
 10
8901.466158742993
 20
3689.694289085478
 10
8901.466158742993
 20
3709.694289085478
 10
8946.466158742995
 20
3709.694289085478
 10
8946.466158742995
 20
3689.694289085478
  0
ARC
  5
10EF61
330
115B80
100
AcDbEntity
  8
0
100
AcDbCircle
 10
8946.466158742995
 20
3699.694289085477
 30
0.0
 40
10.0
100
AcDbArc
 50
270.0
 51
90.0
  0
LWPOLYLINE
  5
10EF62
330
115B80
100
AcDbEntity
  8
0
100
AcDbPolyline
 90
        2
 70
     1
 43
0.0
 10
8946.466158742995
 20
3689.694289085397
 42
0.9999999999999998
 10
8946.466158742995
 20
3709.69428908539
  0
LWPOLYLINE
  5
10EF63
330
115B80
100
AcDbEntity
  8
0
100
AcDbPolyline
 90
        4
 70
     1
 43
0.0
 10
8962.966158742991
 20
3921.694289085498
 10
8662.966158742991
 20
3921.694289085498
 10
8662.966158742991
 20
3476.694289085471
 10
8962.96615874299
 20
3476.694289085471
  0
CIRCLE
  5
10EFB5
330
115B80
100
AcDbEntity
  8
0
100
AcDbCircle
 10
8412.966158742991
 20
2809.694289085426
 30
0.0
 40
11.49999999999636
  0
LWPOLYLINE
  5
10EFB6
330
115B80
100
AcDbEntity
  8
0
100
AcDbPolyline
 90
        4
 70
     1
 43
0.0
 10
8412.216158742993
 20
2803.194289085443
 10
8413.716158742993
 20
2803.194289085443
 10
8413.716158742993
 20
2815.194289085426
 10
8412.216158742993
 20
2815.194289085426
  0
LWPOLYLINE
  5
10EFB7
330
115B80
100
AcDbEntity
  8
0
100
AcDbPolyline
 90
        4
 70
     1
 43
0.0
 10
8412.216158742993
 20
2355.976153374808
 10
8413.716158742993
 20
2355.976153374808
 10
8413.716158742993
 20
2367.97615337479
 10
8412.216158742993
 20
2367.97615337479
  0
CIRCLE
  5
10EFB8
330
115B80
100
AcDbEntity
  8
0
100
AcDbCircle
 10
8412.966158742991
 20
2362.47615337479
 30
0.0
 40
11.49999999999636
  0
CIRCLE
  5
10EFB9
330
115B80
100
AcDbEntity
  8
0
100
AcDbCircle
 10
8412.966158742991
 20
3252.476153374841
 30
0.0
 40
11.49999999999636
  0
LWPOLYLINE
  5
10EFBA
330
115B80
100
AcDbEntity
  8
0
100
AcDbPolyline
 90
        4
 70
     1
 43
0.0
 10
8412.216158742993
 20
3245.976153374863
 10
8413.716158742993
 20
3245.976153374863
 10
8413.716158742993
 20
3257.976153374846
 10
8412.216158742993
 20
3257.976153374846
  0
LWPOLYLINE
  5
10EFBB
330
115B80
100
AcDbEntity
  8
0
100
AcDbPolyline
 90
        4
 70
     1
 43
0.0
 10
8362.966158742993
 20
3476.694289085471
 10
8662.966158742991
 20
3476.694289085471
 10
8662.966158742991
 20
3031.694289085448
 10
8362.966158742993
 20
3031.694289085448
  0
LWPOLYLINE
  5
10EFBC
330
115B80
100
AcDbEntity
  8
0
100
AcDbPolyline
 90
        4
 70
     1
 43
0.0
 10
8362.966158742993
 20
3921.694289085498
 10
8662.966158742991
 20
3921.694289085498
 10
8662.966158742991
 20
3476.694289085471
 10
8362.966158742993
 20
3476.694289085471
  0
LWPOLYLINE
  5
10EFBD
330
115B80
100
AcDbEntity
  8
0
100
AcDbPolyline
 90
        4
 70
     1
 43
0.0
 10
8362.966158742993
 20
3031.694289085448
 10
8662.966158742991
 20
3031.694289085448
 10
8662.966158742991
 20
2586.694289085422
 10
8362.966158742993
 20
2586.694289085422
  0
LWPOLYLINE
  5
10EFBE
330
115B80
100
AcDbEntity
  8
0
100
AcDbPolyline
 90
        4
 70
     1
 43
0.0
 10
8362.966158742993
 20
2586.694289085422
 10
8662.966158742991
 20
2586.694289085422
 10
8662.966158742991
 20
2141.694289085395
 10
8362.966158742993
 20
2141.694289085395
  0
LWPOLYLINE
  5
10EFC7
330
115B80
100
AcDbEntity
  8
0
100
AcDbPolyline
 90
        4
 70
     1
 43
0.0
 10
8662.96615874299
 20
3476.694289085471
 10
8712.96615874299
 20
3476.694289085471
 10
8712.96615874299
 20
2141.694289085395
 10
8662.96615874299
 20
2141.694289085395
  0
LWPOLYLINE
  5
10EFC9
330
115B80
100
AcDbEntity
  8
0
100
AcDbPolyline
 90
        9
 70
     1
 43
0.0
 10
8662.96615874299
 20
3871.694289085506
 10
8662.96615874299
 20
3921.694289085498
 10
8362.966158742993
 20
3921.694289085498
 10
8362.966158742993
 20
3476.694289085471
 10
8387.96615874299
 20
3476.694289085471
 10
8387.96615874299
 20
3476.694289085471
 10
8387.96615874299
 20
3476.694289085471
 10
8387.96615874299
 20
3871.694289085506
 10
8662.96615874299
 20
3871.694289085506
  0
LWPOLYLINE
  5
10F8E4
330
115B80
100
AcDbEntity
  8
0
100
AcDbPolyline
 90
        4
 70
     1
 43
0.0
 10
4070.631237160887
 20
9989.767573201523
 10
4370.631237160888
 20
9989.767573201523
 10
4370.631237160888
 20
8209.767573201432
 10
4070.631237160887
 20
8209.767573201432
  0
LWPOLYLINE
  5
10F8E5
330
115B80
100
AcDbEntity
  8
0
100
AcDbPolyline
 90
        4
 70
     1
 43
0.0
 10
4670.631237160888
 20
9989.767573201523
 10
4370.631237160888
 20
9989.767573201523
 10
4370.631237160888
 20
8209.767573201432
 10
4670.631237160888
 20
8209.767573201432
  0
LWPOLYLINE
  5
10F8E6
330
115B80
100
AcDbEntity
  8
0
100
AcDbPolyline
 90
        9
 70
     1
 43
0.0
 10
4370.631237160888
 20
9939.767573201529
 10
4370.631237160888
 20
9989.767573201523
 10
4070.631237160887
 20
9989.767573201523
 10
4070.631237160887
 20
8209.767573201432
 10
4370.631237160888
 20
8209.767573201432
 10
4370.631237160888
 20
8259.767573201425
 10
4095.631237160886
 20
8259.767573201425
 10
4095.631237160886
 20
9939.767573201529
 10
4370.631237160888
 20
9939.767573201529
  0
LWPOLYLINE
  5
10F8E7
330
115B80
100
AcDbEntity
  8
0
100
AcDbPolyline
 90
        9
 70
     1
 43
0.0
 10
8662.96615874299
 20
9939.767573201667
 10
8662.96615874299
 20
9989.767573201656
 10
8362.966158742985
 20
9989.767573201656
 10
8362.966158742985
 20
8209.767573201572
 10
8662.96615874299
 20
8209.767573201572
 10
8662.96615874299
 20
8259.767573201572
 10
8387.966158742987
 20
8259.767573201572
 10
8387.966158742987
 20
9939.767573201667
 10
8662.96615874299
 20
9939.767573201667
  0
LWPOLYLINE
  5
10F8E8
330
115B80
100
AcDbEntity
  8
0
100
AcDbPolyline
 90
        4
 70
     1
 43
0.0
 10
8962.966158742987
 20
9989.767573201656
 10
8662.96615874299
 20
9989.767573201656
 10
8662.96615874299
 20
8209.767573201572
 10
8962.966158742987
 20
8209.767573201572
  0
LWPOLYLINE
  5
10F8E9
330
115B80
100
AcDbEntity
  8
0
100
AcDbPolyline
 90
        4
 70
     1
 43
0.0
 10
8362.966158742985
 20
9989.767573201656
 10
8662.96615874299
 20
9989.767573201656
 10
8662.96615874299
 20
8209.767573201572
 10
8362.966158742985
 20
8209.767573201572
  0
LWPOLYLINE
  5
10F8F8
330
115B80
100
AcDbEntity
  8
0
100
AcDbPolyline
 90
        4
 70
     1
 43
0.0
 10
10098.28177732342
 20
9989.767573201538
 10
10398.28177732343
 20
9989.767573201538
 10
10398.28177732343
 20
8209.76757320145
 10
10098.28177732342
 20
8209.76757320145
  0
LWPOLYLINE
  5
10F8F9
330
115B80
100
AcDbEntity
  8
0
100
AcDbPolyline
 90
        4
 70
     1
 43
0.0
 10
10698.28177732343
 20
9989.767573201538
 10
10398.28177732343
 20
9989.767573201538
 10
10398.28177732343
 20
8209.76757320145
 10
10698.28177732343
 20
8209.76757320145
  0
LWPOLYLINE
  5
10F8FA
330
115B80
100
AcDbEntity
  8
0
100
AcDbPolyline
 90
        9
 70
     1
 43
0.0
 10
10398.28177732343
 20
9939.76757320155
 10
10398.28177732343
 20
9989.767573201538
 10
10098.28177732342
 20
9989.767573201538
 10
10098.28177732342
 20
8209.76757320145
 10
10398.28177732343
 20
8209.76757320145
 10
10398.28177732343
 20
8259.76757320145
 10
10123.28177732342
 20
8259.76757320145
 10
10123.28177732342
 20
9939.76757320155
 10
10398.28177732343
 20
9939.76757320155
  0
LWPOLYLINE
  5
10FA03
330
115B80
100
AcDbEntity
  8
0
100
AcDbPolyline
 90
        4
 70
     1
 43
0.0
 10
10251.78177732343
 20
8259.76757320145
 10
10251.78177732343
 20
9739.767573201607
 10
10269.78177732342
 20
9739.767573201607
 10
10269.78177732342
 20
8259.76757320145
  0
LWPOLYLINE
  5
10FAFD
330
115B80
100
AcDbEntity
  8
0
100
AcDbPolyline
 90
        4
 70
     1
 43
0.0
 10
4095.63123716089
 20
9109.76757320147
 10
4370.631237160888
 20
9109.76757320147
 10
4370.631237160888
 20
9089.767573201472
 10
4095.63123716089
 20
9089.767573201472
  0
LWPOLYLINE
  5
112919
330
115B80
100
AcDbEntity
  8
0
100
AcDbPolyline
 90
        4
 70
     1
 43
0.0
 10
4095.63123716089
 20
9409.767573201472
 10
4370.631237160888
 20
9409.767573201472
 10
4370.631237160888
 20
9389.767573201472
 10
4095.63123716089
 20
9389.767573201472
  0
LWPOLYLINE
  5
11291A
330
115B80
100
AcDbEntity
  8
0
100
AcDbPolyline
 90
        4
 70
     1
 43
0.0
 10
4095.63123716089
 20
9709.767573201472
 10
4370.631237160888
 20
9709.767573201472
 10
4370.631237160888
 20
9689.76757320147
 10
4095.63123716089
 20
9689.76757320147
  0
LWPOLYLINE
  5
11291B
330
115B80
100
AcDbEntity
  8
0
100
AcDbPolyline
 90
        4
 70
     1
 43
0.0
 10
4095.63123716089
 20
8489.767573201472
 10
4370.631237160888
 20
8489.767573201472
 10
4370.631237160888
 20
8509.767573201472
 10
4095.63123716089
 20
8509.767573201472
  0
LWPOLYLINE
  5
11291C
330
115B80
100
AcDbEntity
  8
0
100
AcDbPolyline
 90
        4
 70
     1
 43
0.0
 10
4095.63123716089
 20
8789.76757320147
 10
4370.631237160888
 20
8789.76757320147
 10
4370.631237160888
 20
8809.767573201472
 10
4095.63123716089
 20
8809.767573201472
  0
LWPOLYLINE
  5
11291F
330
115B80
100
AcDbEntity
  8
0
100
AcDbPolyline
 90
        4
 70
     1
 43
0.0
 10
2360.315618580449
 20
9409.767573201472
 10
2635.315618580448
 20
9409.767573201472
 10
2635.315618580448
 20
9389.767573201472
 10
2360.315618580449
 20
9389.767573201472
  0
LWPOLYLINE
  5
112920
330
115B80
100
AcDbEntity
  8
0
100
AcDbPolyline
 90
        4
 70
     1
 43
0.0
 10
2360.315618580449
 20
8789.76757320147
 10
2635.315618580448
 20
8789.76757320147
 10
2635.315618580448
 20
8809.767573201472
 10
2360.315618580449
 20
8809.767573201472
  0
LWPOLYLINE
  5
112924
330
115B80
100
AcDbEntity
  8
0
100
AcDbPolyline
 90
        4
 70
     1
 43
0.0
 10
8387.966158742987
 20
9759.767573201727
 10
8662.96615874299
 20
9759.767573201727
 10
8662.96615874299
 20
9739.767573201727
 10
8387.966158742987
 20
9739.767573201727
  0
LWPOLYLINE
  5
112927
330
115B80
100
AcDbEntity
  8
0
100
AcDbPolyline
 90
        4
 70
     1
 43
0.0
 10
10123.28177732343
 20
9759.767573201607
 10
10398.28177732343
 20
9759.767573201607
 10
10398.28177732343
 20
9739.767573201607
 10
10123.28177732343
 20
9739.767573201607
  0
LWPOLYLINE
  5
112939
330
115B80
100
AcDbEntity
  8
0
100
AcDbPolyline
 90
       14
 70
     1
 43
0.0
 10
8387.966158742987
 20
9709.110718952235
 10
8430.451440117233
 20
9666.625437577999
 42
0.1989123673797145
 10
8444.593575740964
 20
9660.767573201727
 10
8537.96615874299
 20
9660.767573201727
 10
8631.338741745009
 20
9660.767573201727
 42
0.1989123673797145
 10
8645.48087736874
 20
9666.625437577999
 10
8662.96615874299
 20
9684.110718952237
 10
8662.966158742982
 20
9695.424427451233
 10
8639.824023119243
 20
9672.282291827476
 42
-0.1989123673796878
 10
8631.33874174501
 20
9668.767573201729
 10
8537.96615874299
 20
9668.767573201729
 10
8444.593575740959
 20
9668.767573201729
 42
-0.1989123673796878
 10
8436.108294366722
 20
9672.282291827476
 10
8387.966158742987
 20
9720.424427451231
  0
LWPOLYLINE
  5
112944
330
115B80
100
AcDbEntity
  8
0
100
AcDbPolyline
 90
        4
 70
     1
 43
0.0
 10
625.0000000000095
 20
3041.69428908543
 10
900.0000000000085
 20
3041.69428908543
 10
900.0000000000055
 20
3031.69428908543
 10
625.0000000000084
 20
3031.69428908543
  0
LWPOLYLINE
  5
112945
330
115B80
100
AcDbEntity
  8
0
100
AcDbPolyline
 90
        4
 70
     1
 43
0.0
 10
2360.315618580452
 20
3041.694289085311
 10
2635.315618580451
 20
3041.694289085311
 10
2635.315618580451
 20
3031.694289085308
 10
2360.315618580452
 20
3031.694289085308
  0
LWPOLYLINE
  5
112948
330
115B80
100
AcDbEntity
  8
0
100
AcDbPolyline
 90
        9
 70
     1
 43
0.0
 10
2635.315618580449
 20
3871.694289085359
 10
2635.315618580449
 20
3921.694289085359
 10
2335.31561858045
 20
3921.694289085359
 10
2335.31561858045
 20
3031.694289085308
 10
2360.31561858045
 20
3031.694289085314
 10
2360.31561858045
 20
3031.694289085314
 10
2360.31561858045
 20
3031.694289085314
 10
2360.31561858045
 20
3871.694289085359
 10
2635.315618580449
 20
3871.694289085359
  0
LWPOLYLINE
  5
112949
330
115B80
100
AcDbEntity
  8
0
100
AcDbPolyline
 90
        4
 70
     1
 43
0.0
 10
2935.315618580452
 20
3921.694289085359
 10
2635.315618580452
 20
3921.694289085359
 10
2635.315618580451
 20
3031.694289085314
 10
2935.31561858045
 20
3031.694289085314
  0
LWPOLYLINE
  5
11294A
330
115B80
100
AcDbEntity
  8
0
100
AcDbPolyline
 90
        2
 70
     1
 43
0.0
 10
2918.815618580453
 20
3467.194289085246
 42
0.9999999999999998
 10
2918.815618580453
 20
3487.194289085246
  0
ARC
  5
11294B
330
115B80
100
AcDbEntity
  8
0
100
AcDbCircle
 10
2918.815618580453
 20
3477.194289085338
 30
0.0
 40
10.0
100
AcDbArc
 50
270.0
 51
90.0
  0
LWPOLYLINE
  5
11294C
330
115B80
100
AcDbEntity
  8
0
100
AcDbPolyline
 90
        4
 70
     1
 43
0.0
 10
2873.815618580455
 20
3467.194289085313
 10
2873.815618580455
 20
3487.194289085314
 10
2918.815618580453
 20
3487.194289085314
 10
2918.815618580453
 20
3467.194289085313
  0
LWPOLYLINE
  5
11294D
330
115B80
100
AcDbEntity
  8
0
100
AcDbPolyline
 90
        4
 70
     1
 43
0.0
 10
2335.315618580447
 20
3031.694289085308
 10
2635.315618580448
 20
3031.694289085308
 10
2635.315618580448
 20
2141.694289085259
 10
2335.315618580448
 20
2141.694289085259
  0
LWPOLYLINE
  5
11294E
330
115B80
100
AcDbEntity
  8
0
100
AcDbPolyline
 90
        4
 70
     1
 43
0.0
 10
2635.315618580448
 20
3031.694289085314
 10
2685.315618580448
 20
3031.694289085314
 10
2685.315618580448
 20
2141.694289085259
 10
2635.315618580448
 20
2141.694289085259
  0
LWPOLYLINE
  5
11294F
330
115B80
100
AcDbEntity
  8
0
100
AcDbPolyline
 90
        4
 70
     1
 43
0.0
 10
2335.315618580447
 20
3031.694289085308
 10
2635.315618580448
 20
3031.694289085308
 10
2635.315618580448
 20
3921.694289085359
 10
2335.315618580448
 20
3921.694289085359
  0
CIRCLE
  5
112950
330
115B80
100
AcDbEntity
  8
0
100
AcDbCircle
 10
2385.315618580447
 20
2587.194289085271
 30
0.0
 40
11.49999999999636
  0
LWPOLYLINE
  5
112951
330
115B80
100
AcDbEntity
  8
0
100
AcDbPolyline
 90
        4
 70
     1
 43
0.0
 10
2384.565618580448
 20
2580.694289085291
 10
2386.065618580448
 20
2580.694289085291
 10
2386.065618580448
 20
2592.694289085271
 10
2384.565618580448
 20
2592.694289085271
  0
LWPOLYLINE
  5
11296C
330
115B80
100
AcDbEntity
  8
0
100
AcDbPolyline
 90
        4
 70
     1
 43
0.0
 10
2360.315618580452
 20
3491.694289085311
 10
2635.315618580451
 20
3491.694289085311
 10
2635.315618580451
 20
3471.694289085311
 10
2360.315618580452
 20
3471.694289085311
  0
LWPOLYLINE
  5
11297C
330
115B80
100
AcDbEntity
  8
0
100
AcDbPolyline
 90
        9
 70
     1
 43
0.0
 10
10398.28177732343
 20
3871.694289085382
 10
10398.28177732343
 20
3921.694289085377
 10
10098.28177732343
 20
3921.694289085377
 10
10098.28177732343
 20
3476.694289085347
 10
10123.28177732343
 20
3476.694289085347
 10
10123.28177732343
 20
3476.694289085347
 10
10123.28177732343
 20
3476.694289085347
 10
10123.28177732343
 20
3871.694289085382
 10
10398.28177732343
 20
3871.694289085382
  0
LWPOLYLINE
  5
11297D
330
115B80
100
AcDbEntity
  8
0
100
AcDbPolyline
 90
        4
 70
     1
 43
0.0
 10
10398.28177732343
 20
3476.694289085347
 10
10448.28177732343
 20
3476.694289085347
 10
10448.28177732343
 20
2141.694289085272
 10
10398.28177732343
 20
2141.694289085272
  0
LWPOLYLINE
  5
11297E
330
115B80
100
AcDbEntity
  8
0
100
AcDbPolyline
 90
        4
 70
     1
 43
0.0
 10
10098.28177732343
 20
2586.694289085301
 10
10398.28177732343
 20
2586.694289085301
 10
10398.28177732343
 20
2141.694289085272
 10
10098.28177732343
 20
2141.694289085272
  0
LWPOLYLINE
  5
11297F
330
115B80
100
AcDbEntity
  8
0
100
AcDbPolyline
 90
        4
 70
     1
 43
0.0
 10
10098.28177732343
 20
3031.694289085327
 10
10398.28177732343
 20
3031.694289085327
 10
10398.28177732343
 20
2586.694289085301
 10
10098.28177732343
 20
2586.694289085301
  0
LWPOLYLINE
  5
112980
330
115B80
100
AcDbEntity
  8
0
100
AcDbPolyline
 90
        4
 70
     1
 43
0.0
 10
10098.28177732343
 20
3921.694289085377
 10
10398.28177732343
 20
3921.694289085377
 10
10398.28177732343
 20
3476.694289085347
 10
10098.28177732343
 20
3476.694289085347
  0
LWPOLYLINE
  5
112981
330
115B80
100
AcDbEntity
  8
0
100
AcDbPolyline
 90
        4
 70
     1
 43
0.0
 10
10098.28177732343
 20
3476.694289085347
 10
10398.28177732343
 20
3476.694289085347
 10
10398.28177732343
 20
3031.694289085327
 10
10098.28177732343
 20
3031.694289085327
  0
LWPOLYLINE
  5
112982
330
115B80
100
AcDbEntity
  8
0
100
AcDbPolyline
 90
        4
 70
     1
 43
0.0
 10
10147.53177732343
 20
3245.976153374741
 10
10149.03177732343
 20
3245.976153374741
 10
10149.03177732343
 20
3257.976153374724
 10
10147.53177732343
 20
3257.976153374724
  0
CIRCLE
  5
112983
330
115B80
100
AcDbEntity
  8
0
100
AcDbCircle
 10
10148.28177732343
 20
3252.47615337472
 30
0.0
 40
11.49999999999636
  0
CIRCLE
  5
112984
330
115B80
100
AcDbEntity
  8
0
100
AcDbCircle
 10
10148.28177732343
 20
2362.476153374669
 30
0.0
 40
11.49999999999636
  0
LWPOLYLINE
  5
112985
330
115B80
100
AcDbEntity
  8
0
100
AcDbPolyline
 90
        4
 70
     1
 43
0.0
 10
10147.53177732343
 20
2355.976153374686
 10
10149.03177732343
 20
2355.976153374686
 10
10149.03177732343
 20
2367.976153374669
 10
10147.53177732343
 20
2367.976153374669
  0
LWPOLYLINE
  5
112986
330
115B80
100
AcDbEntity
  8
0
100
AcDbPolyline
 90
        4
 70
     1
 43
0.0
 10
10147.53177732343
 20
2803.194289085321
 10
10149.03177732343
 20
2803.194289085321
 10
10149.03177732343
 20
2815.194289085305
 10
10147.53177732343
 20
2815.194289085305
  0
CIRCLE
  5
112987
330
115B80
100
AcDbEntity
  8
0
100
AcDbCircle
 10
10148.28177732343
 20
2809.694289085305
 30
0.0
 40
11.49999999999636
  0
LWPOLYLINE
  5
112988
330
115B80
100
AcDbEntity
  8
0
100
AcDbPolyline
 90
        4
 70
     1
 43
0.0
 10
10698.28177732343
 20
3921.694289085377
 10
10398.28177732343
 20
3921.694289085377
 10
10398.28177732343
 20
3476.694289085347
 10
10698.28177732343
 20
3476.694289085347
  0
LWPOLYLINE
  5
112989
330
115B80
100
AcDbEntity
  8
0
100
AcDbPolyline
 90
        2
 70
     1
 43
0.0
 10
10681.78177732343
 20
3689.694289085277
 42
0.9999999999999998
 10
10681.78177732343
 20
3709.694289085269
  0
ARC
  5
11298A
330
115B80
100
AcDbEntity
  8
0
100
AcDbCircle
 10
10681.78177732343
 20
3699.694289085355
 30
0.0
 40
10.0
100
AcDbArc
 50
270.0
 51
90.0
  0
LWPOLYLINE
  5
11298B
330
115B80
100
AcDbEntity
  8
0
100
AcDbPolyline
 90
        4
 70
     1
 43
0.0
 10
10636.78177732343
 20
3689.694289085356
 10
10636.78177732343
 20
3709.694289085357
 10
10681.78177732343
 20
3709.694289085357
 10
10681.78177732343
 20
3689.694289085356
  0
LWPOLYLINE
  5
11298C
330
115B80
100
AcDbEntity
  8
0
100
AcDbPolyline
 90
        4
 70
     1
 43
0.0
 10
10123.28177732343
 20
3691.694289085331
 10
10398.28177732343
 20
3691.694289085331
 10
10398.28177732343
 20
3671.694289085332
 10
10123.28177732343
 20
3671.694289085332
  0
LWPOLYLINE
  5
1135EA
330
115B80
100
AcDbEntity
  8
0
100
AcDbPolyline
 90
        4
 70
     1
 43
0.0
 10
8387.966158742996
 20
3486.69428908547
 10
8662.966158742993
 20
3486.69428908547
 10
8662.966158742991
 20
3476.694289085471
 10
8387.966158742993
 20
3476.694289085471
  0
LWPOLYLINE
  5
1135F6
330
115B80
100
AcDbEntity
  8
0
100
AcDbPolyline
 90
        4
 70
     1
 43
0.0
 10
10123.28177732344
 20
3486.694289085347
 10
10398.28177732343
 20
3486.694289085347
 10
10398.28177732343
 20
3476.694289085347
 10
10123.28177732343
 20
3476.694289085347
  0
LWPOLYLINE
  5
113CF0
330
115B80
100
AcDbEntity
  8
0
100
AcDbPolyline
 90
        4
 70
     1
 43
0.0
 10
7762.966158742984
 20
13369.76757320156
 10
14788.33810698144
 20
13369.76757320157
 10
14788.33810698144
 20
7609.767573201569
 10
7762.966158742984
 20
7609.767573201567
  0
LWPOLYLINE
  5
113CF2
330
115B80
100
AcDbEntity
  8
0
100
AcDbPolyline
 90
        4
 70
     1
 43
0.0
 10
7762.966158742984
 20
7055.73093114312
 10
14788.33810698144
 20
7055.730931143123
 10
14788.33810698144
 20
1541.694289085385
 10
7762.966158742985
 20
1541.694289085384
  0
LWPOLYLINE
  5
113D0A
330
115B80
100
AcDbEntity
  8
0
100
AcDbPolyline
 90
        2
 70
     1
 43
0.0
 10
10681.78177732343
 20
9164.767573201607
 42
0.9999999999999998
 10
10681.78177732343
 20
9184.767573201603
  0
ARC
  5
113D0B
330
115B80
100
AcDbEntity
  8
0
100
AcDbCircle
 10
10681.78177732343
 20
9174.767573201683
 30
0.0
 40
10.0
100
AcDbArc
 50
270.0
 51
90.0
  0
LWPOLYLINE
  5
113D0C
330
115B80
100
AcDbEntity
  8
0
100
AcDbPolyline
 90
        4
 70
     1
 43
0.0
 10
10636.78177732343
 20
9164.767573201687
 10
10636.78177732343
 20
9184.767573201692
 10
10681.78177732343
 20
9184.767573201692
 10
10681.78177732343
 20
9164.767573201687
  0
LWPOLYLINE
  5
113D0D
330
115B80
100
AcDbEntity
  8
0
100
AcDbPolyline
 90
        4
 70
     1
 43
0.0
 10
8901.466158742993
 20
9164.767573201807
 10
8901.466158742993
 20
9184.767573201807
 10
8946.466158742995
 20
9184.767573201807
 10
8946.466158742995
 20
9164.767573201807
  0
ARC
  5
113D0E
330
115B80
100
AcDbEntity
  8
0
100
AcDbCircle
 10
8946.466158742995
 20
9174.767573201807
 30
0.0
 40
10.0
100
AcDbArc
 50
270.0
 51
90.0
  0
LWPOLYLINE
  5
113D0F
330
115B80
100
AcDbEntity
  8
0
100
AcDbPolyline
 90
        2
 70
     1
 43
0.0
 10
8946.466158742995
 20
9164.767573201727
 42
0.9999999999999998
 10
8946.466158742995
 20
9184.767573201727
  0
LWPOLYLINE
  5
113D1C
330
115B80
100
AcDbEntity
  8
0
100
AcDbPolyline
 90
        4
 70
     1
 43
0.0
 10
8412.216158742982
 20
12194.23093114391
 10
8413.716158742982
 20
12194.23093114391
 10
8413.716158742982
 20
12206.23093114388
 10
8412.216158742982
 20
12206.23093114388
  0
CIRCLE
  5
113D1D
330
115B80
100
AcDbEntity
  8
0
100
AcDbCircle
 10
8412.966158742982
 20
12200.73093114388
 30
0.0
 40
11.49999999999636
  0
LWPOLYLINE
  5
113D1E
330
115B80
100
AcDbEntity
  8
0
100
AcDbPolyline
 90
        4
 70
     1
 43
0.0
 10
13624.08105910372
 20
13026.73093114393
 10
13649.08105910372
 20
13026.73093114393
 10
13649.08105910372
 20
11224.73093114385
 10
13624.08105910372
 20
11224.73093114385
  0
LWPOLYLINE
  5
113D1F
330
115B80
100
AcDbEntity
  8
0
100
AcDbPolyline
 90
        4
 70
     1
 43
0.0
 10
8362.966158742985
 20
13026.73093114392
 10
8662.966158742982
 20
13026.73093114392
 10
8662.966158742982
 20
11224.73093114384
 10
8362.966158742985
 20
11224.73093114384
  0
LWPOLYLINE
  5
113D20
330
115B80
100
AcDbEntity
  8
0
100
AcDbPolyline
 90
        4
 70
     1
 43
0.0
 10
8662.966158742982
 20
13026.73093114392
 10
8712.966158742982
 20
13026.73093114392
 10
8712.966158742982
 20
11224.73093114384
 10
8662.966158742982
 20
11224.73093114384
  0
LWPOLYLINE
  5
113D21
330
115B80
100
AcDbEntity
  8
0
100
AcDbPolyline
 90
        4
 70
     1
 43
0.0
 10
13259.08105910371
 20
13026.73093114393
 10
13624.08105910372
 20
13026.73093114393
 10
13624.08105910372
 20
11224.73093114385
 10
13259.08105910371
 20
11224.73093114385
  0
LWPOLYLINE
  5
113D28
330
115B80
100
AcDbEntity
  8
0
100
AcDbPolyline
 90
        9
 70
     1
 43
0.0
 10
900.0000000000044
 20
9939.767573201783
 10
900.0000000000044
 20
9989.767573201783
 10
600.0000000000047
 20
9989.767573201783
 10
600.0000000000045
 20
8209.767573201683
 10
900.0000000000044
 20
8209.767573201683
 10
900.0000000000055
 20
8259.767573201683
 10
625.0000000000045
 20
8259.767573201683
 10
625.0000000000045
 20
9939.767573201783
 10
900.0000000000044
 20
9939.767573201783
  0
LWPOLYLINE
  5
113D29
330
115B80
100
AcDbEntity
  8
0
100
AcDbPolyline
 90
        4
 70
     1
 43
0.0
 10
1200.000000000004
 20
9989.767573201783
 10
900.0000000000055
 20
9989.767573201783
 10
900.0000000000055
 20
8209.767573201683
 10
1200.000000000004
 20
8209.767573201683
  0
LWPOLYLINE
  5
113D2A
330
115B80
100
AcDbEntity
  8
0
100
AcDbPolyline
 90
        4
 70
     1
 43
0.0
 10
600.0000000000047
 20
9989.767573201783
 10
900.0000000000044
 20
9989.767573201783
 10
900.0000000000044
 20
8209.767573201683
 10
600.0000000000047
 20
8209.767573201683
  0
LWPOLYLINE
  5
114861
330
115B80
100
AcDbEntity
  8
0
100
AcDbPolyline
 90
        8
 70
     1
 43
0.0
 10
10251.78177732343
 20
9668.767573201607
 10
10179.90919432139
 20
9668.767573201607
 42
-0.1989123673796878
 10
10171.42391294716
 20
9672.282291827356
 10
10123.28177732342
 20
9720.424427451113
 10
10123.28177732342
 20
9709.110718952115
 10
10165.76705869767
 20
9666.625437577879
 42
0.1989123673797145
 10
10179.9091943214
 20
9660.767573201607
 10
10251.78177732343
 20
9660.767573201607
  0
LWPOLYLINE
  5
114862
330
115B80
100
AcDbEntity
  8
0
100
AcDbPolyline
 90
       10
 70
     1
 43
0.0
 10
10269.78177732342
 20
9660.767573201607
 10
10273.28177732342
 20
9660.767573201607
 10
10366.65436032544
 20
9660.767573201607
 42
0.1989123673797145
 10
10380.79649594917
 20
9666.625437577879
 10
10398.28177732342
 20
9684.110718952115
 10
10398.28177732341
 20
9695.424427451113
 10
10375.13964169968
 20
9672.282291827356
 42
-0.1989123673796878
 10
10366.65436032545
 20
9668.767573201607
 10
10273.28177732342
 20
9668.767573201607
 10
10269.78177732342
 20
9668.767573201607
  0
VIEWPORT
  5
DAB74
330
115B7E
100
AcDbEntity
 67
     1
  8
0
100
AcDbViewport
 10
0.0
 20
0.0
 30
0.0
 40
10.87270777479893
 41
8.16
 68
     1
 69
     1
 12
6.065999999999998
 22
3.851238605898123
 13
0.0
 23
0.0
 14
0.5
 24
0.5
 15
0.0
 25
0.0
 16
0.0
 26
0.0
 36
1.0
 17
0.0
 27
0.0
 37
0.0
 42
50.0
 43
0.0
 44
0.0
 45
8.16
 50
0.0
 51
0.0
 72
   100
 90
   557296
  1

281
     0
 71
     0
 74
     0
110
0.0
120
0.0
130
0.0
111
1.0
121
0.0
131
0.0
112
0.0
122
1.0
132
0.0
 79
     0
146
0.0
170
     0
 61
     5
348
115BDE
292
     1
282
     1
141
0.0
142
0.0
 63
   256
  0
VIEWPORT
  5
DAB75
330
115B7E
100
AcDbEntity
 67
     1
  8
0
100
AcDbViewport
 10
5.25
 20
4.0
 30
0.0
 40
8.4
 41
6.4
 68
     2
 69
     2
 12
-238.8342129778575
 22
5240.682605436173
 13
0.0
 23
0.0
 14
0.5
 24
0.5
 15
0.0
 25
0.0
 16
0.0
 26
0.0
 36
1.0
 17
0.0
 27
0.0
 37
0.0
 42
50.0
 43
0.0
 44
0.0
 45
12730.99251508979
 50
0.0
 51
0.0
 72
   100
 90
   557280
  1

281
     0
 71
     0
 74
     0
110
0.0
120
0.0
130
0.0
111
1.0
121
0.0
131
0.0
112
0.0
122
1.0
132
0.0
 79
     0
146
0.0
170
     0
 61
     5
348
115BDE
292
     1
282
     1
141
0.0
142
0.0
 63
   256
  0
ENDSEC
  0
SECTION
  2
OBJECTS
  0
DICTIONARY
  5
115B70
330
0
100
AcDbDictionary
281
     1
  3
ACAD_DETAILVIEWSTYLE
350
115BFF
  3
ACAD_GROUP
350
115B71
  3
ACAD_LAYOUT
350
115B7D
  3
ACAD_MATERIAL
350
115B86
  3
ACAD_MLEADERSTYLE
350
115BF4
  3
ACAD_MLINESTYLE
350
115B7A
  3
ACAD_PLOTSETTINGS
350
115B7C
  3
ACAD_PLOTSTYLENAME
350
115B72
  3
ACAD_SCALELIST
350
115BB7
  3
ACAD_SECTIONVIEWSTYLE
350
115C00
  3
ACAD_TABLESTYLE
350
115BF2
  3
ACAD_VISUALSTYLE
350
115BD9
  3
ACDB_RECOMPOSE_DATA
350
115C05
  3
AcDbVariableDictionary
350
115BFA
  3
APPDATA
350
115BF6
  3
PRINTCONFIG
350
115C02
  0
SUN
  5
115C01
330
115B83
100
AcDbSun
 90
        1
290
     0
 63
     7
421
 16777215
 40
1.0
291
     1
 91
  2455826
 92
 54000000
292
     0
 70
     2
 71
   256
280
     1
  0
DICTIONARY
  5
115BF8
330
115B80
100
AcDbDictionary
280
     1
281
     1
  3
DIM_BOUNDING_BOXES_V1
360
115BF9
  0
DICTIONARY
  5
115BFF
102
{ACAD_REACTORS
330
115B70
102
}
330
115B70
100
AcDbDictionary
281
     1
  0
DICTIONARY
  5
115B71
102
{ACAD_REACTORS
330
115B70
102
}
330
115B70
100
AcDbDictionary
281
     1
  0
DICTIONARY
  5
115B7D
102
{ACAD_REACTORS
330
115B70
102
}
330
115B70
100
AcDbDictionary
281
     1
  3
Foglio1
350
115B7F
  3
Model
350
115B81
  0
DICTIONARY
  5
115B86
102
{ACAD_REACTORS
330
115B70
102
}
330
115B70
100
AcDbDictionary
281
     1
  3
ByBlock
350
115B88
  3
ByLayer
350
115B87
  3
Global
350
115B89
  0
DICTIONARY
  5
115BF4
102
{ACAD_REACTORS
330
115B70
102
}
330
115B70
100
AcDbDictionary
281
     1
  3
Standard
350
115BF5
  0
DICTIONARY
  5
115B7A
102
{ACAD_REACTORS
330
115B70
102
}
330
115B70
100
AcDbDictionary
281
     1
  3
Standard
350
115B7B
  0
DICTIONARY
  5
115B7C
102
{ACAD_REACTORS
330
115B70
102
}
330
115B70
100
AcDbDictionary
281
     1
  0
ACDBDICTIONARYWDFLT
  5
115B72
102
{ACAD_REACTORS
330
115B70
102
}
330
115B70
100
AcDbDictionary
281
     1
  3
Normal
350
115B73
100
AcDbDictionaryWithDefault
340
115B73
  0
DICTIONARY
  5
115BB7
102
{ACAD_REACTORS
330
115B70
102
}
330
115B70
100
AcDbDictionary
281
     1
  3
A0
350
115BB8
  3
A1
350
115BB9
  3
A2
350
115BBA
  3
A3
350
115BBB
  3
A4
350
115BBC
  3
A5
350
115BBD
  3
A6
350
115BBE
  3
A7
350
115BBF
  3
A8
350
115BC0
  3
A9
350
115BC1
  3
B0
350
115BC2
  3
B1
350
115BC3
  3
B2
350
115BC4
  3
B3
350
115BC5
  3
B4
350
115BC6
  3
B5
350
115BC7
  3
B6
350
115BC8
  3
B7
350
115BC9
  3
B8
350
115BCA
  3
B9
350
115BCB
  3
C0
350
115BCC
  3
C1
350
115BCD
  3
C2
350
115BCE
  3
C3
350
115BCF
  3
C4
350
115BD0
  3
C5
350
115BD1
  3
C6
350
115BD2
  3
C7
350
115BD3
  3
C8
350
115BD4
  3
C9
350
115BD5
  3
D0
350
115BD6
  3
D1
350
115BD7
  3
D2
350
115BD8
  0
DICTIONARY
  5
115C00
102
{ACAD_REACTORS
330
115B70
102
}
330
115B70
100
AcDbDictionary
281
     1
  0
DICTIONARY
  5
115BF2
102
{ACAD_REACTORS
330
115B70
102
}
330
115B70
100
AcDbDictionary
281
     1
  3
Standard
350
115BF3
  0
DICTIONARY
  5
115BD9
102
{ACAD_REACTORS
330
115B70
102
}
330
115B70
100
AcDbDictionary
281
     1
  3
2dWireframe
350
115BDE
  3
Basic
350
115BE1
  3
Brighten
350
115BE5
  3
ColorChange
350
115BE9
  3
Conceptual
350
115BE3
  3
Dim
350
115BE4
  3
EdgeColorOff
350
115BEC
  3
Facepattern
350
115BE8
  3
Flat
350
115BDA
  3
FlatWithEdges
350
115BDB
  3
Gouraud
350
115BDC
  3
GouraudWithEdges
350
115BDD
  3
Hidden
350
115BE0
  3
JitterOff
350
115BEA
  3
Linepattern
350
115BE7
  3
OverhangOff
350
115BEB
  3
Realistic
350
115BE2
  3
Shaded
350
115BF1
  3
Shaded with edges
350
115BF0
  3
Shades of Gray
350
115BED
  3
Sketchy
350
115BEE
  3
Thicken
350
115BE6
  3
Wireframe
350
115BDF
  3
X-Ray
350
115BEF
  0
XRECORD
  5
115C05
102
{ACAD_REACTORS
330
115B70
102
}
330
115B70
100
AcDbXrecord
280
     1
 90
        1
330
115BF3
  0
DICTIONARY
  5
115BFA
102
{ACAD_REACTORS
330
115B70
102
}
330
115B70
100
AcDbDictionary
281
     1
  3
CANNOSCALE
350
115BFB
  3
CMLEADERSTYLE
350
115BFD
  3
CTABLESTYLE
350
115BFC
  3
MSLTSCALE
350
115BFE
  0
DICTIONARY
  5
115BF6
102
{ACAD_REACTORS
330
115B70
102
}
330
115B70
100
AcDbDictionary
281
     1
  0
DICTIONARYVAR
  5
115C02
102
{ACAD_REACTORS
330
115B70
102
}
330
115B70
100
DictionaryVariables
280
     0
  1
0
  0
DICTIONARY
  5
115BF9
102
{ACAD_REACTORS
330
115BF8
102
}
330
115BF8
100
AcDbDictionary
281
     1
  0
LAYOUT
  5
115B7F
102
{ACAD_REACTORS
330
115B7D
102
}
330
115B7D
100
AcDbPlotSettings
  1

  2
none_device
  4

  6

 40
0.0
 41
0.0
 42
0.0
 43
0.0
 44
0.0
 45
0.0
 46
0.0
 47
0.0
 48
0.0
 49
0.0
140
0.0
141
0.0
142
1.0
143
1.0
 70
   688
 72
     0
 73
     0
 74
     5
  7

 75
    16
 76
     0
 77
     2
 78
   300
147
1.0
148
0.0
149
0.0
100
AcDbLayout
  1
Foglio1
 70
     1
 71
     1
 10
0.0
 20
0.0
 11
0.0
 21
0.0
 12
0.0
 22
0.0
 32
0.0
 14
0.0
 24
0.0
 34
0.0
 15
0.0
 25
0.0
 35
0.0
146
0.0
 13
0.0
 23
0.0
 33
0.0
 16
1.0
 26
0.0
 36
0.0
 17
0.0
 27
1.0
 37
0.0
 76
     0
330
115B7E
331
DAB74
  0
LAYOUT
  5
115B81
102
{ACAD_REACTORS
330
115B7D
102
}
330
115B7D
100
AcDbPlotSettings
  1

  2
none_device
  4
Letter_(8.50_x_11.00_Inches)
  6

 40
6.35
 41
6.35
 42
6.35
 43
6.35
 44
215.9
 45
279.4
 46
0.0
 47
0.0
 48
0.0
 49
0.0
140
0.0
141
0.0
142
1.0
143
1.0
 70
  1712
 72
     0
 73
     0
 74
     0
  7

 75
     0
 76
     0
 77
     2
 78
   300
147
1.0
148
0.0
149
0.0
100
AcDbLayout
  1
Model
 70
     1
 71
     0
 10
0.0
 20
0.0
 11
12.0
 21
9.0
 12
0.0
 22
0.0
 32
0.0
 14
0.0
 24
0.0
 34
0.0
 15
14788.33810698144
 25
13369.76757320157
 35
0.0
146
0.0
 13
0.0
 23
0.0
 33
0.0
 16
1.0
 26
0.0
 36
0.0
 17
0.0
 27
1.0
 37
0.0
 76
     0
330
115B80
331
115B83
  0
MATERIAL
  5
115B88
102
{ACAD_REACTORS
330
115B86
102
}
330
115B86
100
AcDbMaterial
  1
ByBlock
 72
     1
 94
      127
  0
MATERIAL
  5
115B87
102
{ACAD_REACTORS
330
115B86
102
}
330
115B86
100
AcDbMaterial
  1
ByLayer
 72
     1
 94
      127
  0
MATERIAL
  5
115B89
102
{ACAD_REACTORS
330
115B86
102
}
330
115B86
100
AcDbMaterial
  1
Global
 72
     1
 94
      127
  0
MLEADERSTYLE
  5
115BF5
102
{ACAD_REACTORS
330
115BF4
102
}
330
115BF4
100
AcDbMLeaderStyle
179
     2
170
     2
171
     1
172
     0
 90
        2
 40
0.0
 41
0.0
173
     1
 91
-1056964608
340
115B77
 92
       -2
290
     1
 42
0.09
291
     1
 43
0.36
  3
Standard
341
0
 44
0.18
300

342
115B75
174
     1
178
     1
175
     1
176
     0
 93
-1056964608
 45
0.18
292
     0
297
     0
 46
0.18
343
0
 94
-1056964608
 47
1.0
 49
1.0
140
1.0
293
     1
141
0.0
294
     1
177
     0
142
1.0
295
     0
296
     0
143
0.125
271
     0
272
     9
273
     9
298
     0
  0
MLINESTYLE
  5
115B7B
102
{ACAD_REACTORS
330
115B7A
102
}
330
115B7A
100
AcDbMlineStyle
  2
Standard
 70
     0
  3

 62
   256
 51
90.0
 52
90.0
 71
     2
 49
0.5
 62
   256
  6
BYLAYER
 49
-0.5
 62
   256
  6
BYLAYER
  0
ACDBPLACEHOLDER
  5
115B73
102
{ACAD_REACTORS
330
115B72
102
}
330
115B72
  0
SCALE
  5
115BB8
102
{ACAD_REACTORS
330
115BB7
102
}
330
115BB7
100
AcDbScale
 70
     0
300
1:1
140
1.0
141
1.0
290
     1
  0
SCALE
  5
115BB9
102
{ACAD_REACTORS
330
115BB7
102
}
330
115BB7
100
AcDbScale
 70
     0
300
1:2
140
1.0
141
2.0
290
     0
  0
SCALE
  5
115BBA
102
{ACAD_REACTORS
330
115BB7
102
}
330
115BB7
100
AcDbScale
 70
     0
300
1:4
140
1.0
141
4.0
290
     0
  0
SCALE
  5
115BBB
102
{ACAD_REACTORS
330
115BB7
102
}
330
115BB7
100
AcDbScale
 70
     0
300
1:5
140
1.0
141
5.0
290
     0
  0
SCALE
  5
115BBC
102
{ACAD_REACTORS
330
115BB7
102
}
330
115BB7
100
AcDbScale
 70
     0
300
1:8
140
1.0
141
8.0
290
     0
  0
SCALE
  5
115BBD
102
{ACAD_REACTORS
330
115BB7
102
}
330
115BB7
100
AcDbScale
 70
     0
300
1:10
140
1.0
141
10.0
290
     0
  0
SCALE
  5
115BBE
102
{ACAD_REACTORS
330
115BB7
102
}
330
115BB7
100
AcDbScale
 70
     0
300
1:16
140
1.0
141
16.0
290
     0
  0
SCALE
  5
115BBF
102
{ACAD_REACTORS
330
115BB7
102
}
330
115BB7
100
AcDbScale
 70
     0
300
1:20
140
1.0
141
20.0
290
     0
  0
SCALE
  5
115BC0
102
{ACAD_REACTORS
330
115BB7
102
}
330
115BB7
100
AcDbScale
 70
     0
300
1:30
140
1.0
141
30.0
290
     0
  0
SCALE
  5
115BC1
102
{ACAD_REACTORS
330
115BB7
102
}
330
115BB7
100
AcDbScale
 70
     0
300
1:40
140
1.0
141
40.0
290
     0
  0
SCALE
  5
115BC2
102
{ACAD_REACTORS
330
115BB7
102
}
330
115BB7
100
AcDbScale
 70
     0
300
1:50
140
1.0
141
50.0
290
     0
  0
SCALE
  5
115BC3
102
{ACAD_REACTORS
330
115BB7
102
}
330
115BB7
100
AcDbScale
 70
     0
300
1:100
140
1.0
141
100.0
290
     0
  0
SCALE
  5
115BC4
102
{ACAD_REACTORS
330
115BB7
102
}
330
115BB7
100
AcDbScale
 70
     0
300
2:1
140
2.0
141
1.0
290
     0
  0
SCALE
  5
115BC5
102
{ACAD_REACTORS
330
115BB7
102
}
330
115BB7
100
AcDbScale
 70
     0
300
4:1
140
4.0
141
1.0
290
     0
  0
SCALE
  5
115BC6
102
{ACAD_REACTORS
330
115BB7
102
}
330
115BB7
100
AcDbScale
 70
     0
300
8:1
140
8.0
141
1.0
290
     0
  0
SCALE
  5
115BC7
102
{ACAD_REACTORS
330
115BB7
102
}
330
115BB7
100
AcDbScale
 70
     0
300
10:1
140
10.0
141
1.0
290
     0
  0
SCALE
  5
115BC8
102
{ACAD_REACTORS
330
115BB7
102
}
330
115BB7
100
AcDbScale
 70
     0
300
100:1
140
100.0
141
1.0
290
     0
  0
SCALE
  5
115BC9
102
{ACAD_REACTORS
330
115BB7
102
}
330
115BB7
100
AcDbScale
 70
     0
300
1/128" = 1'-0"
140
0.0078125
141
12.0
290
     0
  0
SCALE
  5
115BCA
102
{ACAD_REACTORS
330
115BB7
102
}
330
115BB7
100
AcDbScale
 70
     0
300
1/64" = 1'-0"
140
0.015625
141
12.0
290
     0
  0
SCALE
  5
115BCB
102
{ACAD_REACTORS
330
115BB7
102
}
330
115BB7
100
AcDbScale
 70
     0
300
1/32" = 1'-0"
140
0.03125
141
12.0
290
     0
  0
SCALE
  5
115BCC
102
{ACAD_REACTORS
330
115BB7
102
}
330
115BB7
100
AcDbScale
 70
     0
300
1/16" = 1'-0"
140
0.0625
141
12.0
290
     0
  0
SCALE
  5
115BCD
102
{ACAD_REACTORS
330
115BB7
102
}
330
115BB7
100
AcDbScale
 70
     0
300
3/32" = 1'-0"
140
0.09375
141
12.0
290
     0
  0
SCALE
  5
115BCE
102
{ACAD_REACTORS
330
115BB7
102
}
330
115BB7
100
AcDbScale
 70
     0
300
1/8" = 1'-0"
140
0.125
141
12.0
290
     0
  0
SCALE
  5
115BCF
102
{ACAD_REACTORS
330
115BB7
102
}
330
115BB7
100
AcDbScale
 70
     0
300
3/16" = 1'-0"
140
0.1875
141
12.0
290
     0
  0
SCALE
  5
115BD0
102
{ACAD_REACTORS
330
115BB7
102
}
330
115BB7
100
AcDbScale
 70
     0
300
1/4" = 1'-0"
140
0.25
141
12.0
290
     0
  0
SCALE
  5
115BD1
102
{ACAD_REACTORS
330
115BB7
102
}
330
115BB7
100
AcDbScale
 70
     0
300
3/8" = 1'-0"
140
0.375
141
12.0
290
     0
  0
SCALE
  5
115BD2
102
{ACAD_REACTORS
330
115BB7
102
}
330
115BB7
100
AcDbScale
 70
     0
300
1/2" = 1'-0"
140
0.5
141
12.0
290
     0
  0
SCALE
  5
115BD3
102
{ACAD_REACTORS
330
115BB7
102
}
330
115BB7
100
AcDbScale
 70
     0
300
3/4" = 1'-0"
140
0.75
141
12.0
290
     0
  0
SCALE
  5
115BD4
102
{ACAD_REACTORS
330
115BB7
102
}
330
115BB7
100
AcDbScale
 70
     0
300
1" = 1'-0"
140
1.0
141
12.0
290
     0
  0
SCALE
  5
115BD5
102
{ACAD_REACTORS
330
115BB7
102
}
330
115BB7
100
AcDbScale
 70
     0
300
1-1/2" = 1'-0"
140
1.5
141
12.0
290
     0
  0
SCALE
  5
115BD6
102
{ACAD_REACTORS
330
115BB7
102
}
330
115BB7
100
AcDbScale
 70
     0
300
3" = 1'-0"
140
3.0
141
12.0
290
     0
  0
SCALE
  5
115BD7
102
{ACAD_REACTORS
330
115BB7
102
}
330
115BB7
100
AcDbScale
 70
     0
300
6" = 1'-0"
140
6.0
141
12.0
290
     0
  0
SCALE
  5
115BD8
102
{ACAD_REACTORS
330
115BB7
102
}
330
115BB7
100
AcDbScale
 70
     0
300
1'-0" = 1'-0"
140
12.0
141
12.0
290
     0
  0
TABLESTYLE
  5
115BF3
102
{ACAD_REACTORS
330
115BF2
102
}
102
{ACAD_XDICTIONARY
360
115C03
102
}
330
115BF2
100
AcDbTableStyle
  3
Standard
 70
     0
 71
     0
 40
0.06
 41
0.06
280
     0
281
     0
  7
STANDARD
140
0.18
170
     2
 62
     0
 63
   257
283
     0
 90
        4
 91
        0
  1

274
    -2
284
     1
 64
     0
275
    -2
285
     1
 65
     0
276
    -2
286
     1
 66
     0
277
    -2
287
     1
 67
     0
278
    -2
288
     1
 68
     0
279
    -2
289
     1
 69
     0
  7
STANDARD
140
0.25
170
     5
 62
     0
 63
   257
283
     0
 90
        4
 91
        0
  1

274
    -2
284
     1
 64
     0
275
    -2
285
     1
 65
     0
276
    -2
286
     1
 66
     0
277
    -2
287
     1
 67
     0
278
    -2
288
     1
 68
     0
279
    -2
289
     1
 69
     0
  7
STANDARD
140
0.18
170
     5
 62
     0
 63
   257
283
     0
 90
        4
 91
        0
  1

274
    -2
284
     1
 64
     0
275
    -2
285
     1
 65
     0
276
    -2
286
     1
 66
     0
277
    -2
287
     1
 67
     0
278
    -2
288
     1
 68
     0
279
    -2
289
     1
 69
     0
  0
VISUALSTYLE
  5
115BDE
102
{ACAD_REACTORS
330
115BD9
102
}
330
115BD9
100
AcDbVisualStyle
  2
2dWireframe
 70
     4
177
     3
291
     0
 70
    58
 90
        0
176
     1
 90
        2
176
     1
 90
        0
176
     1
 90
        0
176
     1
 40
0.6
176
     1
 40
30.0
176
     1
 62
     7
420
 16777215
176
     1
 90
        1
176
     1
 90
        4
176
     1
 62
     7
176
     1
 62
   257
176
     1
 90
        1
176
     1
 90
        1
176
     1
 40
1.0
176
     1
 90
        0
176
     1
 62
   257
176
     1
 40
1.0
176
     1
 90
        1
176
     1
 90
        6
176
     1
 90
        2
176
     1
 62
     7
176
     1
 90
        5
176
     1
 90
        0
176
     1
 90
        0
176
     1
290
     0
176
     1
 90
        1
176
     1
 40
0.0
176
     1
 90
        0
176
     1
290
     1
176
     1
290
     1
176
     1
290
     0
176
     1
290
     0
176
     1
290
     0
176
     1
290
     0
176
     1
290
     0
176
     1
290
     0
176
     1
290
     0
176
     1
 90
       50
176
     1
 40
0.0
176
     1
 40
1.0
176
     1
 90
        0
176
     1
 62
    18
420
        0
176
     1
 90
       50
176
     1
 90
        3
176
     1
 62
     5
420
      255
176
     1
290
     0
176
     1
 90
       50
176
     1
 90
       50
176
     1
 90
       50
176
     1
290
     0
176
     1
 90
       50
176
     1
 62
   256
176
     0
 40
1.0
176
     0
 90
        2
176
     1
  1
strokes_ogs.tif
176
     1
290
     0
176
     1
 40
1.0
176
     1
 40
1.0
176
     1
  0
VISUALSTYLE
  5
115BE1
102
{ACAD_REACTORS
330
115BD9
102
}
330
115BD9
100
AcDbVisualStyle
  2
Basic
 70
     7
177
     3
291
     1
 70
    58
 90
        1
176
     1
 90
        0
176
     1
 90
        1
176
     1
 90
        0
176
     1
 40
0.6
176
     1
 40
30.0
176
     1
 62
     7
420
 16777215
176
     1
 90
        0
176
     1
 90
        4
176
     1
 62
     7
176
     1
 62
   257
176
     1
 90
        1
176
     1
 90
        1
176
     1
 40
1.0
176
     1
 90
        8
176
     1
 62
     7
176
     1
 40
1.0
176
     1
 90
        1
176
     1
 90
        6
176
     1
 90
        2
176
     1
 62
     7
176
     1
 90
        5
176
     1
 90
        0
176
     1
 90
        0
176
     1
290
     0
176
     1
 90
        1
176
     1
 40
0.0
176
     1
 90
        0
176
     1
290
     0
176
     1
290
     1
176
     1
290
     1
176
     1
290
     0
176
     1
290
     0
176
     1
290
     0
176
     1
290
     0
176
     1
290
     0
176
     1
290
     0
176
     1
 90
       50
176
     1
 40
0.0
176
     1
 40
1.0
176
     1
 90
        0
176
     1
 62
    18
420
        0
176
     1
 90
       50
176
     1
 90
        3
176
     1
 62
     5
420
      255
176
     1
290
     0
176
     1
 90
       50
176
     1
 90
       50
176
     1
 90
       50
176
     1
290
     0
176
     1
 90
       50
176
     1
 62
   256
176
     0
 40
1.0
176
     0
 90
        2
176
     1
  1
strokes_ogs.tif
176
     1
290
     0
176
     1
 40
1.0
176
     1
 40
1.0
176
     1
  0
VISUALSTYLE
  5
115BE5
102
{ACAD_REACTORS
330
115BD9
102
}
330
115BD9
100
AcDbVisualStyle
  2
Brighten
 70
    12
177
     3
291
     1
 70
    58
 90
        2
176
     1
 90
        2
176
     1
 90
        0
176
     1
 90
        0
176
     1
 40
0.6
176
     1
 40
30.0
176
     1
 62
     7
420
 16777215
176
     1
 90
        1
176
     1
 90
        4
176
     1
 62
     7
176
     1
 62
   257
176
     1
 90
        1
176
     1
 90
        1
176
     1
 40
1.0
176
     1
 90
        8
176
     1
 62
     7
176
     1
 40
1.0
176
     1
 90
        1
176
     1
 90
        6
176
     1
 90
        2
176
     1
 62
     7
176
     1
 90
        5
176
     1
 90
        0
176
     1
 90
        0
176
     1
290
     0
176
     1
 90
        1
176
     1
 40
50.0
176
     1
 90
        0
176
     1
290
     0
176
     1
290
     1
176
     1
290
     1
176
     1
290
     0
176
     1
290
     0
176
     1
290
     0
176
     1
290
     0
176
     1
290
     0
176
     1
290
     0
176
     1
 90
       50
176
     1
 40
0.0
176
     1
 40
1.0
176
     1
 90
        0
176
     1
 62
    18
420
        0
176
     1
 90
       50
176
     1
 90
        3
176
     1
 62
     5
420
      255
176
     1
290
     0
176
     1
 90
       50
176
     1
 90
       50
176
     1
 90
       50
176
     1
290
     0
176
     1
 90
       50
176
     1
 62
   256
176
     0
 40
1.0
176
     0
 90
        2
176
     1
  1
strokes_ogs.tif
176
     1
290
     0
176
     1
 40
1.0
176
     1
 40
1.0
176
     1
  0
VISUALSTYLE
  5
115BE9
102
{ACAD_REACTORS
330
115BD9
102
}
330
115BD9
100
AcDbVisualStyle
  2
ColorChange
 70
    16
177
     3
291
     1
 70
    58
 90
        2
176
     1
 90
        2
176
     1
 90
        3
176
     1
 90
        0
176
     1
 40
0.6
176
     1
 40
30.0
176
     1
 62
     8
420
  8421504
176
     1
 90
        1
176
     1
 90
        4
176
     1
 62
     7
176
     1
 62
   257
176
     1
 90
        1
176
     1
 90
        1
176
     1
 40
1.0
176
     1
 90
        8
176
     1
 62
     8
420
  8421504
176
     1
 40
1.0
176
     1
 90
        1
176
     1
 90
        6
176
     1
 90
        2
176
     1
 62
     7
176
     1
 90
        5
176
     1
 90
        0
176
     1
 90
        0
176
     1
290
     0
176
     1
 90
        1
176
     1
 40
0.0
176
     1
 90
        0
176
     1
290
     0
176
     1
290
     1
176
     1
290
     1
176
     1
290
     0
176
     1
290
     0
176
     1
290
     0
176
     1
290
     0
176
     1
290
     0
176
     1
290
     0
176
     1
 90
       50
176
     1
 40
0.0
176
     1
 40
1.0
176
     1
 90
        0
176
     1
 62
    18
420
        0
176
     1
 90
       50
176
     1
 90
        3
176
     1
 62
     5
420
      255
176
     1
290
     0
176
     1
 90
       50
176
     1
 90
       50
176
     1
 90
       50
176
     1
290
     0
176
     1
 90
       50
176
     1
 62
   256
176
     0
 40
1.0
176
     0
 90
        2
176
     1
  1
strokes_ogs.tif
176
     1
290
     0
176
     1
 40
1.0
176
     1
 40
1.0
176
     1
  0
VISUALSTYLE
  5
115BE3
102
{ACAD_REACTORS
330
115BD9
102
}
330
115BD9
100
AcDbVisualStyle
  2
Conceptual
 70
     9
177
     3
291
     0
 70
    58
 90
        3
176
     1
 90
        2
176
     1
 90
        0
176
     1
 90
        0
176
     1
 40
0.6
176
     1
 40
30.0
176
     1
 62
     7
420
 16777215
176
     1
 90
        2
176
     1
 90
        2
176
     1
 62
     7
176
     1
 62
   257
176
     1
 90
        1
176
     1
 90
        1
176
     1
 40
179.0
176
     1
 90
        8
176
     1
 62
     7
176
     1
 40
1.0
176
     1
 90
        1
176
     1
 90
        6
176
     1
 90
        2
176
     1
 62
     7
176
     1
 90
        3
176
     1
 90
        0
176
     1
 90
        0
176
     1
290
     0
176
     1
 90
        1
176
     1
 40
0.0
176
     1
 90
        0
176
     1
290
     0
176
     1
290
     1
176
     1
290
     1
176
     1
290
     0
176
     1
290
     0
176
     1
290
     0
176
     1
290
     0
176
     1
290
     0
176
     1
290
     0
176
     1
 90
       50
176
     1
 40
0.0
176
     1
 40
1.0
176
     1
 90
        0
176
     1
 62
    18
420
        0
176
     1
 90
       50
176
     1
 90
        3
176
     1
 62
     5
420
      255
176
     1
290
     0
176
     1
 90
       50
176
     1
 90
       50
176
     1
 90
       50
176
     1
290
     0
176
     1
 90
       50
176
     1
 62
   256
176
     0
 40
1.0
176
     0
 90
        2
176
     1
  1
strokes_ogs.tif
176
     1
290
     0
176
     1
 40
1.0
176
     1
 40
1.0
176
     1
  0
VISUALSTYLE
  5
115BE4
102
{ACAD_REACTORS
330
115BD9
102
}
330
115BD9
100
AcDbVisualStyle
  2
Dim
 70
    11
177
     3
291
     1
 70
    58
 90
        2
176
     1
 90
        2
176
     1
 90
        0
176
     1
 90
        0
176
     1
 40
0.6
176
     1
 40
30.0
176
     1
 62
     7
420
 16777215
176
     1
 90
        1
176
     1
 90
        4
176
     1
 62
     7
176
     1
 62
   257
176
     1
 90
        1
176
     1
 90
        1
176
     1
 40
1.0
176
     1
 90
        8
176
     1
 62
     7
176
     1
 40
1.0
176
     1
 90
        1
176
     1
 90
        6
176
     1
 90
        2
176
     1
 62
     7
176
     1
 90
        5
176
     1
 90
        0
176
     1
 90
        0
176
     1
290
     0
176
     1
 90
        1
176
     1
 40
-50.0
176
     1
 90
        0
176
     1
290
     0
176
     1
290
     1
176
     1
290
     1
176
     1
290
     0
176
     1
290
     0
176
     1
290
     0
176
     1
290
     0
176
     1
290
     0
176
     1
290
     0
176
     1
 90
       50
176
     1
 40
0.0
176
     1
 40
1.0
176
     1
 90
        0
176
     1
 62
    18
420
        0
176
     1
 90
       50
176
     1
 90
        3
176
     1
 62
     5
420
      255
176
     1
290
     0
176
     1
 90
       50
176
     1
 90
       50
176
     1
 90
       50
176
     1
290
     0
176
     1
 90
       50
176
     1
 62
   256
176
     0
 40
1.0
176
     0
 90
        2
176
     1
  1
strokes_ogs.tif
176
     1
290
     0
176
     1
 40
1.0
176
     1
 40
1.0
176
     1
  0
VISUALSTYLE
  5
115BEC
102
{ACAD_REACTORS
330
115BD9
102
}
330
115BD9
100
AcDbVisualStyle
  2
EdgeColorOff
 70
    22
177
     3
291
     1
 70
    58
 90
        2
176
     0
 90
        2
176
     0
 90
        0
176
     0
 90
        0
176
     0
 40
0.6
176
     0
 40
30.0
176
     0
 62
     7
420
 16777215
176
     0
 90
        1
176
     0
 90
        4
176
     0
 62
     7
176
     0
 62
   257
176
     0
 90
        1
176
     0
 90
        1
176
     0
 40
1.0
176
     0
 90
        8
176
     2
 62
     7
176
     0
 40
1.0
176
     0
 90
        1
176
     0
 90
        6
176
     0
 90
        2
176
     0
 62
     7
176
     0
 90
        5
176
     0
 90
        0
176
     0
 90
        0
176
     0
290
     0
176
     0
 90
        1
176
     0
 40
0.0
176
     0
 90
        0
176
     0
290
     0
176
     0
290
     1
176
     0
290
     1
176
     0
290
     0
176
     0
290
     0
176
     0
290
     0
176
     0
290
     0
176
     0
290
     0
176
     0
290
     0
176
     0
 90
       50
176
     0
 40
0.0
176
     0
 40
1.0
176
     0
 90
        0
176
     0
 62
    18
420
        0
176
     0
 90
       50
176
     0
 90
        3
176
     0
 62
     5
420
      255
176
     0
290
     0
176
     0
 90
       50
176
     0
 90
       50
176
     0
 90
       50
176
     0
290
     0
176
     0
 90
       50
176
     0
 62
   256
176
     0
 40
1.0
176
     0
 90
        2
176
     0
  1
strokes_ogs.tif
176
     0
290
     0
176
     0
 40
1.0
176
     0
 40
1.0
176
     0
  0
VISUALSTYLE
  5
115BE8
102
{ACAD_REACTORS
330
115BD9
102
}
330
115BD9
100
AcDbVisualStyle
  2
Facepattern
 70
    15
177
     3
291
     1
 70
    58
 90
        2
176
     1
 90
        2
176
     1
 90
        0
176
     1
 90
        0
176
     1
 40
0.6
176
     1
 40
30.0
176
     1
 62
     7
420
 16777215
176
     1
 90
        1
176
     1
 90
        4
176
     1
 62
     7
176
     1
 62
   257
176
     1
 90
        1
176
     1
 90
        1
176
     1
 40
1.0
176
     1
 90
        8
176
     1
 62
     7
176
     1
 40
1.0
176
     1
 90
        1
176
     1
 90
        6
176
     1
 90
        2
176
     1
 62
     7
176
     1
 90
        5
176
     1
 90
        0
176
     1
 90
        0
176
     1
290
     0
176
     1
 90
        1
176
     1
 40
0.0
176
     1
 90
        0
176
     1
290
     0
176
     1
290
     1
176
     1
290
     1
176
     1
290
     0
176
     1
290
     0
176
     1
290
     0
176
     1
290
     0
176
     1
290
     0
176
     1
290
     0
176
     1
 90
       50
176
     1
 40
0.0
176
     1
 40
1.0
176
     1
 90
        0
176
     1
 62
    18
420
        0
176
     1
 90
       50
176
     1
 90
        3
176
     1
 62
     5
420
      255
176
     1
290
     0
176
     1
 90
       50
176
     1
 90
       50
176
     1
 90
       50
176
     1
290
     0
176
     1
 90
       50
176
     1
 62
   256
176
     0
 40
1.0
176
     0
 90
        2
176
     1
  1
strokes_ogs.tif
176
     1
290
     0
176
     1
 40
1.0
176
     1
 40
1.0
176
     1
  0
VISUALSTYLE
  5
115BDA
102
{ACAD_REACTORS
330
115BD9
102
}
330
115BD9
100
AcDbVisualStyle
  2
Flat
 70
     0
177
     3
291
     1
 70
    58
 90
        2
176
     1
 90
        1
176
     1
 90
        1
176
     1
 90
        2
176
     1
 40
0.6
176
     1
 40
30.0
176
     1
 62
     7
420
 16777215
176
     1
 90
        0
176
     1
 90
        0
176
     1
 62
     7
176
     1
 62
   257
176
     1
 90
        1
176
     1
 90
        1
176
     1
 40
1.0
176
     1
 90
        8
176
     1
 62
     7
176
     1
 40
1.0
176
     1
 90
        1
176
     1
 90
        6
176
     1
 90
        2
176
     1
 62
     7
176
     1
 90
        5
176
     1
 90
        0
176
     1
 90
        0
176
     1
290
     0
176
     1
 90
       13
176
     1
 40
0.0
176
     1
 90
        0
176
     1
290
     0
176
     1
290
     1
176
     1
290
     1
176
     1
290
     0
176
     1
290
     0
176
     1
290
     0
176
     1
290
     0
176
     1
290
     0
176
     1
290
     0
176
     1
 90
       50
176
     1
 40
0.0
176
     1
 40
1.0
176
     1
 90
        0
176
     1
 62
    18
420
        0
176
     1
 90
       50
176
     1
 90
        3
176
     1
 62
     5
420
      255
176
     1
290
     0
176
     1
 90
       50
176
     1
 90
       50
176
     1
 90
       50
176
     1
290
     0
176
     1
 90
       50
176
     1
 62
   256
176
     0
 40
1.0
176
     0
 90
        2
176
     1
  1
strokes_ogs.tif
176
     1
290
     0
176
     1
 40
1.0
176
     1
 40
1.0
176
     1
  0
VISUALSTYLE
  5
115BDB
102
{ACAD_REACTORS
330
115BD9
102
}
330
115BD9
100
AcDbVisualStyle
  2
FlatWithEdges
 70
     1
177
     3
291
     1
 70
    58
 90
        2
176
     1
 90
        1
176
     1
 90
        1
176
     1
 90
        2
176
     1
 40
0.6
176
     1
 40
30.0
176
     1
 62
     7
420
 16777215
176
     1
 90
        1
176
     1
 90
        0
176
     1
 62
     7
176
     1
 62
   257
176
     1
 90
        1
176
     1
 90
        1
176
     1
 40
1.0
176
     1
 90
        0
176
     1
 62
   257
176
     1
 40
1.0
176
     1
 90
        1
176
     1
 90
        6
176
     1
 90
        2
176
     1
 62
     7
176
     1
 90
        5
176
     1
 90
        0
176
     1
 90
        0
176
     1
290
     0
176
     1
 90
       13
176
     1
 40
0.0
176
     1
 90
        0
176
     1
290
     0
176
     1
290
     1
176
     1
290
     1
176
     1
290
     0
176
     1
290
     0
176
     1
290
     0
176
     1
290
     0
176
     1
290
     0
176
     1
290
     0
176
     1
 90
       50
176
     1
 40
0.0
176
     1
 40
1.0
176
     1
 90
        0
176
     1
 62
    18
420
        0
176
     1
 90
       50
176
     1
 90
        3
176
     1
 62
     5
420
      255
176
     1
290
     0
176
     1
 90
       50
176
     1
 90
       50
176
     1
 90
       50
176
     1
290
     0
176
     1
 90
       50
176
     1
 62
   256
176
     0
 40
1.0
176
     0
 90
        2
176
     1
  1
strokes_ogs.tif
176
     1
290
     0
176
     1
 40
1.0
176
     1
 40
1.0
176
     1
  0
VISUALSTYLE
  5
115BDC
102
{ACAD_REACTORS
330
115BD9
102
}
330
115BD9
100
AcDbVisualStyle
  2
Gouraud
 70
     2
177
     3
291
     1
 70
    58
 90
        2
176
     1
 90
        2
176
     1
 90
        1
176
     1
 90
        2
176
     1
 40
0.6
176
     1
 40
30.0
176
     1
 62
     7
420
 16777215
176
     1
 90
        0
176
     1
 90
        0
176
     1
 62
     7
176
     1
 62
   257
176
     1
 90
        1
176
     1
 90
        1
176
     1
 40
1.0
176
     1
 90
        0
176
     1
 62
     7
176
     1
 40
1.0
176
     1
 90
        1
176
     1
 90
        6
176
     1
 90
        2
176
     1
 62
     7
176
     1
 90
        5
176
     1
 90
        0
176
     1
 90
        0
176
     1
290
     0
176
     1
 90
       13
176
     1
 40
0.0
176
     1
 90
        0
176
     1
290
     0
176
     1
290
     1
176
     1
290
     1
176
     1
290
     0
176
     1
290
     0
176
     1
290
     0
176
     1
290
     0
176
     1
290
     0
176
     1
290
     0
176
     1
 90
       50
176
     1
 40
0.0
176
     1
 40
1.0
176
     1
 90
        0
176
     1
 62
    18
420
        0
176
     1
 90
       50
176
     1
 90
        3
176
     1
 62
     5
420
      255
176
     1
290
     0
176
     1
 90
       50
176
     1
 90
       50
176
     1
 90
       50
176
     1
290
     0
176
     1
 90
       50
176
     1
 62
   256
176
     0
 40
1.0
176
     0
 90
        2
176
     1
  1
strokes_ogs.tif
176
     1
290
     0
176
     1
 40
1.0
176
     1
 40
1.0
176
     1
  0
VISUALSTYLE
  5
115BDD
102
{ACAD_REACTORS
330
115BD9
102
}
330
115BD9
100
AcDbVisualStyle
  2
GouraudWithEdges
 70
     3
177
     3
291
     1
 70
    58
 90
        2
176
     1
 90
        2
176
     1
 90
        1
176
     1
 90
        2
176
     1
 40
0.6
176
     1
 40
30.0
176
     1
 62
     7
420
 16777215
176
     1
 90
        1
176
     1
 90
        0
176
     1
 62
     7
176
     1
 62
   257
176
     1
 90
        1
176
     1
 90
        1
176
     1
 40
1.0
176
     1
 90
        0
176
     1
 62
   257
176
     1
 40
1.0
176
     1
 90
        1
176
     1
 90
        6
176
     1
 90
        2
176
     1
 62
     7
176
     1
 90
        5
176
     1
 90
        0
176
     1
 90
        0
176
     1
290
     0
176
     1
 90
       13
176
     1
 40
0.0
176
     1
 90
        0
176
     1
290
     0
176
     1
290
     1
176
     1
290
     1
176
     1
290
     0
176
     1
290
     0
176
     1
290
     0
176
     1
290
     0
176
     1
290
     0
176
     1
290
     0
176
     1
 90
       50
176
     1
 40
0.0
176
     1
 40
1.0
176
     1
 90
        0
176
     1
 62
    18
420
        0
176
     1
 90
       50
176
     1
 90
        3
176
     1
 62
     5
420
      255
176
     1
290
     0
176
     1
 90
       50
176
     1
 90
       50
176
     1
 90
       50
176
     1
290
     0
176
     1
 90
       50
176
     1
 62
   256
176
     0
 40
1.0
176
     0
 90
        2
176
     1
  1
strokes_ogs.tif
176
     1
290
     0
176
     1
 40
1.0
176
     1
 40
1.0
176
     1
  0
VISUALSTYLE
  5
115BE0
102
{ACAD_REACTORS
330
115BD9
102
}
330
115BD9
100
AcDbVisualStyle
  2
Hidden
 70
     6
177
     3
291
     0
 70
    58
 90
        1
176
     1
 90
        2
176
     1
 90
        2
176
     1
 90
        0
176
     1
 40
0.6
176
     1
 40
30.0
176
     1
 62
     7
420
 16777215
176
     1
 90
        2
176
     1
 90
        2
176
     1
 62
     7
176
     1
 62
   257
176
     1
 90
        2
176
     1
 90
        1
176
     1
 40
40.0
176
     1
 90
        0
176
     1
 62
   257
176
     1
 40
1.0
176
     1
 90
        1
176
     1
 90
        6
176
     1
 90
        2
176
     1
 62
     7
176
     1
 90
        3
176
     1
 90
        0
176
     1
 90
        0
176
     1
290
     0
176
     1
 90
        1
176
     1
 40
0.0
176
     1
 90
        0
176
     1
290
     0
176
     1
290
     1
176
     1
290
     1
176
     1
290
     0
176
     1
290
     0
176
     1
290
     0
176
     1
290
     0
176
     1
290
     0
176
     1
290
     0
176
     1
 90
       50
176
     1
 40
0.0
176
     1
 40
1.0
176
     1
 90
        0
176
     1
 62
    18
420
        0
176
     1
 90
       50
176
     1
 90
        3
176
     1
 62
     5
420
      255
176
     1
290
     0
176
     1
 90
       50
176
     1
 90
       50
176
     1
 90
       50
176
     1
290
     0
176
     1
 90
       50
176
     1
 62
   256
176
     0
 40
1.0
176
     0
 90
        2
176
     1
  1
strokes_ogs.tif
176
     1
290
     0
176
     1
 40
1.0
176
     1
 40
1.0
176
     1
  0
VISUALSTYLE
  5
115BEA
102
{ACAD_REACTORS
330
115BD9
102
}
330
115BD9
100
AcDbVisualStyle
  2
JitterOff
 70
    20
177
     3
291
     1
 70
    58
 90
        2
176
     0
 90
        2
176
     0
 90
        0
176
     0
 90
        0
176
     0
 40
0.6
176
     0
 40
30.0
176
     0
 62
     7
420
 16777215
176
     0
 90
        1
176
     0
 90
        4
176
     0
 62
     7
176
     0
 62
   257
176
     0
 90
        1
176
     0
 90
        1
176
     0
 40
1.0
176
     0
 90
       10
176
     2
 62
     7
176
     0
 40
1.0
176
     0
 90
        1
176
     0
 90
        6
176
     0
 90
        2
176
     0
 62
     7
176
     0
 90
        5
176
     0
 90
        0
176
     0
 90
        0
176
     0
290
     0
176
     0
 90
        1
176
     0
 40
0.0
176
     0
 90
        0
176
     0
290
     0
176
     0
290
     1
176
     0
290
     1
176
     0
290
     0
176
     0
290
     0
176
     0
290
     0
176
     0
290
     0
176
     0
290
     0
176
     0
290
     0
176
     0
 90
       50
176
     0
 40
0.0
176
     0
 40
1.0
176
     0
 90
        0
176
     0
 62
    18
420
        0
176
     0
 90
       50
176
     0
 90
        3
176
     0
 62
     5
420
      255
176
     0
290
     0
176
     0
 90
       50
176
     0
 90
       50
176
     0
 90
       50
176
     0
290
     0
176
     0
 90
       50
176
     0
 62
   256
176
     0
 40
1.0
176
     0
 90
        2
176
     0
  1
strokes_ogs.tif
176
     0
290
     0
176
     0
 40
1.0
176
     0
 40
1.0
176
     0
  0
VISUALSTYLE
  5
115BE7
102
{ACAD_REACTORS
330
115BD9
102
}
330
115BD9
100
AcDbVisualStyle
  2
Linepattern
 70
    14
177
     3
291
     1
 70
    58
 90
        2
176
     1
 90
        2
176
     1
 90
        0
176
     1
 90
        0
176
     1
 40
0.6
176
     1
 40
30.0
176
     1
 62
     7
420
 16777215
176
     1
 90
        1
176
     1
 90
        4
176
     1
 62
     7
176
     1
 62
   257
176
     1
 90
        7
176
     1
 90
        7
176
     1
 40
1.0
176
     1
 90
        8
176
     1
 62
     7
176
     1
 40
1.0
176
     1
 90
        1
176
     1
 90
        6
176
     1
 90
        2
176
     1
 62
     7
176
     1
 90
        5
176
     1
 90
        0
176
     1
 90
        0
176
     1
290
     0
176
     1
 90
        1
176
     1
 40
0.0
176
     1
 90
        0
176
     1
290
     0
176
     1
290
     1
176
     1
290
     1
176
     1
290
     0
176
     1
290
     0
176
     1
290
     0
176
     1
290
     0
176
     1
290
     0
176
     1
290
     0
176
     1
 90
       50
176
     1
 40
0.0
176
     1
 40
1.0
176
     1
 90
        0
176
     1
 62
    18
420
        0
176
     1
 90
       50
176
     1
 90
        3
176
     1
 62
     5
420
      255
176
     1
290
     0
176
     1
 90
       50
176
     1
 90
       50
176
     1
 90
       50
176
     1
290
     0
176
     1
 90
       50
176
     1
 62
   256
176
     0
 40
1.0
176
     0
 90
        2
176
     1
  1
strokes_ogs.tif
176
     1
290
     0
176
     1
 40
1.0
176
     1
 40
1.0
176
     1
  0
VISUALSTYLE
  5
115BEB
102
{ACAD_REACTORS
330
115BD9
102
}
330
115BD9
100
AcDbVisualStyle
  2
OverhangOff
 70
    21
177
     3
291
     1
 70
    58
 90
        2
176
     0
 90
        2
176
     0
 90
        0
176
     0
 90
        0
176
     0
 40
0.6
176
     0
 40
30.0
176
     0
 62
     7
420
 16777215
176
     0
 90
        1
176
     0
 90
        4
176
     0
 62
     7
176
     0
 62
   257
176
     0
 90
        1
176
     0
 90
        1
176
     0
 40
1.0
176
     0
 90
        9
176
     2
 62
     7
176
     0
 40
1.0
176
     0
 90
        1
176
     0
 90
        6
176
     0
 90
        2
176
     0
 62
     7
176
     0
 90
        5
176
     0
 90
        0
176
     0
 90
        0
176
     0
290
     0
176
     0
 90
        1
176
     0
 40
0.0
176
     0
 90
        0
176
     0
290
     0
176
     0
290
     1
176
     0
290
     1
176
     0
290
     0
176
     0
290
     0
176
     0
290
     0
176
     0
290
     0
176
     0
290
     0
176
     0
290
     0
176
     0
 90
       50
176
     0
 40
0.0
176
     0
 40
1.0
176
     0
 90
        0
176
     0
 62
    18
420
        0
176
     0
 90
       50
176
     0
 90
        3
176
     0
 62
     5
420
      255
176
     0
290
     0
176
     0
 90
       50
176
     0
 90
       50
176
     0
 90
       50
176
     0
290
     0
176
     0
 90
       50
176
     0
 62
   256
176
     0
 40
1.0
176
     0
 90
        2
176
     0
  1
strokes_ogs.tif
176
     0
290
     0
176
     0
 40
1.0
176
     0
 40
1.0
176
     0
  0
VISUALSTYLE
  5
115BE2
102
{ACAD_REACTORS
330
115BD9
102
}
330
115BD9
100
AcDbVisualStyle
  2
Realistic
 70
     8
177
     3
291
     0
 70
    58
 90
        2
176
     1
 90
        3
176
     1
 90
        0
176
     1
 90
        2
176
     1
 40
0.6
176
     1
 40
30.0
176
     1
 62
     7
420
 16777215
176
     1
 90
        0
176
     1
 90
        0
176
     1
 62
     7
176
     1
 62
   257
176
     1
 90
        1
176
     1
 90
        1
176
     1
 40
1.0
176
     1
 90
        8
176
     1
 62
   257
176
     1
 40
1.0
176
     1
 90
        1
176
     1
 90
        6
176
     1
 90
        2
176
     1
 62
     7
176
     1
 90
        3
176
     1
 90
        0
176
     1
 90
        0
176
     1
290
     0
176
     1
 90
       13
176
     1
 40
0.0
176
     1
 90
        0
176
     1
290
     0
176
     1
290
     1
176
     1
290
     1
176
     1
290
     0
176
     1
290
     0
176
     1
290
     0
176
     1
290
     0
176
     1
290
     0
176
     1
290
     0
176
     1
 90
       50
176
     1
 40
0.0
176
     1
 40
1.0
176
     1
 90
        0
176
     1
 62
    18
420
        0
176
     1
 90
       50
176
     1
 90
        3
176
     1
 62
     5
420
      255
176
     1
290
     0
176
     1
 90
       50
176
     1
 90
       50
176
     1
 90
       50
176
     1
290
     0
176
     1
 90
       50
176
     1
 62
   256
176
     0
 40
1.0
176
     0
 90
        2
176
     1
  1
strokes_ogs.tif
176
     1
290
     0
176
     1
 40
1.0
176
     1
 40
1.0
176
     1
  0
VISUALSTYLE
  5
115BF1
102
{ACAD_REACTORS
330
115BD9
102
}
330
115BD9
100
AcDbVisualStyle
  2
Shaded
 70
    27
177
     3
291
     0
 70
    58
 90
        2
176
     1
 90
        2
176
     1
 90
        1
176
     1
 90
        2
176
     1
 40
0.6
176
     1
 40
30.0
176
     1
 62
     7
420
 16777215
176
     1
 90
        0
176
     1
 90
        4
176
     1
 62
     7
176
     1
 62
   257
176
     1
 90
        1
176
     1
 90
        1
176
     1
 40
1.0
176
     1
 90
        8
176
     1
 62
   257
176
     1
 40
1.0
176
     1
 90
        1
176
     1
 90
        6
176
     1
 90
        2
176
     1
 62
     8
420
  7895160
176
     1
 90
        3
176
     1
 90
        0
176
     1
 90
        0
176
     1
290
     0
176
     1
 90
        5
176
     1
 40
0.0
176
     1
 90
        0
176
     1
290
     0
176
     1
290
     1
176
     1
290
     1
176
     1
290
     0
176
     1
290
     0
176
     1
290
     0
176
     1
290
     0
176
     1
290
     0
176
     1
290
     0
176
     1
 90
       50
176
     1
 40
0.0
176
     1
 40
1.0
176
     1
 90
        0
176
     1
 62
    18
420
        0
176
     1
 90
       50
176
     1
 90
        3
176
     1
 62
     5
420
      255
176
     1
290
     0
176
     1
 90
       50
176
     1
 90
       50
176
     1
 90
       50
176
     1
290
     0
176
     1
 90
       50
176
     1
 62
   256
176
     0
 40
1.0
176
     0
 90
        2
176
     1
  1
strokes_ogs.tif
176
     1
290
     0
176
     1
 40
1.0
176
     1
 40
1.0
176
     1
  0
VISUALSTYLE
  5
115BF0
102
{ACAD_REACTORS
330
115BD9
102
}
330
115BD9
100
AcDbVisualStyle
  2
Shaded with edges
 70
    26
177
     3
291
     0
 70
    58
 90
        2
176
     1
 90
        2
176
     1
 90
        1
176
     1
 90
        2
176
     1
 40
0.6
176
     1
 40
30.0
176
     1
 62
     7
420
 16777215
176
     1
 90
        1
176
     1
 90
       10
176
     1
 62
     7
176
     1
 62
   257
176
     1
 90
        2
176
     1
 90
        1
176
     1
 40
1.0
176
     1
 90
        8
176
     1
 62
   257
176
     1
 40
1.0
176
     1
 90
        1
176
     1
 90
        6
176
     1
 90
        2
176
     1
 62
     7
176
     1
 90
        3
176
     1
 90
        0
176
     1
 90
        0
176
     1
290
     0
176
     1
 90
        5
176
     1
 40
0.0
176
     1
 90
        0
176
     1
290
     0
176
     1
290
     1
176
     1
290
     1
176
     1
290
     0
176
     1
290
     0
176
     1
290
     0
176
     1
290
     0
176
     1
290
     0
176
     1
290
     0
176
     1
 90
       50
176
     1
 40
0.0
176
     1
 40
1.0
176
     1
 90
        0
176
     1
 62
    18
420
        0
176
     1
 90
       50
176
     1
 90
        3
176
     1
 62
     5
420
      255
176
     1
290
     0
176
     1
 90
       50
176
     1
 90
       50
176
     1
 90
       50
176
     1
290
     0
176
     1
 90
       50
176
     1
 62
   256
176
     0
 40
1.0
176
     0
 90
        2
176
     1
  1
strokes_ogs.tif
176
     1
290
     0
176
     1
 40
1.0
176
     1
 40
1.0
176
     1
  0
VISUALSTYLE
  5
115BED
102
{ACAD_REACTORS
330
115BD9
102
}
330
115BD9
100
AcDbVisualStyle
  2
Shades of Gray
 70
    23
177
     3
291
     0
 70
    58
 90
        2
176
     1
 90
        2
176
     1
 90
        3
176
     1
 90
        0
176
     1
 40
0.6
176
     1
 40
30.0
176
     1
 62
     7
420
 16777215
176
     1
 90
        2
176
     1
 90
        2
176
     1
 62
     7
176
     1
 62
     7
176
     1
 90
        1
176
     1
 90
        1
176
     1
 40
40.0
176
     1
 90
        8
176
     1
 62
     7
176
     1
 40
1.0
176
     1
 90
        1
176
     1
 90
        6
176
     1
 90
        2
176
     1
 62
     7
176
     1
 90
        3
176
     1
 90
        0
176
     1
 90
        0
176
     1
290
     0
176
     1
 90
        1
176
     1
 40
0.0
176
     1
 90
        0
176
     1
290
     0
176
     1
290
     1
176
     1
290
     1
176
     1
290
     0
176
     1
290
     0
176
     1
290
     0
176
     1
290
     0
176
     1
290
     0
176
     1
290
     0
176
     1
 90
       50
176
     1
 40
0.0
176
     1
 40
1.0
176
     1
 90
        0
176
     1
 62
    18
420
        0
176
     1
 90
       50
176
     1
 90
        3
176
     1
 62
     5
420
      255
176
     1
290
     0
176
     1
 90
       50
176
     1
 90
       50
176
     1
 90
       50
176
     1
290
     0
176
     1
 90
       50
176
     1
 62
   256
176
     0
 40
1.0
176
     0
 90
        2
176
     1
  1
strokes_ogs.tif
176
     1
290
     0
176
     1
 40
1.0
176
     1
 40
1.0
176
     1
  0
VISUALSTYLE
  5
115BEE
102
{ACAD_REACTORS
330
115BD9
102
}
330
115BD9
100
AcDbVisualStyle
  2
Sketchy
 70
    24
177
     3
291
     0
 70
    58
 90
        1
176
     1
 90
        2
176
     1
 90
        2
176
     1
 90
        0
176
     1
 40
0.6
176
     1
 40
30.0
176
     1
 62
     7
420
 16777215
176
     1
 90
        2
176
     1
 90
        2
176
     1
 62
     7
176
     1
 62
     7
176
     1
 90
        1
176
     1
 90
        1
176
     1
 40
40.0
176
     1
 90
       11
176
     1
 62
     7
176
     1
 40
1.0
176
     1
 90
        1
176
     1
 90
        6
176
     1
 90
        2
176
     1
 62
     7
176
     1
 90
        6
176
     1
 90
        0
176
     1
 90
        0
176
     1
290
     0
176
     1
 90
        1
176
     1
 40
0.0
176
     1
 90
        0
176
     1
290
     0
176
     1
290
     1
176
     1
290
     1
176
     1
290
     0
176
     1
290
     0
176
     1
290
     0
176
     1
290
     0
176
     1
290
     0
176
     1
290
     0
176
     1
 90
       50
176
     1
 40
0.0
176
     1
 40
1.0
176
     1
 90
        0
176
     1
 62
    18
420
        0
176
     1
 90
       50
176
     1
 90
        3
176
     1
 62
     5
420
      255
176
     1
290
     0
176
     1
 90
       50
176
     1
 90
       50
176
     1
 90
       50
176
     1
290
     0
176
     1
 90
       50
176
     1
 62
   256
176
     0
 40
1.0
176
     0
 90
        2
176
     1
  1
strokes_ogs.tif
176
     1
290
     0
176
     1
 40
1.0
176
     1
 40
1.0
176
     1
  0
VISUALSTYLE
  5
115BE6
102
{ACAD_REACTORS
330
115BD9
102
}
330
115BD9
100
AcDbVisualStyle
  2
Thicken
 70
    13
177
     3
291
     1
 70
    58
 90
        2
176
     1
 90
        2
176
     1
 90
        0
176
     1
 90
        0
176
     1
 40
0.6
176
     1
 40
30.0
176
     1
 62
     7
420
 16777215
176
     1
 90
        1
176
     1
 90
        4
176
     1
 62
     7
176
     1
 62
   257
176
     1
 90
        1
176
     1
 90
        1
176
     1
 40
1.0
176
     1
 90
       12
176
     1
 62
     7
176
     1
 40
1.0
176
     1
 90
        1
176
     1
 90
        6
176
     1
 90
        2
176
     1
 62
     7
176
     1
 90
        5
176
     1
 90
        0
176
     1
 90
        0
176
     1
290
     0
176
     1
 90
        1
176
     1
 40
0.0
176
     1
 90
        0
176
     1
290
     0
176
     1
290
     1
176
     1
290
     1
176
     1
290
     0
176
     1
290
     0
176
     1
290
     0
176
     1
290
     0
176
     1
290
     0
176
     1
290
     0
176
     1
 90
       50
176
     1
 40
0.0
176
     1
 40
1.0
176
     1
 90
        0
176
     1
 62
    18
420
        0
176
     1
 90
       50
176
     1
 90
        3
176
     1
 62
     5
420
      255
176
     1
290
     0
176
     1
 90
       50
176
     1
 90
       50
176
     1
 90
       50
176
     1
290
     0
176
     1
 90
       50
176
     1
 62
   256
176
     0
 40
1.0
176
     0
 90
        2
176
     1
  1
strokes_ogs.tif
176
     1
290
     0
176
     1
 40
1.0
176
     1
 40
1.0
176
     1
  0
VISUALSTYLE
  5
115BDF
102
{ACAD_REACTORS
330
115BD9
102
}
330
115BD9
100
AcDbVisualStyle
  2
Wireframe
 70
     5
177
     3
291
     0
 70
    58
 90
        0
176
     1
 90
        2
176
     1
 90
        0
176
     1
 90
        0
176
     1
 40
0.6
176
     1
 40
30.0
176
     1
 62
     7
420
 16777215
176
     1
 90
        1
176
     1
 90
        4
176
     1
 62
     7
176
     1
 62
   257
176
     1
 90
        1
176
     1
 90
        1
176
     1
 40
1.0
176
     1
 90
        0
176
     1
 62
   257
176
     1
 40
1.0
176
     1
 90
        1
176
     1
 90
        6
176
     1
 90
        2
176
     1
 62
     7
176
     1
 90
        3
176
     1
 90
        0
176
     1
 90
        0
176
     1
290
     0
176
     1
 90
        1
176
     1
 40
0.0
176
     1
 90
        0
176
     1
290
     0
176
     1
290
     1
176
     1
290
     1
176
     1
290
     0
176
     1
290
     0
176
     1
290
     0
176
     1
290
     0
176
     1
290
     0
176
     1
290
     0
176
     1
 90
       50
176
     1
 40
0.0
176
     1
 40
1.0
176
     1
 90
        0
176
     1
 62
    18
420
        0
176
     1
 90
       50
176
     1
 90
        3
176
     1
 62
     5
420
      255
176
     1
290
     0
176
     1
 90
       50
176
     1
 90
       50
176
     1
 90
       50
176
     1
290
     0
176
     1
 90
       50
176
     1
 62
   256
176
     0
 40
1.0
176
     0
 90
        2
176
     1
  1
strokes_ogs.tif
176
     1
290
     0
176
     1
 40
1.0
176
     1
 40
1.0
176
     1
  0
VISUALSTYLE
  5
115BEF
102
{ACAD_REACTORS
330
115BD9
102
}
330
115BD9
100
AcDbVisualStyle
  2
X-Ray
 70
    25
177
     3
291
     0
 70
    58
 90
        2
176
     1
 90
        2
176
     1
 90
        1
176
     1
 90
        1
176
     1
 40
0.5
176
     1
 40
30.0
176
     1
 62
     7
420
 16777215
176
     1
 90
        1
176
     1
 90
        0
176
     1
 62
     7
176
     1
 62
   257
176
     1
 90
        1
176
     1
 90
        1
176
     1
 40
1.0
176
     1
 90
        8
176
     1
 62
     7
176
     1
 40
1.0
176
     1
 90
        1
176
     1
 90
        6
176
     1
 90
        2
176
     1
 62
     7
176
     1
 90
        3
176
     1
 90
        0
176
     1
 90
        0
176
     1
290
     0
176
     1
 90
       13
176
     1
 40
0.0
176
     1
 90
        0
176
     1
290
     0
176
     1
290
     1
176
     1
290
     1
176
     1
290
     0
176
     1
290
     0
176
     1
290
     0
176
     1
290
     0
176
     1
290
     0
176
     1
290
     0
176
     1
 90
       50
176
     1
 40
0.0
176
     1
 40
1.0
176
     1
 90
        0
176
     1
 62
    18
420
        0
176
     1
 90
       50
176
     1
 90
        3
176
     1
 62
     5
420
      255
176
     1
290
     0
176
     1
 90
       50
176
     1
 90
       50
176
     1
 90
       50
176
     1
290
     0
176
     1
 90
       50
176
     1
 62
   256
176
     0
 40
1.0
176
     0
 90
        2
176
     1
  1
strokes_ogs.tif
176
     1
290
     0
176
     1
 40
1.0
176
     1
 40
1.0
176
     1
  0
DICTIONARYVAR
  5
115BFB
102
{ACAD_REACTORS
330
115BFA
102
}
330
115BFA
100
DictionaryVariables
280
     0
  1
1:1
  0
DICTIONARYVAR
  5
115BFD
102
{ACAD_REACTORS
330
115BFA
102
}
330
115BFA
100
DictionaryVariables
280
     0
  1
Standard
  0
DICTIONARYVAR
  5
115BFC
102
{ACAD_REACTORS
330
115BFA
102
}
330
115BFA
100
DictionaryVariables
280
     0
  1
Standard
  0
DICTIONARYVAR
  5
115BFE
102
{ACAD_REACTORS
330
115BFA
102
}
330
115BFA
100
DictionaryVariables
280
     0
  1
0
  0
DICTIONARY
  5
115C03
330
115BF3
100
AcDbDictionary
280
     1
281
     1
  3
ACAD_ROUNDTRIP_2008_TABLESTYLE_CELLSTYLEMAP
360
115C04
  0
CELLSTYLEMAP
  5
115C04
102
{ACAD_REACTORS
330
115C03
102
}
330
115C03
100
AcDbCellStyleMap
 90
        3
300
CELLSTYLE
  1
TABLEFORMAT_BEGIN
 90
        5
170
     1
 91
        0
 92
    32768
 62
   257
 93
        1
300
CONTENTFORMAT
  1
CONTENTFORMAT_BEGIN
 90
        0
 91
        0
 92
        4
 93
        0
300

 40
0.0
140
1.0
 94
        5
 62
     0
340
115B75
144
0.25
309
CONTENTFORMAT_END
171
     1
301
MARGIN
  1
CELLMARGIN_BEGIN
 40
0.06
 40
0.06
 40
0.06
 40
0.06
 40
0.06
 40
0.06
309
CELLMARGIN_END
 94
        6
 95
        1
302
GRIDFORMAT
  1
GRIDFORMAT_BEGIN
 90
        0
 91
        1
 62
     0
 92
       -2
340
115B77
 93
        0
 40
0.045
309
GRIDFORMAT_END
 95
        2
302
GRIDFORMAT
  1
GRIDFORMAT_BEGIN
 90
        0
 91
        1
 62
     0
 92
       -2
340
115B77
 93
        0
 40
0.045
309
GRIDFORMAT_END
 95
        4
302
GRIDFORMAT
  1
GRIDFORMAT_BEGIN
 90
        0
 91
        1
 62
     0
 92
       -2
340
115B77
 93
        0
 40
0.045
309
GRIDFORMAT_END
 95
        8
302
GRIDFORMAT
  1
GRIDFORMAT_BEGIN
 90
        0
 91
        1
 62
     0
 92
       -2
340
115B77
 93
        0
 40
0.045
309
GRIDFORMAT_END
 95
       16
302
GRIDFORMAT
  1
GRIDFORMAT_BEGIN
 90
        0
 91
        1
 62
     0
 92
       -2
340
115B77
 93
        0
 40
0.045
309
GRIDFORMAT_END
 95
       32
302
GRIDFORMAT
  1
GRIDFORMAT_BEGIN
 90
        0
 91
        1
 62
     0
 92
       -2
340
115B77
 93
        0
 40
0.045
309
GRIDFORMAT_END
309
TABLEFORMAT_END
  1
CELLSTYLE_BEGIN
 90
        1
 91
        1
300
_TITLE
309
CELLSTYLE_END
300
CELLSTYLE
  1
TABLEFORMAT_BEGIN
 90
        5
170
     1
 91
        0
 92
        0
 62
   257
 93
        1
300
CONTENTFORMAT
  1
CONTENTFORMAT_BEGIN
 90
        0
 91
        0
 92
        4
 93
        0
300

 40
0.0
140
1.0
 94
        5
 62
     0
340
115B75
144
0.18
309
CONTENTFORMAT_END
171
     1
301
MARGIN
  1
CELLMARGIN_BEGIN
 40
0.06
 40
0.06
 40
0.06
 40
0.06
 40
0.06
 40
0.06
309
CELLMARGIN_END
 94
        6
 95
        1
302
GRIDFORMAT
  1
GRIDFORMAT_BEGIN
 90
        0
 91
        1
 62
     0
 92
       -2
340
115B77
 93
        0
 40
0.045
309
GRIDFORMAT_END
 95
        2
302
GRIDFORMAT
  1
GRIDFORMAT_BEGIN
 90
        0
 91
        1
 62
     0
 92
       -2
340
115B77
 93
        0
 40
0.045
309
GRIDFORMAT_END
 95
        4
302
GRIDFORMAT
  1
GRIDFORMAT_BEGIN
 90
        0
 91
        1
 62
     0
 92
       -2
340
115B77
 93
        0
 40
0.045
309
GRIDFORMAT_END
 95
        8
302
GRIDFORMAT
  1
GRIDFORMAT_BEGIN
 90
        0
 91
        1
 62
     0
 92
       -2
340
115B77
 93
        0
 40
0.045
309
GRIDFORMAT_END
 95
       16
302
GRIDFORMAT
  1
GRIDFORMAT_BEGIN
 90
        0
 91
        1
 62
     0
 92
       -2
340
115B77
 93
        0
 40
0.045
309
GRIDFORMAT_END
 95
       32
302
GRIDFORMAT
  1
GRIDFORMAT_BEGIN
 90
        0
 91
        1
 62
     0
 92
       -2
340
115B77
 93
        0
 40
0.045
309
GRIDFORMAT_END
309
TABLEFORMAT_END
  1
CELLSTYLE_BEGIN
 90
        2
 91
        1
300
_HEADER
309
CELLSTYLE_END
300
CELLSTYLE
  1
TABLEFORMAT_BEGIN
 90
        5
170
     1
 91
        0
 92
        0
 62
   257
 93
        1
300
CONTENTFORMAT
  1
CONTENTFORMAT_BEGIN
 90
        0
 91
        0
 92
        4
 93
        0
300

 40
0.0
140
1.0
 94
        2
 62
     0
340
115B75
144
0.18
309
CONTENTFORMAT_END
171
     1
301
MARGIN
  1
CELLMARGIN_BEGIN
 40
0.06
 40
0.06
 40
0.06
 40
0.06
 40
0.06
 40
0.06
309
CELLMARGIN_END
 94
        6
 95
        1
302
GRIDFORMAT
  1
GRIDFORMAT_BEGIN
 90
        0
 91
        1
 62
     0
 92
       -2
340
115B77
 93
        0
 40
0.045
309
GRIDFORMAT_END
 95
        2
302
GRIDFORMAT
  1
GRIDFORMAT_BEGIN
 90
        0
 91
        1
 62
     0
 92
       -2
340
115B77
 93
        0
 40
0.045
309
GRIDFORMAT_END
 95
        4
302
GRIDFORMAT
  1
GRIDFORMAT_BEGIN
 90
        0
 91
        1
 62
     0
 92
       -2
340
115B77
 93
        0
 40
0.045
309
GRIDFORMAT_END
 95
        8
302
GRIDFORMAT
  1
GRIDFORMAT_BEGIN
 90
        0
 91
        1
 62
     0
 92
       -2
340
115B77
 93
        0
 40
0.045
309
GRIDFORMAT_END
 95
       16
302
GRIDFORMAT
  1
GRIDFORMAT_BEGIN
 90
        0
 91
        1
 62
     0
 92
       -2
340
115B77
 93
        0
 40
0.045
309
GRIDFORMAT_END
 95
       32
302
GRIDFORMAT
  1
GRIDFORMAT_BEGIN
 90
        0
 91
        1
 62
     0
 92
       -2
340
115B77
 93
        0
 40
0.045
309
GRIDFORMAT_END
309
TABLEFORMAT_END
  1
CELLSTYLE_BEGIN
 90
        3
 91
        2
300
_DATA
309
CELLSTYLE_END
  0
ENDSEC
  0
EOF
