  0
SECTION
  2
HEADER
  9
$ACADVER
  1
AC1009
  9
$DWGCODEPAGE
  3
ansi_1252
  9
$INSBASE
 10
0.0
 20
0.0
 30
0.0
  9
$EXTMIN
 10
-4012.685974119231
 20
-987.6576470269354
 30
0.0
  9
$EXTMAX
 10
4012.685974119231
 20
2267.086638777121
 30
0.0
  9
$LIMMIN
 10
0.0
 20
0.0
  9
$LIMMAX
 10
12.0
 20
9.0
  9
$ORTHOMODE
 70
     1
  9
$REGENMODE
 70
     1
  9
$FILLMODE
 70
     1
  9
$QTEXTMODE
 70
     0
  9
$MIRRTEXT
 70
     0
  9
$DRAGMODE
 70
     2
  9
$LTSCALE
 40
5.0
  9
$OSMODE
 70
 16383
  9
$ATTMODE
 70
     1
  9
$TEXTSIZE
 40
19.0
  9
$TRACEWID
 40
0.05
  9
$TEXTSTYLE
  7
STILE1
  9
$CLAYER
  8
0
  9
$CELTYPE
  6
BYLAYER
  9
$CECOLOR
 62
   256
  9
$DIMSCALE
 40
50.0
  9
$DIMASZ
 40
2.5
  9
$DIMEXO
 40
1.0
  9
$DIMDLI
 40
0.0
  9
$DIMRND
 40
0.0
  9
$DIMDLE
 40
0.0
  9
$DIMEXE
 40
1.0
  9
$DIMTP
 40
0.0
  9
$DIMTM
 40
0.0
  9
$DIMTXT
 40
2.5
  9
$DIMCEN
 40
1.0
  9
$DIMTSZ
 40
0.0
  9
$DIMTOL
 70
     0
  9
$DIMLIM
 70
     0
  9
$DIMTIH
 70
     0
  9
$DIMTOH
 70
     0
  9
$DIMSE1
 70
     0
  9
$DIMSE2
 70
     0
  9
$DIMTAD
 70
     1
  9
$DIMZIN
 70
     8
  9
$DIMBLK
  1

  9
$DIMASO
 70
     1
  9
$DIMSHO
 70
     0
  9
$DIMPOST
  1

  9
$DIMAPOST
  1

  9
$DIMALT
 70
     0
  9
$DIMALTD
 70
     2
  9
$DIMALTF
 40
25.4
  9
$DIMLFAC
 40
1.0
  9
$DIMTOFL
 70
     1
  9
$DIMTVP
 40
0.0
  9
$DIMTIX
 70
     1
  9
$DIMSOXD
 70
     0
  9
$DIMSAH
 70
     0
  9
$DIMBLK1
  1

  9
$DIMBLK2
  1

  9
$DIMSTYLE
  2
STANDARD
  9
$DIMCLRD
 70
     0
  9
$DIMCLRE
 70
     0
  9
$DIMCLRT
 70
     0
  9
$DIMTFAC
 40
1.0
  9
$DIMGAP
 40
1.5
  9
$LUNITS
 70
     2
  9
$LUPREC
 70
     4
  9
$SKETCHINC
 40
0.1
  9
$FILLETRAD
 40
20.0
  9
$AUNITS
 70
     0
  9
$AUPREC
 70
     0
  9
$MENU
  1
acad
  9
$ELEVATION
 40
0.0
  9
$PELEVATION
 40
0.0
  9
$THICKNESS
 40
0.0
  9
$LIMCHECK
 70
     0
  9
$CHAMFERA
 40
1200.0
  9
$CHAMFERB
 40
1200.0
  9
$SKPOLY
 70
     0
  9
$TDCREATE
 40
2450277.504307755
  9
$TDUPDATE
 40
2459748.716503796
  9
$TDINDWG
 40
26.2380353009
  9
$TDUSRTIMER
 40
0.0008926852
  9
$USRTIMER
 70
     1
  9
$ANGBASE
 50
0.0
  9
$ANGDIR
 70
     0
  9
$PDMODE
 70
     0
  9
$PDSIZE
 40
0.0
  9
$PLINEWID
 40
0.0
  9
$COORDS
 70
     1
  9
$SPLFRAME
 70
     0
  9
$SPLINETYPE
 70
     6
  9
$SPLINESEGS
 70
     8
  9
$ATTDIA
 70
     0
  9
$ATTREQ
 70
     1
  9
$HANDLING
 70
     1
  9
$HANDSEED
  5
DCB1B
  9
$SURFTAB1
 70
     6
  9
$SURFTAB2
 70
     6
  9
$SURFTYPE
 70
     6
  9
$SURFU
 70
     6
  9
$SURFV
 70
     6
  9
$UCSNAME
  2

  9
$UCSORG
 10
0.0
 20
0.0
 30
0.0
  9
$UCSXDIR
 10
1.0
 20
0.0
 30
0.0
  9
$UCSYDIR
 10
0.0
 20
1.0
 30
0.0
  9
$PUCSNAME
  2

  9
$PUCSORG
 10
0.0
 20
0.0
 30
0.0
  9
$PUCSXDIR
 10
1.0
 20
0.0
 30
0.0
  9
$PUCSYDIR
 10
0.0
 20
1.0
 30
0.0
  9
$USERI1
 70
     0
  9
$USERI2
 70
     0
  9
$USERI3
 70
     0
  9
$USERI4
 70
     0
  9
$USERI5
 70
     0
  9
$USERR1
 40
0.0
  9
$USERR2
 40
0.0
  9
$USERR3
 40
0.0
  9
$USERR4
 40
0.0
  9
$USERR5
 40
0.0
  9
$WORLDVIEW
 70
     0
  9
$SHADEDGE
 70
     3
  9
$SHADEDIF
 70
    70
  9
$TILEMODE
 70
     1
  9
$MAXACTVP
 70
    16
  9
$PLIMCHECK
 70
     0
  9
$PEXTMIN
 10
0.0
 20
0.0
 30
0.0
  9
$PEXTMAX
 10
0.0
 20
0.0
 30
0.0
  9
$PLIMMIN
 10
0.0
 20
0.0
  9
$PLIMMAX
 10
0.0
 20
0.0
  9
$UNITMODE
 70
     0
  9
$VISRETAIN
 70
     0
  9
$PLINEGEN
 70
     0
  9
$PSLTSCALE
 70
     1
  0
ENDSEC
  0
SECTION
  2
TABLES
  0
TABLE
  2
VPORT
 70
     1
  0
VPORT
  2
*ACTIVE
 70
     0
 10
0.0
 20
0.0
 11
1.0
 21
1.0
 12
0.0
 22
639.714495875093
 13
0.0
 23
0.0
 14
1.0
 24
1.0
 15
0.0
 25
0.0
 16
0.0
 26
0.0
 36
1.0
 17
0.0
 27
0.0
 37
0.0
 40
4012.460542322933
 41
2.040114613180516
 42
50.0
 43
0.0
 44
0.0
 50
0.0
 51
0.0
 71
    16
 72
   100
 73
     1
 74
     1
 75
     0
 76
     1
 77
     0
 78
     0
  0
ENDTAB
  0
TABLE
  2
LTYPE
 70
     1
  0
LTYPE
  2
CONTINUOUS
 70
     0
  3
Solid line
 72
    65
 73
     0
 40
0.0
  0
ENDTAB
  0
TABLE
  2
LAYER
 70
     2
  0
LAYER
  2
0
 70
     0
 62
     7
  6
CONTINUOUS
  0
LAYER
  2
DEFPOINTS
 70
     0
 62
     7
  6
CONTINUOUS
  0
ENDTAB
  0
TABLE
  2
STYLE
 70
     2
  0
STYLE
  2
STANDARD
 70
     0
 40
0.0
 41
1.0
 50
0.0
 71
     0
 42
2.5
  3
txt
  4

  0
STYLE
  2
STILE1
 70
     0
 40
0.0
 41
1.0
 50
0.0
 71
     0
 42
19.0
  3
ROMANS.SHX
  4

  0
ENDTAB
  0
TABLE
  2
VIEW
 70
     0
  0
ENDTAB
  0
TABLE
  2
UCS
 70
     0
  0
ENDTAB
  0
TABLE
  2
APPID
 70
    40
  0
APPID
  2
ACAD
 70
     0
  0
APPID
  2
DCO15
 70
     0
  0
APPID
  2
ACAECLAYERSTANDARD
 70
     0
  0
APPID
  2
ACDBDYNAMICBLOCKGUID
 70
     0
  0
APPID
  2
ACDBBLOCKREPETAG
 70
     0
  0
APPID
  2
ACAD_PSEXT
 70
     0
  0
APPID
  2
ACAD_DSTYLE_DIMJAG
 70
     0
  0
APPID
  2
ACAD_DSTYLE_DIMTALN
 70
     0
  0
APPID
  2
ACAD_DSTYLE_DIMRADIAL_EXTE
 70
     0
  0
APPID
  2
RAK
 70
     0
  0
APPID
  2
ACLAYERTOOLS
 70
     0
  0
APPID
  2
REVIT
 70
     0
  0
APPID
  2
ACAD_MLEADERVER
 70
     0
  0
APPID
  2
ACAD_DSTYLE_DIMBREAK
 70
     0
  0
APPID
  2
ACCMTRANSPARENCY
 70
     0
  0
APPID
  2
ACAD_NAV_VCDISPLAY
 70
     0
  0
APPID
  2
GRADIENTCOLOR1ACI
 70
     0
  0
APPID
  2
GRADIENTCOLOR2ACI
 70
     0
  0
APPID
  2
PROGE_PRINT_SETTINGS
 70
     0
  0
APPID
  2
AA_WLPR
 70
     0
  0
APPID
  2
AA_WLENT
 70
     0
  0
APPID
  2
AA_WLTP
 70
     0
  0
APPID
  2
AA_WLBK
 70
     0
  0
APPID
  2
ACAD_DSTYLE_DIMJOGGED_JOGA
 70
     0
  0
APPID
  2
$DDT_AUDIT_GENERATED__2CAF
 70
     0
  0
APPID
  2
ACAD_DSTYLE_DIMEXT_LENGTH
 70
     0
  0
APPID
  2
ACAD_DSTYLE_DIMEXT_ENABLED
 70
     0
  0
APPID
  2
ACAD_DSTYLE_DIMJOGGED_JOG0
 70
     0
  0
APPID
  2
ACAD_DSTYLE_DIMARC_LENGTH_
 70
     0
  0
APPID
  2
C_AND_O
 70
     0
  0
APPID
  2
AVE_FINISH
 70
     0
  0
APPID
  2
AVE_RENDER
 70
     0
  0
APPID
  2
AVE_ENTITY_MATERIAL
 70
     0
  0
APPID
  2
AVE_MATERIAL
 70
     0
  0
APPID
  2
ADDC5$_$SETUP-
 70
     0
  0
APPID
  2
ADDC4$_$SETUP-
 70
     0
  0
APPID
  2
ADDC4$_$ARTSETUP-
 70
     0
  0
APPID
  2
GENIUS_GENODEF_13
 70
     0
  0
APPID
  2
GENIUS_GENOBJ-N-REC_13
 70
     0
  0
APPID
  2
GENIUS_GENREC_14
 70
     0
  0
ENDTAB
  0
TABLE
  2
DIMSTYLE
 70
     1
  0
DIMSTYLE
  2
STANDARD
 70
     0
  3

  4

  5

  6

  7

 40
1.0
 41
0.18
 42
0.0625
 43
0.38
 44
0.18
 45
0.0
 46
0.0
 47
0.0
 48
0.0
140
0.18
141
0.09
142
0.0
143
25.4
144
1.0
145
0.0
146
1.0
147
0.09
 71
     0
 72
     0
 73
     1
 74
     1
 75
     0
 76
     0
 77
     0
 78
     0
170
     0
171
     2
172
     0
173
     0
174
     0
175
     0
176
     0
177
     0
178
     0
  0
ENDTAB
  0
ENDSEC
  0
SECTION
  2
BLOCKS
  0
BLOCK
  8
0
  2
$MODEL_SPACE
 70
     0
 10
0.0
 20
0.0
 30
0.0
  3
$MODEL_SPACE
  1

  0
ENDBLK
  5
DC7C2
  8
0
  0
BLOCK
 67
     1
  8
0
  2
$PAPER_SPACE
 70
     0
 10
0.0
 20
0.0
 30
0.0
  3
$PAPER_SPACE
  1

  0
ENDBLK
  5
DC7BE
 67
     1
  8
0
  0
BLOCK
  8
0
  2
*D0
 70
     1
 10
0.0
 20
0.0
 30
0.0
  3
*D0
  1

  0
LINE
  5
DC9CB
  8
0
 62
     0
 10
2970.012733536484
 20
1718.559802451881
 30
0.0
 11
2970.012733536484
 21
1792.005971167996
 31
0.0
  0
LINE
  5
DC9CC
  8
0
 62
     0
 10
2410.012731152297
 20
1718.559802451881
 30
0.0
 11
2410.012731152297
 21
1792.005971167996
 31
0.0
  0
LINE
  5
DC9CD
  8
0
 62
     0
 10
2845.012733536484
 20
1742.005971167996
 30
0.0
 11
2535.012731152297
 21
1742.005971167996
 31
0.0
  0
SOLID
  5
DC9CE
  8
0
 62
     0
 10
2845.012733536484
 20
1721.172637834663
 30
0.0
 11
2845.012733536484
 21
1762.839304501329
 31
0.0
 12
2970.012733536484
 22
1742.005971167996
 32
0.0
 13
2970.012733536484
 23
1742.005971167996
 33
0.0
  0
SOLID
  5
DC9CF
  8
0
 62
     0
 10
2535.012731152297
 20
1762.839304501329
 30
0.0
 11
2535.012731152297
 21
1721.172637834663
 31
0.0
 12
2410.012731152297
 22
1742.005971167996
 32
0.0
 13
2410.012731152297
 23
1742.005971167996
 33
0.0
  0
TEXT
  5
DC9D0
  8
0
  6
CONTINUOUS
 62
     0
 10
2533.76273234439
 20
1817.005971167996
 30
0.0
 40
125.0
  1
560
  0
POINT
  5
DC9D1
  8
DEFPOINTS
 62
     0
 10
2970.012733536484
 20
1668.559802451881
 30
0.0
  0
POINT
  5
DC9D2
  8
DEFPOINTS
 62
     0
 10
2410.012731152297
 20
1668.559802451881
 30
0.0
  0
POINT
  5
DC9D3
  8
DEFPOINTS
 62
     0
 10
2410.012731152297
 20
1742.005971167996
 30
0.0
  0
ENDBLK
  5
DC9CA
  8
0
  0
BLOCK
  8
0
  2
*D1
 70
     1
 10
0.0
 20
0.0
 30
0.0
  3
*D1
  1

  0
LINE
  5
DC9DA
  8
0
 62
     0
 10
-519.5653430865489
 20
1718.559802451881
 30
0.0
 11
-519.5653430865489
 21
1806.995133956035
 31
0.0
  0
LINE
  5
DC9DB
  8
0
 62
     0
 10
-919.5653430865505
 20
1718.559802451881
 30
0.0
 11
-919.5653430865505
 21
1806.995133956035
 31
0.0
  0
LINE
  5
DC9DC
  8
0
 62
     0
 10
-519.5653430865489
 20
1756.995133956035
 30
0.0
 11
-919.5653430865505
 21
1756.995133956035
 31
0.0
  0
LINE
  5
DC9DD
  8
0
 62
     0
 10
-394.5653430865489
 20
1756.995133956035
 30
0.0
 11
-269.5653430865489
 21
1756.995133956035
 31
0.0
  0
LINE
  5
DC9DE
  8
0
 62
     0
 10
-1044.56534308655
 20
1756.995133956035
 30
0.0
 11
-1169.56534308655
 21
1756.995133956035
 31
0.0
  0
SOLID
  5
DC9DF
  8
0
 62
     0
 10
-394.5653430865489
 20
1777.828467289369
 30
0.0
 11
-394.5653430865489
 21
1736.161800622702
 31
0.0
 12
-519.5653430865489
 22
1756.995133956035
 32
0.0
 13
-519.5653430865489
 23
1756.995133956035
 33
0.0
  0
SOLID
  5
DC9E0
  8
0
 62
     0
 10
-1044.56534308655
 20
1736.161800622702
 30
0.0
 11
-1044.56534308655
 21
1777.828467289369
 31
0.0
 12
-919.5653430865505
 22
1756.995133956035
 32
0.0
 13
-919.5653430865505
 23
1756.995133956035
 33
0.0
  0
TEXT
  5
DC9E1
  8
0
  6
CONTINUOUS
 62
     0
 10
-865.398676419883
 20
1831.995133956035
 30
0.0
 40
125.0
  1
400
  0
POINT
  5
DC9E2
  8
DEFPOINTS
 62
     0
 10
-519.5653430865489
 20
1668.559802451881
 30
0.0
  0
POINT
  5
DC9E3
  8
DEFPOINTS
 62
     0
 10
-919.5653430865505
 20
1668.559802451881
 30
0.0
  0
POINT
  5
DC9E4
  8
DEFPOINTS
 62
     0
 10
-919.5653430865505
 20
1756.995133956035
 30
0.0
  0
ENDBLK
  5
DC9D9
  8
0
  0
BLOCK
  8
0
  2
*D2
 70
     1
 10
0.0
 20
0.0
 30
0.0
  3
*D2
  1

  0
LINE
  5
DC9EB
  8
0
 62
     0
 10
-1955.81534308655
 20
1155.509805733116
 30
0.0
 11
-3199.780337093751
 21
1155.509805733116
 31
0.0
  0
LINE
  5
DC9EC
  8
0
 62
     0
 10
-1969.56534308655
 20
1668.559802451881
 30
0.0
 11
-3199.780337093751
 21
1668.559802451881
 31
0.0
  0
LINE
  5
DC9ED
  8
0
 62
     0
 10
-3149.780337093751
 20
1155.509805733116
 30
0.0
 11
-3149.780337093751
 21
1668.559802451881
 31
0.0
  0
LINE
  5
DC9EE
  8
0
 62
     0
 10
-3149.780337093751
 20
1030.509805733116
 30
0.0
 11
-3149.780337093751
 21
905.5098057331163
 31
0.0
  0
LINE
  5
DC9EF
  8
0
 62
     0
 10
-3149.780337093751
 20
1793.559802451881
 30
0.0
 11
-3149.780337093751
 21
1918.559802451881
 31
0.0
  0
SOLID
  5
DC9F0
  8
0
 62
     0
 10
-3128.947003760418
 20
1030.509805733116
 30
0.0
 11
-3170.613670427085
 21
1030.509805733116
 31
0.0
 12
-3149.780337093751
 22
1155.509805733116
 32
0.0
 13
-3149.780337093751
 23
1155.509805733116
 33
0.0
  0
SOLID
  5
DC9F1
  8
0
 62
     0
 10
-3170.613670427085
 20
1793.559802451881
 30
0.0
 11
-3128.947003760418
 21
1793.559802451881
 31
0.0
 12
-3149.780337093751
 22
1668.559802451881
 32
0.0
 13
-3149.780337093751
 23
1668.559802451881
 33
0.0
  0
TEXT
  5
DC9F2
  8
0
  6
CONTINUOUS
 62
     0
 10
-3224.780337093751
 20
1130.784804092499
 30
0.0
 40
125.0
  1
513.05
 50
90.0
  0
POINT
  5
DC9F3
  8
DEFPOINTS
 62
     0
 10
-1905.81534308655
 20
1155.509805733116
 30
0.0
  0
POINT
  5
DC9F4
  8
DEFPOINTS
 62
     0
 10
-1919.56534308655
 20
1668.559802451881
 30
0.0
  0
POINT
  5
DC9F5
  8
DEFPOINTS
 62
     0
 10
-3149.780337093751
 20
1668.559802451881
 30
0.0
  0
ENDBLK
  5
DC9EA
  8
0
  0
ENDSEC
  0
SECTION
  2
ENTITIES
  0
TEXT
  5
DB9BB
  8
0
 10
-838.7791374978212
 20
-555.4096502962035
 30
0.0
 40
125.0
  1
Questo disegno è di proprietà di Fantin S.r.l.   
  7
STILE1
 72
     1
 11
1583.839910121226
 21
-555.4096502962035
 31
0.0
  0
TEXT
  5
DB9BC
  8
0
 10
-167.9463409722109
 20
-208.9254166234014
 30
0.0
 40
125.0
  1
Mya
  7
STILE1
 72
     1
 11
7.741903075408115
 21
-208.9254166234014
 31
0.0
  0
POLYLINE
  5
DB9BD
  8
0
  6
CONTINUOUS
 66
     1
 10
0.0
 20
0.0
 30
0.0
  0
VERTEX
  5
DC9F7
  8
0
  6
CONTINUOUS
 10
-2005.844421386719
 20
-687.6576470269355
 30
0.0
  0
VERTEX
  5
DC9F8
  8
0
  6
CONTINUOUS
 10
-2005.844421386719
 20
-299.9965549039189
 30
0.0
  0
VERTEX
  5
DC9F9
  8
0
  6
CONTINUOUS
 10
-1904.494879823178
 20
-299.9965549039189
 30
0.0
 42
-0.316444976687396
  0
VERTEX
  5
DC9FA
  8
0
  6
CONTINUOUS
 10
-1853.547085234895
 20
-328.2411702477839
 30
0.0
  0
VERTEX
  5
DC9FB
  8
0
  6
CONTINUOUS
 10
-1752.753926590085
 20
-498.2600775826719
 30
0.0
  0
VERTEX
  5
DC9FC
  8
0
  6
CONTINUOUS
 10
-1749.985792371444
 20
-498.2600775826719
 30
0.0
  0
VERTEX
  5
DC9FD
  8
0
  6
CONTINUOUS
 10
-1749.985792371444
 20
-299.9965549039189
 30
0.0
  0
VERTEX
  5
DC9FE
  8
0
  6
CONTINUOUS
 10
-1637.561991373077
 20
-299.9965549039189
 30
0.0
  0
VERTEX
  5
DC9FF
  8
0
  6
CONTINUOUS
 10
-1637.561991373077
 20
-687.6576470269355
 30
0.0
  0
VERTEX
  5
DCA00
  8
0
  6
CONTINUOUS
 10
-1720.084086097777
 20
-687.6576470269355
 30
0.0
 42
-0.312959769389874
  0
VERTEX
  5
DCA01
  8
0
  6
CONTINUOUS
 10
-1771.031880690716
 20
-659.4147542316932
 30
0.0
  0
VERTEX
  5
DCA02
  8
0
  6
CONTINUOUS
 10
-1890.652486160398
 20
-466.1380072694737
 30
0.0
  0
VERTEX
  5
DCA03
  8
0
  6
CONTINUOUS
 10
-1893.417175291106
 20
-466.1380072694737
 30
0.0
  0
VERTEX
  5
DCA04
  8
0
  6
CONTINUOUS
 10
-1893.417175291106
 20
-687.6576470269355
 30
0.0
  0
VERTEX
  5
DCA05
  8
0
  6
CONTINUOUS
 10
-2005.844421386719
 20
-687.6576470269355
 30
0.0
  0
SEQEND
  5
DCAEA
  8
0
  6
CONTINUOUS
  0
POLYLINE
  5
DB9BE
  8
0
  6
CONTINUOUS
 66
     1
 10
0.0
 20
0.0
 30
0.0
  0
VERTEX
  5
DCA06
  8
0
  6
CONTINUOUS
 10
-2982.206875272095
 20
-687.6576470269355
 30
0.0
  0
VERTEX
  5
DCA07
  8
0
  6
CONTINUOUS
 10
-2982.206875272095
 20
-299.9965549039189
 30
0.0
  0
VERTEX
  5
DCA08
  8
0
  6
CONTINUOUS
 10
-2880.857333708556
 20
-299.9965549039189
 30
0.0
 42
-0.316444976687396
  0
VERTEX
  5
DCA09
  8
0
  6
CONTINUOUS
 10
-2829.909539115615
 20
-328.2411702477839
 30
0.0
  0
VERTEX
  5
DCA0A
  8
0
  6
CONTINUOUS
 10
-2729.116380475462
 20
-498.2600775826719
 30
0.0
  0
VERTEX
  5
DCA0B
  8
0
  6
CONTINUOUS
 10
-2726.348246252165
 20
-498.2600775826719
 30
0.0
  0
VERTEX
  5
DCA0C
  8
0
  6
CONTINUOUS
 10
-2726.348246252165
 20
-299.9965549039189
 30
0.0
  0
VERTEX
  5
DCA0D
  8
0
  6
CONTINUOUS
 10
-2613.924445258454
 20
-299.9965549039189
 30
0.0
  0
VERTEX
  5
DCA0E
  8
0
  6
CONTINUOUS
 10
-2613.924445258454
 20
-687.6576470269355
 30
0.0
  0
VERTEX
  5
DCA0F
  8
0
  6
CONTINUOUS
 10
-2696.446539983154
 20
-687.6576470269355
 30
0.0
 42
-0.312959769389874
  0
VERTEX
  5
DCA10
  8
0
  6
CONTINUOUS
 10
-2747.39433458075
 20
-659.4147542316932
 30
0.0
  0
VERTEX
  5
DCA11
  8
0
  6
CONTINUOUS
 10
-2867.014940045774
 20
-466.1380072694737
 30
0.0
  0
VERTEX
  5
DCA12
  8
0
  6
CONTINUOUS
 10
-2869.779629176483
 20
-466.1380072694737
 30
0.0
  0
VERTEX
  5
DCA13
  8
0
  6
CONTINUOUS
 10
-2869.779629176483
 20
-687.6576470269355
 30
0.0
  0
VERTEX
  5
DCA14
  8
0
  6
CONTINUOUS
 10
-2982.206875272095
 20
-687.6576470269355
 30
0.0
  0
SEQEND
  5
DCAEB
  8
0
  6
CONTINUOUS
  0
POLYLINE
  5
DB9BF
  8
0
  6
CONTINUOUS
 66
     1
 10
0.0
 20
0.0
 30
0.0
  0
VERTEX
  5
DCA15
  8
0
  6
CONTINUOUS
 10
-2229.582702633925
 20
-299.9982774525415
 30
0.0
  0
VERTEX
  5
DCA16
  8
0
  6
CONTINUOUS
 10
-2229.582702633925
 20
-390.8213297522161
 30
0.0
  0
VERTEX
  5
DCA17
  8
0
  6
CONTINUOUS
 10
-2345.878790956922
 20
-390.8213297522161
 30
0.0
  0
VERTEX
  5
DCA18
  8
0
  6
CONTINUOUS
 10
-2345.878790956922
 20
-687.6576470269355
 30
0.0
  0
VERTEX
  5
DCA19
  8
0
  6
CONTINUOUS
 10
-2464.948181146756
 20
-687.6576470269355
 30
0.0
  0
VERTEX
  5
DCA1A
  8
0
  6
CONTINUOUS
 10
-2464.948181146756
 20
-390.8213297522161
 30
0.0
  0
VERTEX
  5
DCA1B
  8
0
  6
CONTINUOUS
 10
-2578.481302894652
 20
-390.8213297522161
 30
0.0
  0
VERTEX
  5
DCA1C
  8
0
  6
CONTINUOUS
 10
-2578.481302894652
 20
-299.9982774525415
 30
0.0
  0
VERTEX
  5
DCA1D
  8
0
  6
CONTINUOUS
 10
-2229.582702633925
 20
-299.9982774525415
 30
0.0
  0
SEQEND
  5
DCAEC
  8
0
  6
CONTINUOUS
  0
POLYLINE
  5
DB9C0
  8
0
  6
CONTINUOUS
 66
     1
 10
0.0
 20
0.0
 30
0.0
 70
     1
  0
VERTEX
  5
DCA1E
  8
0
  6
CONTINUOUS
 10
-2192.47902425006
 20
-299.9982774525415
 30
0.0
  0
VERTEX
  5
DCA1F
  8
0
  6
CONTINUOUS
 10
-2073.409634060226
 20
-299.9982774525415
 30
0.0
  0
VERTEX
  5
DCA20
  8
0
  6
CONTINUOUS
 10
-2073.409634060226
 20
-687.6576470269355
 30
0.0
  0
VERTEX
  5
DCA21
  8
0
  6
CONTINUOUS
 10
-2192.47902425006
 20
-687.6576470269355
 30
0.0
  0
SEQEND
  5
DCAED
  8
0
  6
CONTINUOUS
  0
POLYLINE
  5
DB9C1
  8
0
  6
CONTINUOUS
 66
     1
 10
0.0
 20
0.0
 30
0.0
  0
VERTEX
  5
DCA22
  8
0
  6
CONTINUOUS
 10
-3407.540086535738
 20
-300.0
 30
0.0
  0
VERTEX
  5
DCA23
  8
0
  6
CONTINUOUS
 10
-3407.540086535738
 20
-389.1607937274967
 30
0.0
  0
VERTEX
  5
DCA24
  8
0
  6
CONTINUOUS
 10
-3593.616583929397
 20
-389.1607937274967
 30
0.0
  0
VERTEX
  5
DCA25
  8
0
  6
CONTINUOUS
 10
-3593.616583929397
 20
-466.1362847220151
 30
0.0
  0
VERTEX
  5
DCA26
  8
0
  6
CONTINUOUS
 10
-3463.47293430008
 20
-466.1362847220151
 30
0.0
  0
VERTEX
  5
DCA27
  8
0
  6
CONTINUOUS
 10
-3463.47293430008
 20
-549.2095947265625
 30
0.0
  0
VERTEX
  5
DCA28
  8
0
  6
CONTINUOUS
 10
-3593.616583929397
 20
-549.2095947265625
 30
0.0
  0
VERTEX
  5
DCA29
  8
0
  6
CONTINUOUS
 10
-3593.616583929397
 20
-687.6576470269355
 30
0.0
  0
VERTEX
  5
DCA2A
  8
0
  6
CONTINUOUS
 10
-3712.685974119231
 20
-687.6576470269355
 30
0.0
  0
VERTEX
  5
DCA2B
  8
0
  6
CONTINUOUS
 10
-3712.685974119231
 20
-300.0
 30
0.0
  0
VERTEX
  5
DCA2C
  8
0
  6
CONTINUOUS
 10
-3407.540086535738
 20
-300.0
 30
0.0
  0
SEQEND
  5
DCAEE
  8
0
  6
CONTINUOUS
  0
POLYLINE
  5
DB9C2
  8
0
  6
CONTINUOUS
 66
     1
 10
0.0
 20
0.0
 30
0.0
  0
VERTEX
  5
DCA2D
  8
0
  6
CONTINUOUS
 10
-3221.454976396636
 20
-406.8789198133162
 30
0.0
  0
VERTEX
  5
DCA2E
  8
0
  6
CONTINUOUS
 10
-3188.227030434647
 20
-520.96670193132
 30
0.0
  0
VERTEX
  5
DCA2F
  8
0
  6
CONTINUOUS
 10
-3260.775573728607
 20
-520.96670193132
 30
0.0
  0
VERTEX
  5
DCA30
  8
0
  6
CONTINUOUS
 10
-3227.547627761961
 20
-406.8789198133162
 30
0.0
  0
VERTEX
  5
DCA31
  8
0
  6
CONTINUOUS
 10
-3221.454976396636
 20
-406.8789198133162
 30
0.0
  0
SEQEND
  5
DCAEF
  8
0
  6
CONTINUOUS
  0
POLYLINE
  5
DB9C3
  8
0
  6
CONTINUOUS
 66
     1
 10
0.0
 20
0.0
 30
0.0
 70
     1
  0
VERTEX
  5
DCA32
  8
0
  6
CONTINUOUS
 10
-3164.963312949987
 20
-604.0348442923276
 30
0.0
  0
VERTEX
  5
DCA33
  8
0
  6
CONTINUOUS
 10
-3164.963312949987
 20
-604.0348442923276
 30
0.0
  0
VERTEX
  5
DCA34
  8
0
  6
CONTINUOUS
 10
-3140.60203043744
 20
-687.6576470269355
 30
0.0
  0
VERTEX
  5
DCA35
  8
0
  6
CONTINUOUS
 10
-3014.885328505188
 20
-687.6576470269355
 30
0.0
  0
VERTEX
  5
DCA36
  8
0
  6
CONTINUOUS
 10
-3132.294182670303
 20
-334.8833143443335
 30
0.0
 42
0.1089385125692126
  0
VERTEX
  5
DCA37
  8
0
  6
CONTINUOUS
 10
-3145.036042486318
 20
-307.2121766244527
 30
0.0
 42
0.1589313772246072
  0
VERTEX
  5
DCA38
  8
0
  6
CONTINUOUS
 10
-3157.031867676415
 20
-299.9273046676535
 30
0.0
 42
0.058673645385263
  0
VERTEX
  5
DCA39
  8
0
  6
CONTINUOUS
 10
-3173.277038573287
 20
-298.3360188803636
 30
0.0
  0
VERTEX
  5
DCA3A
  8
0
  6
CONTINUOUS
 10
-3173.277038573287
 20
-298.3360188803636
 30
0.0
  0
VERTEX
  5
DCA3B
  8
0
  6
CONTINUOUS
 10
-3268.525316026062
 20
-298.3360188803636
 30
0.0
 42
0.058673645385263
  0
VERTEX
  5
DCA3C
  8
0
  6
CONTINUOUS
 10
-3284.770486922936
 20
-299.9273046676535
 30
0.0
 42
0.1589313772246072
  0
VERTEX
  5
DCA3D
  8
0
  6
CONTINUOUS
 10
-3296.766312113032
 20
-307.2121766244527
 30
0.0
 42
0.1089385125692126
  0
VERTEX
  5
DCA3E
  8
0
  6
CONTINUOUS
 10
-3309.508171929046
 20
-334.8833143443335
 30
0.0
  0
VERTEX
  5
DCA3F
  8
0
  6
CONTINUOUS
 10
-3426.917026089505
 20
-687.6576470269355
 30
0.0
  0
VERTEX
  5
DCA40
  8
0
  6
CONTINUOUS
 10
-3307.851080996916
 20
-687.6576470269355
 30
0.0
  0
VERTEX
  5
DCA41
  8
0
  6
CONTINUOUS
 10
-3284.038581000641
 20
-604.0348442923276
 30
0.0
  0
SEQEND
  5
DCAF0
  8
0
  6
CONTINUOUS
  0
TEXT
  5
DB9C4
  8
0
 10
-527.8452372835668
 20
-817.4938565844182
 30
0.0
 40
125.0
  1
This drawing is property of Fantin S.r.l. 
  7
STILE1
 72
     1
 11
1487.035715097386
 21
-817.4938565844182
 31
0.0
  0
POLYLINE
  5
DB9C5
  8
0
 66
     1
 10
0.0
 20
0.0
 30
0.0
  0
VERTEX
  5
DCA42
  8
0
 10
-1337.561991373077
 20
-299.9965549039189
 30
0.0
  0
VERTEX
  5
DCA43
  8
0
 10
4012.685974119231
 20
-299.9965549039186
 30
0.0
  0
SEQEND
  5
DCAF1
  8
0
  0
POLYLINE
  5
DB9C6
  8
0
 66
     1
 10
0.0
 20
0.0
 30
0.0
 70
     1
  0
VERTEX
  5
DCA44
  8
0
 10
-4012.685974119231
 20
0.0
 30
0.0
  0
VERTEX
  5
DCA45
  8
0
 10
4012.685974119231
 20
0.0
 30
0.0
  0
VERTEX
  5
DCA46
  8
0
 10
4012.685974119231
 20
-987.6576470269353
 30
0.0
  0
VERTEX
  5
DCA47
  8
0
 10
-4012.685974119231
 20
-987.6576470269353
 30
0.0
  0
SEQEND
  5
DCAF2
  8
0
  0
LINE
  5
DB9C7
  8
0
 10
-1337.561991373077
 20
0.0
 30
0.0
 11
-1337.561991373077
 21
-987.6576470269353
 31
0.0
  0
LINE
  5
DB9C8
  8
0
 10
1337.561991373077
 20
-299.9965549039188
 30
0.0
 11
1337.561991373077
 21
0.0
 31
0.0
  0
TEXT
  5
DB9C9
  8
0
 10
2240.022522568668
 20
-208.9254166234015
 30
0.0
 40
125.0
  1
2022-06
  7
STILE1
 72
     1
 11
2674.918355902001
 21
-208.9254166234015
 31
0.0
  0
LINE
  5
DB9CA
  8
0
 10
4012.685974119231
 20
0.0000000000002274
 30
0.0
 11
4012.685974119231
 21
-987.6576470269353
 31
0.0
  0
LINE
  5
DB9CB
  8
0
 10
-4012.685974119231
 20
554.0366420584437
 30
0.0
 11
-4012.685974119231
 21
1154.036642058444
 31
0.0
  0
POLYLINE
  5
DB9CE
  8
0
 66
     1
 10
0.0
 20
0.0
 30
0.0
 70
     1
  0
VERTEX
  5
DCA48
  8
0
 10
-4012.685974119231
 20
554.0366420584437
 30
0.0
  0
VERTEX
  5
DCA49
  8
0
 10
4012.685974119231
 20
554.0366420584437
 30
0.0
  0
VERTEX
  5
DCA4A
  8
0
 10
4012.685974119231
 20
2267.086638777121
 30
0.0
  0
VERTEX
  5
DCA4B
  8
0
 10
-4012.685974119231
 20
2267.086638777121
 30
0.0
  0
SEQEND
  5
DCAF3
  8
0
  0
CIRCLE
  5
DC395
  8
0
 10
2940.012733536483
 20
1173.509805733204
 30
0.0
 40
18.0
  0
ARC
  5
DC396
  8
0
 10
2940.012733536483
 20
1173.509805733204
 30
0.0
 40
18.0
 50
56.25101140411258
 51
123.7489885958874
  0
POLYLINE
  5
DC397
  8
0
 66
     1
 10
0.0
 20
0.0
 30
0.0
  0
VERTEX
  5
DCA4C
  8
0
 10
2430.012733536484
 20
1188.476435280301
 30
0.0
  0
VERTEX
  5
DCA4D
  8
0
 10
2430.012733536484
 20
1195.509805733118
 30
0.0
  0
VERTEX
  5
DCA4E
  8
0
 10
2450.012733536484
 20
1195.509805733118
 30
0.0
  0
VERTEX
  5
DCA4F
  8
0
 10
2450.012733536484
 20
1188.476435280301
 30
0.0
  0
SEQEND
  5
DCAF4
  8
0
  0
ARC
  5
DC398
  8
0
 10
2440.012733536482
 20
1173.509805733204
 30
0.0
 40
18.0
 50
56.25101140411258
 51
123.7489885958874
  0
POLYLINE
  5
DC399
  8
0
 66
     1
 10
0.0
 20
0.0
 30
0.0
  0
VERTEX
  5
DCA50
  8
0
 10
2930.012733536484
 20
1188.476435280301
 30
0.0
  0
VERTEX
  5
DCA51
  8
0
 10
2930.012733536484
 20
1195.509805733118
 30
0.0
  0
VERTEX
  5
DCA52
  8
0
 10
2950.012733536484
 20
1195.509805733118
 30
0.0
  0
VERTEX
  5
DCA53
  8
0
 10
2950.012733536484
 20
1188.476435280301
 30
0.0
  0
SEQEND
  5
DCAF5
  8
0
  0
CIRCLE
  5
DC39A
  8
0
 10
2440.012733536482
 20
1173.509805733204
 30
0.0
 40
18.0
  0
POLYLINE
  5
DC39B
  8
0
 66
     1
 10
0.0
 20
0.0
 30
0.0
 70
     1
  0
VERTEX
  5
DCA54
  8
0
 10
2410.012731152297
 20
1668.559802451881
 30
0.0
  0
VERTEX
  5
DCA55
  8
0
 10
2410.012731152297
 20
1195.509805733118
 30
0.0
  0
VERTEX
  5
DCA56
  8
0
 10
2970.012733536484
 20
1195.509805733118
 30
0.0
  0
VERTEX
  5
DCA57
  8
0
 10
2970.012733536484
 20
1668.559802451881
 30
0.0
  0
SEQEND
  5
DCAF6
  8
0
  0
CIRCLE
  5
DC3AB
  8
0
 10
-2543.56534308655
 20
1643.559802675398
 30
0.0
 40
12.0
  0
POLYLINE
  5
DC3AC
  8
0
 66
     1
 10
0.0
 20
0.0
 30
0.0
 70
     1
  0
VERTEX
  5
DCA58
  8
0
 10
-2544.31534308655
 20
1637.559802675399
 30
0.0
  0
VERTEX
  5
DCA59
  8
0
 10
-2544.31534308655
 20
1649.559802675399
 30
0.0
  0
VERTEX
  5
DCA5A
  8
0
 10
-2542.81534308655
 20
1649.559802675399
 30
0.0
  0
VERTEX
  5
DCA5B
  8
0
 10
-2542.81534308655
 20
1637.559802675399
 30
0.0
  0
SEQEND
  5
DCAF7
  8
0
  0
POLYLINE
  5
DC3AE
  8
0
 66
     1
 10
0.0
 20
0.0
 30
0.0
 70
     1
  0
VERTEX
  5
DCA5C
  8
0
 10
-2897.065343086551
 20
1159.509805733116
 30
0.0
  0
VERTEX
  5
DCA5D
  8
0
 10
-2897.065343086551
 20
1195.509805733116
 30
0.0
  0
VERTEX
  5
DCA5E
  8
0
 10
-2882.065343086551
 20
1195.509805733116
 30
0.0
  0
VERTEX
  5
DCA5F
  8
0
 10
-2882.065343086551
 20
1159.509805733116
 30
0.0
  0
SEQEND
  5
DCAF8
  8
0
  0
POLYLINE
  5
DC3AF
  8
0
 66
     1
 10
0.0
 20
0.0
 30
0.0
 70
     1
  0
VERTEX
  5
DCA60
  8
0
 10
-2914.565343086551
 20
1191.509805733116
 30
0.0
  0
VERTEX
  5
DCA61
  8
0
 10
-2914.565343086551
 20
1155.509805733116
 30
0.0
  0
VERTEX
  5
DCA62
  8
0
 10
-2897.065343086551
 20
1155.509805733116
 30
0.0
  0
VERTEX
  5
DCA63
  8
0
 10
-2897.065343086551
 20
1191.509805733116
 30
0.0
  0
SEQEND
  5
DCAF9
  8
0
  0
POLYLINE
  5
DC3B0
  8
0
 66
     1
 10
0.0
 20
0.0
 30
0.0
 70
     1
  0
VERTEX
  5
DCA64
  8
0
 10
-2882.065343086551
 20
1191.509805733116
 30
0.0
  0
VERTEX
  5
DCA65
  8
0
 10
-2882.065343086551
 20
1155.509805733116
 30
0.0
  0
VERTEX
  5
DCA66
  8
0
 10
-2864.56534308655
 20
1155.509805733116
 30
0.0
  0
VERTEX
  5
DCA67
  8
0
 10
-2864.56534308655
 20
1191.509805733116
 30
0.0
  0
SEQEND
  5
DCAFA
  8
0
  0
POLYLINE
  5
DC3B1
  8
0
 66
     1
 10
0.0
 20
0.0
 30
0.0
 70
     1
  0
VERTEX
  5
DCA68
  8
0
 10
-2909.56534308655
 20
1508.81294045127
 30
0.0
  0
VERTEX
  5
DCA69
  8
0
 10
-2909.56534308655
 20
1658.559802675399
 30
0.0
  0
VERTEX
  5
DCA6A
  8
0
 10
-2529.56534308655
 20
1658.559802675399
 30
0.0
  0
VERTEX
  5
DCA6B
  8
0
 10
-2529.56534308655
 20
1508.81294045127
 30
0.0
  0
SEQEND
  5
DCAFB
  8
0
  0
POLYLINE
  5
DC3B2
  8
0
 66
     1
 10
0.0
 20
0.0
 30
0.0
 70
     1
  0
VERTEX
  5
DCA6C
  8
0
 10
-2909.56534308655
 20
1358.509805733116
 30
0.0
  0
VERTEX
  5
DCA6D
  8
0
 10
-2909.56534308655
 20
1508.81294045127
 30
0.0
  0
VERTEX
  5
DCA6E
  8
0
 10
-2529.56534308655
 20
1508.81294045127
 30
0.0
  0
VERTEX
  5
DCA6F
  8
0
 10
-2529.56534308655
 20
1358.509805733116
 30
0.0
  0
SEQEND
  5
DCAFC
  8
0
  0
POLYLINE
  5
DC3B3
  8
0
 66
     1
 10
0.0
 20
0.0
 30
0.0
 70
     1
  0
VERTEX
  5
DCA70
  8
0
 10
-2909.56534308655
 20
1208.509805733116
 30
0.0
  0
VERTEX
  5
DCA71
  8
0
 10
-2909.56534308655
 20
1358.509805733116
 30
0.0
  0
VERTEX
  5
DCA72
  8
0
 10
-2529.56534308655
 20
1358.509805733116
 30
0.0
  0
VERTEX
  5
DCA73
  8
0
 10
-2529.56534308655
 20
1208.509805733116
 30
0.0
  0
SEQEND
  5
DCAFD
  8
0
  0
POLYLINE
  5
DC3B4
  8
0
 66
     1
 10
0.0
 20
0.0
 30
0.0
 70
     1
  0
VERTEX
  5
DCA74
  8
0
 10
-2524.56534308655
 20
1191.509805733204
 30
0.0
  0
VERTEX
  5
DCA75
  8
0
 10
-2524.56534308655
 20
1155.509805733204
 30
0.0
  0
VERTEX
  5
DCA76
  8
0
 10
-2542.06534308655
 20
1155.509805733204
 30
0.0
  0
VERTEX
  5
DCA77
  8
0
 10
-2542.06534308655
 20
1191.509805733204
 30
0.0
  0
SEQEND
  5
DCAFE
  8
0
  0
POLYLINE
  5
DC3B5
  8
0
 66
     1
 10
0.0
 20
0.0
 30
0.0
 70
     1
  0
VERTEX
  5
DCA78
  8
0
 10
-2557.065343086549
 20
1191.509805733204
 30
0.0
  0
VERTEX
  5
DCA79
  8
0
 10
-2557.065343086549
 20
1155.509805733204
 30
0.0
  0
VERTEX
  5
DCA7A
  8
0
 10
-2574.56534308655
 20
1155.509805733204
 30
0.0
  0
VERTEX
  5
DCA7B
  8
0
 10
-2574.56534308655
 20
1191.509805733204
 30
0.0
  0
SEQEND
  5
DCAFF
  8
0
  0
POLYLINE
  5
DC3B6
  8
0
 66
     1
 10
0.0
 20
0.0
 30
0.0
 70
     1
  0
VERTEX
  5
DCA7C
  8
0
 10
-2557.065343086549
 20
1159.509805733204
 30
0.0
  0
VERTEX
  5
DCA7D
  8
0
 10
-2557.065343086549
 20
1195.509805733116
 30
0.0
  0
VERTEX
  5
DCA7E
  8
0
 10
-2542.06534308655
 20
1195.509805733116
 30
0.0
  0
VERTEX
  5
DCA7F
  8
0
 10
-2542.06534308655
 20
1159.509805733204
 30
0.0
  0
SEQEND
  5
DCB00
  8
0
  0
POLYLINE
  5
DC3B7
  8
0
 66
     1
 10
0.0
 20
0.0
 30
0.0
 70
     1
  0
VERTEX
  5
DCA80
  8
0
 10
-2919.565343086551
 20
1668.559802451881
 30
0.0
  0
VERTEX
  5
DCA81
  8
0
 10
-2919.565343086551
 20
1195.509805733116
 30
0.0
  0
VERTEX
  5
DCA82
  8
0
 10
-2519.565343086549
 20
1195.509805733116
 30
0.0
  0
VERTEX
  5
DCA83
  8
0
 10
-2519.565343086549
 20
1668.559802451881
 30
0.0
  0
SEQEND
  5
DCB01
  8
0
  0
CIRCLE
  5
DC543
  8
0
 10
-2719.56534308655
 20
1283.509805733116
 30
0.0
 40
20.0
  0
CIRCLE
  5
DC545
  8
0
 10
-2719.56534308655
 20
1433.509805733116
 30
0.0
 40
20.0
  0
CIRCLE
  5
DC546
  8
0
 10
-2719.56534308655
 20
1583.81294045127
 30
0.0
 40
20.0
  0
CIRCLE
  5
DC547
  8
0
 10
-1719.56534308655
 20
1583.81294045127
 30
0.0
 40
20.0
  0
CIRCLE
  5
DC548
  8
0
 10
-1719.56534308655
 20
1358.661373092193
 30
0.0
 40
20.0
  0
POLYLINE
  5
DC54A
  8
0
 66
     1
 10
0.0
 20
0.0
 30
0.0
  0
VERTEX
  5
DCA84
  8
0
 10
-1689.56534308655
 20
1195.509805733116
 30
0.0
  0
VERTEX
  5
DCA85
  8
0
 10
-1519.565343086549
 20
1195.509805733116
 30
0.0
  0
VERTEX
  5
DCA86
  8
0
 10
-1519.565343086549
 20
1668.559802451881
 30
0.0
  0
VERTEX
  5
DCA87
  8
0
 10
-1919.56534308655
 20
1668.559802451881
 30
0.0
  0
VERTEX
  5
DCA88
  8
0
 10
-1919.56534308655
 20
1195.509805733116
 30
0.0
  0
VERTEX
  5
DCA89
  8
0
 10
-1749.565343086549
 20
1195.509805733116
 30
0.0
  0
SEQEND
  5
DCB02
  8
0
  0
POLYLINE
  5
DC54B
  8
0
 66
     1
 10
0.0
 20
0.0
 30
0.0
 70
     1
  0
VERTEX
  5
DCA8A
  8
0
 10
-1557.065343086549
 20
1159.509805733204
 30
0.0
  0
VERTEX
  5
DCA8B
  8
0
 10
-1557.065343086549
 20
1195.509805733116
 30
0.0
  0
VERTEX
  5
DCA8C
  8
0
 10
-1542.06534308655
 20
1195.509805733116
 30
0.0
  0
VERTEX
  5
DCA8D
  8
0
 10
-1542.06534308655
 20
1159.509805733204
 30
0.0
  0
SEQEND
  5
DCB03
  8
0
  0
POLYLINE
  5
DC54C
  8
0
 66
     1
 10
0.0
 20
0.0
 30
0.0
 70
     1
  0
VERTEX
  5
DCA8E
  8
0
 10
-1557.065343086549
 20
1191.509805733204
 30
0.0
  0
VERTEX
  5
DCA8F
  8
0
 10
-1557.065343086549
 20
1155.509805733204
 30
0.0
  0
VERTEX
  5
DCA90
  8
0
 10
-1574.56534308655
 20
1155.509805733204
 30
0.0
  0
VERTEX
  5
DCA91
  8
0
 10
-1574.56534308655
 20
1191.509805733204
 30
0.0
  0
SEQEND
  5
DCB04
  8
0
  0
POLYLINE
  5
DC54D
  8
0
 66
     1
 10
0.0
 20
0.0
 30
0.0
 70
     1
  0
VERTEX
  5
DCA92
  8
0
 10
-1524.56534308655
 20
1191.509805733204
 30
0.0
  0
VERTEX
  5
DCA93
  8
0
 10
-1524.56534308655
 20
1155.509805733204
 30
0.0
  0
VERTEX
  5
DCA94
  8
0
 10
-1542.06534308655
 20
1155.509805733204
 30
0.0
  0
VERTEX
  5
DCA95
  8
0
 10
-1542.06534308655
 20
1191.509805733204
 30
0.0
  0
SEQEND
  5
DCB05
  8
0
  0
POLYLINE
  5
DC54F
  8
0
 66
     1
 10
0.0
 20
0.0
 30
0.0
 70
     1
  0
VERTEX
  5
DCA96
  8
0
 10
-1909.56534308655
 20
1208.509805733116
 30
0.0
  0
VERTEX
  5
DCA97
  8
0
 10
-1909.56534308655
 20
1508.81294045127
 30
0.0
  0
VERTEX
  5
DCA98
  8
0
 10
-1529.56534308655
 20
1508.81294045127
 30
0.0
  0
VERTEX
  5
DCA99
  8
0
 10
-1529.56534308655
 20
1208.509805733116
 30
0.0
  0
SEQEND
  5
DCB06
  8
0
  0
POLYLINE
  5
DC550
  8
0
 66
     1
 10
0.0
 20
0.0
 30
0.0
 70
     1
  0
VERTEX
  5
DCA9A
  8
0
 10
-1909.56534308655
 20
1508.81294045127
 30
0.0
  0
VERTEX
  5
DCA9B
  8
0
 10
-1909.56534308655
 20
1658.559802675399
 30
0.0
  0
VERTEX
  5
DCA9C
  8
0
 10
-1529.56534308655
 20
1658.559802675399
 30
0.0
  0
VERTEX
  5
DCA9D
  8
0
 10
-1529.56534308655
 20
1508.81294045127
 30
0.0
  0
SEQEND
  5
DCB07
  8
0
  0
POLYLINE
  5
DC551
  8
0
 66
     1
 10
0.0
 20
0.0
 30
0.0
 70
     1
  0
VERTEX
  5
DCA9E
  8
0
 10
-1882.06534308655
 20
1191.509805733116
 30
0.0
  0
VERTEX
  5
DCA9F
  8
0
 10
-1882.06534308655
 20
1155.509805733116
 30
0.0
  0
VERTEX
  5
DCAA0
  8
0
 10
-1864.56534308655
 20
1155.509805733116
 30
0.0
  0
VERTEX
  5
DCAA1
  8
0
 10
-1864.56534308655
 20
1191.509805733116
 30
0.0
  0
SEQEND
  5
DCB08
  8
0
  0
POLYLINE
  5
DC552
  8
0
 66
     1
 10
0.0
 20
0.0
 30
0.0
 70
     1
  0
VERTEX
  5
DCAA2
  8
0
 10
-1914.56534308655
 20
1191.509805733116
 30
0.0
  0
VERTEX
  5
DCAA3
  8
0
 10
-1914.56534308655
 20
1155.509805733116
 30
0.0
  0
VERTEX
  5
DCAA4
  8
0
 10
-1897.06534308655
 20
1155.509805733116
 30
0.0
  0
VERTEX
  5
DCAA5
  8
0
 10
-1897.06534308655
 20
1191.509805733116
 30
0.0
  0
SEQEND
  5
DCB09
  8
0
  0
POLYLINE
  5
DC553
  8
0
 66
     1
 10
0.0
 20
0.0
 30
0.0
 70
     1
  0
VERTEX
  5
DCAA6
  8
0
 10
-1897.06534308655
 20
1159.509805733116
 30
0.0
  0
VERTEX
  5
DCAA7
  8
0
 10
-1897.06534308655
 20
1195.509805733116
 30
0.0
  0
VERTEX
  5
DCAA8
  8
0
 10
-1882.06534308655
 20
1195.509805733116
 30
0.0
  0
VERTEX
  5
DCAA9
  8
0
 10
-1882.06534308655
 20
1159.509805733116
 30
0.0
  0
SEQEND
  5
DCB0A
  8
0
  0
POLYLINE
  5
DC554
  8
0
 66
     1
 10
0.0
 20
0.0
 30
0.0
 70
     1
  0
VERTEX
  5
DCAAA
  8
0
 10
-1544.31534308655
 20
1637.559802675399
 30
0.0
  0
VERTEX
  5
DCAAB
  8
0
 10
-1544.31534308655
 20
1649.559802675399
 30
0.0
  0
VERTEX
  5
DCAAC
  8
0
 10
-1542.81534308655
 20
1649.559802675399
 30
0.0
  0
VERTEX
  5
DCAAD
  8
0
 10
-1542.81534308655
 20
1637.559802675399
 30
0.0
  0
SEQEND
  5
DCB0B
  8
0
  0
CIRCLE
  5
DC555
  8
0
 10
-1543.56534308655
 20
1643.559802675398
 30
0.0
 40
12.0
  0
CIRCLE
  5
DC556
  8
0
 10
-543.5653430865499
 20
1643.559802675398
 30
0.0
 40
12.0
  0
POLYLINE
  5
DC557
  8
0
 66
     1
 10
0.0
 20
0.0
 30
0.0
 70
     1
  0
VERTEX
  5
DCAAE
  8
0
 10
-544.3153430865499
 20
1637.559802675399
 30
0.0
  0
VERTEX
  5
DCAAF
  8
0
 10
-544.3153430865499
 20
1649.559802675399
 30
0.0
  0
VERTEX
  5
DCAB0
  8
0
 10
-542.8153430865497
 20
1649.559802675399
 30
0.0
  0
VERTEX
  5
DCAB1
  8
0
 10
-542.8153430865497
 20
1637.559802675399
 30
0.0
  0
SEQEND
  5
DCB0C
  8
0
  0
POLYLINE
  5
DC558
  8
0
 66
     1
 10
0.0
 20
0.0
 30
0.0
 70
     1
  0
VERTEX
  5
DCAB2
  8
0
 10
-897.0653430865503
 20
1159.509805733116
 30
0.0
  0
VERTEX
  5
DCAB3
  8
0
 10
-897.0653430865503
 20
1195.509805733116
 30
0.0
  0
VERTEX
  5
DCAB4
  8
0
 10
-882.0653430865503
 20
1195.509805733116
 30
0.0
  0
VERTEX
  5
DCAB5
  8
0
 10
-882.0653430865503
 20
1159.509805733116
 30
0.0
  0
SEQEND
  5
DCB0D
  8
0
  0
POLYLINE
  5
DC559
  8
0
 66
     1
 10
0.0
 20
0.0
 30
0.0
 70
     1
  0
VERTEX
  5
DCAB6
  8
0
 10
-914.5653430865505
 20
1191.509805733116
 30
0.0
  0
VERTEX
  5
DCAB7
  8
0
 10
-914.5653430865505
 20
1155.509805733116
 30
0.0
  0
VERTEX
  5
DCAB8
  8
0
 10
-897.0653430865503
 20
1155.509805733116
 30
0.0
  0
VERTEX
  5
DCAB9
  8
0
 10
-897.0653430865503
 20
1191.509805733116
 30
0.0
  0
SEQEND
  5
DCB0E
  8
0
  0
POLYLINE
  5
DC55A
  8
0
 66
     1
 10
0.0
 20
0.0
 30
0.0
 70
     1
  0
VERTEX
  5
DCABA
  8
0
 10
-882.0653430865503
 20
1191.509805733116
 30
0.0
  0
VERTEX
  5
DCABB
  8
0
 10
-882.0653430865503
 20
1155.509805733116
 30
0.0
  0
VERTEX
  5
DCABC
  8
0
 10
-864.5653430865505
 20
1155.509805733116
 30
0.0
  0
VERTEX
  5
DCABD
  8
0
 10
-864.5653430865505
 20
1191.509805733116
 30
0.0
  0
SEQEND
  5
DCB0F
  8
0
  0
POLYLINE
  5
DC55B
  8
0
 66
     1
 10
0.0
 20
0.0
 30
0.0
 70
     1
  0
VERTEX
  5
DCABE
  8
0
 10
-909.5653430865505
 20
1508.81294045127
 30
0.0
  0
VERTEX
  5
DCABF
  8
0
 10
-909.5653430865505
 20
1658.559802675399
 30
0.0
  0
VERTEX
  5
DCAC0
  8
0
 10
-529.5653430865497
 20
1658.559802675399
 30
0.0
  0
VERTEX
  5
DCAC1
  8
0
 10
-529.5653430865497
 20
1508.81294045127
 30
0.0
  0
SEQEND
  5
DCB10
  8
0
  0
POLYLINE
  5
DC55E
  8
0
 66
     1
 10
0.0
 20
0.0
 30
0.0
 70
     1
  0
VERTEX
  5
DCAC2
  8
0
 10
-524.5653430865497
 20
1191.509805733204
 30
0.0
  0
VERTEX
  5
DCAC3
  8
0
 10
-524.5653430865497
 20
1155.509805733204
 30
0.0
  0
VERTEX
  5
DCAC4
  8
0
 10
-542.0653430865497
 20
1155.509805733204
 30
0.0
  0
VERTEX
  5
DCAC5
  8
0
 10
-542.0653430865497
 20
1191.509805733204
 30
0.0
  0
SEQEND
  5
DCB11
  8
0
  0
POLYLINE
  5
DC55F
  8
0
 66
     1
 10
0.0
 20
0.0
 30
0.0
 70
     1
  0
VERTEX
  5
DCAC6
  8
0
 10
-557.0653430865489
 20
1191.509805733204
 30
0.0
  0
VERTEX
  5
DCAC7
  8
0
 10
-557.0653430865489
 20
1155.509805733204
 30
0.0
  0
VERTEX
  5
DCAC8
  8
0
 10
-574.5653430865497
 20
1155.509805733204
 30
0.0
  0
VERTEX
  5
DCAC9
  8
0
 10
-574.5653430865497
 20
1191.509805733204
 30
0.0
  0
SEQEND
  5
DCB12
  8
0
  0
POLYLINE
  5
DC560
  8
0
 66
     1
 10
0.0
 20
0.0
 30
0.0
 70
     1
  0
VERTEX
  5
DCACA
  8
0
 10
-557.0653430865489
 20
1159.509805733204
 30
0.0
  0
VERTEX
  5
DCACB
  8
0
 10
-557.0653430865489
 20
1195.509805733116
 30
0.0
  0
VERTEX
  5
DCACC
  8
0
 10
-542.0653430865497
 20
1195.509805733116
 30
0.0
  0
VERTEX
  5
DCACD
  8
0
 10
-542.0653430865497
 20
1159.509805733204
 30
0.0
  0
SEQEND
  5
DCB13
  8
0
  0
POLYLINE
  5
DC561
  8
0
 66
     1
 10
0.0
 20
0.0
 30
0.0
 70
     1
  0
VERTEX
  5
DCACE
  8
0
 10
-919.5653430865505
 20
1668.559802451881
 30
0.0
  0
VERTEX
  5
DCACF
  8
0
 10
-919.5653430865505
 20
1195.509805733116
 30
0.0
  0
VERTEX
  5
DCAD0
  8
0
 10
-519.5653430865489
 20
1195.509805733116
 30
0.0
  0
VERTEX
  5
DCAD1
  8
0
 10
-519.5653430865489
 20
1668.559802451881
 30
0.0
  0
SEQEND
  5
DCB14
  8
0
  0
CIRCLE
  5
DC564
  8
0
 10
-719.5653430865505
 20
1583.81294045127
 30
0.0
 40
20.0
  0
POLYLINE
  5
DC566
  8
0
 66
     1
 10
0.0
 20
0.0
 30
0.0
 70
     1
  0
VERTEX
  5
DCAD2
  8
0
 10
-909.5402797078508
 20
1208.509805733116
 30
0.0
  0
VERTEX
  5
DCAD3
  8
0
 10
-909.5402797078508
 20
1508.81294045127
 30
0.0
  0
VERTEX
  5
DCAD4
  8
0
 10
-529.5402797078503
 20
1508.81294045127
 30
0.0
  0
VERTEX
  5
DCAD5
  8
0
 10
-529.5402797078503
 20
1208.509805733116
 30
0.0
  0
SEQEND
  5
DCB15
  8
0
  0
POLYLINE
  5
DC567
  8
0
 66
     1
 10
0.0
 20
0.0
 30
0.0
 70
     1
  0
VERTEX
  5
DCAD6
  8
0
 10
-909.5402797078508
 20
1208.509805733116
 30
0.0
  0
VERTEX
  5
DCAD7
  8
0
 10
-529.5402797078503
 20
1208.509805733116
 30
0.0
  0
VERTEX
  5
DCAD8
  8
0
 10
-529.5402797078503
 20
1220.659771477352
 30
0.0
  0
VERTEX
  5
DCAD9
  8
0
 10
-909.5402797078508
 20
1220.659771477352
 30
0.0
  0
SEQEND
  5
DCB16
  8
0
  0
POLYLINE
  5
DC7FA
  8
0
 66
     1
 10
0.0
 20
0.0
 30
0.0
 70
     1
  0
VERTEX
  5
DCADA
  8
0
 10
-1749.565343086549
 20
1208.509805733116
 30
0.0
  0
VERTEX
  5
DCADB
  8
0
 10
-1689.56534308655
 20
1208.509805733116
 30
0.0
  0
VERTEX
  5
DCADC
  8
0
 10
-1689.56534308655
 20
1192.509805733116
 30
0.0
  0
VERTEX
  5
DCADD
  8
0
 10
-1749.565343086549
 20
1192.509805733116
 30
0.0
  0
SEQEND
  5
DCB17
  8
0
  0
POLYLINE
  5
DC7FC
  8
0
 66
     1
 10
0.0
 20
0.0
 30
0.0
 70
     1
  0
VERTEX
  5
DCADE
  8
0
 10
-1725.113200218469
 20
1184.1643523159
 30
0.0
  0
VERTEX
  5
DCADF
  8
0
 10
-1714.017485954629
 20
1184.1643523159
 30
0.0
  0
VERTEX
  5
DCAE0
  8
0
 10
-1714.017485954629
 20
1158.509805733204
 30
0.0
  0
VERTEX
  5
DCAE1
  8
0
 10
-1725.113200218469
 20
1158.509805733204
 30
0.0
  0
SEQEND
  5
DCB18
  8
0
  0
POLYLINE
  5
DC7FD
  8
0
 66
     1
 10
0.0
 20
0.0
 30
0.0
 70
     1
  0
VERTEX
  5
DCAE2
  8
0
 10
-1714.017485954629
 20
1171.337079024552
 30
0.0
  0
VERTEX
  5
DCAE3
  8
0
 10
-1711.874132375586
 20
1171.337079024552
 30
0.0
  0
VERTEX
  5
DCAE4
  8
0
 10
-1711.874132375586
 20
1192.509805733116
 30
0.0
  0
VERTEX
  5
DCAE5
  8
0
 10
-1714.017485954629
 20
1192.509805733116
 30
0.0
  0
SEQEND
  5
DCB19
  8
0
  0
POLYLINE
  5
DC7FE
  8
0
 66
     1
 10
0.0
 20
0.0
 30
0.0
 70
     1
  0
VERTEX
  5
DCAE6
  8
0
 10
-1725.113200218469
 20
1171.337079024552
 30
0.0
  0
VERTEX
  5
DCAE7
  8
0
 10
-1727.256553797513
 20
1171.337079024552
 30
0.0
  0
VERTEX
  5
DCAE8
  8
0
 10
-1727.256553797513
 20
1192.509805733116
 30
0.0
  0
VERTEX
  5
DCAE9
  8
0
 10
-1725.113200218469
 20
1192.509805733116
 30
0.0
  0
SEQEND
  5
DCB1A
  8
0
  0
VIEWPORT
  5
DAB74
 67
     1
  8
0
 10
0.0
 20
0.0
 30
0.0
 40
10.87270777479893
 41
8.16
 68
     1
 69
     1
1001
ACAD
1000
MVIEW
1002
{
1070
    16
1010
0.0
1020
0.0
1030
0.0
1010
0.0
1020
0.0
1030
1.0
1040
0.0
1040
8.16
1040
6.065999999999998
1040
3.851238605898123
1040
50.0
1040
0.0
1040
0.0
1070
    16
1070
   100
1070
     1
1070
     3
1070
     0
1070
     0
1070
     0
1070
     0
1040
0.0
1040
0.0
1040
0.0
1040
0.5
1040
0.5
1040
0.0
1040
0.0
1070
     0
1002
{
1002
}
1002
}
  0
VIEWPORT
  5
DAB75
 67
     1
  8
0
 10
5.25
 20
4.0
 30
0.0
 40
8.4
 41
6.4
 68
     2
 69
     2
1001
ACAD
1000
MVIEW
1002
{
1070
    16
1010
0.0
1020
0.0
1030
0.0
1010
0.0
1020
0.0
1030
1.0
1040
0.0
1040
12730.99251508979
1040
-238.8342129778575
1040
5240.682605436173
1040
50.0
1040
0.0
1040
0.0
1070
     0
1070
   100
1070
     1
1070
     3
1070
     0
1070
     0
1070
     0
1070
     0
1040
0.0
1040
0.0
1040
0.0
1040
0.5
1040
0.5
1040
0.0
1040
0.0
1070
     0
1002
{
1002
}
1002
}
  0
ENDSEC
  0
EOF
