  0
SECTION
  2
HEADER
  9
$ACADVER
  1
AC1032
  9
$ACADMAINTVER
 90
       55
  9
$DWGCODEPAGE
  3
ANSI_1252
  9
$LASTSAVEDBY
  1
ucom07
  9
$REQUIREDVERSIONS
160
                 0
  9
$INSBASE
 10
0.0
 20
0.0
 30
0.0
  9
$EXTMIN
 10
-4012.685974119231
 20
-987.6576470269351
 30
0.0
  9
$EXTMAX
 10
11285.53320454078
 20
5604.657866880794
 30
0.0
  9
$LIMMIN
 10
0.0
 20
0.0
  9
$LIMMAX
 10
12.0
 20
9.0
  9
$ORTHOMODE
 70
     0
  9
$REGENMODE
 70
     1
  9
$FILLMODE
 70
     1
  9
$QTEXTMODE
 70
     0
  9
$MIRRTEXT
 70
     0
  9
$LTSCALE
 40
5.0
  9
$ATTMODE
 70
     1
  9
$TEXTSIZE
 40
19.0
  9
$TRACEWID
 40
0.05
  9
$TEXTSTYLE
  7
STILE1
  9
$CLAYER
  8
0
  9
$CELTYPE
  6
ByLayer
  9
$CECOLOR
 62
   256
  9
$CELTSCALE
 40
1.0
  9
$DISPSILH
 70
     0
  9
$DIMSCALE
 40
50.0
  9
$DIMASZ
 40
2.5
  9
$DIMEXO
 40
1.0
  9
$DIMDLI
 40
0.0
  9
$DIMRND
 40
0.0
  9
$DIMDLE
 40
0.0
  9
$DIMEXE
 40
1.0
  9
$DIMTP
 40
0.0
  9
$DIMTM
 40
0.0
  9
$DIMTXT
 40
2.5
  9
$DIMCEN
 40
1.0
  9
$DIMTSZ
 40
0.0
  9
$DIMTOL
 70
     0
  9
$DIMLIM
 70
     0
  9
$DIMTIH
 70
     0
  9
$DIMTOH
 70
     0
  9
$DIMSE1
 70
     0
  9
$DIMSE2
 70
     0
  9
$DIMTAD
 70
     1
  9
$DIMZIN
 70
     8
  9
$DIMBLK
  1

  9
$DIMASO
 70
     1
  9
$DIMSHO
 70
     0
  9
$DIMPOST
  1

  9
$DIMAPOST
  1

  9
$DIMALT
 70
     0
  9
$DIMALTD
 70
     2
  9
$DIMALTF
 40
25.4
  9
$DIMLFAC
 40
1.0
  9
$DIMTOFL
 70
     1
  9
$DIMTVP
 40
0.0
  9
$DIMTIX
 70
     1
  9
$DIMSOXD
 70
     0
  9
$DIMSAH
 70
     0
  9
$DIMBLK1
  1

  9
$DIMBLK2
  1

  9
$DIMSTYLE
  2
STANDARD
  9
$DIMCLRD
 70
     0
  9
$DIMCLRE
 70
     0
  9
$DIMCLRT
 70
     0
  9
$DIMTFAC
 40
1.0
  9
$DIMGAP
 40
1.5
  9
$DIMJUST
 70
     0
  9
$DIMSD1
 70
     0
  9
$DIMSD2
 70
     0
  9
$DIMTOLJ
 70
     1
  9
$DIMTZIN
 70
     0
  9
$DIMALTZ
 70
     0
  9
$DIMALTTZ
 70
     0
  9
$DIMUPT
 70
     0
  9
$DIMDEC
 70
     4
  9
$DIMTDEC
 70
     4
  9
$DIMALTU
 70
     2
  9
$DIMALTTD
 70
     2
  9
$DIMTXSTY
  7
STANDARD
  9
$DIMAUNIT
 70
     0
  9
$DIMADEC
 70
     0
  9
$DIMALTRND
 40
0.0
  9
$DIMAZIN
 70
     0
  9
$DIMDSEP
 70
    46
  9
$DIMATFIT
 70
     3
  9
$DIMFRAC
 70
     0
  9
$DIMLDRBLK
  1

  9
$DIMLUNIT
 70
     2
  9
$DIMLWD
 70
    -2
  9
$DIMLWE
 70
    -2
  9
$DIMTMOVE
 70
     2
  9
$DIMFXL
 40
1.0
  9
$DIMFXLON
 70
     0
  9
$DIMJOGANG
 40
0.7853981633974483
  9
$DIMTFILL
 70
     0
  9
$DIMTFILLCLR
 70
     0
  9
$DIMARCSYM
 70
     0
  9
$DIMLTYPE
  6

  9
$DIMLTEX1
  6

  9
$DIMLTEX2
  6

  9
$DIMTXTDIRECTION
 70
     0
  9
$LUNITS
 70
     2
  9
$LUPREC
 70
     4
  9
$SKETCHINC
 40
0.1
  9
$FILLETRAD
 40
20.0
  9
$AUNITS
 70
     0
  9
$AUPREC
 70
     0
  9
$MENU
  1
acad
  9
$ELEVATION
 40
0.0
  9
$PELEVATION
 40
0.0
  9
$THICKNESS
 40
0.0
  9
$LIMCHECK
 70
     0
  9
$CHAMFERA
 40
1200.0
  9
$CHAMFERB
 40
1200.0
  9
$CHAMFERC
 40
0.0
  9
$CHAMFERD
 40
0.0
  9
$SKPOLY
 70
     0
  9
$TDCREATE
 40
2450277.504307755
  9
$TDUCREATE
 40
2450277.420974421
  9
$TDUPDATE
 40
2460453.63732912
  9
$TDUUPDATE
 40
2460453.553995787
  9
$TDINDWG
 40
26.2510313079
  9
$TDUSRTIMER
 40
0.0016634838
  9
$USRTIMER
 70
     1
  9
$ANGBASE
 50
0.0
  9
$ANGDIR
 70
     0
  9
$PDMODE
 70
     0
  9
$PDSIZE
 40
0.0
  9
$PLINEWID
 40
0.0
  9
$SPLFRAME
 70
     0
  9
$SPLINETYPE
 70
     6
  9
$SPLINESEGS
 70
     8
  9
$HANDSEED
  5
DED4D
  9
$SURFTAB1
 70
     6
  9
$SURFTAB2
 70
     6
  9
$SURFTYPE
 70
     6
  9
$SURFU
 70
     6
  9
$SURFV
 70
     6
  9
$UCSBASE
  2

  9
$UCSNAME
  2

  9
$UCSORG
 10
0.0
 20
0.0
 30
0.0
  9
$UCSXDIR
 10
1.0
 20
0.0
 30
0.0
  9
$UCSYDIR
 10
0.0
 20
1.0
 30
0.0
  9
$UCSORTHOREF
  2

  9
$UCSORTHOVIEW
 70
     0
  9
$UCSORGTOP
 10
0.0
 20
0.0
 30
0.0
  9
$UCSORGBOTTOM
 10
0.0
 20
0.0
 30
0.0
  9
$UCSORGLEFT
 10
0.0
 20
0.0
 30
0.0
  9
$UCSORGRIGHT
 10
0.0
 20
0.0
 30
0.0
  9
$UCSORGFRONT
 10
0.0
 20
0.0
 30
0.0
  9
$UCSORGBACK
 10
0.0
 20
0.0
 30
0.0
  9
$PUCSBASE
  2

  9
$PUCSNAME
  2

  9
$PUCSORG
 10
0.0
 20
0.0
 30
0.0
  9
$PUCSXDIR
 10
1.0
 20
0.0
 30
0.0
  9
$PUCSYDIR
 10
0.0
 20
1.0
 30
0.0
  9
$PUCSORTHOREF
  2

  9
$PUCSORTHOVIEW
 70
     0
  9
$PUCSORGTOP
 10
0.0
 20
0.0
 30
0.0
  9
$PUCSORGBOTTOM
 10
0.0
 20
0.0
 30
0.0
  9
$PUCSORGLEFT
 10
0.0
 20
0.0
 30
0.0
  9
$PUCSORGRIGHT
 10
0.0
 20
0.0
 30
0.0
  9
$PUCSORGFRONT
 10
0.0
 20
0.0
 30
0.0
  9
$PUCSORGBACK
 10
0.0
 20
0.0
 30
0.0
  9
$USERI1
 70
     0
  9
$USERI2
 70
     0
  9
$USERI3
 70
     0
  9
$USERI4
 70
     0
  9
$USERI5
 70
     0
  9
$USERR1
 40
0.0
  9
$USERR2
 40
0.0
  9
$USERR3
 40
0.0
  9
$USERR4
 40
0.0
  9
$USERR5
 40
0.0
  9
$WORLDVIEW
 70
     0
  9
$SHADEDGE
 70
     3
  9
$SHADEDIF
 70
    70
  9
$TILEMODE
 70
     1
  9
$MAXACTVP
 70
    16
  9
$PINSBASE
 10
0.0
 20
0.0
 30
0.0
  9
$PLIMCHECK
 70
     0
  9
$PEXTMIN
 10
0.0
 20
0.0
 30
0.0
  9
$PEXTMAX
 10
0.0
 20
0.0
 30
0.0
  9
$PLIMMIN
 10
0.0
 20
0.0
  9
$PLIMMAX
 10
0.0
 20
0.0
  9
$UNITMODE
 70
     0
  9
$VISRETAIN
 70
     0
  9
$PLINEGEN
 70
     0
  9
$PSLTSCALE
 70
     1
  9
$TREEDEPTH
 70
  3020
  9
$CMLSTYLE
  2
Standard
  9
$CMLJUST
 70
     0
  9
$CMLSCALE
 40
1.0
  9
$PROXYGRAPHICS
 70
     1
  9
$MEASUREMENT
 70
     0
  9
$CELWEIGHT
370
    -1
  9
$ENDCAPS
280
     0
  9
$JOINSTYLE
280
     0
  9
$LWDISPLAY
290
     0
  9
$INSUNITS
 70
     0
  9
$HYPERLINKBASE
  1

  9
$STYLESHEET
  1

  9
$XEDIT
290
     1
  9
$CEPSNTYPE
380
     0
  9
$PSTYLEMODE
290
     1
  9
$FINGERPRINTGUID
  2
{4e4fc1d3-497d-4370-ab76-b416b81b85ba}
  9
$VERSIONGUID
  2
{FAEB1C32-E019-11D5-929B-00C0DF256EC4}
  9
$EXTNAMES
290
     1
  9
$PSVPSCALE
 40
0.0
  9
$OLESTARTUP
290
     0
  9
$SORTENTS
280
   127
  9
$INDEXCTL
280
     0
  9
$HIDETEXT
280
     1
  9
$XCLIPFRAME
280
     2
  9
$HALOGAP
280
     0
  9
$OBSCOLOR
 70
   257
  9
$OBSLTYPE
280
     0
  9
$INTERSECTIONDISPLAY
280
     0
  9
$INTERSECTIONCOLOR
 70
   257
  9
$DIMASSOC
280
     2
  9
$PROJECTNAME
  1

  9
$CAMERADISPLAY
290
     0
  9
$LENSLENGTH
 40
50.0
  9
$CAMERAHEIGHT
 40
0.0
  9
$STEPSPERSEC
 40
2.0
  9
$STEPSIZE
 40
6.0
  9
$3DDWFPREC
 40
2.0
  9
$PSOLWIDTH
 40
0.25
  9
$PSOLHEIGHT
 40
4.0
  9
$LOFTANG1
 40
1.570796326794897
  9
$LOFTANG2
 40
1.570796326794897
  9
$LOFTMAG1
 40
0.0
  9
$LOFTMAG2
 40
0.0
  9
$LOFTPARAM
 70
     7
  9
$LOFTNORMALS
280
     1
  9
$LATITUDE
 40
37.795
  9
$LONGITUDE
 40
-122.394
  9
$NORTHDIRECTION
 40
0.0
  9
$TIMEZONE
 70
 -8000
  9
$LIGHTGLYPHDISPLAY
280
     1
  9
$TILEMODELIGHTSYNCH
280
     1
  9
$SOLIDHIST
280
     0
  9
$SHOWHIST
280
     1
  9
$DWFFRAME
280
     2
  9
$DGNFRAME
280
     2
  9
$REALWORLDSCALE
290
     1
  9
$INTERFERECOLOR
 62
   256
  9
$CSHADOW
280
     0
  9
$SHADOWPLANELOCATION
 40
0.0
  0
ENDSEC
  0
SECTION
  2
CLASSES
  0
CLASS
  1
ACDBDICTIONARYWDFLT
  2
AcDbDictionaryWithDefault
  3
ObjectDBX Classes
 90
        0
 91
        3
280
     0
281
     0
  0
CLASS
  1
MATERIAL
  2
AcDbMaterial
  3
ObjectDBX Classes
 90
     1153
 91
        3
280
     0
281
     0
  0
CLASS
  1
SCALE
  2
AcDbScale
  3
ObjectDBX Classes
 90
     1153
 91
        3
280
     0
281
     0
  0
CLASS
  1
VISUALSTYLE
  2
AcDbVisualStyle
  3
ObjectDBX Classes
 90
     4095
 91
        3
280
     0
281
     0
  0
CLASS
  1
TABLESTYLE
  2
AcDbTableStyle
  3
ObjectDBX Classes
 90
     4095
 91
        3
280
     0
281
     0
  0
CLASS
  1
MLEADERSTYLE
  2
AcDbMLeaderStyle
  3
ACDB_MLEADERSTYLE_CLASS
 90
     4095
 91
        3
280
     0
281
     0
  0
CLASS
  1
DICTIONARYVAR
  2
AcDbDictionaryVar
  3
ObjectDBX Classes
 90
        0
 91
        3
280
     0
281
     0
  0
CLASS
  1
SUN
  2
AcDbSun
  3
SCENEOE
 90
     1153
 91
        3
280
     0
281
     0
  0
CLASS
  1
SORTENTSTABLE
  2
AcDbSortentsTable
  3
ObjectDBX Classes
 90
        0
 91
        3
280
     0
281
     0
  0
CLASS
  1
CELLSTYLEMAP
  2
AcDbCellStyleMap
  3
ObjectDBX Classes
 90
     1152
 91
        3
280
     0
281
     0
  0
ENDSEC
  0
SECTION
  2
TABLES
  0
TABLE
  2
VPORT
  5
DEA77
330
0
100
AcDbSymbolTable
 70
     1
  0
VPORT
  5
DEA8E
330
DEA77
100
AcDbSymbolTableRecord
100
AcDbViewportTableRecord
  2
*ACTIVE
 70
     0
 10
0.0
 20
0.0
 11
1.0
 21
1.0
 12
3636.423615210775
 22
2308.50010992693
 13
0.0
 23
0.0
 14
1.0
 24
1.0
 15
0.0
 25
0.0
 16
0.0
 26
0.0
 36
1.0
 17
0.0
 27
0.0
 37
0.0
 40
8026.57301832768
 41
1.944065484311051
 42
50.0
 43
0.0
 44
0.0
 50
0.0
 51
0.0
 71
    16
 72
   100
 73
     1
 74
     1
 75
     0
 76
     1
 77
     0
 78
     0
281
     0
 65
     0
110
0.0
120
0.0
130
0.0
111
1.0
121
0.0
131
0.0
112
0.0
122
1.0
132
0.0
 79
     0
146
0.0
348
DEAE9
 60
     3
 61
     5
292
     1
282
     1
141
0.0
142
0.0
 63
   256
361
DEB0E
  0
ENDTAB
  0
TABLE
  2
LTYPE
  5
DEA74
330
0
100
AcDbSymbolTable
 70
     1
  0
LTYPE
  5
DEA82
330
DEA74
100
AcDbSymbolTableRecord
100
AcDbLinetypeTableRecord
  2
ByBlock
 70
     0
  3

 72
    65
 73
     0
 40
0.0
  0
LTYPE
  5
DEA83
330
DEA74
100
AcDbSymbolTableRecord
100
AcDbLinetypeTableRecord
  2
ByLayer
 70
     0
  3

 72
    65
 73
     0
 40
0.0
  0
LTYPE
  5
DEA84
330
DEA74
100
AcDbSymbolTableRecord
100
AcDbLinetypeTableRecord
  2
CONTINUOUS
 70
     0
  3
Solid line
 72
    65
 73
     0
 40
0.0
  0
ENDTAB
  0
TABLE
  2
LAYER
  5
DEA72
102
{ACAD_XDICTIONARY
360
DEB65
102
}
330
0
100
AcDbSymbolTable
 70
     1
  0
LAYER
  5
DEA7F
330
DEA72
100
AcDbSymbolTableRecord
100
AcDbLayerTableRecord
  2
0
 70
     0
 62
     7
  6
CONTINUOUS
370
    -3
390
DEA7E
347
DEA94
348
0
  0
ENDTAB
  0
TABLE
  2
STYLE
  5
DEA73
330
0
100
AcDbSymbolTable
 70
     2
  0
STYLE
  5
DEA80
330
DEA73
100
AcDbSymbolTableRecord
100
AcDbTextStyleTableRecord
  2
STANDARD
 70
     0
 40
0.0
 41
1.0
 50
0.0
 71
     0
 42
2.5
  3
txt
  4

  0
STYLE
  5
DEA96
330
DEA73
100
AcDbSymbolTableRecord
100
AcDbTextStyleTableRecord
  2
STILE1
 70
     0
 40
0.0
 41
1.0
 50
0.0
 71
     0
 42
19.0
  3
ROMANS.SHX
  4

  0
ENDTAB
  0
TABLE
  2
VIEW
  5
DEA75
330
0
100
AcDbSymbolTable
 70
     0
  0
ENDTAB
  0
TABLE
  2
UCS
  5
DEA76
330
0
100
AcDbSymbolTable
 70
     0
  0
ENDTAB
  0
TABLE
  2
APPID
  5
DEA78
330
0
100
AcDbSymbolTable
 70
    42
  0
APPID
  5
DEA81
330
DEA78
100
AcDbSymbolTableRecord
100
AcDbRegAppTableRecord
  2
ACAD
 70
     0
  0
APPID
  5
DEA98
330
DEA78
100
AcDbSymbolTableRecord
100
AcDbRegAppTableRecord
  2
DCO15
 70
     0
  0
APPID
  5
DEA99
330
DEA78
100
AcDbSymbolTableRecord
100
AcDbRegAppTableRecord
  2
ACAECLAYERSTANDARD
 70
     0
  0
APPID
  5
DEA9A
330
DEA78
100
AcDbSymbolTableRecord
100
AcDbRegAppTableRecord
  2
ACDBDYNAMICBLOCKGUID
 70
     0
  0
APPID
  5
DEA9B
330
DEA78
100
AcDbSymbolTableRecord
100
AcDbRegAppTableRecord
  2
ACDBBLOCKREPETAG
 70
     0
  0
APPID
  5
DEA9C
330
DEA78
100
AcDbSymbolTableRecord
100
AcDbRegAppTableRecord
  2
ACAD_PSEXT
 70
     0
  0
APPID
  5
DEA9D
330
DEA78
100
AcDbSymbolTableRecord
100
AcDbRegAppTableRecord
  2
ACAD_DSTYLE_DIMJAG
 70
     0
  0
APPID
  5
DEA9E
330
DEA78
100
AcDbSymbolTableRecord
100
AcDbRegAppTableRecord
  2
ACAD_DSTYLE_DIMTALN
 70
     0
  0
APPID
  5
DEA9F
330
DEA78
100
AcDbSymbolTableRecord
100
AcDbRegAppTableRecord
  2
ACAD_DSTYLE_DIMRADIAL_EXTE
 70
     0
  0
APPID
  5
DEAA0
330
DEA78
100
AcDbSymbolTableRecord
100
AcDbRegAppTableRecord
  2
RAK
 70
     0
  0
APPID
  5
DEAA1
330
DEA78
100
AcDbSymbolTableRecord
100
AcDbRegAppTableRecord
  2
ACLAYERTOOLS
 70
     0
  0
APPID
  5
DEAA2
330
DEA78
100
AcDbSymbolTableRecord
100
AcDbRegAppTableRecord
  2
REVIT
 70
     0
  0
APPID
  5
DEAA3
330
DEA78
100
AcDbSymbolTableRecord
100
AcDbRegAppTableRecord
  2
ACAD_MLEADERVER
 70
     0
  0
APPID
  5
DEAA4
330
DEA78
100
AcDbSymbolTableRecord
100
AcDbRegAppTableRecord
  2
ACAD_DSTYLE_DIMBREAK
 70
     0
  0
APPID
  5
DEAA5
330
DEA78
100
AcDbSymbolTableRecord
100
AcDbRegAppTableRecord
  2
ACCMTRANSPARENCY
 70
     0
  0
APPID
  5
DEAA6
330
DEA78
100
AcDbSymbolTableRecord
100
AcDbRegAppTableRecord
  2
ACAD_NAV_VCDISPLAY
 70
     0
  0
APPID
  5
DEAA7
330
DEA78
100
AcDbSymbolTableRecord
100
AcDbRegAppTableRecord
  2
GRADIENTCOLOR1ACI
 70
     0
  0
APPID
  5
DEAA8
330
DEA78
100
AcDbSymbolTableRecord
100
AcDbRegAppTableRecord
  2
GRADIENTCOLOR2ACI
 70
     0
  0
APPID
  5
DEAA9
330
DEA78
100
AcDbSymbolTableRecord
100
AcDbRegAppTableRecord
  2
PROGE_PRINT_SETTINGS
 70
     0
  0
APPID
  5
DEAAA
330
DEA78
100
AcDbSymbolTableRecord
100
AcDbRegAppTableRecord
  2
AA_WLPR
 70
     0
  0
APPID
  5
DEAAB
330
DEA78
100
AcDbSymbolTableRecord
100
AcDbRegAppTableRecord
  2
AA_WLENT
 70
     0
  0
APPID
  5
DEAAC
330
DEA78
100
AcDbSymbolTableRecord
100
AcDbRegAppTableRecord
  2
AA_WLTP
 70
     0
  0
APPID
  5
DEAAD
330
DEA78
100
AcDbSymbolTableRecord
100
AcDbRegAppTableRecord
  2
AA_WLBK
 70
     0
  0
APPID
  5
DEAAE
330
DEA78
100
AcDbSymbolTableRecord
100
AcDbRegAppTableRecord
  2
ACAD_DSTYLE_DIMJOGGED_JOGA
 70
     0
  0
APPID
  5
DEAAF
330
DEA78
100
AcDbSymbolTableRecord
100
AcDbRegAppTableRecord
  2
$DDT_AUDIT_GENERATED__2CAF
 70
     0
  0
APPID
  5
DEAB0
330
DEA78
100
AcDbSymbolTableRecord
100
AcDbRegAppTableRecord
  2
ACAD_DSTYLE_DIMEXT_LENGTH
 70
     0
  0
APPID
  5
DEAB1
330
DEA78
100
AcDbSymbolTableRecord
100
AcDbRegAppTableRecord
  2
ACAD_DSTYLE_DIMEXT_ENABLED
 70
     0
  0
APPID
  5
DEAB2
330
DEA78
100
AcDbSymbolTableRecord
100
AcDbRegAppTableRecord
  2
ACAD_DSTYLE_DIMJOGGED_JOG0
 70
     0
  0
APPID
  5
DEAB3
330
DEA78
100
AcDbSymbolTableRecord
100
AcDbRegAppTableRecord
  2
ACAD_DSTYLE_DIMARC_LENGTH_
 70
     0
  0
APPID
  5
DEAB4
330
DEA78
100
AcDbSymbolTableRecord
100
AcDbRegAppTableRecord
  2
C_AND_O
 70
     0
  0
APPID
  5
DEAB5
330
DEA78
100
AcDbSymbolTableRecord
100
AcDbRegAppTableRecord
  2
AVE_FINISH
 70
     0
  0
APPID
  5
DEAB6
330
DEA78
100
AcDbSymbolTableRecord
100
AcDbRegAppTableRecord
  2
AVE_RENDER
 70
     0
  0
APPID
  5
DEAB7
330
DEA78
100
AcDbSymbolTableRecord
100
AcDbRegAppTableRecord
  2
AVE_ENTITY_MATERIAL
 70
     0
  0
APPID
  5
DEAB8
330
DEA78
100
AcDbSymbolTableRecord
100
AcDbRegAppTableRecord
  2
AVE_MATERIAL
 70
     0
  0
APPID
  5
DEAB9
330
DEA78
100
AcDbSymbolTableRecord
100
AcDbRegAppTableRecord
  2
ADDC5$_$SETUP-
 70
     0
  0
APPID
  5
DEABA
330
DEA78
100
AcDbSymbolTableRecord
100
AcDbRegAppTableRecord
  2
ADDC4$_$SETUP-
 70
     0
  0
APPID
  5
DEABB
330
DEA78
100
AcDbSymbolTableRecord
100
AcDbRegAppTableRecord
  2
ADDC4$_$ARTSETUP-
 70
     0
  0
APPID
  5
DEABC
330
DEA78
100
AcDbSymbolTableRecord
100
AcDbRegAppTableRecord
  2
GENIUS_GENODEF_13
 70
     0
  0
APPID
  5
DEABD
330
DEA78
100
AcDbSymbolTableRecord
100
AcDbRegAppTableRecord
  2
GENIUS_GENOBJ-N-REC_13
 70
     0
  0
APPID
  5
DEABE
330
DEA78
100
AcDbSymbolTableRecord
100
AcDbRegAppTableRecord
  2
GENIUS_GENREC_14
 70
     0
  0
APPID
  5
DEB25
330
DEA78
100
AcDbSymbolTableRecord
100
AcDbRegAppTableRecord
  2
PE_URL
 70
     0
  0
APPID
  5
DEB4F
330
DEA78
100
AcDbSymbolTableRecord
100
AcDbRegAppTableRecord
  2
AcadAnnotative
 70
     0
  0
ENDTAB
  0
TABLE
  2
DIMSTYLE
  5
DEA79
330
0
100
AcDbSymbolTable
 70
     1
100
AcDbDimStyleTable
  0
DIMSTYLE
105
DEABF
330
DEA79
100
AcDbSymbolTableRecord
100
AcDbDimStyleTableRecord
  2
STANDARD
 70
     0
178
     0
340
DEA96
  0
ENDTAB
  0
TABLE
  2
BLOCK_RECORD
  5
DEA71
330
0
100
AcDbSymbolTable
 70
     0
  0
BLOCK_RECORD
  5
DEA8B
102
{ACAD_XDICTIONARY
360
DEB05
102
}
330
DEA71
100
AcDbSymbolTableRecord
100
AcDbBlockTableRecord
  2
*Model_Space
340
DEA8C
 70
     0
280
     1
281
     0
  0
BLOCK_RECORD
  5
DEA89
330
DEA71
100
AcDbSymbolTableRecord
100
AcDbBlockTableRecord
  2
*Paper_Space
340
DEA8A
 70
     0
280
     1
281
     0
  0
ENDTAB
  0
ENDSEC
  0
SECTION
  2
BLOCKS
  0
BLOCK
  5
DEAC0
330
DEA8B
100
AcDbEntity
  8
0
100
AcDbBlockBegin
  2
*Model_Space
 70
     0
 10
0.0
 20
0.0
 30
0.0
  3
*Model_Space
  1

  0
ENDBLK
  5
DDDA5
330
DEA8B
100
AcDbEntity
  8
0
100
AcDbBlockEnd
  0
BLOCK
  5
DEAC1
330
DEA89
100
AcDbEntity
 67
     1
  8
0
100
AcDbBlockBegin
  2
*Paper_Space
 70
     0
 10
0.0
 20
0.0
 30
0.0
  3
*Paper_Space
  1

  0
ENDBLK
  5
DDDA1
330
DEA89
100
AcDbEntity
 67
     1
  8
0
100
AcDbBlockEnd
  0
ENDSEC
  0
SECTION
  2
ENTITIES
  0
LWPOLYLINE
  5
DB831
330
DEA8B
100
AcDbEntity
  8
0
100
AcDbPolyline
 90
        4
 70
     1
 43
0.0
 10
-3557.999959799969
 20
4519.65786688079
 10
-3557.999959799969
 20
4532.657866880792
 10
-2728.999959799968
 20
4532.657866880792
 10
-2728.999959799968
 20
4519.65786688079
  0
LWPOLYLINE
  5
DB832
330
DEA8B
100
AcDbEntity
  8
0
100
AcDbPolyline
 90
        4
 70
     1
 43
0.0
 10
-3532.999959799969
 20
4489.657866880793
 10
-3532.999959799969
 20
4519.65786688079
 10
-2753.999959799968
 20
4519.65786688079
 10
-2753.999959799968
 20
4489.657866880793
  0
LWPOLYLINE
  5
DB833
330
DEA8B
100
AcDbEntity
  8
0
100
AcDbPolyline
 90
        4
 70
     1
 43
0.0
 10
-2753.999959799968
 20
3719.657866880793
 10
-2753.999959799968
 20
4519.65786688079
 10
-2728.999959799968
 20
4519.65786688079
 10
-2728.999959799968
 20
3719.657866880793
  0
LWPOLYLINE
  5
DB834
330
DEA8B
100
AcDbEntity
  8
0
100
AcDbPolyline
 90
        4
 70
     1
 43
0.0
 10
-3557.999959799969
 20
3719.657866880793
 10
-3557.999959799969
 20
4519.65786688079
 10
-3532.999959799969
 20
4519.65786688079
 10
-3532.999959799969
 20
3719.657866880793
  0
LWPOLYLINE
  5
DB835
330
DEA8B
100
AcDbEntity
  8
0
100
AcDbPolyline
 90
        4
 70
     1
 43
0.0
 10
-3557.999959799969
 20
3679.657866880793
 10
-3557.999959799969
 20
3719.657866880793
 10
-2728.999959799968
 20
3719.657866880793
 10
-2728.999959799968
 20
3679.657866880793
  0
LWPOLYLINE
  5
DB836
330
DEA8B
100
AcDbEntity
  8
0
100
AcDbPolyline
 90
        4
 70
     1
 43
0.0
 10
-3532.999959799969
 20
3719.657866880793
 10
-3532.999959799969
 20
3781.657866880793
 10
-2753.999959799968
 20
3781.657866880793
 10
-2753.999959799968
 20
3719.657866880793
  0
LWPOLYLINE
  5
DB84F
330
DEA8B
100
AcDbEntity
  8
0
100
AcDbPolyline
 90
        4
 70
     1
 43
0.0
 10
1957.999959799968
 20
3679.347254469617
 10
1957.999959799968
 20
4519.347254469617
 10
2557.999959799968
 20
4519.347254469617
 10
2557.999959799968
 20
3679.347254469617
  0
LWPOLYLINE
  5
DB850
330
DEA8B
100
AcDbEntity
  8
0
100
AcDbPolyline
 90
        4
 70
     1
 43
0.0
 10
1957.999959799968
 20
4519.347254469617
 10
1957.999959799968
 20
4532.347254469617
 10
2557.999959799968
 20
4532.347254469617
 10
2557.999959799968
 20
4519.347254469617
  0
LWPOLYLINE
  5
DB851
330
DEA8B
100
AcDbEntity
  8
0
100
AcDbPolyline
 90
        4
 70
     1
 43
0.0
 10
-2278.660356874153
 20
4991.657866880792
 10
-2278.660356874153
 20
5004.657866880791
 10
-1449.660356874153
 20
5004.657866880791
 10
-1449.660356874153
 20
4991.657866880792
  0
LWPOLYLINE
  5
DB852
330
DEA8B
100
AcDbEntity
  8
0
100
AcDbPolyline
 90
        4
 70
     1
 43
0.0
 10
-2253.999959799968
 20
4961.65786688079
 10
-2253.999959799968
 20
4991.657866880792
 10
-1474.999959799968
 20
4991.657866880792
 10
-1474.999959799968
 20
4961.65786688079
  0
LWPOLYLINE
  5
DB853
330
DEA8B
100
AcDbEntity
  8
0
100
AcDbPolyline
 90
        4
 70
     1
 43
0.0
 10
-1474.999959799968
 20
3719.657866880793
 10
-1474.999959799968
 20
4991.657866880792
 10
-1449.999959799968
 20
4991.657866880792
 10
-1449.999646934489
 20
3719.657866878345
  0
LWPOLYLINE
  5
DB854
330
DEA8B
100
AcDbEntity
  8
0
100
AcDbPolyline
 90
        4
 70
     1
 43
0.0
 10
-2278.989604377928
 20
3719.66433529269
 10
-2278.660356874153
 20
4991.657866880792
 10
-2253.999959799968
 20
4991.657866880792
 10
-2253.999959799968
 20
3719.657866880793
  0
LWPOLYLINE
  5
DB855
330
DEA8B
100
AcDbEntity
  8
0
100
AcDbPolyline
 90
        4
 70
     1
 43
0.0
 10
-2278.999959799968
 20
3679.657866880793
 10
-2278.989604377928
 20
3719.66433529269
 10
-1449.999959799968
 20
3719.657866880793
 10
-1449.999959799968
 20
3679.657866880793
  0
LWPOLYLINE
  5
DB856
330
DEA8B
100
AcDbEntity
  8
0
100
AcDbPolyline
 90
        4
 70
     1
 43
0.0
 10
-2253.999959799968
 20
3719.657866880793
 10
-2253.999959799968
 20
3781.657866880793
 10
-1474.999959799968
 20
3781.657866880793
 10
-1474.999959799968
 20
3719.657866880793
  0
LWPOLYLINE
  5
DB86F
330
DEA8B
100
AcDbEntity
  8
0
100
AcDbPolyline
 90
        4
 70
     1
 43
0.0
 10
2857.999959799968
 20
3679.347254469617
 10
2857.999959799968
 20
4991.347254469618
 10
3457.999959799969
 20
4991.347254469618
 10
3457.999959799969
 20
3679.347254469617
  0
LWPOLYLINE
  5
DB870
330
DEA8B
100
AcDbEntity
  8
0
100
AcDbPolyline
 90
        4
 70
     1
 43
0.0
 10
2857.999959799968
 20
4991.347254469618
 10
2857.999959799968
 20
5004.347254469616
 10
3457.999959799969
 20
5004.347254469616
 10
3457.999959799969
 20
4991.347254469618
  0
LWPOLYLINE
  5
DB881
330
DEA8B
100
AcDbEntity
  8
0
100
AcDbPolyline
 90
        4
 70
     1
 43
0.0
 10
-999.999959799968
 20
4519.65786688079
 10
-999.999959799968
 20
4532.657866880792
 10
-170.9999597999681
 20
4532.657866880792
 10
-170.9999597999681
 20
4519.65786688079
  0
LWPOLYLINE
  5
DB882
330
DEA8B
100
AcDbEntity
  8
0
100
AcDbPolyline
 90
        4
 70
     1
 43
0.0
 10
-974.999959799968
 20
4489.657866880793
 10
-974.999959799968
 20
4519.65786688079
 10
-195.9999597999681
 20
4519.65786688079
 10
-195.9999597999681
 20
4489.657866880793
  0
LWPOLYLINE
  5
DB883
330
DEA8B
100
AcDbEntity
  8
0
100
AcDbPolyline
 90
        4
 70
     1
 43
0.0
 10
-195.9999597999681
 20
3719.657866880793
 10
-195.9999597999681
 20
4519.65786688079
 10
-170.9999597999681
 20
4519.65786688079
 10
-170.9999597999681
 20
3719.657866880793
  0
LWPOLYLINE
  5
DB884
330
DEA8B
100
AcDbEntity
  8
0
100
AcDbPolyline
 90
        4
 70
     1
 43
0.0
 10
-999.999959799968
 20
3719.657866880793
 10
-999.999959799968
 20
4519.65786688079
 10
-974.999959799968
 20
4519.65786688079
 10
-974.999959799968
 20
3719.657866880793
  0
LWPOLYLINE
  5
DB885
330
DEA8B
100
AcDbEntity
  8
0
100
AcDbPolyline
 90
        4
 70
     1
 43
0.0
 10
-999.999959799968
 20
3679.657866880793
 10
-999.999959799968
 20
3719.657866880793
 10
-170.9999597999681
 20
3719.657866880793
 10
-170.9999597999681
 20
3679.657866880793
  0
LWPOLYLINE
  5
DB886
330
DEA8B
100
AcDbEntity
  8
0
100
AcDbPolyline
 90
        4
 70
     1
 43
0.0
 10
-974.999959799968
 20
3719.657866880793
 10
-974.999959799968
 20
3781.657866880793
 10
-195.9999597999681
 20
3781.657866880793
 10
-195.9999597999681
 20
3719.657866880793
  0
LWPOLYLINE
  5
DB893
330
DEA8B
100
AcDbEntity
  8
0
100
AcDbPolyline
 90
        4
 70
     1
 43
0.0
 10
279.3396431258464
 20
4991.657866880792
 10
279.3396431258464
 20
5004.657866880791
 10
1108.000040200032
 20
5004.657866880791
 10
1108.000040200032
 20
4991.657866880792
  0
LWPOLYLINE
  5
DB894
330
DEA8B
100
AcDbEntity
  8
0
100
AcDbPolyline
 90
        4
 70
     1
 43
0.0
 10
304.0000402000317
 20
4961.65786688079
 10
304.0000402000317
 20
4991.657866880792
 10
1083.000040200032
 20
4991.657866880792
 10
1083.000040200032
 20
4961.65786688079
  0
LWPOLYLINE
  5
DB895
330
DEA8B
100
AcDbEntity
  8
0
100
AcDbPolyline
 90
        4
 70
     1
 43
0.0
 10
1083.000040200032
 20
3719.657866880793
 10
1083.000040200032
 20
4991.657866880792
 10
1108.000040200032
 20
4991.657866880792
 10
1108.000353065511
 20
3719.657866878345
  0
LWPOLYLINE
  5
DB896
330
DEA8B
100
AcDbEntity
  8
0
100
AcDbPolyline
 90
        4
 70
     1
 43
0.0
 10
279.0103956220721
 20
3719.66433529269
 10
279.3396431258464
 20
4991.657866880792
 10
304.0000402000317
 20
4991.657866880792
 10
304.0000402000317
 20
3719.66413983279
  0
LWPOLYLINE
  5
DB897
330
DEA8B
100
AcDbEntity
  8
0
100
AcDbPolyline
 90
        4
 70
     1
 43
0.0
 10
279.0000402000317
 20
3679.657866880793
 10
279.0103956220721
 20
3719.66433529269
 10
1108.000040200032
 20
3719.657866880793
 10
1108.000040200032
 20
3679.657866880793
  0
LWPOLYLINE
  5
DB898
330
DEA8B
100
AcDbEntity
  8
0
100
AcDbPolyline
 90
        4
 70
     1
 43
0.0
 10
304.0000402000317
 20
3719.657866880793
 10
304.0000402000317
 20
3781.657866880793
 10
1083.000040200032
 20
3781.657866880793
 10
1083.000040200032
 20
3719.657866880793
  0
LWPOLYLINE
  5
DB96A
330
DEA8B
100
AcDbEntity
  8
0
100
AcDbPolyline
 90
        4
 70
     1
 43
0.0
 10
-3432.99995979998
 20
1194.036642058447
 10
-3432.99995979998
 20
1256.036642058447
 10
-2653.999959799978
 20
1256.036642058447
 10
-2653.999959799978
 20
1194.036642058447
  0
LWPOLYLINE
  5
DB96B
330
DEA8B
100
AcDbEntity
  8
0
100
AcDbPolyline
 90
        4
 70
     1
 43
0.0
 10
-3432.99995979998
 20
1964.036642058447
 10
-3432.99995979998
 20
1994.036642058446
 10
-2653.999959799978
 20
1994.036642058446
 10
-2653.999959799978
 20
1964.036642058447
  0
LWPOLYLINE
  5
DB96C
330
DEA8B
100
AcDbEntity
  8
0
100
AcDbPolyline
 90
        4
 70
     1
 43
0.0
 10
-3457.999959799979
 20
1994.036642058446
 10
-3457.999959799979
 20
2007.036642058447
 10
-2628.999959799978
 20
2007.036642058447
 10
-2628.999959799978
 20
1994.036642058446
  0
LWPOLYLINE
  5
DB96D
330
DEA8B
100
AcDbEntity
  8
0
100
AcDbPolyline
 90
        4
 70
     1
 43
0.0
 10
-3457.999959799979
 20
1154.036642058447
 10
-3457.999959799979
 20
1194.036642058447
 10
-2628.999959799978
 20
1194.036642058447
 10
-2628.999959799978
 20
1154.036642058447
  0
LWPOLYLINE
  5
DB96E
330
DEA8B
100
AcDbEntity
  8
0
100
AcDbPolyline
 90
        4
 70
     1
 43
0.0
 10
-2653.999959799978
 20
1194.036642058447
 10
-2653.999959799978
 20
1994.036642058446
 10
-2628.999959799978
 20
1994.036642058446
 10
-2628.999959799978
 20
1194.036642058447
  0
LWPOLYLINE
  5
DB96F
330
DEA8B
100
AcDbEntity
  8
0
100
AcDbPolyline
 90
        4
 70
     1
 43
0.0
 10
-3457.999959799979
 20
1194.036642058447
 10
-3457.999959799979
 20
1994.036642058446
 10
-3432.99995979998
 20
1994.036642058446
 10
-3432.99995979998
 20
1194.036642058447
  0
LWPOLYLINE
  5
DB988
330
DEA8B
100
AcDbEntity
  8
0
100
AcDbPolyline
 90
        4
 70
     1
 43
0.0
 10
-974.9999597999677
 20
1194.036642058447
 10
-974.9999597999677
 20
1256.036642058447
 10
-195.9999597999678
 20
1256.036642058447
 10
-195.9999597999678
 20
1194.036642058447
  0
LWPOLYLINE
  5
DB989
330
DEA8B
100
AcDbEntity
  8
0
100
AcDbPolyline
 90
        4
 70
     1
 43
0.0
 10
-974.9999597999677
 20
2436.036642058447
 10
-974.9999597999677
 20
2466.036642058447
 10
-195.9999597999678
 20
2466.036642058447
 10
-195.9999597999678
 20
2436.036642058447
  0
LWPOLYLINE
  5
DB98A
330
DEA8B
100
AcDbEntity
  8
0
100
AcDbPolyline
 90
        4
 70
     1
 43
0.0
 10
-999.6603568968584
 20
2466.036554154375
 10
-999.6603568741457
 20
2479.036642058447
 10
-170.9999597999678
 20
2479.036642058447
 10
-170.9999597999678
 20
2466.036642058447
  0
LWPOLYLINE
  5
DB98B
330
DEA8B
100
AcDbEntity
  8
0
100
AcDbPolyline
 90
        4
 70
     1
 43
0.0
 10
-999.9999597999677
 20
1154.036642058447
 10
-999.9896043779271
 20
1194.043110470346
 10
-170.9999597999678
 20
1194.036642058447
 10
-170.9999597999678
 20
1154.036642058447
  0
LWPOLYLINE
  5
DB98C
330
DEA8B
100
AcDbEntity
  8
0
100
AcDbPolyline
 90
        4
 70
     1
 43
0.0
 10
-195.9999597999678
 20
1194.036642058447
 10
-195.9999597999678
 20
2466.036642058447
 10
-170.9999597999678
 20
2466.036642058447
 10
-170.999646934487
 20
1194.036642056002
  0
LWPOLYLINE
  5
DB98D
330
DEA8B
100
AcDbEntity
  8
0
100
AcDbPolyline
 90
        4
 70
     1
 43
0.0
 10
-999.9896043779271
 20
1194.043110470346
 10
-999.6603568741457
 20
2466.036642058447
 10
-974.9999597999677
 20
2466.036642058447
 10
-974.9999597999677
 20
1194.042915010446
  0
LWPOLYLINE
  5
DB98E
330
DEA8B
100
AcDbEntity
  8
0
100
AcDbPolyline
 90
        4
 70
     1
 43
0.0
 10
-2178.660356896875
 20
2466.036554154375
 10
-2178.660356896875
 20
2479.036554154375
 10
-1349.999959799982
 20
2479.036642058449
 10
-1349.999959799982
 20
2466.036642058449
  0
LWPOLYLINE
  5
DB98F
330
DEA8B
100
AcDbEntity
  8
0
100
AcDbPolyline
 90
        4
 70
     1
 43
0.0
 10
-2153.999959799983
 20
2436.036642058449
 10
-2153.999959799983
 20
2466.036642058449
 10
-1374.999959799982
 20
2466.036642058449
 10
-1374.999959799982
 20
2436.036642058449
  0
LWPOLYLINE
  5
DB990
330
DEA8B
100
AcDbEntity
  8
0
100
AcDbPolyline
 90
        4
 70
     1
 43
0.0
 10
-2153.999959799983
 20
1194.036642058448
 10
-2153.999959799983
 20
1256.036642058448
 10
-1374.999959799982
 20
1256.036642058448
 10
-1374.999959799982
 20
1194.036642058448
  0
LWPOLYLINE
  5
DB9B1
330
DEA8B
100
AcDbEntity
  8
0
100
AcDbPolyline
 90
        4
 70
     1
 43
0.0
 10
-2178.999959799983
 20
1154.036642058448
 10
-2178.989604377943
 20
1194.043110470347
 10
-1349.999959799982
 20
1194.036642058448
 10
-1349.999959799982
 20
1154.036642058448
  0
LWPOLYLINE
  5
DB9B2
330
DEA8B
100
AcDbEntity
  8
0
100
AcDbPolyline
 90
        4
 70
     1
 43
0.0
 10
-1374.999959799982
 20
1194.036642058448
 10
-1374.999959799982
 20
2466.036642058449
 10
-1349.999959799982
 20
2466.036642058449
 10
-1349.999646934504
 20
1194.036642056003
  0
LWPOLYLINE
  5
DB9B3
330
DEA8B
100
AcDbEntity
  8
0
100
AcDbPolyline
 90
        4
 70
     1
 43
0.0
 10
-2178.989604377943
 20
1194.043110470347
 10
-2178.660356874161
 20
2466.036642058449
 10
-2153.999959799983
 20
2466.036642058449
 10
-2153.999959799983
 20
1194.042915010447
  0
LINE
  5
DBEEF
330
DEA8B
100
AcDbEntity
  8
0
100
AcDbLine
 10
4012.685974119231
 20
0.0000000000002274
 30
0.0
 11
4012.685974119231
 21
-987.6576470269353
 31
0.0
  0
TEXT
  5
DBEF0
330
DEA8B
100
AcDbEntity
  8
0
100
AcDbText
 10
2240.022522568668
 20
-208.9254166234015
 30
0.0
 40
125.0
  1
2024-06
  7
STILE1
 72
     1
 11
2674.918355902001
 21
-208.9254166234015
 31
0.0
100
AcDbText
  0
LINE
  5
DBEF1
330
DEA8B
100
AcDbEntity
  8
0
100
AcDbLine
 10
1337.561991373077
 20
-299.9965549039189
 30
0.0
 11
1337.561991373077
 21
0.0
 31
0.0
  0
LINE
  5
DBEF2
330
DEA8B
100
AcDbEntity
  8
0
100
AcDbLine
 10
-1337.561991373077
 20
0.0
 30
0.0
 11
-1337.561991373077
 21
-987.6576470269353
 31
0.0
  0
LWPOLYLINE
  5
DBEF3
330
DEA8B
100
AcDbEntity
  8
0
100
AcDbPolyline
 90
        4
 70
     1
 43
0.0
 10
-4012.685974119231
 20
0.0
 10
4012.685974119231
 20
0.0
 10
4012.685974119231
 20
-987.6576470269353
 10
-4012.685974119231
 20
-987.6576470269353
  0
LWPOLYLINE
  5
DBEF4
330
DEA8B
100
AcDbEntity
  8
0
100
AcDbPolyline
 90
        2
 70
     0
 43
0.0
 10
-1337.561991373077
 20
-299.9965549039189
 10
4012.685974119231
 20
-299.9965549039186
  0
TEXT
  5
DBEF5
330
DEA8B
100
AcDbEntity
  8
0
100
AcDbText
 10
-527.8452372835668
 20
-817.4938565844182
 30
0.0
 40
125.0
  1
This drawing is property of Fantin S.r.l. 
  7
STILE1
 72
     1
 11
1487.035715097386
 21
-817.4938565844182
 31
0.0
100
AcDbText
  0
LWPOLYLINE
  5
DBEF6
330
DEA8B
100
AcDbEntity
  8
0
  6
Continuous
100
AcDbPolyline
 90
       16
 70
     1
 43
0.0
 10
-3164.963312949987
 20
-604.0348442923276
 10
-3164.963312949987
 20
-604.0348442923276
 10
-3140.60203043744
 20
-687.6576470269355
 10
-3014.885328505188
 20
-687.6576470269355
 10
-3132.294182670303
 20
-334.8833143443335
 42
0.1089385125692126
 10
-3145.036042486318
 20
-307.2121766244527
 42
0.1589313772246072
 10
-3157.031867676415
 20
-299.9273046676535
 42
0.058673645385263
 10
-3173.277038573287
 20
-298.3360188803636
 10
-3173.277038573287
 20
-298.3360188803636
 10
-3268.525316026062
 20
-298.3360188803636
 42
0.058673645385263
 10
-3284.770486922936
 20
-299.9273046676535
 42
0.1589313772246072
 10
-3296.766312113032
 20
-307.2121766244527
 42
0.1089385125692126
 10
-3309.508171929046
 20
-334.8833143443335
 10
-3426.917026089505
 20
-687.6576470269355
 10
-3307.851080996916
 20
-687.6576470269355
 10
-3284.038581000641
 20
-604.0348442923276
  0
LWPOLYLINE
  5
DBEF7
330
DEA8B
100
AcDbEntity
  8
0
  6
Continuous
100
AcDbPolyline
 90
        5
 70
     0
 43
0.0
 10
-3221.454976396636
 20
-406.8789198133162
 10
-3188.227030434647
 20
-520.96670193132
 10
-3260.775573728607
 20
-520.96670193132
 10
-3227.547627761961
 20
-406.8789198133162
 10
-3221.454976396636
 20
-406.8789198133162
  0
LWPOLYLINE
  5
DBEF8
330
DEA8B
100
AcDbEntity
  8
0
  6
Continuous
100
AcDbPolyline
 90
       11
 70
     0
 43
0.0
 10
-3407.540086535738
 20
-300.0
 10
-3407.540086535738
 20
-389.1607937274967
 10
-3593.616583929397
 20
-389.1607937274967
 10
-3593.616583929397
 20
-466.1362847220151
 10
-3463.47293430008
 20
-466.1362847220151
 10
-3463.47293430008
 20
-549.2095947265625
 10
-3593.616583929397
 20
-549.2095947265625
 10
-3593.616583929397
 20
-687.6576470269355
 10
-3712.685974119231
 20
-687.6576470269355
 10
-3712.685974119231
 20
-300.0
 10
-3407.540086535738
 20
-300.0
  0
LWPOLYLINE
  5
DBEF9
330
DEA8B
100
AcDbEntity
  8
0
  6
Continuous
100
AcDbPolyline
 90
        4
 70
     1
 43
0.0
 10
-2192.47902425006
 20
-299.9982774525415
 10
-2073.409634060226
 20
-299.9982774525415
 10
-2073.409634060226
 20
-687.6576470269355
 10
-2192.47902425006
 20
-687.6576470269355
  0
LWPOLYLINE
  5
DBEFA
330
DEA8B
100
AcDbEntity
  8
0
  6
Continuous
100
AcDbPolyline
 90
        9
 70
     0
 43
0.0
 10
-2229.582702633925
 20
-299.9982774525415
 10
-2229.582702633925
 20
-390.8213297522161
 10
-2345.878790956922
 20
-390.8213297522161
 10
-2345.878790956922
 20
-687.6576470269355
 10
-2464.948181146756
 20
-687.6576470269355
 10
-2464.948181146756
 20
-390.8213297522161
 10
-2578.481302894652
 20
-390.8213297522161
 10
-2578.481302894652
 20
-299.9982774525415
 10
-2229.582702633925
 20
-299.9982774525415
  0
LWPOLYLINE
  5
DBEFB
330
DEA8B
100
AcDbEntity
  8
0
  6
Continuous
100
AcDbPolyline
 90
       15
 70
     0
 43
0.0
 10
-2982.206875272095
 20
-687.6576470269355
 10
-2982.206875272095
 20
-299.9965549039189
 10
-2880.857333708556
 20
-299.9965549039189
 42
-0.316444976687396
 10
-2829.909539115615
 20
-328.2411702477839
 10
-2729.116380475462
 20
-498.2600775826719
 10
-2726.348246252165
 20
-498.2600775826719
 10
-2726.348246252165
 20
-299.9965549039189
 10
-2613.924445258454
 20
-299.9965549039189
 10
-2613.924445258454
 20
-687.6576470269355
 10
-2696.446539983154
 20
-687.6576470269355
 42
-0.312959769389874
 10
-2747.39433458075
 20
-659.4147542316932
 10
-2867.014940045774
 20
-466.1380072694737
 10
-2869.779629176483
 20
-466.1380072694737
 10
-2869.779629176483
 20
-687.6576470269355
 10
-2982.206875272095
 20
-687.6576470269355
  0
LWPOLYLINE
  5
DBEFC
330
DEA8B
100
AcDbEntity
  8
0
  6
Continuous
100
AcDbPolyline
 90
       15
 70
     0
 43
0.0
 10
-2005.844421386719
 20
-687.6576470269355
 10
-2005.844421386719
 20
-299.9965549039189
 10
-1904.494879823178
 20
-299.9965549039189
 42
-0.316444976687396
 10
-1853.547085234894
 20
-328.2411702477839
 10
-1752.753926590085
 20
-498.2600775826719
 10
-1749.985792371444
 20
-498.2600775826719
 10
-1749.985792371444
 20
-299.9965549039189
 10
-1637.561991373077
 20
-299.9965549039189
 10
-1637.561991373077
 20
-687.6576470269355
 10
-1720.084086097777
 20
-687.6576470269355
 42
-0.312959769389874
 10
-1771.031880690716
 20
-659.4147542316932
 10
-1890.652486160398
 20
-466.1380072694737
 10
-1893.417175291106
 20
-466.1380072694737
 10
-1893.417175291106
 20
-687.6576470269355
 10
-2005.844421386719
 20
-687.6576470269355
  0
TEXT
  5
DBEFD
330
DEA8B
100
AcDbEntity
  8
0
100
AcDbText
 10
-260.5802695436394
 20
-208.9254166234014
 30
0.0
 40
125.0
  1
Opera
  7
STILE1
 72
     1
 11
7.741903075408115
 21
-208.9254166234014
 31
0.0
100
AcDbText
  0
TEXT
  5
DBEFE
330
DEA8B
100
AcDbEntity
  8
0
100
AcDbText
 10
-838.7791374978221
 20
-555.4096502962035
 30
0.0
 40
125.0
  1
Questo disegno è di proprietà di Fantin S.r.l.   
  7
STILE1
 72
     1
 11
1583.839910121225
 21
-555.4096502962035
 31
0.0
100
AcDbText
  0
LWPOLYLINE
  5
DD8BA
330
DEA8B
100
AcDbEntity
  8
0
100
AcDbPolyline
 90
        4
 70
     1
 43
0.0
 10
-4012.68597411923
 20
5604.657866880791
 10
4012.685974119231
 20
5604.657866880791
 10
4012.685974119231
 20
554.0366420584437
 10
-4012.68597411923
 20
554.0366420584432
  0
LWPOLYLINE
  5
DD8BB
330
DEA8B
100
AcDbEntity
  8
0
100
AcDbPolyline
 90
        4
 70
     1
 43
0.0
 10
2857.999959799969
 20
2465.726029647274
 10
2857.999959799969
 20
2478.726029647272
 10
3457.99995979997
 20
2478.726029647272
 10
3457.99995979997
 20
2465.726029647274
  0
LWPOLYLINE
  5
DD8BC
330
DEA8B
100
AcDbEntity
  8
0
100
AcDbPolyline
 90
        4
 70
     1
 43
0.0
 10
2857.999959799969
 20
1153.726029647273
 10
2857.999959799969
 20
2465.726029647274
 10
3457.99995979997
 20
2465.726029647274
 10
3457.99995979997
 20
1153.726029647273
  0
LWPOLYLINE
  5
DD8BD
330
DEA8B
100
AcDbEntity
  8
0
100
AcDbPolyline
 90
        4
 70
     1
 43
0.0
 10
1957.999959799968
 20
1993.726029647273
 10
1957.999959799968
 20
2006.726029647273
 10
2557.999959799969
 20
2006.726029647273
 10
2557.999959799969
 20
1993.726029647273
  0
LWPOLYLINE
  5
DD8BE
330
DEA8B
100
AcDbEntity
  8
0
100
AcDbPolyline
 90
        4
 70
     1
 43
0.0
 10
1957.999959799968
 20
1153.726029647273
 10
1957.999959799968
 20
1993.726029647273
 10
2557.999959799969
 20
1993.726029647273
 10
2557.999959799969
 20
1153.726029647273
  0
LWPOLYLINE
  5
DDDDB
330
DEA8B
100
AcDbEntity
  8
0
100
AcDbPolyline
 90
        4
 70
     1
 43
0.0
 10
-3532.999959799969
 20
4489.657866880793
 10
-2753.999959799968
 20
4489.657866880793
 10
-2753.999959799968
 20
4371.657866880791
 10
-3532.999959799969
 20
4371.657866880791
  0
LWPOLYLINE
  5
DDDDC
330
DEA8B
100
AcDbEntity
  8
0
100
AcDbPolyline
 90
        4
 70
     1
 43
0.0
 10
-3532.999959799969
 20
4371.657866880791
 10
-2753.999959799968
 20
4371.657866880791
 10
-2753.999959799968
 20
4253.657866880788
 10
-3532.999959799969
 20
4253.657866880788
  0
LWPOLYLINE
  5
DDDDD
330
DEA8B
100
AcDbEntity
  8
0
100
AcDbPolyline
 90
        4
 70
     1
 43
0.0
 10
-3532.999959799969
 20
4135.657866880786
 10
-2753.999959799968
 20
4135.657866880786
 10
-2753.999959799968
 20
4017.657866880784
 10
-3532.999959799969
 20
4017.657866880784
  0
LWPOLYLINE
  5
DDDDE
330
DEA8B
100
AcDbEntity
  8
0
100
AcDbPolyline
 90
        4
 70
     1
 43
0.0
 10
-3532.999959799969
 20
4253.657866880788
 10
-2753.999959799968
 20
4253.657866880788
 10
-2753.999959799968
 20
4135.657866880786
 10
-3532.999959799969
 20
4135.657866880786
  0
LWPOLYLINE
  5
DDDDF
330
DEA8B
100
AcDbEntity
  8
0
100
AcDbPolyline
 90
        4
 70
     1
 43
0.0
 10
-3532.999959799969
 20
4017.657866880784
 10
-2753.999959799968
 20
4017.657866880784
 10
-2753.999959799968
 20
3899.657866880783
 10
-3532.999959799969
 20
3899.657866880783
  0
LWPOLYLINE
  5
DDDE0
330
DEA8B
100
AcDbEntity
  8
0
100
AcDbPolyline
 90
        4
 70
     1
 43
0.0
 10
-3532.999959799969
 20
3899.657866880783
 10
-2753.999959799968
 20
3899.657866880783
 10
-2753.999959799968
 20
3781.657866880781
 10
-3532.999959799969
 20
3781.657866880781
  0
LWPOLYLINE
  5
DDDE1
330
DEA8B
100
AcDbEntity
  8
0
100
AcDbPolyline
 90
        4
 70
     1
 43
0.0
 10
-2253.999959799969
 20
3899.657866880794
 10
-1474.999959799968
 20
3899.657866880794
 10
-1474.999959799968
 20
3781.657866880793
 10
-2253.999959799969
 20
3781.657866880793
  0
LWPOLYLINE
  5
DDDE2
330
DEA8B
100
AcDbEntity
  8
0
100
AcDbPolyline
 90
        4
 70
     1
 43
0.0
 10
-2253.999959799969
 20
4017.657866880796
 10
-1474.999959799968
 20
4017.657866880796
 10
-1474.999959799968
 20
3899.657866880794
 10
-2253.999959799969
 20
3899.657866880794
  0
LWPOLYLINE
  5
DDDE3
330
DEA8B
100
AcDbEntity
  8
0
100
AcDbPolyline
 90
        4
 70
     1
 43
0.0
 10
-2253.999959799969
 20
4253.657866880799
 10
-1474.999959799968
 20
4253.657866880799
 10
-1474.999959799968
 20
4135.657866880797
 10
-2253.999959799969
 20
4135.657866880797
  0
LWPOLYLINE
  5
DDDE4
330
DEA8B
100
AcDbEntity
  8
0
100
AcDbPolyline
 90
        4
 70
     1
 43
0.0
 10
-2253.999959799969
 20
4135.657866880797
 10
-1474.999959799968
 20
4135.657866880797
 10
-1474.999959799968
 20
4017.657866880796
 10
-2253.999959799969
 20
4017.657866880796
  0
LWPOLYLINE
  5
DDDE5
330
DEA8B
100
AcDbEntity
  8
0
100
AcDbPolyline
 90
        4
 70
     1
 43
0.0
 10
-2253.999959799969
 20
4371.657866880801
 10
-1474.999959799968
 20
4371.657866880801
 10
-1474.999959799968
 20
4253.657866880799
 10
-2253.999959799969
 20
4253.657866880799
  0
LWPOLYLINE
  5
DDDE6
330
DEA8B
100
AcDbEntity
  8
0
100
AcDbPolyline
 90
        4
 70
     1
 43
0.0
 10
-2253.999959799969
 20
4489.657866880803
 10
-1474.999959799968
 20
4489.657866880803
 10
-1474.999959799968
 20
4371.657866880801
 10
-2253.999959799969
 20
4371.657866880801
  0
LWPOLYLINE
  5
DDDE7
330
DEA8B
100
AcDbEntity
  8
0
100
AcDbPolyline
 90
        4
 70
     1
 43
0.0
 10
-2253.999959799969
 20
4725.657866880807
 10
-1474.999959799968
 20
4725.657866880807
 10
-1474.999959799968
 20
4607.657866880805
 10
-2253.999959799969
 20
4607.657866880805
  0
LWPOLYLINE
  5
DDDE8
330
DEA8B
100
AcDbEntity
  8
0
100
AcDbPolyline
 90
        4
 70
     1
 43
0.0
 10
-2253.999959799969
 20
4607.657866880805
 10
-1474.999959799968
 20
4607.657866880805
 10
-1474.999959799968
 20
4489.657866880803
 10
-2253.999959799969
 20
4489.657866880803
  0
LWPOLYLINE
  5
DDDE9
330
DEA8B
100
AcDbEntity
  8
0
100
AcDbPolyline
 90
        4
 70
     1
 43
0.0
 10
-2253.999959799969
 20
4843.657866880809
 10
-1474.999959799968
 20
4843.657866880809
 10
-1474.999959799968
 20
4725.657866880807
 10
-2253.999959799969
 20
4725.657866880807
  0
LWPOLYLINE
  5
DDDEA
330
DEA8B
100
AcDbEntity
  8
0
100
AcDbPolyline
 90
        4
 70
     1
 43
0.0
 10
-2253.999959799969
 20
4961.657866880811
 10
-1474.999959799968
 20
4961.657866880811
 10
-1474.999959799968
 20
4843.657866880809
 10
-2253.999959799969
 20
4843.657866880809
  0
LWPOLYLINE
  5
DDDFB
330
DEA8B
100
AcDbEntity
  8
0
100
AcDbPolyline
 90
        4
 70
     1
 43
0.0
 10
-974.999959799968
 20
3781.657866880793
 10
-195.9999597999676
 20
3781.657866880793
 10
-195.9999597999676
 20
4017.657866880796
 10
-974.999959799968
 20
4017.657866880796
  0
LWPOLYLINE
  5
DDDFC
330
DEA8B
100
AcDbEntity
  8
0
100
AcDbPolyline
 90
        4
 70
     1
 43
0.0
 10
-195.9999597999681
 20
4017.657866880796
 10
-974.9999597999686
 20
4017.657866880796
 10
-974.9999597999686
 20
4253.657866880799
 10
-195.9999597999681
 20
4253.657866880799
  0
LWPOLYLINE
  5
DDDFD
330
DEA8B
100
AcDbEntity
  8
0
100
AcDbPolyline
 90
        4
 70
     1
 43
0.0
 10
-974.9999597999686
 20
4253.657866880799
 10
-195.9999597999681
 20
4253.657866880799
 10
-195.9999597999681
 20
4489.657866880793
 10
-974.9999597999686
 20
4489.657866880793
  0
LWPOLYLINE
  5
DDDFE
330
DEA8B
100
AcDbEntity
  8
0
100
AcDbPolyline
 90
        4
 70
     1
 43
0.0
 10
304.0000402000319
 20
3781.657866880804
 10
1083.000040200033
 20
3781.657866880804
 10
1083.000040200033
 20
4017.657866880806
 10
304.0000402000319
 20
4017.657866880806
  0
LWPOLYLINE
  5
DDDFF
330
DEA8B
100
AcDbEntity
  8
0
100
AcDbPolyline
 90
        4
 70
     1
 43
0.0
 10
304.0000402000319
 20
4017.657866880806
 10
1083.000040200033
 20
4017.657866880806
 10
1083.000040200033
 20
4253.65786688081
 10
304.0000402000319
 20
4253.65786688081
  0
LWPOLYLINE
  5
DDE00
330
DEA8B
100
AcDbEntity
  8
0
100
AcDbPolyline
 90
        4
 70
     1
 43
0.0
 10
304.0000402000319
 20
4253.65786688081
 10
1083.000040200033
 20
4253.65786688081
 10
1083.000040200033
 20
4489.657866880814
 10
304.0000402000319
 20
4489.657866880814
  0
LWPOLYLINE
  5
DDE01
330
DEA8B
100
AcDbEntity
  8
0
100
AcDbPolyline
 90
        4
 70
     1
 43
0.0
 10
304.0000402000319
 20
4489.657866880814
 10
1083.000040200033
 20
4489.657866880814
 10
1083.000040200033
 20
4725.657866880818
 10
304.0000402000319
 20
4725.657866880818
  0
LWPOLYLINE
  5
DDE02
330
DEA8B
100
AcDbEntity
  8
0
100
AcDbPolyline
 90
        4
 70
     1
 43
0.0
 10
304.0000402000319
 20
4725.657866880818
 10
1083.000040200032
 20
4725.657866880818
 10
1083.000040200032
 20
4961.65786688079
 10
304.0000402000319
 20
4961.65786688079
  0
LWPOLYLINE
  5
DDE05
330
DEA8B
100
AcDbEntity
  8
0
100
AcDbPolyline
 90
        4
 70
     1
 43
0.0
 10
-974.9999597999677
 20
1964.036642058468
 10
-195.9999597999667
 20
1964.036642058468
 10
-195.9999597999667
 20
2200.036642058472
 10
-974.9999597999677
 20
2200.036642058472
  0
LWPOLYLINE
  5
DDE06
330
DEA8B
100
AcDbEntity
  8
0
100
AcDbPolyline
 90
        4
 70
     1
 43
0.0
 10
-974.9999597999677
 20
1728.036642058465
 10
-195.9999597999667
 20
1728.036642058465
 10
-195.9999597999667
 20
1964.036642058468
 10
-974.9999597999677
 20
1964.036642058468
  0
LWPOLYLINE
  5
DDE07
330
DEA8B
100
AcDbEntity
  8
0
100
AcDbPolyline
 90
        4
 70
     1
 43
0.0
 10
-974.9999597999677
 20
1492.036642058461
 10
-195.9999597999667
 20
1492.036642058461
 10
-195.9999597999667
 20
1728.036642058465
 10
-974.9999597999677
 20
1728.036642058465
  0
LWPOLYLINE
  5
DDE08
330
DEA8B
100
AcDbEntity
  8
0
100
AcDbPolyline
 90
        4
 70
     1
 43
0.0
 10
-974.9999597999677
 20
1256.036642058458
 10
-195.9999597999667
 20
1256.036642058458
 10
-195.9999597999667
 20
1492.036642058461
 10
-974.9999597999677
 20
1492.036642058461
  0
LWPOLYLINE
  5
DDE09
330
DEA8B
100
AcDbEntity
  8
0
100
AcDbPolyline
 90
        4
 70
     1
 43
0.0
 10
-2153.999959799984
 20
1728.036642058455
 10
-1374.999959799983
 20
1728.036642058455
 10
-1374.999959799983
 20
1964.036642058448
 10
-2153.999959799984
 20
1964.036642058448
  0
LWPOLYLINE
  5
DDE0A
330
DEA8B
100
AcDbEntity
  8
0
100
AcDbPolyline
 90
        4
 70
     1
 43
0.0
 10
-1374.999959799983
 20
1492.036642058451
 10
-2153.999959799984
 20
1492.036642058451
 10
-2153.999959799984
 20
1728.036642058455
 10
-1374.999959799983
 20
1728.036642058455
  0
LWPOLYLINE
  5
DDE0B
330
DEA8B
100
AcDbEntity
  8
0
100
AcDbPolyline
 90
        4
 70
     1
 43
0.0
 10
-2153.999959799983
 20
1256.036642058448
 10
-1374.999959799982
 20
1256.036642058448
 10
-1374.999959799982
 20
1492.036642058451
 10
-2153.999959799983
 20
1492.036642058451
  0
LWPOLYLINE
  5
DDE0C
330
DEA8B
100
AcDbEntity
  8
0
100
AcDbPolyline
 90
        4
 70
     1
 43
0.0
 10
-3432.99995979998
 20
1256.036642058447
 10
-2653.999959799979
 20
1256.036642058447
 10
-2653.999959799979
 20
1492.03664205844
 10
-3432.99995979998
 20
1492.03664205844
  0
LWPOLYLINE
  5
DDE0D
330
DEA8B
100
AcDbEntity
  8
0
100
AcDbPolyline
 90
        4
 70
     1
 43
0.0
 10
-3432.99995979998
 20
1728.036642058443
 10
-2653.999959799979
 20
1728.036642058443
 10
-2653.999959799979
 20
1610.036642058441
 10
-3432.99995979998
 20
1610.036642058441
  0
LWPOLYLINE
  5
DDE0E
330
DEA8B
100
AcDbEntity
  8
0
100
AcDbPolyline
 90
        4
 70
     1
 43
0.0
 10
-3432.99995979998
 20
1610.036642058441
 10
-2653.999959799979
 20
1610.036642058441
 10
-2653.999959799979
 20
1492.03664205844
 10
-3432.99995979998
 20
1492.03664205844
  0
LWPOLYLINE
  5
DDE0F
330
DEA8B
100
AcDbEntity
  8
0
100
AcDbPolyline
 90
        4
 70
     1
 43
0.0
 10
-3432.99995979998
 20
1846.036642058445
 10
-2653.999959799979
 20
1846.036642058445
 10
-2653.999959799979
 20
1728.036642058443
 10
-3432.99995979998
 20
1728.036642058443
  0
LWPOLYLINE
  5
DDE10
330
DEA8B
100
AcDbEntity
  8
0
100
AcDbPolyline
 90
        4
 70
     1
 43
0.0
 10
-3432.99995979998
 20
1964.036642058447
 10
-2653.999959799979
 20
1964.036642058447
 10
-2653.999959799979
 20
1846.036642058445
 10
-3432.99995979998
 20
1846.036642058445
  0
LWPOLYLINE
  5
DDE11
330
DEA8B
100
AcDbEntity
  8
0
100
AcDbPolyline
 90
        4
 70
     1
 43
0.0
 10
-2153.999959799984
 20
2436.036642058455
 10
-1374.999959799983
 20
2436.036642058455
 10
-1374.999959799983
 20
2318.036642058453
 10
-2153.999959799984
 20
2318.036642058453
  0
LWPOLYLINE
  5
DDE12
330
DEA8B
100
AcDbEntity
  8
0
100
AcDbPolyline
 90
        4
 70
     1
 43
0.0
 10
-2153.999959799984
 20
2318.036642058453
 10
-1374.999959799983
 20
2318.036642058453
 10
-1374.999959799983
 20
2200.036642058452
 10
-2153.999959799984
 20
2200.036642058452
  0
LWPOLYLINE
  5
DDE13
330
DEA8B
100
AcDbEntity
  8
0
100
AcDbPolyline
 90
        4
 70
     1
 43
0.0
 10
-2153.999959799984
 20
2082.036642058449
 10
-1374.999959799983
 20
2082.036642058449
 10
-1374.999959799983
 20
1964.036642058448
 10
-2153.999959799984
 20
1964.036642058448
  0
LWPOLYLINE
  5
DDE14
330
DEA8B
100
AcDbEntity
  8
0
100
AcDbPolyline
 90
        4
 70
     1
 43
0.0
 10
-2153.999959799984
 20
2200.036642058452
 10
-1374.999959799983
 20
2200.036642058452
 10
-1374.999959799983
 20
2082.036642058449
 10
-2153.999959799984
 20
2082.036642058449
  0
LWPOLYLINE
  5
DDE15
330
DEA8B
100
AcDbEntity
  8
0
100
AcDbPolyline
 90
        4
 70
     1
 43
0.0
 10
-974.9999597999677
 20
2318.036642058475
 10
-195.9999597999665
 20
2318.036642058475
 10
-195.9999597999665
 20
2200.036642058472
 10
-974.9999597999677
 20
2200.036642058472
  0
LWPOLYLINE
  5
DDE16
330
DEA8B
100
AcDbEntity
  8
0
100
AcDbPolyline
 90
        4
 70
     1
 43
0.0
 10
-974.9999597999677
 20
2436.036642058476
 10
-195.9999597999665
 20
2436.036642058476
 10
-195.9999597999665
 20
2318.036642058475
 10
-974.9999597999677
 20
2318.036642058475
  0
CIRCLE
  5
DE052
330
DEA8B
100
AcDbEntity
  8
0
100
AcDbCircle
 10
-3143.499959799969
 20
3840.657866880788
 30
0.0
 40
20.0
  0
CIRCLE
  5
DE055
330
DEA8B
100
AcDbEntity
  8
0
100
AcDbCircle
 10
-3143.499959799969
 20
3958.65786688079
 30
0.0
 40
20.0
  0
CIRCLE
  5
DE056
330
DEA8B
100
AcDbEntity
  8
0
100
AcDbCircle
 10
-3143.499959799969
 20
4194.657866880794
 30
0.0
 40
20.0
  0
CIRCLE
  5
DE057
330
DEA8B
100
AcDbEntity
  8
0
100
AcDbCircle
 10
-3143.499959799969
 20
4076.657866880792
 30
0.0
 40
20.0
  0
CIRCLE
  5
DE058
330
DEA8B
100
AcDbEntity
  8
0
100
AcDbCircle
 10
-3143.499959799969
 20
4312.657866880795
 30
0.0
 40
20.0
  0
CIRCLE
  5
DE059
330
DEA8B
100
AcDbEntity
  8
0
100
AcDbCircle
 10
-3143.499959799969
 20
4430.657866880797
 30
0.0
 40
20.0
  0
CIRCLE
  5
DE05A
330
DEA8B
100
AcDbEntity
  8
0
100
AcDbCircle
 10
-1864.499959799968
 20
4430.657866880808
 30
0.0
 40
20.0
  0
CIRCLE
  5
DE05B
330
DEA8B
100
AcDbEntity
  8
0
100
AcDbCircle
 10
-1864.499959799968
 20
4312.657866880805
 30
0.0
 40
20.0
  0
CIRCLE
  5
DE05C
330
DEA8B
100
AcDbEntity
  8
0
100
AcDbCircle
 10
-1864.499959799968
 20
4076.657866880802
 30
0.0
 40
20.0
  0
CIRCLE
  5
DE05D
330
DEA8B
100
AcDbEntity
  8
0
100
AcDbCircle
 10
-1864.499959799968
 20
4194.657866880804
 30
0.0
 40
20.0
  0
CIRCLE
  5
DE05E
330
DEA8B
100
AcDbEntity
  8
0
100
AcDbCircle
 10
-1864.499959799968
 20
3958.657866880801
 30
0.0
 40
20.0
  0
CIRCLE
  5
DE05F
330
DEA8B
100
AcDbEntity
  8
0
100
AcDbCircle
 10
-1864.499959799968
 20
3840.657866880799
 30
0.0
 40
20.0
  0
CIRCLE
  5
DE060
330
DEA8B
100
AcDbEntity
  8
0
100
AcDbCircle
 10
-1864.499959799968
 20
4666.657866880811
 30
0.0
 40
20.0
  0
CIRCLE
  5
DE061
330
DEA8B
100
AcDbEntity
  8
0
100
AcDbCircle
 10
-1864.499959799968
 20
4548.65786688081
 30
0.0
 40
20.0
  0
CIRCLE
  5
DE062
330
DEA8B
100
AcDbEntity
  8
0
100
AcDbCircle
 10
-1864.499959799968
 20
4784.657866880813
 30
0.0
 40
20.0
  0
CIRCLE
  5
DE063
330
DEA8B
100
AcDbEntity
  8
0
100
AcDbCircle
 10
-1864.499959799968
 20
4902.657866880815
 30
0.0
 40
20.0
  0
CIRCLE
  5
DE065
330
DEA8B
100
AcDbEntity
  8
0
100
AcDbCircle
 10
-585.4999597999683
 20
4371.657866880796
 30
0.0
 40
20.0
  0
CIRCLE
  5
DE066
330
DEA8B
100
AcDbEntity
  8
0
100
AcDbCircle
 10
-585.4999597999683
 20
4135.657866880793
 30
0.0
 40
20.0
  0
CIRCLE
  5
DE069
330
DEA8B
100
AcDbEntity
  8
0
100
AcDbCircle
 10
-585.4999597999683
 20
3899.657866880789
 30
0.0
 40
20.0
  0
CIRCLE
  5
DE06B
330
DEA8B
100
AcDbEntity
  8
0
100
AcDbCircle
 10
693.5000402000321
 20
4843.657866880814
 30
0.0
 40
20.0
  0
CIRCLE
  5
DE06C
330
DEA8B
100
AcDbEntity
  8
0
100
AcDbCircle
 10
693.5000402000321
 20
4607.65786688081
 30
0.0
 40
20.0
  0
CIRCLE
  5
DE06E
330
DEA8B
100
AcDbEntity
  8
0
100
AcDbCircle
 10
693.5000402000321
 20
3899.6578668808
 30
0.0
 40
20.0
  0
CIRCLE
  5
DE071
330
DEA8B
100
AcDbEntity
  8
0
100
AcDbCircle
 10
693.5000402000321
 20
4135.657866880803
 30
0.0
 40
20.0
  0
CIRCLE
  5
DE072
330
DEA8B
100
AcDbEntity
  8
0
100
AcDbCircle
 10
693.5000402000321
 20
4371.657866880807
 30
0.0
 40
20.0
  0
CIRCLE
  5
DE075
330
DEA8B
100
AcDbEntity
  8
0
100
AcDbCircle
 10
-1764.499959799983
 20
1374.036642058444
 30
0.0
 40
20.0
  0
CIRCLE
  5
DE076
330
DEA8B
100
AcDbEntity
  8
0
100
AcDbCircle
 10
-1764.499959799983
 20
1610.036642058448
 30
0.0
 40
20.0
  0
CIRCLE
  5
DE077
330
DEA8B
100
AcDbEntity
  8
0
100
AcDbCircle
 10
-1764.499959799983
 20
1846.036642058451
 30
0.0
 40
20.0
  0
CIRCLE
  5
DE078
330
DEA8B
100
AcDbEntity
  8
0
100
AcDbCircle
 10
-585.4999597999677
 20
1846.036642058462
 30
0.0
 40
20.0
  0
CIRCLE
  5
DE079
330
DEA8B
100
AcDbEntity
  8
0
100
AcDbCircle
 10
-585.4999597999677
 20
1610.036642058459
 30
0.0
 40
20.0
  0
CIRCLE
  5
DE07A
330
DEA8B
100
AcDbEntity
  8
0
100
AcDbCircle
 10
-585.4999597999677
 20
1374.036642058455
 30
0.0
 40
20.0
  0
CIRCLE
  5
DE07B
330
DEA8B
100
AcDbEntity
  8
0
100
AcDbCircle
 10
-585.4999597999677
 20
2082.036642058466
 30
0.0
 40
20.0
  0
CIRCLE
  5
DE07E
330
DEA8B
100
AcDbEntity
  8
0
100
AcDbCircle
 10
-585.4999597999672
 20
2377.036642058481
 30
0.0
 40
20.0
  0
CIRCLE
  5
DE07F
330
DEA8B
100
AcDbEntity
  8
0
100
AcDbCircle
 10
-585.4999597999672
 20
2259.036642058479
 30
0.0
 40
20.0
  0
CIRCLE
  5
DE080
330
DEA8B
100
AcDbEntity
  8
0
100
AcDbCircle
 10
-1764.499959799983
 20
2259.036642058458
 30
0.0
 40
20.0
  0
CIRCLE
  5
DE081
330
DEA8B
100
AcDbEntity
  8
0
100
AcDbCircle
 10
-1764.499959799983
 20
2377.03664205846
 30
0.0
 40
20.0
  0
CIRCLE
  5
DE082
330
DEA8B
100
AcDbEntity
  8
0
100
AcDbCircle
 10
-1764.499959799983
 20
2141.036642058456
 30
0.0
 40
20.0
  0
CIRCLE
  5
DE083
330
DEA8B
100
AcDbEntity
  8
0
100
AcDbCircle
 10
-1764.499959799983
 20
2023.036642058455
 30
0.0
 40
20.0
  0
CIRCLE
  5
DE084
330
DEA8B
100
AcDbEntity
  8
0
100
AcDbCircle
 10
-3043.49995979998
 20
1551.036642058446
 30
0.0
 40
20.0
  0
CIRCLE
  5
DE085
330
DEA8B
100
AcDbEntity
  8
0
100
AcDbCircle
 10
-3043.49995979998
 20
1669.036642058447
 30
0.0
 40
20.0
  0
CIRCLE
  5
DE086
330
DEA8B
100
AcDbEntity
  8
0
100
AcDbCircle
 10
-3043.49995979998
 20
1905.036642058451
 30
0.0
 40
20.0
  0
CIRCLE
  5
DE087
330
DEA8B
100
AcDbEntity
  8
0
100
AcDbCircle
 10
-3043.49995979998
 20
1787.036642058449
 30
0.0
 40
20.0
  0
CIRCLE
  5
DE088
330
DEA8B
100
AcDbEntity
  8
0
100
AcDbCircle
 10
-3043.499959799979
 20
1374.036642058443
 30
0.0
 40
20.0
  0
LWPOLYLINE
  5
DEB20
330
DEA8B
100
AcDbEntity
  8
0
100
AcDbPolyline
 90
        4
 70
     1
 43
0.0
 10
4584.271840740572
 20
5604.657866880792
 10
11285.53320454078
 20
5604.657866880794
 10
11285.53320454078
 20
554.0366420584473
 10
4584.271840740572
 20
554.0366420584455
  0
TEXT
  5
DEB6A
330
DEA8B
100
AcDbEntity
  8
0
100
AcDbText
 10
4706.893762130599
 20
5321.745081621697
 30
0.0
 40
100.0
  1
Configuration examples /Esempi di configurazione / Beispiele für Konfigurationen
  7
STILE1
100
AcDbText
  0
LWPOLYLINE
  5
DEB96
330
DEA8B
100
AcDbEntity
  8
0
100
AcDbPolyline
 90
        4
 70
     1
 43
0.0
 10
6735.814987944528
 20
4629.657866880794
 10
6735.814987944528
 20
4642.657866880796
 10
7564.814987944529
 20
4642.657866880796
 10
7564.814987944529
 20
4629.657866880794
  0
LWPOLYLINE
  5
DEB97
330
DEA8B
100
AcDbEntity
  8
0
100
AcDbPolyline
 90
        4
 70
     1
 43
0.0
 10
6760.814987944528
 20
4599.657866880798
 10
6760.814987944528
 20
4629.657866880794
 10
7539.814987944529
 20
4629.657866880794
 10
7539.814987944529
 20
4599.657866880798
  0
LWPOLYLINE
  5
DEB98
330
DEA8B
100
AcDbEntity
  8
0
100
AcDbPolyline
 90
        4
 70
     1
 43
0.0
 10
7539.814987944529
 20
3829.657866880797
 10
7539.814987944529
 20
4629.657866880794
 10
7564.814987944529
 20
4629.657866880794
 10
7564.814987944529
 20
3829.657866880797
  0
LWPOLYLINE
  5
DEB99
330
DEA8B
100
AcDbEntity
  8
0
100
AcDbPolyline
 90
        4
 70
     1
 43
0.0
 10
6735.814987944528
 20
3829.657866880797
 10
6735.814987944528
 20
4629.657866880794
 10
6760.814987944528
 20
4629.657866880794
 10
6760.814987944528
 20
3829.657866880797
  0
LWPOLYLINE
  5
DEB9A
330
DEA8B
100
AcDbEntity
  8
0
100
AcDbPolyline
 90
        4
 70
     1
 43
0.0
 10
6735.814987944528
 20
3789.657866880797
 10
6735.814987944528
 20
3829.657866880797
 10
7564.814987944529
 20
3829.657866880797
 10
7564.814987944529
 20
3789.657866880797
  0
LWPOLYLINE
  5
DEB9B
330
DEA8B
100
AcDbEntity
  8
0
100
AcDbPolyline
 90
        4
 70
     1
 43
0.0
 10
6760.814987944528
 20
3829.657866880797
 10
6760.814987944528
 20
3891.657866880797
 10
7539.814987944529
 20
3891.657866880797
 10
7539.814987944529
 20
3829.657866880797
  0
LWPOLYLINE
  5
DEB9C
330
DEA8B
100
AcDbEntity
  8
0
100
AcDbPolyline
 90
        4
 70
     1
 43
0.0
 10
6760.814987944528
 20
4599.657866880798
 10
7539.814987944529
 20
4599.657866880798
 10
7539.814987944529
 20
4481.657866880794
 10
6760.814987944528
 20
4481.657866880794
  0
LWPOLYLINE
  5
DEB9D
330
DEA8B
100
AcDbEntity
  8
0
100
AcDbPolyline
 90
        4
 70
     1
 43
0.0
 10
6760.814987944528
 20
4481.657866880794
 10
7539.814987944529
 20
4481.657866880794
 10
7539.814987944529
 20
4363.657866880792
 10
6760.814987944528
 20
4363.657866880792
  0
LWPOLYLINE
  5
DEB9E
330
DEA8B
100
AcDbEntity
  8
0
100
AcDbPolyline
 90
        4
 70
     1
 43
0.0
 10
6760.814987944528
 20
4245.657866880791
 10
7539.814987944529
 20
4245.657866880791
 10
7539.814987944529
 20
4127.657866880788
 10
6760.814987944528
 20
4127.657866880788
  0
LWPOLYLINE
  5
DEB9F
330
DEA8B
100
AcDbEntity
  8
0
100
AcDbPolyline
 90
        4
 70
     1
 43
0.0
 10
6760.814987944528
 20
4363.657866880792
 10
7539.814987944529
 20
4363.657866880792
 10
7539.814987944529
 20
4245.657866880791
 10
6760.814987944528
 20
4245.657866880791
  0
LWPOLYLINE
  5
DEBA0
330
DEA8B
100
AcDbEntity
  8
0
100
AcDbPolyline
 90
        4
 70
     1
 43
0.0
 10
6760.814987944528
 20
4127.657866880788
 10
7539.814987944529
 20
4127.657866880788
 10
7539.814987944529
 20
4009.657866880787
 10
6760.814987944528
 20
4009.657866880787
  0
LWPOLYLINE
  5
DEBA1
330
DEA8B
100
AcDbEntity
  8
0
100
AcDbPolyline
 90
        4
 70
     1
 43
0.0
 10
6760.814987944528
 20
4009.657866880787
 10
7539.814987944529
 20
4009.657866880787
 10
7539.814987944529
 20
3891.657866880785
 10
6760.814987944528
 20
3891.657866880785
  0
CIRCLE
  5
DEBA2
330
DEA8B
100
AcDbEntity
  8
0
100
AcDbCircle
 10
7150.314987944528
 20
3950.657866880792
 30
0.0
 40
20.0
  0
CIRCLE
  5
DEBA3
330
DEA8B
100
AcDbEntity
  8
0
100
AcDbCircle
 10
7150.314987944528
 20
4068.657866880794
 30
0.0
 40
20.0
  0
CIRCLE
  5
DEBA4
330
DEA8B
100
AcDbEntity
  8
0
100
AcDbCircle
 10
7150.314987944528
 20
4304.657866880798
 30
0.0
 40
20.0
  0
CIRCLE
  5
DEBA5
330
DEA8B
100
AcDbEntity
  8
0
100
AcDbCircle
 10
7150.314987944528
 20
4186.657866880796
 30
0.0
 40
20.0
  0
CIRCLE
  5
DEBA6
330
DEA8B
100
AcDbEntity
  8
0
100
AcDbCircle
 10
7150.314987944528
 20
4422.6578668808
 30
0.0
 40
20.0
  0
CIRCLE
  5
DEBA7
330
DEA8B
100
AcDbEntity
  8
0
100
AcDbCircle
 10
7150.314987944528
 20
4540.657866880802
 30
0.0
 40
20.0
  0
LWPOLYLINE
  5
DEC3A
330
DEA8B
100
AcDbEntity
  8
0
100
AcDbPolyline
 90
        4
 70
     1
 43
0.0
 10
6785.814987944468
 20
3679.657866880883
 10
6785.814987944468
 20
3759.657866880768
 10
6765.81498794447
 20
3759.657866880768
 10
6765.81498794447
 20
3679.657866880883
  0
LWPOLYLINE
  5
DEC3B
330
DEA8B
100
AcDbEntity
  8
0
100
AcDbPolyline
 90
        8
 70
     1
 43
0.0
 10
6788.814987944468
 20
3710.177010897622
 10
6790.81498794447
 20
3710.177010897622
 10
6790.81498794447
 20
3784.657866880855
 10
6760.814987944468
 20
3784.657866880855
 10
6760.814987944468
 20
3710.177010897622
 10
6762.814987944468
 20
3710.177010897622
 10
6762.814987944468
 20
3762.657866880767
 10
6788.814987944468
 20
3762.657866880767
  0
LWPOLYLINE
  5
DEC3C
330
DEA8B
100
AcDbEntity
  8
0
100
AcDbPolyline
 90
        4
 70
     1
 43
0.0
 10
6783.317356978692
 20
3784.657866880855
 10
6783.317356978692
 20
3789.657866880797
 10
6768.312618910366
 20
3789.657866880797
 10
6768.312618910366
 20
3784.657866880855
  0
LWPOLYLINE
  5
DEC3D
330
DEA8B
100
AcDbEntity
  8
0
100
AcDbPolyline
 90
        4
 70
     1
 43
0.0
 10
7517.312618910366
 20
3784.657866880769
 10
7517.312618910366
 20
3789.657866880797
 10
7532.31735697869
 20
3789.657866880797
 10
7532.31735697869
 20
3784.657866880769
  0
LWPOLYLINE
  5
DEC3E
330
DEA8B
100
AcDbEntity
  8
0
100
AcDbPolyline
 90
        8
 70
     1
 43
0.0
 10
7511.814987944585
 20
3710.177010897536
 10
7509.814987944585
 20
3710.177010897536
 10
7509.814987944585
 20
3784.657866880769
 10
7539.814987944586
 20
3784.657866880769
 10
7539.814987944586
 20
3710.177010897536
 10
7537.814987944586
 20
3710.177010897536
 10
7537.814987944586
 20
3762.657866880767
 10
7511.814987944585
 20
3762.657866880767
  0
LWPOLYLINE
  5
DEC3F
330
DEA8B
100
AcDbEntity
  8
0
100
AcDbPolyline
 90
        4
 70
     1
 43
0.0
 10
7514.814987944585
 20
3679.657866880883
 10
7514.814987944585
 20
3759.657866880767
 10
7534.814987944585
 20
3759.657866880767
 10
7534.814987944585
 20
3679.657866880883
  0
LINE
  5
DEC6B
330
DEA8B
100
AcDbEntity
  8
0
100
AcDbLine
 10
8390.273871054807
 20
3764.087866880735
 30
0.0
 11
8435.273871054807
 21
3771.087866880735
 31
0.0
  0
LINE
  5
DEC6C
330
DEA8B
100
AcDbEntity
  8
0
100
AcDbLine
 10
8390.273871054807
 20
3764.087866880735
 30
0.0
 11
8380.273871054807
 21
3764.087866880735
 31
0.0
  0
LINE
  5
DEC6D
330
DEA8B
100
AcDbEntity
  8
0
100
AcDbLine
 10
8380.273871054807
 20
3764.087866880735
 30
0.0
 11
8380.273871054807
 21
3762.087866880735
 31
0.0
  0
LINE
  5
DEC6E
330
DEA8B
100
AcDbEntity
  8
0
100
AcDbLine
 10
8380.273871054807
 20
3762.087866880735
 30
0.0
 11
8395.273871054807
 21
3762.087866880735
 31
0.0
  0
LINE
  5
DEC6F
330
DEA8B
100
AcDbEntity
  8
0
100
AcDbLine
 10
8395.273871054807
 20
3762.087866880735
 30
0.0
 11
8434.196782058621
 21
3758.776683319075
 31
0.0
  0
LINE
  5
DEC70
330
DEA8B
100
AcDbEntity
  8
0
100
AcDbLine
 10
8513.12296005671
 20
3766.637508671335
 30
0.0
 11
8513.12296005671
 21
3775.107866880736
 31
0.0
  0
LINE
  5
DEC71
330
DEA8B
100
AcDbEntity
  8
0
100
AcDbLine
 10
8447.12296005671
 20
3775.107866880736
 30
0.0
 11
8447.12296005671
 21
3771.087866880735
 31
0.0
  0
LINE
  5
DEC72
330
DEA8B
100
AcDbEntity
  8
0
100
AcDbLine
 10
8465.54403809661
 20
3717.621566417735
 30
0.0
 11
8492.35672800491
 21
3753.203207714235
 31
0.0
  0
LINE
  5
DEC73
330
DEA8B
100
AcDbEntity
  8
0
100
AcDbLine
 10
8432.12296005671
 20
3735.072789370935
 30
0.0
 11
8434.967660732516
 21
3767.587866880735
 31
0.0
  0
LINE
  5
DEC74
330
DEA8B
100
AcDbEntity
  8
0
100
AcDbLine
 10
8435.273871054807
 20
3771.087866880735
 30
0.0
 11
8447.12296005671
 21
3771.087866880735
 31
0.0
  0
LINE
  5
DEC75
330
DEA8B
100
AcDbEntity
  8
0
100
AcDbLine
 10
8434.967660732516
 20
3767.587866880735
 30
0.0
 11
8435.273871054807
 21
3771.087866880735
 31
0.0
  0
LINE
  5
DEC76
330
DEA8B
100
AcDbEntity
  8
0
100
AcDbLine
 10
8449.571327895603
 20
3709.657866880735
 30
0.0
 11
8441.692960056716
 21
3709.657866880735
 31
0.0
  0
ARC
  5
DEC77
330
DEA8B
100
AcDbEntity
  8
0
100
AcDbCircle
 10
8441.692960056716
 20
3719.657866880735
 30
0.0
 40
9.999999999999892
100
AcDbArc
 50
196.8632195997557
 51
270.0
  0
LINE
  5
DEC78
330
DEA8B
100
AcDbEntity
  8
0
100
AcDbLine
 10
8432.12296005671
 20
3735.072789370935
 30
0.0
 11
8432.12296005671
 21
3716.756987703636
 31
0.0
  0
ARC
  5
DEC79
330
DEA8B
100
AcDbEntity
  8
0
100
AcDbCircle
 10
8443.12296005671
 20
3719.657866880735
 30
0.0
 40
40.00000000000003
100
AcDbArc
 50
102.9111031049041
 51
180.0
  0
ARC
  5
DEC7A
330
DEA8B
100
AcDbEntity
  8
0
100
AcDbCircle
 10
8443.12296005671
 20
3719.657866880735
 30
0.0
 40
40.00000000000003
100
AcDbArc
 50
180.0
 51
24.42598433980238
  0
ARC
  5
DEC7B
330
DEA8B
100
AcDbEntity
  8
0
100
AcDbCircle
 10
8443.12296005671
 20
3719.657866880735
 30
0.0
 40
24.05045641402504
100
AcDbArc
 50
115.7633306377853
 51
180.0
  0
ARC
  5
DEC7C
330
DEA8B
100
AcDbEntity
  8
0
100
AcDbCircle
 10
8443.12296005671
 20
3719.657866880735
 30
0.0
 40
24.05045641402504
100
AcDbArc
 50
180.0
 51
0.2990367185986613
  0
LINE
  5
DEC7D
330
DEA8B
100
AcDbEntity
  8
0
100
AcDbLine
 10
8492.35672800491
 20
3753.203207714235
 30
0.0
 11
8513.12296005671
 21
3766.637508671335
 31
0.0
  0
CIRCLE
  5
DEC7E
330
DEA8B
100
AcDbEntity
  8
0
100
AcDbCircle
 10
8443.12296005671
 20
3719.657866880735
 30
0.0
 40
6.5
  0
LINE
  5
DEC7F
330
DEA8B
100
AcDbEntity
  8
0
100
AcDbLine
 10
8449.571327895603
 20
3709.657866880735
 30
0.0
 11
8465.54403809661
 21
3717.621566417735
 31
0.0
  0
ARC
  5
DEC80
330
DEA8B
100
AcDbEntity
  8
0
100
AcDbCircle
 10
8443.12296005671
 20
3719.657866880735
 30
0.0
 40
13.99999999999864
100
AcDbArc
 50
141.786789298269
 51
328.8541418873019
  0
LWPOLYLINE
  5
DEC81
330
DEA8B
100
AcDbEntity
  8
0
100
AcDbPolyline
 90
        4
 70
     1
 43
0.0
 10
8430.12296005671
 20
3789.657866880797
 10
8530.12296005671
 20
3789.657866880797
 10
8530.12296005671
 20
3787.157866880797
 10
8430.12296005671
 20
3787.157866880797
  0
LWPOLYLINE
  5
DEC82
330
DEA8B
100
AcDbEntity
  8
0
100
AcDbPolyline
 90
        4
 70
     1
 43
0.0
 10
8444.122960057408
 20
3787.157866880797
 10
8445.621739393413
 20
3775.107866880736
 10
8514.624180720006
 20
3775.107866880736
 10
8516.122960056011
 20
3787.157866880797
  0
LINE
  5
DEC83
330
DEA8B
100
AcDbEntity
  8
0
100
AcDbLine
 10
9013.12296005671
 20
3766.637508671335
 30
0.0
 11
9013.12296005671
 21
3775.107866880736
 31
0.0
  0
LINE
  5
DEC84
330
DEA8B
100
AcDbEntity
  8
0
100
AcDbLine
 10
8947.12296005671
 20
3775.107866880736
 30
0.0
 11
8947.12296005671
 21
3771.087866880735
 31
0.0
  0
LINE
  5
DEC85
330
DEA8B
100
AcDbEntity
  8
0
100
AcDbLine
 10
8965.54403809661
 20
3717.621566417735
 30
0.0
 11
8992.35672800491
 21
3753.203207714235
 31
0.0
  0
LINE
  5
DEC86
330
DEA8B
100
AcDbEntity
  8
0
100
AcDbLine
 10
8932.12296005671
 20
3735.072789370935
 30
0.0
 11
8934.967660732516
 21
3767.587866880735
 31
0.0
  0
LINE
  5
DEC87
330
DEA8B
100
AcDbEntity
  8
0
100
AcDbLine
 10
8935.273871054807
 20
3771.087866880735
 30
0.0
 11
8947.12296005671
 21
3771.087866880735
 31
0.0
  0
LINE
  5
DEC88
330
DEA8B
100
AcDbEntity
  8
0
100
AcDbLine
 10
8934.967660732516
 20
3767.587866880735
 30
0.0
 11
8935.273871054807
 21
3771.087866880735
 31
0.0
  0
LINE
  5
DEC89
330
DEA8B
100
AcDbEntity
  8
0
100
AcDbLine
 10
8949.571327895603
 20
3709.657866880735
 30
0.0
 11
8941.692960056716
 21
3709.657866880735
 31
0.0
  0
ARC
  5
DEC8A
330
DEA8B
100
AcDbEntity
  8
0
100
AcDbCircle
 10
8941.692960056716
 20
3719.657866880735
 30
0.0
 40
9.999999999999892
100
AcDbArc
 50
196.8632195997582
 51
270.0
  0
LINE
  5
DEC8B
330
DEA8B
100
AcDbEntity
  8
0
100
AcDbLine
 10
8932.12296005671
 20
3735.072789370935
 30
0.0
 11
8932.12296005671
 21
3716.756987703636
 31
0.0
  0
ARC
  5
DEC8C
330
DEA8B
100
AcDbEntity
  8
0
100
AcDbCircle
 10
8943.12296005671
 20
3719.657866880735
 30
0.0
 40
40.00000000000003
100
AcDbArc
 50
102.9111031049041
 51
180.0
  0
ARC
  5
DEC8D
330
DEA8B
100
AcDbEntity
  8
0
100
AcDbCircle
 10
8943.12296005671
 20
3719.657866880735
 30
0.0
 40
40.00000000000003
100
AcDbArc
 50
180.0
 51
24.42598433980238
  0
ARC
  5
DEC8E
330
DEA8B
100
AcDbEntity
  8
0
100
AcDbCircle
 10
8943.12296005671
 20
3719.657866880735
 30
0.0
 40
24.05045641402504
100
AcDbArc
 50
115.7633306377853
 51
180.0
  0
ARC
  5
DEC8F
330
DEA8B
100
AcDbEntity
  8
0
100
AcDbCircle
 10
8943.12296005671
 20
3719.657866880735
 30
0.0
 40
24.05045641402504
100
AcDbArc
 50
180.0
 51
0.2990367185986613
  0
LINE
  5
DEC90
330
DEA8B
100
AcDbEntity
  8
0
100
AcDbLine
 10
8992.35672800491
 20
3753.203207714235
 30
0.0
 11
9013.12296005671
 21
3766.637508671335
 31
0.0
  0
CIRCLE
  5
DEC91
330
DEA8B
100
AcDbEntity
  8
0
100
AcDbCircle
 10
8943.12296005671
 20
3719.657866880735
 30
0.0
 40
6.5
  0
LINE
  5
DEC92
330
DEA8B
100
AcDbEntity
  8
0
100
AcDbLine
 10
8949.571327895603
 20
3709.657866880735
 30
0.0
 11
8965.54403809661
 21
3717.621566417735
 31
0.0
  0
ARC
  5
DEC93
330
DEA8B
100
AcDbEntity
  8
0
100
AcDbCircle
 10
8943.12296005671
 20
3719.657866880735
 30
0.0
 40
13.99999999999864
100
AcDbArc
 50
141.786789298269
 51
328.8541418873019
  0
LWPOLYLINE
  5
DEC94
330
DEA8B
100
AcDbEntity
  8
0
100
AcDbPolyline
 90
        4
 70
     1
 43
0.0
 10
8930.12296005671
 20
3789.657866880797
 10
9030.12296005671
 20
3789.657866880797
 10
9030.12296005671
 20
3787.157866880797
 10
8930.12296005671
 20
3787.157866880797
  0
LWPOLYLINE
  5
DEC95
330
DEA8B
100
AcDbEntity
  8
0
100
AcDbPolyline
 90
        4
 70
     1
 43
0.0
 10
8944.122960057408
 20
3787.157866880797
 10
8945.621739393413
 20
3775.107866880736
 10
9014.624180720006
 20
3775.107866880736
 10
9016.122960056011
 20
3787.157866880797
  0
LWPOLYLINE
  5
DECB2
330
DEA8B
100
AcDbEntity
  8
0
100
AcDbPolyline
 90
        4
 70
     1
 43
0.0
 10
8430.12296005671
 20
3789.657866880797
 10
8430.12296005671
 20
4629.657866880797
 10
9030.12296005671
 20
4629.657866880797
 10
9030.12296005671
 20
3789.657866880797
  0
LWPOLYLINE
  5
DECB3
330
DEA8B
100
AcDbEntity
  8
0
100
AcDbPolyline
 90
        4
 70
     1
 43
0.0
 10
8430.12296005671
 20
4629.657866880797
 10
8430.12296005671
 20
4642.657866880797
 10
9030.12296005671
 20
4642.657866880797
 10
9030.12296005671
 20
4629.657866880797
  0
LWPOLYLINE
  5
DECE2
330
DEA8B
100
AcDbEntity
  8
0
100
AcDbPolyline
 90
        4
 70
     1
 43
0.0
 10
6735.814987944529
 20
2093.726029647274
 10
6735.814987944529
 20
2106.726029647276
 10
7564.81498794453
 20
2106.726029647276
 10
7564.81498794453
 20
2093.726029647274
  0
LWPOLYLINE
  5
DECE3
330
DEA8B
100
AcDbEntity
  8
0
100
AcDbPolyline
 90
        4
 70
     1
 43
0.0
 10
6760.814987944529
 20
2063.726029647278
 10
6760.814987944529
 20
2093.726029647274
 10
7539.81498794453
 20
2093.726029647274
 10
7539.81498794453
 20
2063.726029647278
  0
LWPOLYLINE
  5
DECE4
330
DEA8B
100
AcDbEntity
  8
0
100
AcDbPolyline
 90
        4
 70
     1
 43
0.0
 10
7539.81498794453
 20
1293.726029647277
 10
7539.81498794453
 20
2093.726029647274
 10
7564.81498794453
 20
2093.726029647274
 10
7564.81498794453
 20
1293.726029647277
  0
LWPOLYLINE
  5
DECE5
330
DEA8B
100
AcDbEntity
  8
0
100
AcDbPolyline
 90
        4
 70
     1
 43
0.0
 10
6735.814987944529
 20
1293.726029647277
 10
6735.814987944529
 20
2093.726029647274
 10
6760.814987944529
 20
2093.726029647274
 10
6760.814987944529
 20
1293.726029647277
  0
LWPOLYLINE
  5
DECE6
330
DEA8B
100
AcDbEntity
  8
0
100
AcDbPolyline
 90
        4
 70
     1
 43
0.0
 10
6735.814987944529
 20
1253.726029647277
 10
6735.814987944529
 20
1293.726029647277
 10
7564.81498794453
 20
1293.726029647277
 10
7564.81498794453
 20
1253.726029647277
  0
LWPOLYLINE
  5
DECE7
330
DEA8B
100
AcDbEntity
  8
0
100
AcDbPolyline
 90
        4
 70
     1
 43
0.0
 10
6760.814987944529
 20
1293.726029647277
 10
6760.814987944529
 20
1355.726029647277
 10
7539.81498794453
 20
1355.726029647277
 10
7539.81498794453
 20
1293.726029647277
  0
LWPOLYLINE
  5
DECE8
330
DEA8B
100
AcDbEntity
  8
0
100
AcDbPolyline
 90
        4
 70
     1
 43
0.0
 10
6760.814987944529
 20
2063.726029647278
 10
7539.81498794453
 20
2063.726029647278
 10
7539.81498794453
 20
1945.726029647274
 10
6760.814987944529
 20
1945.726029647274
  0
LWPOLYLINE
  5
DECE9
330
DEA8B
100
AcDbEntity
  8
0
100
AcDbPolyline
 90
        4
 70
     1
 43
0.0
 10
6760.814987944529
 20
1945.726029647274
 10
7539.81498794453
 20
1945.726029647274
 10
7539.81498794453
 20
1827.726029647272
 10
6760.814987944529
 20
1827.726029647272
  0
LWPOLYLINE
  5
DECEA
330
DEA8B
100
AcDbEntity
  8
0
100
AcDbPolyline
 90
        4
 70
     1
 43
0.0
 10
6760.814987944529
 20
1709.72602964727
 10
7539.81498794453
 20
1709.72602964727
 10
7539.81498794453
 20
1591.726029647268
 10
6760.814987944529
 20
1591.726029647268
  0
LWPOLYLINE
  5
DECEB
330
DEA8B
100
AcDbEntity
  8
0
100
AcDbPolyline
 90
        4
 70
     1
 43
0.0
 10
6760.814987944529
 20
1827.726029647272
 10
7539.81498794453
 20
1827.726029647272
 10
7539.81498794453
 20
1709.72602964727
 10
6760.814987944529
 20
1709.72602964727
  0
LWPOLYLINE
  5
DECEC
330
DEA8B
100
AcDbEntity
  8
0
100
AcDbPolyline
 90
        4
 70
     1
 43
0.0
 10
6760.814987944529
 20
1591.726029647268
 10
7539.81498794453
 20
1591.726029647268
 10
7539.81498794453
 20
1473.726029647267
 10
6760.814987944529
 20
1473.726029647267
  0
LWPOLYLINE
  5
DECED
330
DEA8B
100
AcDbEntity
  8
0
100
AcDbPolyline
 90
        4
 70
     1
 43
0.0
 10
6760.814987944529
 20
1473.726029647267
 10
7539.81498794453
 20
1473.726029647267
 10
7539.81498794453
 20
1355.726029647265
 10
6760.814987944529
 20
1355.726029647265
  0
CIRCLE
  5
DECEE
330
DEA8B
100
AcDbEntity
  8
0
100
AcDbCircle
 10
7150.314987944529
 20
1414.726029647272
 30
0.0
 40
20.0
  0
CIRCLE
  5
DECEF
330
DEA8B
100
AcDbEntity
  8
0
100
AcDbCircle
 10
7150.314987944529
 20
1532.726029647274
 30
0.0
 40
20.0
  0
CIRCLE
  5
DECF0
330
DEA8B
100
AcDbEntity
  8
0
100
AcDbCircle
 10
7150.314987944529
 20
1768.726029647278
 30
0.0
 40
20.0
  0
CIRCLE
  5
DECF1
330
DEA8B
100
AcDbEntity
  8
0
100
AcDbCircle
 10
7150.314987944529
 20
1650.726029647276
 30
0.0
 40
20.0
  0
CIRCLE
  5
DECF2
330
DEA8B
100
AcDbEntity
  8
0
100
AcDbCircle
 10
7150.314987944529
 20
1886.726029647279
 30
0.0
 40
20.0
  0
CIRCLE
  5
DECF3
330
DEA8B
100
AcDbEntity
  8
0
100
AcDbCircle
 10
7150.314987944529
 20
2004.726029647281
 30
0.0
 40
20.0
  0
LWPOLYLINE
  5
DECF4
330
DEA8B
100
AcDbEntity
  8
0
100
AcDbPolyline
 90
        4
 70
     1
 43
0.0
 10
8430.12296005671
 20
1253.726029647277
 10
8430.12296005671
 20
2093.726029647277
 10
9030.12296005671
 20
2093.726029647277
 10
9030.12296005671
 20
1253.726029647277
  0
LWPOLYLINE
  5
DECF5
330
DEA8B
100
AcDbEntity
  8
0
100
AcDbPolyline
 90
        4
 70
     1
 43
0.0
 10
8430.12296005671
 20
2093.726029647277
 10
8430.12296005671
 20
2106.726029647277
 10
9030.12296005671
 20
2106.726029647277
 10
9030.12296005671
 20
2093.726029647277
  0
LWPOLYLINE
  5
DED14
330
DEA8B
100
AcDbEntity
  8
0
100
AcDbPolyline
 90
        4
 70
     0
 43
0.0
 10
6793.314987944529
 20
1234.192698531547
 10
6793.314987944529
 20
1253.726029647277
 10
6771.314987944529
 20
1253.726029647277
 10
6771.314987944529
 20
1234.192698531547
1001
PE_URL
1000

  0
LWPOLYLINE
  5
DED15
330
DEA8B
100
AcDbEntity
  8
0
100
AcDbPolyline
 90
        4
 70
     1
 43
0.0
 10
6771.314987944529
 20
1234.192698531547
 10
6771.314987944529
 20
1153.726029647277
 10
6760.814987944529
 20
1153.726029647277
 10
6760.814987944529
 20
1234.192698531547
1001
PE_URL
1000

  0
LWPOLYLINE
  5
DED16
330
DEA8B
100
AcDbEntity
  8
0
100
AcDbPolyline
 90
        4
 70
     1
 43
0.0
 10
6793.314987944529
 20
1234.192698531547
 10
6793.314987944529
 20
1153.726029647277
 10
6803.814987944529
 20
1153.726029647277
 10
6803.814987944529
 20
1234.192698531547
1001
PE_URL
1000

  0
LINE
  5
DED17
330
DEA8B
100
AcDbEntity
  8
0
100
AcDbLine
 10
6771.314987944529
 20
1232.192698531547
 30
0.0
 11
6793.314987944529
 21
1232.192698531547
 31
0.0
1001
PE_URL
1000

  0
LWPOLYLINE
  5
DED18
330
DEA8B
100
AcDbEntity
  8
0
100
AcDbPolyline
 90
        4
 70
     0
 43
0.0
 10
7529.31498794453
 20
1234.192698531547
 10
7529.31498794453
 20
1253.726029647277
 10
7507.31498794453
 20
1253.726029647277
 10
7507.31498794453
 20
1234.192698531547
1001
PE_URL
1000

  0
LWPOLYLINE
  5
DED19
330
DEA8B
100
AcDbEntity
  8
0
100
AcDbPolyline
 90
        4
 70
     1
 43
0.0
 10
7507.31498794453
 20
1234.192698531547
 10
7507.31498794453
 20
1153.726029647277
 10
7496.81498794453
 20
1153.726029647277
 10
7496.81498794453
 20
1234.192698531547
1001
PE_URL
1000

  0
LWPOLYLINE
  5
DED1A
330
DEA8B
100
AcDbEntity
  8
0
100
AcDbPolyline
 90
        4
 70
     1
 43
0.0
 10
7529.31498794453
 20
1234.192698531547
 10
7529.31498794453
 20
1153.726029647277
 10
7539.81498794453
 20
1153.726029647277
 10
7539.81498794453
 20
1234.192698531547
1001
PE_URL
1000

  0
LINE
  5
DED1B
330
DEA8B
100
AcDbEntity
  8
0
100
AcDbLine
 10
7507.31498794453
 20
1232.192698531547
 30
0.0
 11
7529.31498794453
 21
1232.192698531547
 31
0.0
1001
PE_URL
1000

  0
LINE
  5
DED1C
330
DEA8B
100
AcDbEntity
  8
0
100
AcDbLine
 10
6771.314987944529
 20
1155.726029647277
 30
0.0
 11
6793.314987944529
 21
1155.726029647277
 31
0.0
1001
PE_URL
1000

  0
LINE
  5
DED1D
330
DEA8B
100
AcDbEntity
  8
0
100
AcDbLine
 10
7507.31498794453
 20
1155.726029647277
 30
0.0
 11
7529.31498794453
 21
1155.726029647277
 31
0.0
1001
PE_URL
1000

  0
LWPOLYLINE
  5
DED3C
330
DEA8B
100
AcDbEntity
  8
0
100
AcDbPolyline
 90
        4
 70
     0
 43
0.0
 10
8465.62296005671
 20
1230.342222739205
 10
8465.62296005671
 20
1253.726029647277
 10
8487.62296005671
 20
1253.726029647277
 10
8487.62296005671
 20
1202.923248680667
1001
PE_URL
1000

  0
CIRCLE
  5
DED3D
330
DEA8B
100
AcDbEntity
  8
0
100
AcDbCircle
 10
8448.37296005671
 20
1193.976029647266
 30
0.0
 40
38.00000000000004
1001
PE_URL
1000

  0
LINE
  5
DED3E
330
DEA8B
100
AcDbEntity
  8
0
100
AcDbLine
 10
8462.97617161541
 20
1231.503277661666
 30
0.0
 11
8462.977585660808
 21
1231.502781981167
 31
0.0
1001
PE_URL
1000

  0
CIRCLE
  5
DED3F
330
DEA8B
100
AcDbEntity
  8
0
100
AcDbCircle
 10
8448.37296005671
 20
1193.976029647266
 30
0.0
 40
40.25
1001
PE_URL
1000

  0
LWPOLYLINE
  5
DED40
330
DEA8B
100
AcDbEntity
  8
0
100
AcDbPolyline
 90
        7
 70
     0
 43
0.0
 10
8419.923964818867
 20
1222.449125193011
 10
8419.923964818867
 20
1223.976029647266
 10
8398.12296005671
 20
1223.976029647266
 10
8398.12296005671
 20
1218.976029647266
 10
8408.12296005671
 20
1218.976029647266
 10
8408.12296005671
 20
1203.976029647266
 10
8409.31049415614
 20
1203.680990119457
  0
LWPOLYLINE
  5
DED41
330
DEA8B
100
AcDbEntity
  8
0
100
AcDbPolyline
 90
        4
 70
     0
 43
0.0
 10
8972.62296005671
 20
1230.342222739206
 10
8972.62296005671
 20
1253.726029647277
 10
8994.62296005671
 20
1253.726029647277
 10
8994.62296005671
 20
1202.923248680667
1001
PE_URL
1000

  0
CIRCLE
  5
DED42
330
DEA8B
100
AcDbEntity
  8
0
100
AcDbCircle
 10
8955.37296005671
 20
1193.976029647266
 30
0.0
 40
38.00000000000004
1001
PE_URL
1000

  0
LINE
  5
DED43
330
DEA8B
100
AcDbEntity
  8
0
100
AcDbLine
 10
8969.97617161541
 20
1231.503277661666
 30
0.0
 11
8969.977585660808
 21
1231.502781981169
 31
0.0
1001
PE_URL
1000

  0
CIRCLE
  5
DED44
330
DEA8B
100
AcDbEntity
  8
0
100
AcDbCircle
 10
8955.37296005671
 20
1193.976029647266
 30
0.0
 40
40.25
1001
PE_URL
1000

  0
LWPOLYLINE
  5
DED45
330
DEA8B
100
AcDbEntity
  8
0
100
AcDbPolyline
 90
        7
 70
     0
 43
0.0
 10
8926.923964818867
 20
1222.449125193011
 10
8926.923964818867
 20
1223.976029647266
 10
8905.12296005671
 20
1223.976029647266
 10
8905.12296005671
 20
1218.976029647266
 10
8915.12296005671
 20
1218.976029647266
 10
8915.12296005671
 20
1203.976029647266
 10
8916.31049415614
 20
1203.680990119458
  0
VIEWPORT
  5
DAB74
330
DEA89
100
AcDbEntity
 67
     1
  8
0
100
AcDbViewport
 10
0.0
 20
0.0
 30
0.0
 40
10.87270777479893
 41
8.16
 68
     1
 69
     1
 12
6.065999999999998
 22
3.851238605898123
 13
0.0
 23
0.0
 14
0.5
 24
0.5
 15
0.0
 25
0.0
 16
0.0
 26
0.0
 36
1.0
 17
0.0
 27
0.0
 37
0.0
 42
50.0
 43
0.0
 44
0.0
 45
8.16
 50
0.0
 51
0.0
 72
   100
 90
   557296
  1

281
     0
 71
     0
 74
     0
110
0.0
120
0.0
130
0.0
111
1.0
121
0.0
131
0.0
112
0.0
122
1.0
132
0.0
 79
     0
146
0.0
170
     0
 61
     5
348
DEAE9
292
     1
282
     1
141
0.0
142
0.0
 63
   256
  0
VIEWPORT
  5
DAB75
330
DEA89
100
AcDbEntity
 67
     1
  8
0
100
AcDbViewport
 10
5.25
 20
4.0
 30
0.0
 40
8.4
 41
6.4
 68
     2
 69
     2
 12
-238.8342129778575
 22
5240.682605436173
 13
0.0
 23
0.0
 14
0.5
 24
0.5
 15
0.0
 25
0.0
 16
0.0
 26
0.0
 36
1.0
 17
0.0
 27
0.0
 37
0.0
 42
50.0
 43
0.0
 44
0.0
 45
12730.99251508979
 50
0.0
 51
0.0
 72
   100
 90
   557280
  1

281
     0
 71
     0
 74
     0
110
0.0
120
0.0
130
0.0
111
1.0
121
0.0
131
0.0
112
0.0
122
1.0
132
0.0
 79
     0
146
0.0
170
     0
 61
     5
348
DEAE9
292
     1
282
     1
141
0.0
142
0.0
 63
   256
  0
ENDSEC
  0
SECTION
  2
OBJECTS
  0
DICTIONARY
  5
DEA7B
330
0
100
AcDbDictionary
281
     1
  3
ACAD_COLOR
350
DEB5B
  3
ACAD_DETAILVIEWSTYLE
350
DEB0C
  3
ACAD_GROUP
350
DEA7C
  3
ACAD_LAYOUT
350
DEA88
  3
ACAD_MATERIAL
350
DEA91
  3
ACAD_MLEADERSTYLE
350
DEAFF
  3
ACAD_MLINESTYLE
350
DEA85
  3
ACAD_PLOTSETTINGS
350
DEA87
  3
ACAD_PLOTSTYLENAME
350
DEA7D
  3
ACAD_SCALELIST
350
DEAC2
  3
ACAD_SECTIONVIEWSTYLE
350
DEB0D
  3
ACAD_TABLESTYLE
350
DEAFD
  3
ACAD_VISUALSTYLE
350
DEAE4
  3
ACDB_RECOMPOSE_DATA
350
DED4C
  3
AcDbVariableDictionary
350
DEB07
  3
APPDATA
350
DEB01
  3
PRINTCONFIG
350
DED21
  0
SUN
  5
DEB0E
330
DEA8E
100
AcDbSun
 90
        1
290
     0
 63
     7
421
 16777215
 40
1.0
291
     1
 91
  2455826
 92
 54000000
292
     0
 70
     2
 71
   256
280
     1
  0
DICTIONARY
  5
DEB65
330
DEA72
100
AcDbDictionary
280
     1
281
     1
  3
ACAD_LAYERSTATES
360
DEB66
  0
DICTIONARY
  5
DEB05
330
DEA8B
100
AcDbDictionary
280
     1
281
     1
  3
DIM_BOUNDING_BOXES_V1
360
DEB06
  0
DICTIONARY
  5
DEB5B
102
{ACAD_REACTORS
330
DEA7B
102
}
330
DEA7B
100
AcDbDictionary
281
     1
  0
DICTIONARY
  5
DEB0C
102
{ACAD_REACTORS
330
DEA7B
102
}
330
DEA7B
100
AcDbDictionary
281
     1
  0
DICTIONARY
  5
DEA7C
102
{ACAD_REACTORS
330
DEA7B
102
}
330
DEA7B
100
AcDbDictionary
281
     1
  0
DICTIONARY
  5
DEA88
102
{ACAD_REACTORS
330
DEA7B
102
}
330
DEA7B
100
AcDbDictionary
281
     1
  3
Foglio1
350
DEA8A
  3
Model
350
DEA8C
  0
DICTIONARY
  5
DEA91
102
{ACAD_REACTORS
330
DEA7B
102
}
330
DEA7B
100
AcDbDictionary
281
     1
  3
ByBlock
350
DEA93
  3
ByLayer
350
DEA92
  3
Global
350
DEA94
  0
DICTIONARY
  5
DEAFF
102
{ACAD_REACTORS
330
DEA7B
102
}
330
DEA7B
100
AcDbDictionary
281
     1
  3
Standard
350
DEB00
  0
DICTIONARY
  5
DEA85
102
{ACAD_REACTORS
330
DEA7B
102
}
330
DEA7B
100
AcDbDictionary
281
     1
  3
Standard
350
DEA86
  0
DICTIONARY
  5
DEA87
102
{ACAD_REACTORS
330
DEA7B
102
}
330
DEA7B
100
AcDbDictionary
281
     1
  0
ACDBDICTIONARYWDFLT
  5
DEA7D
102
{ACAD_REACTORS
330
DEA7B
102
}
330
DEA7B
100
AcDbDictionary
281
     1
  3
Normal
350
DEA7E
100
AcDbDictionaryWithDefault
340
DEA7E
  0
DICTIONARY
  5
DEAC2
102
{ACAD_REACTORS
330
DEA7B
102
}
330
DEA7B
100
AcDbDictionary
281
     1
  3
A0
350
DEAC3
  3
A1
350
DEAC4
  3
A2
350
DEAC5
  3
A3
350
DEAC6
  3
A4
350
DEAC7
  3
A5
350
DEAC8
  3
A6
350
DEAC9
  3
A7
350
DEACA
  3
A8
350
DEACB
  3
A9
350
DEACC
  3
B0
350
DEACD
  3
B1
350
DEACE
  3
B2
350
DEACF
  3
B3
350
DEAD0
  3
B4
350
DEAD1
  3
B5
350
DEAD2
  3
B6
350
DEAD3
  3
B7
350
DEAD4
  3
B8
350
DEAD5
  3
B9
350
DEAD6
  3
C0
350
DEAD7
  3
C1
350
DEAD8
  3
C2
350
DEAD9
  3
C3
350
DEADA
  3
C4
350
DEADB
  3
C5
350
DEADC
  3
C6
350
DEADD
  3
C7
350
DEADE
  3
C8
350
DEADF
  3
C9
350
DEAE0
  3
D0
350
DEAE1
  3
D1
350
DEAE2
  3
D2
350
DEAE3
  0
DICTIONARY
  5
DEB0D
102
{ACAD_REACTORS
330
DEA7B
102
}
330
DEA7B
100
AcDbDictionary
281
     1
  0
DICTIONARY
  5
DEAFD
102
{ACAD_REACTORS
330
DEA7B
102
}
330
DEA7B
100
AcDbDictionary
281
     1
  3
Standard
350
DEAFE
  0
DICTIONARY
  5
DEAE4
102
{ACAD_REACTORS
330
DEA7B
102
}
330
DEA7B
100
AcDbDictionary
281
     1
  3
2dWireframe
350
DEAE9
  3
Basic
350
DEAEC
  3
Brighten
350
DEAF0
  3
ColorChange
350
DEAF4
  3
Conceptual
350
DEAEE
  3
Dim
350
DEAEF
  3
EdgeColorOff
350
DEAF7
  3
Facepattern
350
DEAF3
  3
Flat
350
DEAE5
  3
FlatWithEdges
350
DEAE6
  3
Gouraud
350
DEAE7
  3
GouraudWithEdges
350
DEAE8
  3
Hidden
350
DEAEB
  3
JitterOff
350
DEAF5
  3
Linepattern
350
DEAF2
  3
OverhangOff
350
DEAF6
  3
Realistic
350
DEAED
  3
Shaded
350
DEAFC
  3
Shaded with edges
350
DEAFB
  3
Shades of Gray
350
DEAF8
  3
Sketchy
350
DEAF9
  3
Thicken
350
DEAF1
  3
Wireframe
350
DEAEA
  3
X-Ray
350
DEAFA
  0
XRECORD
  5
DED4C
102
{ACAD_REACTORS
330
DEA7B
102
}
330
DEA7B
100
AcDbXrecord
280
     1
 90
        1
330
DEAFE
  0
DICTIONARY
  5
DEB07
102
{ACAD_REACTORS
330
DEA7B
102
}
330
DEA7B
100
AcDbDictionary
281
     1
  3
CANNOSCALE
350
DEB08
  3
CMLEADERSTYLE
350
DEB0A
  3
CTABLESTYLE
350
DEB09
  3
MSLTSCALE
350
DEB0B
  0
DICTIONARY
  5
DEB01
102
{ACAD_REACTORS
330
DEA7B
102
}
330
DEA7B
100
AcDbDictionary
281
     1
  0
DICTIONARYVAR
  5
DED21
102
{ACAD_REACTORS
330
DEA7B
102
}
330
DEA7B
100
DictionaryVariables
280
     0
  1
0
  0
DICTIONARY
  5
DEB66
102
{ACAD_REACTORS
330
DEB65
102
}
330
DEB65
100
AcDbDictionary
281
     1
  0
DICTIONARY
  5
DEB06
102
{ACAD_REACTORS
330
DEB05
102
}
330
DEB05
100
AcDbDictionary
281
     1
  0
LAYOUT
  5
DEA8A
102
{ACAD_REACTORS
330
DEA88
102
}
330
DEA88
100
AcDbPlotSettings
  1

  2
none_device
  4

  6

 40
0.0
 41
0.0
 42
0.0
 43
0.0
 44
0.0
 45
0.0
 46
0.0
 47
0.0
 48
0.0
 49
0.0
140
0.0
141
0.0
142
1.0
143
1.0
 70
   688
 72
     0
 73
     0
 74
     5
  7

 75
    16
 76
     0
 77
     2
 78
   300
147
1.0
148
0.0
149
0.0
100
AcDbLayout
  1
Foglio1
 70
     1
 71
     1
 10
0.0
 20
0.0
 11
0.0
 21
0.0
 12
0.0
 22
0.0
 32
0.0
 14
0.0
 24
0.0
 34
0.0
 15
0.0
 25
0.0
 35
0.0
146
0.0
 13
0.0
 23
0.0
 33
0.0
 16
1.0
 26
0.0
 36
0.0
 17
0.0
 27
1.0
 37
0.0
 76
     0
330
DEA89
331
DAB74
  0
LAYOUT
  5
DEA8C
102
{ACAD_REACTORS
330
DEA88
102
}
330
DEA88
100
AcDbPlotSettings
  1

  2
none_device
  4
Letter_(8.50_x_11.00_Inches)
  6

 40
6.35
 41
6.35
 42
6.35
 43
6.35
 44
215.9
 45
279.4
 46
0.0
 47
0.0
 48
0.0
 49
0.0
140
0.0
141
0.0
142
1.0
143
1.0
 70
  1712
 72
     0
 73
     0
 74
     0
  7

 75
     0
 76
     0
 77
     2
 78
   300
147
1.0
148
0.0
149
0.0
100
AcDbLayout
  1
Model
 70
     1
 71
     0
 10
0.0
 20
0.0
 11
12.0
 21
9.0
 12
0.0
 22
0.0
 32
0.0
 14
-4012.685974119231
 24
-987.6576470269351
 34
0.0
 15
11285.53320454078
 25
5604.657866880794
 35
0.0
146
0.0
 13
0.0
 23
0.0
 33
0.0
 16
1.0
 26
0.0
 36
0.0
 17
0.0
 27
1.0
 37
0.0
 76
     0
330
DEA8B
331
DEA8E
  0
MATERIAL
  5
DEA93
102
{ACAD_REACTORS
330
DEA91
102
}
330
DEA91
100
AcDbMaterial
  1
ByBlock
 72
     1
 94
      127
  0
MATERIAL
  5
DEA92
102
{ACAD_REACTORS
330
DEA91
102
}
330
DEA91
100
AcDbMaterial
  1
ByLayer
 72
     1
 94
      127
  0
MATERIAL
  5
DEA94
102
{ACAD_REACTORS
330
DEA91
102
}
330
DEA91
100
AcDbMaterial
  1
Global
 72
     1
 94
      127
  0
MLEADERSTYLE
  5
DEB00
102
{ACAD_REACTORS
330
DEAFF
102
}
330
DEAFF
100
AcDbMLeaderStyle
179
     2
170
     2
171
     1
172
     0
 90
        2
 40
0.0
 41
0.0
173
     1
 91
-1056964608
340
DEA82
 92
       -2
290
     1
 42
0.09
291
     1
 43
0.36
  3
Standard
341
0
 44
0.18
300

342
DEA80
174
     1
178
     1
175
     1
176
     0
 93
-1056964608
 45
0.18
292
     0
297
     0
 46
0.18
343
0
 94
-1056964608
 47
1.0
 49
1.0
140
1.0
293
     1
141
0.0
294
     1
177
     0
142
1.0
295
     0
296
     0
143
0.125
271
     0
272
     9
273
     9
298
     0
  0
MLINESTYLE
  5
DEA86
102
{ACAD_REACTORS
330
DEA85
102
}
330
DEA85
100
AcDbMlineStyle
  2
Standard
 70
     0
  3

 62
   256
 51
90.0
 52
90.0
 71
     2
 49
0.5
 62
   256
  6
BYLAYER
 49
-0.5
 62
   256
  6
BYLAYER
  0
ACDBPLACEHOLDER
  5
DEA7E
102
{ACAD_REACTORS
330
DEA7D
102
}
330
DEA7D
  0
SCALE
  5
DEAC3
102
{ACAD_REACTORS
330
DEAC2
102
}
330
DEAC2
100
AcDbScale
 70
     0
300
1:1
140
1.0
141
1.0
290
     1
  0
SCALE
  5
DEAC4
102
{ACAD_REACTORS
330
DEAC2
102
}
330
DEAC2
100
AcDbScale
 70
     0
300
1:2
140
1.0
141
2.0
290
     0
  0
SCALE
  5
DEAC5
102
{ACAD_REACTORS
330
DEAC2
102
}
330
DEAC2
100
AcDbScale
 70
     0
300
1:4
140
1.0
141
4.0
290
     0
  0
SCALE
  5
DEAC6
102
{ACAD_REACTORS
330
DEAC2
102
}
330
DEAC2
100
AcDbScale
 70
     0
300
1:5
140
1.0
141
5.0
290
     0
  0
SCALE
  5
DEAC7
102
{ACAD_REACTORS
330
DEAC2
102
}
330
DEAC2
100
AcDbScale
 70
     0
300
1:8
140
1.0
141
8.0
290
     0
  0
SCALE
  5
DEAC8
102
{ACAD_REACTORS
330
DEAC2
102
}
330
DEAC2
100
AcDbScale
 70
     0
300
1:10
140
1.0
141
10.0
290
     0
  0
SCALE
  5
DEAC9
102
{ACAD_REACTORS
330
DEAC2
102
}
330
DEAC2
100
AcDbScale
 70
     0
300
1:16
140
1.0
141
16.0
290
     0
  0
SCALE
  5
DEACA
102
{ACAD_REACTORS
330
DEAC2
102
}
330
DEAC2
100
AcDbScale
 70
     0
300
1:20
140
1.0
141
20.0
290
     0
  0
SCALE
  5
DEACB
102
{ACAD_REACTORS
330
DEAC2
102
}
330
DEAC2
100
AcDbScale
 70
     0
300
1:30
140
1.0
141
30.0
290
     0
  0
SCALE
  5
DEACC
102
{ACAD_REACTORS
330
DEAC2
102
}
330
DEAC2
100
AcDbScale
 70
     0
300
1:40
140
1.0
141
40.0
290
     0
  0
SCALE
  5
DEACD
102
{ACAD_REACTORS
330
DEAC2
102
}
330
DEAC2
100
AcDbScale
 70
     0
300
1:50
140
1.0
141
50.0
290
     0
  0
SCALE
  5
DEACE
102
{ACAD_REACTORS
330
DEAC2
102
}
330
DEAC2
100
AcDbScale
 70
     0
300
1:100
140
1.0
141
100.0
290
     0
  0
SCALE
  5
DEACF
102
{ACAD_REACTORS
330
DEAC2
102
}
330
DEAC2
100
AcDbScale
 70
     0
300
2:1
140
2.0
141
1.0
290
     0
  0
SCALE
  5
DEAD0
102
{ACAD_REACTORS
330
DEAC2
102
}
330
DEAC2
100
AcDbScale
 70
     0
300
4:1
140
4.0
141
1.0
290
     0
  0
SCALE
  5
DEAD1
102
{ACAD_REACTORS
330
DEAC2
102
}
330
DEAC2
100
AcDbScale
 70
     0
300
8:1
140
8.0
141
1.0
290
     0
  0
SCALE
  5
DEAD2
102
{ACAD_REACTORS
330
DEAC2
102
}
330
DEAC2
100
AcDbScale
 70
     0
300
10:1
140
10.0
141
1.0
290
     0
  0
SCALE
  5
DEAD3
102
{ACAD_REACTORS
330
DEAC2
102
}
330
DEAC2
100
AcDbScale
 70
     0
300
100:1
140
100.0
141
1.0
290
     0
  0
SCALE
  5
DEAD4
102
{ACAD_REACTORS
330
DEAC2
102
}
330
DEAC2
100
AcDbScale
 70
     0
300
1/128" = 1'-0"
140
0.0078125
141
12.0
290
     0
  0
SCALE
  5
DEAD5
102
{ACAD_REACTORS
330
DEAC2
102
}
330
DEAC2
100
AcDbScale
 70
     0
300
1/64" = 1'-0"
140
0.015625
141
12.0
290
     0
  0
SCALE
  5
DEAD6
102
{ACAD_REACTORS
330
DEAC2
102
}
330
DEAC2
100
AcDbScale
 70
     0
300
1/32" = 1'-0"
140
0.03125
141
12.0
290
     0
  0
SCALE
  5
DEAD7
102
{ACAD_REACTORS
330
DEAC2
102
}
330
DEAC2
100
AcDbScale
 70
     0
300
1/16" = 1'-0"
140
0.0625
141
12.0
290
     0
  0
SCALE
  5
DEAD8
102
{ACAD_REACTORS
330
DEAC2
102
}
330
DEAC2
100
AcDbScale
 70
     0
300
3/32" = 1'-0"
140
0.09375
141
12.0
290
     0
  0
SCALE
  5
DEAD9
102
{ACAD_REACTORS
330
DEAC2
102
}
330
DEAC2
100
AcDbScale
 70
     0
300
1/8" = 1'-0"
140
0.125
141
12.0
290
     0
  0
SCALE
  5
DEADA
102
{ACAD_REACTORS
330
DEAC2
102
}
330
DEAC2
100
AcDbScale
 70
     0
300
3/16" = 1'-0"
140
0.1875
141
12.0
290
     0
  0
SCALE
  5
DEADB
102
{ACAD_REACTORS
330
DEAC2
102
}
330
DEAC2
100
AcDbScale
 70
     0
300
1/4" = 1'-0"
140
0.25
141
12.0
290
     0
  0
SCALE
  5
DEADC
102
{ACAD_REACTORS
330
DEAC2
102
}
330
DEAC2
100
AcDbScale
 70
     0
300
3/8" = 1'-0"
140
0.375
141
12.0
290
     0
  0
SCALE
  5
DEADD
102
{ACAD_REACTORS
330
DEAC2
102
}
330
DEAC2
100
AcDbScale
 70
     0
300
1/2" = 1'-0"
140
0.5
141
12.0
290
     0
  0
SCALE
  5
DEADE
102
{ACAD_REACTORS
330
DEAC2
102
}
330
DEAC2
100
AcDbScale
 70
     0
300
3/4" = 1'-0"
140
0.75
141
12.0
290
     0
  0
SCALE
  5
DEADF
102
{ACAD_REACTORS
330
DEAC2
102
}
330
DEAC2
100
AcDbScale
 70
     0
300
1" = 1'-0"
140
1.0
141
12.0
290
     0
  0
SCALE
  5
DEAE0
102
{ACAD_REACTORS
330
DEAC2
102
}
330
DEAC2
100
AcDbScale
 70
     0
300
1-1/2" = 1'-0"
140
1.5
141
12.0
290
     0
  0
SCALE
  5
DEAE1
102
{ACAD_REACTORS
330
DEAC2
102
}
330
DEAC2
100
AcDbScale
 70
     0
300
3" = 1'-0"
140
3.0
141
12.0
290
     0
  0
SCALE
  5
DEAE2
102
{ACAD_REACTORS
330
DEAC2
102
}
330
DEAC2
100
AcDbScale
 70
     0
300
6" = 1'-0"
140
6.0
141
12.0
290
     0
  0
SCALE
  5
DEAE3
102
{ACAD_REACTORS
330
DEAC2
102
}
330
DEAC2
100
AcDbScale
 70
     0
300
1'-0" = 1'-0"
140
12.0
141
12.0
290
     0
  0
TABLESTYLE
  5
DEAFE
102
{ACAD_REACTORS
330
DEAFD
102
}
102
{ACAD_XDICTIONARY
360
DED4A
102
}
330
DEAFD
100
AcDbTableStyle
  3
Standard
 70
     0
 71
     0
 40
0.06
 41
0.06
280
     0
281
     0
  7
STANDARD
140
0.18
170
     2
 62
     0
 63
   257
283
     0
 90
        4
 91
        0
  1

274
    -2
284
     1
 64
     0
275
    -2
285
     1
 65
     0
276
    -2
286
     1
 66
     0
277
    -2
287
     1
 67
     0
278
    -2
288
     1
 68
     0
279
    -2
289
     1
 69
     0
  7
STANDARD
140
0.25
170
     5
 62
     0
 63
   257
283
     0
 90
        4
 91
        0
  1

274
    -2
284
     1
 64
     0
275
    -2
285
     1
 65
     0
276
    -2
286
     1
 66
     0
277
    -2
287
     1
 67
     0
278
    -2
288
     1
 68
     0
279
    -2
289
     1
 69
     0
  7
STANDARD
140
0.18
170
     5
 62
     0
 63
   257
283
     0
 90
        4
 91
        0
  1

274
    -2
284
     1
 64
     0
275
    -2
285
     1
 65
     0
276
    -2
286
     1
 66
     0
277
    -2
287
     1
 67
     0
278
    -2
288
     1
 68
     0
279
    -2
289
     1
 69
     0
  0
VISUALSTYLE
  5
DEAE9
102
{ACAD_REACTORS
330
DEAE4
102
}
330
DEAE4
100
AcDbVisualStyle
  2
2dWireframe
 70
     4
177
     3
291
     0
 70
    58
 90
        0
176
     1
 90
        2
176
     1
 90
        0
176
     1
 90
        0
176
     1
 40
0.6
176
     1
 40
30.0
176
     1
 62
     7
420
 16777215
176
     1
 90
        1
176
     1
 90
        4
176
     1
 62
     7
176
     1
 62
   257
176
     1
 90
        1
176
     1
 90
        1
176
     1
 40
1.0
176
     1
 90
        0
176
     1
 62
   257
176
     1
 40
1.0
176
     1
 90
        1
176
     1
 90
        6
176
     1
 90
        2
176
     1
 62
     7
176
     1
 90
        5
176
     1
 90
        0
176
     1
 90
        0
176
     1
290
     0
176
     1
 90
        1
176
     1
 40
0.0
176
     1
 90
        0
176
     1
290
     1
176
     1
290
     1
176
     1
290
     0
176
     1
290
     0
176
     1
290
     0
176
     1
290
     0
176
     1
290
     0
176
     1
290
     0
176
     1
290
     0
176
     1
 90
       50
176
     1
 40
0.0
176
     1
 40
1.0
176
     1
 90
        0
176
     1
 62
    18
420
        0
176
     1
 90
       50
176
     1
 90
        3
176
     1
 62
     5
420
      255
176
     1
290
     0
176
     1
 90
       50
176
     1
 90
       50
176
     1
 90
       50
176
     1
290
     0
176
     1
 90
       50
176
     1
 62
   256
176
     0
 40
1.0
176
     0
 90
        2
176
     1
  1
strokes_ogs.tif
176
     1
290
     0
176
     1
 40
1.0
176
     1
 40
1.0
176
     1
  0
VISUALSTYLE
  5
DEAEC
102
{ACAD_REACTORS
330
DEAE4
102
}
330
DEAE4
100
AcDbVisualStyle
  2
Basic
 70
     7
177
     3
291
     1
 70
    58
 90
        1
176
     1
 90
        0
176
     1
 90
        1
176
     1
 90
        0
176
     1
 40
0.6
176
     1
 40
30.0
176
     1
 62
     7
420
 16777215
176
     1
 90
        0
176
     1
 90
        4
176
     1
 62
     7
176
     1
 62
   257
176
     1
 90
        1
176
     1
 90
        1
176
     1
 40
1.0
176
     1
 90
        8
176
     1
 62
     7
176
     1
 40
1.0
176
     1
 90
        1
176
     1
 90
        6
176
     1
 90
        2
176
     1
 62
     7
176
     1
 90
        5
176
     1
 90
        0
176
     1
 90
        0
176
     1
290
     0
176
     1
 90
        1
176
     1
 40
0.0
176
     1
 90
        0
176
     1
290
     0
176
     1
290
     1
176
     1
290
     1
176
     1
290
     0
176
     1
290
     0
176
     1
290
     0
176
     1
290
     0
176
     1
290
     0
176
     1
290
     0
176
     1
 90
       50
176
     1
 40
0.0
176
     1
 40
1.0
176
     1
 90
        0
176
     1
 62
    18
420
        0
176
     1
 90
       50
176
     1
 90
        3
176
     1
 62
     5
420
      255
176
     1
290
     0
176
     1
 90
       50
176
     1
 90
       50
176
     1
 90
       50
176
     1
290
     0
176
     1
 90
       50
176
     1
 62
   256
176
     0
 40
1.0
176
     0
 90
        2
176
     1
  1
strokes_ogs.tif
176
     1
290
     0
176
     1
 40
1.0
176
     1
 40
1.0
176
     1
  0
VISUALSTYLE
  5
DEAF0
102
{ACAD_REACTORS
330
DEAE4
102
}
330
DEAE4
100
AcDbVisualStyle
  2
Brighten
 70
    12
177
     3
291
     1
 70
    58
 90
        2
176
     1
 90
        2
176
     1
 90
        0
176
     1
 90
        0
176
     1
 40
0.6
176
     1
 40
30.0
176
     1
 62
     7
420
 16777215
176
     1
 90
        1
176
     1
 90
        4
176
     1
 62
     7
176
     1
 62
   257
176
     1
 90
        1
176
     1
 90
        1
176
     1
 40
1.0
176
     1
 90
        8
176
     1
 62
     7
176
     1
 40
1.0
176
     1
 90
        1
176
     1
 90
        6
176
     1
 90
        2
176
     1
 62
     7
176
     1
 90
        5
176
     1
 90
        0
176
     1
 90
        0
176
     1
290
     0
176
     1
 90
        1
176
     1
 40
50.0
176
     1
 90
        0
176
     1
290
     0
176
     1
290
     1
176
     1
290
     1
176
     1
290
     0
176
     1
290
     0
176
     1
290
     0
176
     1
290
     0
176
     1
290
     0
176
     1
290
     0
176
     1
 90
       50
176
     1
 40
0.0
176
     1
 40
1.0
176
     1
 90
        0
176
     1
 62
    18
420
        0
176
     1
 90
       50
176
     1
 90
        3
176
     1
 62
     5
420
      255
176
     1
290
     0
176
     1
 90
       50
176
     1
 90
       50
176
     1
 90
       50
176
     1
290
     0
176
     1
 90
       50
176
     1
 62
   256
176
     0
 40
1.0
176
     0
 90
        2
176
     1
  1
strokes_ogs.tif
176
     1
290
     0
176
     1
 40
1.0
176
     1
 40
1.0
176
     1
  0
VISUALSTYLE
  5
DEAF4
102
{ACAD_REACTORS
330
DEAE4
102
}
330
DEAE4
100
AcDbVisualStyle
  2
ColorChange
 70
    16
177
     3
291
     1
 70
    58
 90
        2
176
     1
 90
        2
176
     1
 90
        3
176
     1
 90
        0
176
     1
 40
0.6
176
     1
 40
30.0
176
     1
 62
     8
420
  8421504
176
     1
 90
        1
176
     1
 90
        4
176
     1
 62
     7
176
     1
 62
   257
176
     1
 90
        1
176
     1
 90
        1
176
     1
 40
1.0
176
     1
 90
        8
176
     1
 62
     8
420
  8421504
176
     1
 40
1.0
176
     1
 90
        1
176
     1
 90
        6
176
     1
 90
        2
176
     1
 62
     7
176
     1
 90
        5
176
     1
 90
        0
176
     1
 90
        0
176
     1
290
     0
176
     1
 90
        1
176
     1
 40
0.0
176
     1
 90
        0
176
     1
290
     0
176
     1
290
     1
176
     1
290
     1
176
     1
290
     0
176
     1
290
     0
176
     1
290
     0
176
     1
290
     0
176
     1
290
     0
176
     1
290
     0
176
     1
 90
       50
176
     1
 40
0.0
176
     1
 40
1.0
176
     1
 90
        0
176
     1
 62
    18
420
        0
176
     1
 90
       50
176
     1
 90
        3
176
     1
 62
     5
420
      255
176
     1
290
     0
176
     1
 90
       50
176
     1
 90
       50
176
     1
 90
       50
176
     1
290
     0
176
     1
 90
       50
176
     1
 62
   256
176
     0
 40
1.0
176
     0
 90
        2
176
     1
  1
strokes_ogs.tif
176
     1
290
     0
176
     1
 40
1.0
176
     1
 40
1.0
176
     1
  0
VISUALSTYLE
  5
DEAEE
102
{ACAD_REACTORS
330
DEAE4
102
}
330
DEAE4
100
AcDbVisualStyle
  2
Conceptual
 70
     9
177
     3
291
     0
 70
    58
 90
        3
176
     1
 90
        2
176
     1
 90
        0
176
     1
 90
        0
176
     1
 40
0.6
176
     1
 40
30.0
176
     1
 62
     7
420
 16777215
176
     1
 90
        2
176
     1
 90
        2
176
     1
 62
     7
176
     1
 62
   257
176
     1
 90
        1
176
     1
 90
        1
176
     1
 40
179.0
176
     1
 90
        8
176
     1
 62
     7
176
     1
 40
1.0
176
     1
 90
        1
176
     1
 90
        6
176
     1
 90
        2
176
     1
 62
     7
176
     1
 90
        3
176
     1
 90
        0
176
     1
 90
        0
176
     1
290
     0
176
     1
 90
        1
176
     1
 40
0.0
176
     1
 90
        0
176
     1
290
     0
176
     1
290
     1
176
     1
290
     1
176
     1
290
     0
176
     1
290
     0
176
     1
290
     0
176
     1
290
     0
176
     1
290
     0
176
     1
290
     0
176
     1
 90
       50
176
     1
 40
0.0
176
     1
 40
1.0
176
     1
 90
        0
176
     1
 62
    18
420
        0
176
     1
 90
       50
176
     1
 90
        3
176
     1
 62
     5
420
      255
176
     1
290
     0
176
     1
 90
       50
176
     1
 90
       50
176
     1
 90
       50
176
     1
290
     0
176
     1
 90
       50
176
     1
 62
   256
176
     0
 40
1.0
176
     0
 90
        2
176
     1
  1
strokes_ogs.tif
176
     1
290
     0
176
     1
 40
1.0
176
     1
 40
1.0
176
     1
  0
VISUALSTYLE
  5
DEAEF
102
{ACAD_REACTORS
330
DEAE4
102
}
330
DEAE4
100
AcDbVisualStyle
  2
Dim
 70
    11
177
     3
291
     1
 70
    58
 90
        2
176
     1
 90
        2
176
     1
 90
        0
176
     1
 90
        0
176
     1
 40
0.6
176
     1
 40
30.0
176
     1
 62
     7
420
 16777215
176
     1
 90
        1
176
     1
 90
        4
176
     1
 62
     7
176
     1
 62
   257
176
     1
 90
        1
176
     1
 90
        1
176
     1
 40
1.0
176
     1
 90
        8
176
     1
 62
     7
176
     1
 40
1.0
176
     1
 90
        1
176
     1
 90
        6
176
     1
 90
        2
176
     1
 62
     7
176
     1
 90
        5
176
     1
 90
        0
176
     1
 90
        0
176
     1
290
     0
176
     1
 90
        1
176
     1
 40
-50.0
176
     1
 90
        0
176
     1
290
     0
176
     1
290
     1
176
     1
290
     1
176
     1
290
     0
176
     1
290
     0
176
     1
290
     0
176
     1
290
     0
176
     1
290
     0
176
     1
290
     0
176
     1
 90
       50
176
     1
 40
0.0
176
     1
 40
1.0
176
     1
 90
        0
176
     1
 62
    18
420
        0
176
     1
 90
       50
176
     1
 90
        3
176
     1
 62
     5
420
      255
176
     1
290
     0
176
     1
 90
       50
176
     1
 90
       50
176
     1
 90
       50
176
     1
290
     0
176
     1
 90
       50
176
     1
 62
   256
176
     0
 40
1.0
176
     0
 90
        2
176
     1
  1
strokes_ogs.tif
176
     1
290
     0
176
     1
 40
1.0
176
     1
 40
1.0
176
     1
  0
VISUALSTYLE
  5
DEAF7
102
{ACAD_REACTORS
330
DEAE4
102
}
330
DEAE4
100
AcDbVisualStyle
  2
EdgeColorOff
 70
    22
177
     3
291
     1
 70
    58
 90
        2
176
     0
 90
        2
176
     0
 90
        0
176
     0
 90
        0
176
     0
 40
0.6
176
     0
 40
30.0
176
     0
 62
     7
420
 16777215
176
     0
 90
        1
176
     0
 90
        4
176
     0
 62
     7
176
     0
 62
   257
176
     0
 90
        1
176
     0
 90
        1
176
     0
 40
1.0
176
     0
 90
        8
176
     2
 62
     7
176
     0
 40
1.0
176
     0
 90
        1
176
     0
 90
        6
176
     0
 90
        2
176
     0
 62
     7
176
     0
 90
        5
176
     0
 90
        0
176
     0
 90
        0
176
     0
290
     0
176
     0
 90
        1
176
     0
 40
0.0
176
     0
 90
        0
176
     0
290
     0
176
     0
290
     1
176
     0
290
     1
176
     0
290
     0
176
     0
290
     0
176
     0
290
     0
176
     0
290
     0
176
     0
290
     0
176
     0
290
     0
176
     0
 90
       50
176
     0
 40
0.0
176
     0
 40
1.0
176
     0
 90
        0
176
     0
 62
    18
420
        0
176
     0
 90
       50
176
     0
 90
        3
176
     0
 62
     5
420
      255
176
     0
290
     0
176
     0
 90
       50
176
     0
 90
       50
176
     0
 90
       50
176
     0
290
     0
176
     0
 90
       50
176
     0
 62
   256
176
     0
 40
1.0
176
     0
 90
        2
176
     0
  1
strokes_ogs.tif
176
     0
290
     0
176
     0
 40
1.0
176
     0
 40
1.0
176
     0
  0
VISUALSTYLE
  5
DEAF3
102
{ACAD_REACTORS
330
DEAE4
102
}
330
DEAE4
100
AcDbVisualStyle
  2
Facepattern
 70
    15
177
     3
291
     1
 70
    58
 90
        2
176
     1
 90
        2
176
     1
 90
        0
176
     1
 90
        0
176
     1
 40
0.6
176
     1
 40
30.0
176
     1
 62
     7
420
 16777215
176
     1
 90
        1
176
     1
 90
        4
176
     1
 62
     7
176
     1
 62
   257
176
     1
 90
        1
176
     1
 90
        1
176
     1
 40
1.0
176
     1
 90
        8
176
     1
 62
     7
176
     1
 40
1.0
176
     1
 90
        1
176
     1
 90
        6
176
     1
 90
        2
176
     1
 62
     7
176
     1
 90
        5
176
     1
 90
        0
176
     1
 90
        0
176
     1
290
     0
176
     1
 90
        1
176
     1
 40
0.0
176
     1
 90
        0
176
     1
290
     0
176
     1
290
     1
176
     1
290
     1
176
     1
290
     0
176
     1
290
     0
176
     1
290
     0
176
     1
290
     0
176
     1
290
     0
176
     1
290
     0
176
     1
 90
       50
176
     1
 40
0.0
176
     1
 40
1.0
176
     1
 90
        0
176
     1
 62
    18
420
        0
176
     1
 90
       50
176
     1
 90
        3
176
     1
 62
     5
420
      255
176
     1
290
     0
176
     1
 90
       50
176
     1
 90
       50
176
     1
 90
       50
176
     1
290
     0
176
     1
 90
       50
176
     1
 62
   256
176
     0
 40
1.0
176
     0
 90
        2
176
     1
  1
strokes_ogs.tif
176
     1
290
     0
176
     1
 40
1.0
176
     1
 40
1.0
176
     1
  0
VISUALSTYLE
  5
DEAE5
102
{ACAD_REACTORS
330
DEAE4
102
}
330
DEAE4
100
AcDbVisualStyle
  2
Flat
 70
     0
177
     3
291
     1
 70
    58
 90
        2
176
     1
 90
        1
176
     1
 90
        1
176
     1
 90
        2
176
     1
 40
0.6
176
     1
 40
30.0
176
     1
 62
     7
420
 16777215
176
     1
 90
        0
176
     1
 90
        0
176
     1
 62
     7
176
     1
 62
   257
176
     1
 90
        1
176
     1
 90
        1
176
     1
 40
1.0
176
     1
 90
        8
176
     1
 62
     7
176
     1
 40
1.0
176
     1
 90
        1
176
     1
 90
        6
176
     1
 90
        2
176
     1
 62
     7
176
     1
 90
        5
176
     1
 90
        0
176
     1
 90
        0
176
     1
290
     0
176
     1
 90
       13
176
     1
 40
0.0
176
     1
 90
        0
176
     1
290
     0
176
     1
290
     1
176
     1
290
     1
176
     1
290
     0
176
     1
290
     0
176
     1
290
     0
176
     1
290
     0
176
     1
290
     0
176
     1
290
     0
176
     1
 90
       50
176
     1
 40
0.0
176
     1
 40
1.0
176
     1
 90
        0
176
     1
 62
    18
420
        0
176
     1
 90
       50
176
     1
 90
        3
176
     1
 62
     5
420
      255
176
     1
290
     0
176
     1
 90
       50
176
     1
 90
       50
176
     1
 90
       50
176
     1
290
     0
176
     1
 90
       50
176
     1
 62
   256
176
     0
 40
1.0
176
     0
 90
        2
176
     1
  1
strokes_ogs.tif
176
     1
290
     0
176
     1
 40
1.0
176
     1
 40
1.0
176
     1
  0
VISUALSTYLE
  5
DEAE6
102
{ACAD_REACTORS
330
DEAE4
102
}
330
DEAE4
100
AcDbVisualStyle
  2
FlatWithEdges
 70
     1
177
     3
291
     1
 70
    58
 90
        2
176
     1
 90
        1
176
     1
 90
        1
176
     1
 90
        2
176
     1
 40
0.6
176
     1
 40
30.0
176
     1
 62
     7
420
 16777215
176
     1
 90
        1
176
     1
 90
        0
176
     1
 62
     7
176
     1
 62
   257
176
     1
 90
        1
176
     1
 90
        1
176
     1
 40
1.0
176
     1
 90
        0
176
     1
 62
   257
176
     1
 40
1.0
176
     1
 90
        1
176
     1
 90
        6
176
     1
 90
        2
176
     1
 62
     7
176
     1
 90
        5
176
     1
 90
        0
176
     1
 90
        0
176
     1
290
     0
176
     1
 90
       13
176
     1
 40
0.0
176
     1
 90
        0
176
     1
290
     0
176
     1
290
     1
176
     1
290
     1
176
     1
290
     0
176
     1
290
     0
176
     1
290
     0
176
     1
290
     0
176
     1
290
     0
176
     1
290
     0
176
     1
 90
       50
176
     1
 40
0.0
176
     1
 40
1.0
176
     1
 90
        0
176
     1
 62
    18
420
        0
176
     1
 90
       50
176
     1
 90
        3
176
     1
 62
     5
420
      255
176
     1
290
     0
176
     1
 90
       50
176
     1
 90
       50
176
     1
 90
       50
176
     1
290
     0
176
     1
 90
       50
176
     1
 62
   256
176
     0
 40
1.0
176
     0
 90
        2
176
     1
  1
strokes_ogs.tif
176
     1
290
     0
176
     1
 40
1.0
176
     1
 40
1.0
176
     1
  0
VISUALSTYLE
  5
DEAE7
102
{ACAD_REACTORS
330
DEAE4
102
}
330
DEAE4
100
AcDbVisualStyle
  2
Gouraud
 70
     2
177
     3
291
     1
 70
    58
 90
        2
176
     1
 90
        2
176
     1
 90
        1
176
     1
 90
        2
176
     1
 40
0.6
176
     1
 40
30.0
176
     1
 62
     7
420
 16777215
176
     1
 90
        0
176
     1
 90
        0
176
     1
 62
     7
176
     1
 62
   257
176
     1
 90
        1
176
     1
 90
        1
176
     1
 40
1.0
176
     1
 90
        0
176
     1
 62
     7
176
     1
 40
1.0
176
     1
 90
        1
176
     1
 90
        6
176
     1
 90
        2
176
     1
 62
     7
176
     1
 90
        5
176
     1
 90
        0
176
     1
 90
        0
176
     1
290
     0
176
     1
 90
       13
176
     1
 40
0.0
176
     1
 90
        0
176
     1
290
     0
176
     1
290
     1
176
     1
290
     1
176
     1
290
     0
176
     1
290
     0
176
     1
290
     0
176
     1
290
     0
176
     1
290
     0
176
     1
290
     0
176
     1
 90
       50
176
     1
 40
0.0
176
     1
 40
1.0
176
     1
 90
        0
176
     1
 62
    18
420
        0
176
     1
 90
       50
176
     1
 90
        3
176
     1
 62
     5
420
      255
176
     1
290
     0
176
     1
 90
       50
176
     1
 90
       50
176
     1
 90
       50
176
     1
290
     0
176
     1
 90
       50
176
     1
 62
   256
176
     0
 40
1.0
176
     0
 90
        2
176
     1
  1
strokes_ogs.tif
176
     1
290
     0
176
     1
 40
1.0
176
     1
 40
1.0
176
     1
  0
VISUALSTYLE
  5
DEAE8
102
{ACAD_REACTORS
330
DEAE4
102
}
330
DEAE4
100
AcDbVisualStyle
  2
GouraudWithEdges
 70
     3
177
     3
291
     1
 70
    58
 90
        2
176
     1
 90
        2
176
     1
 90
        1
176
     1
 90
        2
176
     1
 40
0.6
176
     1
 40
30.0
176
     1
 62
     7
420
 16777215
176
     1
 90
        1
176
     1
 90
        0
176
     1
 62
     7
176
     1
 62
   257
176
     1
 90
        1
176
     1
 90
        1
176
     1
 40
1.0
176
     1
 90
        0
176
     1
 62
   257
176
     1
 40
1.0
176
     1
 90
        1
176
     1
 90
        6
176
     1
 90
        2
176
     1
 62
     7
176
     1
 90
        5
176
     1
 90
        0
176
     1
 90
        0
176
     1
290
     0
176
     1
 90
       13
176
     1
 40
0.0
176
     1
 90
        0
176
     1
290
     0
176
     1
290
     1
176
     1
290
     1
176
     1
290
     0
176
     1
290
     0
176
     1
290
     0
176
     1
290
     0
176
     1
290
     0
176
     1
290
     0
176
     1
 90
       50
176
     1
 40
0.0
176
     1
 40
1.0
176
     1
 90
        0
176
     1
 62
    18
420
        0
176
     1
 90
       50
176
     1
 90
        3
176
     1
 62
     5
420
      255
176
     1
290
     0
176
     1
 90
       50
176
     1
 90
       50
176
     1
 90
       50
176
     1
290
     0
176
     1
 90
       50
176
     1
 62
   256
176
     0
 40
1.0
176
     0
 90
        2
176
     1
  1
strokes_ogs.tif
176
     1
290
     0
176
     1
 40
1.0
176
     1
 40
1.0
176
     1
  0
VISUALSTYLE
  5
DEAEB
102
{ACAD_REACTORS
330
DEAE4
102
}
330
DEAE4
100
AcDbVisualStyle
  2
Hidden
 70
     6
177
     3
291
     0
 70
    58
 90
        1
176
     1
 90
        2
176
     1
 90
        2
176
     1
 90
        0
176
     1
 40
0.6
176
     1
 40
30.0
176
     1
 62
     7
420
 16777215
176
     1
 90
        2
176
     1
 90
        2
176
     1
 62
     7
176
     1
 62
   257
176
     1
 90
        2
176
     1
 90
        1
176
     1
 40
40.0
176
     1
 90
        0
176
     1
 62
   257
176
     1
 40
1.0
176
     1
 90
        1
176
     1
 90
        6
176
     1
 90
        2
176
     1
 62
     7
176
     1
 90
        3
176
     1
 90
        0
176
     1
 90
        0
176
     1
290
     0
176
     1
 90
        1
176
     1
 40
0.0
176
     1
 90
        0
176
     1
290
     0
176
     1
290
     1
176
     1
290
     1
176
     1
290
     0
176
     1
290
     0
176
     1
290
     0
176
     1
290
     0
176
     1
290
     0
176
     1
290
     0
176
     1
 90
       50
176
     1
 40
0.0
176
     1
 40
1.0
176
     1
 90
        0
176
     1
 62
    18
420
        0
176
     1
 90
       50
176
     1
 90
        3
176
     1
 62
     5
420
      255
176
     1
290
     0
176
     1
 90
       50
176
     1
 90
       50
176
     1
 90
       50
176
     1
290
     0
176
     1
 90
       50
176
     1
 62
   256
176
     0
 40
1.0
176
     0
 90
        2
176
     1
  1
strokes_ogs.tif
176
     1
290
     0
176
     1
 40
1.0
176
     1
 40
1.0
176
     1
  0
VISUALSTYLE
  5
DEAF5
102
{ACAD_REACTORS
330
DEAE4
102
}
330
DEAE4
100
AcDbVisualStyle
  2
JitterOff
 70
    20
177
     3
291
     1
 70
    58
 90
        2
176
     0
 90
        2
176
     0
 90
        0
176
     0
 90
        0
176
     0
 40
0.6
176
     0
 40
30.0
176
     0
 62
     7
420
 16777215
176
     0
 90
        1
176
     0
 90
        4
176
     0
 62
     7
176
     0
 62
   257
176
     0
 90
        1
176
     0
 90
        1
176
     0
 40
1.0
176
     0
 90
       10
176
     2
 62
     7
176
     0
 40
1.0
176
     0
 90
        1
176
     0
 90
        6
176
     0
 90
        2
176
     0
 62
     7
176
     0
 90
        5
176
     0
 90
        0
176
     0
 90
        0
176
     0
290
     0
176
     0
 90
        1
176
     0
 40
0.0
176
     0
 90
        0
176
     0
290
     0
176
     0
290
     1
176
     0
290
     1
176
     0
290
     0
176
     0
290
     0
176
     0
290
     0
176
     0
290
     0
176
     0
290
     0
176
     0
290
     0
176
     0
 90
       50
176
     0
 40
0.0
176
     0
 40
1.0
176
     0
 90
        0
176
     0
 62
    18
420
        0
176
     0
 90
       50
176
     0
 90
        3
176
     0
 62
     5
420
      255
176
     0
290
     0
176
     0
 90
       50
176
     0
 90
       50
176
     0
 90
       50
176
     0
290
     0
176
     0
 90
       50
176
     0
 62
   256
176
     0
 40
1.0
176
     0
 90
        2
176
     0
  1
strokes_ogs.tif
176
     0
290
     0
176
     0
 40
1.0
176
     0
 40
1.0
176
     0
  0
VISUALSTYLE
  5
DEAF2
102
{ACAD_REACTORS
330
DEAE4
102
}
330
DEAE4
100
AcDbVisualStyle
  2
Linepattern
 70
    14
177
     3
291
     1
 70
    58
 90
        2
176
     1
 90
        2
176
     1
 90
        0
176
     1
 90
        0
176
     1
 40
0.6
176
     1
 40
30.0
176
     1
 62
     7
420
 16777215
176
     1
 90
        1
176
     1
 90
        4
176
     1
 62
     7
176
     1
 62
   257
176
     1
 90
        7
176
     1
 90
        7
176
     1
 40
1.0
176
     1
 90
        8
176
     1
 62
     7
176
     1
 40
1.0
176
     1
 90
        1
176
     1
 90
        6
176
     1
 90
        2
176
     1
 62
     7
176
     1
 90
        5
176
     1
 90
        0
176
     1
 90
        0
176
     1
290
     0
176
     1
 90
        1
176
     1
 40
0.0
176
     1
 90
        0
176
     1
290
     0
176
     1
290
     1
176
     1
290
     1
176
     1
290
     0
176
     1
290
     0
176
     1
290
     0
176
     1
290
     0
176
     1
290
     0
176
     1
290
     0
176
     1
 90
       50
176
     1
 40
0.0
176
     1
 40
1.0
176
     1
 90
        0
176
     1
 62
    18
420
        0
176
     1
 90
       50
176
     1
 90
        3
176
     1
 62
     5
420
      255
176
     1
290
     0
176
     1
 90
       50
176
     1
 90
       50
176
     1
 90
       50
176
     1
290
     0
176
     1
 90
       50
176
     1
 62
   256
176
     0
 40
1.0
176
     0
 90
        2
176
     1
  1
strokes_ogs.tif
176
     1
290
     0
176
     1
 40
1.0
176
     1
 40
1.0
176
     1
  0
VISUALSTYLE
  5
DEAF6
102
{ACAD_REACTORS
330
DEAE4
102
}
330
DEAE4
100
AcDbVisualStyle
  2
OverhangOff
 70
    21
177
     3
291
     1
 70
    58
 90
        2
176
     0
 90
        2
176
     0
 90
        0
176
     0
 90
        0
176
     0
 40
0.6
176
     0
 40
30.0
176
     0
 62
     7
420
 16777215
176
     0
 90
        1
176
     0
 90
        4
176
     0
 62
     7
176
     0
 62
   257
176
     0
 90
        1
176
     0
 90
        1
176
     0
 40
1.0
176
     0
 90
        9
176
     2
 62
     7
176
     0
 40
1.0
176
     0
 90
        1
176
     0
 90
        6
176
     0
 90
        2
176
     0
 62
     7
176
     0
 90
        5
176
     0
 90
        0
176
     0
 90
        0
176
     0
290
     0
176
     0
 90
        1
176
     0
 40
0.0
176
     0
 90
        0
176
     0
290
     0
176
     0
290
     1
176
     0
290
     1
176
     0
290
     0
176
     0
290
     0
176
     0
290
     0
176
     0
290
     0
176
     0
290
     0
176
     0
290
     0
176
     0
 90
       50
176
     0
 40
0.0
176
     0
 40
1.0
176
     0
 90
        0
176
     0
 62
    18
420
        0
176
     0
 90
       50
176
     0
 90
        3
176
     0
 62
     5
420
      255
176
     0
290
     0
176
     0
 90
       50
176
     0
 90
       50
176
     0
 90
       50
176
     0
290
     0
176
     0
 90
       50
176
     0
 62
   256
176
     0
 40
1.0
176
     0
 90
        2
176
     0
  1
strokes_ogs.tif
176
     0
290
     0
176
     0
 40
1.0
176
     0
 40
1.0
176
     0
  0
VISUALSTYLE
  5
DEAED
102
{ACAD_REACTORS
330
DEAE4
102
}
330
DEAE4
100
AcDbVisualStyle
  2
Realistic
 70
     8
177
     3
291
     0
 70
    58
 90
        2
176
     1
 90
        3
176
     1
 90
        0
176
     1
 90
        2
176
     1
 40
0.6
176
     1
 40
30.0
176
     1
 62
     7
420
 16777215
176
     1
 90
        0
176
     1
 90
        0
176
     1
 62
     7
176
     1
 62
   257
176
     1
 90
        1
176
     1
 90
        1
176
     1
 40
1.0
176
     1
 90
        8
176
     1
 62
   257
176
     1
 40
1.0
176
     1
 90
        1
176
     1
 90
        6
176
     1
 90
        2
176
     1
 62
     7
176
     1
 90
        3
176
     1
 90
        0
176
     1
 90
        0
176
     1
290
     0
176
     1
 90
       13
176
     1
 40
0.0
176
     1
 90
        0
176
     1
290
     0
176
     1
290
     1
176
     1
290
     1
176
     1
290
     0
176
     1
290
     0
176
     1
290
     0
176
     1
290
     0
176
     1
290
     0
176
     1
290
     0
176
     1
 90
       50
176
     1
 40
0.0
176
     1
 40
1.0
176
     1
 90
        0
176
     1
 62
    18
420
        0
176
     1
 90
       50
176
     1
 90
        3
176
     1
 62
     5
420
      255
176
     1
290
     0
176
     1
 90
       50
176
     1
 90
       50
176
     1
 90
       50
176
     1
290
     0
176
     1
 90
       50
176
     1
 62
   256
176
     0
 40
1.0
176
     0
 90
        2
176
     1
  1
strokes_ogs.tif
176
     1
290
     0
176
     1
 40
1.0
176
     1
 40
1.0
176
     1
  0
VISUALSTYLE
  5
DEAFC
102
{ACAD_REACTORS
330
DEAE4
102
}
330
DEAE4
100
AcDbVisualStyle
  2
Shaded
 70
    27
177
     3
291
     0
 70
    58
 90
        2
176
     1
 90
        2
176
     1
 90
        1
176
     1
 90
        2
176
     1
 40
0.6
176
     1
 40
30.0
176
     1
 62
     7
420
 16777215
176
     1
 90
        0
176
     1
 90
        4
176
     1
 62
     7
176
     1
 62
   257
176
     1
 90
        1
176
     1
 90
        1
176
     1
 40
1.0
176
     1
 90
        8
176
     1
 62
   257
176
     1
 40
1.0
176
     1
 90
        1
176
     1
 90
        6
176
     1
 90
        2
176
     1
 62
     8
420
  7895160
176
     1
 90
        3
176
     1
 90
        0
176
     1
 90
        0
176
     1
290
     0
176
     1
 90
        5
176
     1
 40
0.0
176
     1
 90
        0
176
     1
290
     0
176
     1
290
     1
176
     1
290
     1
176
     1
290
     0
176
     1
290
     0
176
     1
290
     0
176
     1
290
     0
176
     1
290
     0
176
     1
290
     0
176
     1
 90
       50
176
     1
 40
0.0
176
     1
 40
1.0
176
     1
 90
        0
176
     1
 62
    18
420
        0
176
     1
 90
       50
176
     1
 90
        3
176
     1
 62
     5
420
      255
176
     1
290
     0
176
     1
 90
       50
176
     1
 90
       50
176
     1
 90
       50
176
     1
290
     0
176
     1
 90
       50
176
     1
 62
   256
176
     0
 40
1.0
176
     0
 90
        2
176
     1
  1
strokes_ogs.tif
176
     1
290
     0
176
     1
 40
1.0
176
     1
 40
1.0
176
     1
  0
VISUALSTYLE
  5
DEAFB
102
{ACAD_REACTORS
330
DEAE4
102
}
330
DEAE4
100
AcDbVisualStyle
  2
Shaded with edges
 70
    26
177
     3
291
     0
 70
    58
 90
        2
176
     1
 90
        2
176
     1
 90
        1
176
     1
 90
        2
176
     1
 40
0.6
176
     1
 40
30.0
176
     1
 62
     7
420
 16777215
176
     1
 90
        1
176
     1
 90
       10
176
     1
 62
     7
176
     1
 62
   257
176
     1
 90
        2
176
     1
 90
        1
176
     1
 40
1.0
176
     1
 90
        8
176
     1
 62
   257
176
     1
 40
1.0
176
     1
 90
        1
176
     1
 90
        6
176
     1
 90
        2
176
     1
 62
     7
176
     1
 90
        3
176
     1
 90
        0
176
     1
 90
        0
176
     1
290
     0
176
     1
 90
        5
176
     1
 40
0.0
176
     1
 90
        0
176
     1
290
     0
176
     1
290
     1
176
     1
290
     1
176
     1
290
     0
176
     1
290
     0
176
     1
290
     0
176
     1
290
     0
176
     1
290
     0
176
     1
290
     0
176
     1
 90
       50
176
     1
 40
0.0
176
     1
 40
1.0
176
     1
 90
        0
176
     1
 62
    18
420
        0
176
     1
 90
       50
176
     1
 90
        3
176
     1
 62
     5
420
      255
176
     1
290
     0
176
     1
 90
       50
176
     1
 90
       50
176
     1
 90
       50
176
     1
290
     0
176
     1
 90
       50
176
     1
 62
   256
176
     0
 40
1.0
176
     0
 90
        2
176
     1
  1
strokes_ogs.tif
176
     1
290
     0
176
     1
 40
1.0
176
     1
 40
1.0
176
     1
  0
VISUALSTYLE
  5
DEAF8
102
{ACAD_REACTORS
330
DEAE4
102
}
330
DEAE4
100
AcDbVisualStyle
  2
Shades of Gray
 70
    23
177
     3
291
     0
 70
    58
 90
        2
176
     1
 90
        2
176
     1
 90
        3
176
     1
 90
        0
176
     1
 40
0.6
176
     1
 40
30.0
176
     1
 62
     7
420
 16777215
176
     1
 90
        2
176
     1
 90
        2
176
     1
 62
     7
176
     1
 62
     7
176
     1
 90
        1
176
     1
 90
        1
176
     1
 40
40.0
176
     1
 90
        8
176
     1
 62
     7
176
     1
 40
1.0
176
     1
 90
        1
176
     1
 90
        6
176
     1
 90
        2
176
     1
 62
     7
176
     1
 90
        3
176
     1
 90
        0
176
     1
 90
        0
176
     1
290
     0
176
     1
 90
        1
176
     1
 40
0.0
176
     1
 90
        0
176
     1
290
     0
176
     1
290
     1
176
     1
290
     1
176
     1
290
     0
176
     1
290
     0
176
     1
290
     0
176
     1
290
     0
176
     1
290
     0
176
     1
290
     0
176
     1
 90
       50
176
     1
 40
0.0
176
     1
 40
1.0
176
     1
 90
        0
176
     1
 62
    18
420
        0
176
     1
 90
       50
176
     1
 90
        3
176
     1
 62
     5
420
      255
176
     1
290
     0
176
     1
 90
       50
176
     1
 90
       50
176
     1
 90
       50
176
     1
290
     0
176
     1
 90
       50
176
     1
 62
   256
176
     0
 40
1.0
176
     0
 90
        2
176
     1
  1
strokes_ogs.tif
176
     1
290
     0
176
     1
 40
1.0
176
     1
 40
1.0
176
     1
  0
VISUALSTYLE
  5
DEAF9
102
{ACAD_REACTORS
330
DEAE4
102
}
330
DEAE4
100
AcDbVisualStyle
  2
Sketchy
 70
    24
177
     3
291
     0
 70
    58
 90
        1
176
     1
 90
        2
176
     1
 90
        2
176
     1
 90
        0
176
     1
 40
0.6
176
     1
 40
30.0
176
     1
 62
     7
420
 16777215
176
     1
 90
        2
176
     1
 90
        2
176
     1
 62
     7
176
     1
 62
     7
176
     1
 90
        1
176
     1
 90
        1
176
     1
 40
40.0
176
     1
 90
       11
176
     1
 62
     7
176
     1
 40
1.0
176
     1
 90
        1
176
     1
 90
        6
176
     1
 90
        2
176
     1
 62
     7
176
     1
 90
        6
176
     1
 90
        0
176
     1
 90
        0
176
     1
290
     0
176
     1
 90
        1
176
     1
 40
0.0
176
     1
 90
        0
176
     1
290
     0
176
     1
290
     1
176
     1
290
     1
176
     1
290
     0
176
     1
290
     0
176
     1
290
     0
176
     1
290
     0
176
     1
290
     0
176
     1
290
     0
176
     1
 90
       50
176
     1
 40
0.0
176
     1
 40
1.0
176
     1
 90
        0
176
     1
 62
    18
420
        0
176
     1
 90
       50
176
     1
 90
        3
176
     1
 62
     5
420
      255
176
     1
290
     0
176
     1
 90
       50
176
     1
 90
       50
176
     1
 90
       50
176
     1
290
     0
176
     1
 90
       50
176
     1
 62
   256
176
     0
 40
1.0
176
     0
 90
        2
176
     1
  1
strokes_ogs.tif
176
     1
290
     0
176
     1
 40
1.0
176
     1
 40
1.0
176
     1
  0
VISUALSTYLE
  5
DEAF1
102
{ACAD_REACTORS
330
DEAE4
102
}
330
DEAE4
100
AcDbVisualStyle
  2
Thicken
 70
    13
177
     3
291
     1
 70
    58
 90
        2
176
     1
 90
        2
176
     1
 90
        0
176
     1
 90
        0
176
     1
 40
0.6
176
     1
 40
30.0
176
     1
 62
     7
420
 16777215
176
     1
 90
        1
176
     1
 90
        4
176
     1
 62
     7
176
     1
 62
   257
176
     1
 90
        1
176
     1
 90
        1
176
     1
 40
1.0
176
     1
 90
       12
176
     1
 62
     7
176
     1
 40
1.0
176
     1
 90
        1
176
     1
 90
        6
176
     1
 90
        2
176
     1
 62
     7
176
     1
 90
        5
176
     1
 90
        0
176
     1
 90
        0
176
     1
290
     0
176
     1
 90
        1
176
     1
 40
0.0
176
     1
 90
        0
176
     1
290
     0
176
     1
290
     1
176
     1
290
     1
176
     1
290
     0
176
     1
290
     0
176
     1
290
     0
176
     1
290
     0
176
     1
290
     0
176
     1
290
     0
176
     1
 90
       50
176
     1
 40
0.0
176
     1
 40
1.0
176
     1
 90
        0
176
     1
 62
    18
420
        0
176
     1
 90
       50
176
     1
 90
        3
176
     1
 62
     5
420
      255
176
     1
290
     0
176
     1
 90
       50
176
     1
 90
       50
176
     1
 90
       50
176
     1
290
     0
176
     1
 90
       50
176
     1
 62
   256
176
     0
 40
1.0
176
     0
 90
        2
176
     1
  1
strokes_ogs.tif
176
     1
290
     0
176
     1
 40
1.0
176
     1
 40
1.0
176
     1
  0
VISUALSTYLE
  5
DEAEA
102
{ACAD_REACTORS
330
DEAE4
102
}
330
DEAE4
100
AcDbVisualStyle
  2
Wireframe
 70
     5
177
     3
291
     0
 70
    58
 90
        0
176
     1
 90
        2
176
     1
 90
        0
176
     1
 90
        0
176
     1
 40
0.6
176
     1
 40
30.0
176
     1
 62
     7
420
 16777215
176
     1
 90
        1
176
     1
 90
        4
176
     1
 62
     7
176
     1
 62
   257
176
     1
 90
        1
176
     1
 90
        1
176
     1
 40
1.0
176
     1
 90
        0
176
     1
 62
   257
176
     1
 40
1.0
176
     1
 90
        1
176
     1
 90
        6
176
     1
 90
        2
176
     1
 62
     7
176
     1
 90
        3
176
     1
 90
        0
176
     1
 90
        0
176
     1
290
     0
176
     1
 90
        1
176
     1
 40
0.0
176
     1
 90
        0
176
     1
290
     0
176
     1
290
     1
176
     1
290
     1
176
     1
290
     0
176
     1
290
     0
176
     1
290
     0
176
     1
290
     0
176
     1
290
     0
176
     1
290
     0
176
     1
 90
       50
176
     1
 40
0.0
176
     1
 40
1.0
176
     1
 90
        0
176
     1
 62
    18
420
        0
176
     1
 90
       50
176
     1
 90
        3
176
     1
 62
     5
420
      255
176
     1
290
     0
176
     1
 90
       50
176
     1
 90
       50
176
     1
 90
       50
176
     1
290
     0
176
     1
 90
       50
176
     1
 62
   256
176
     0
 40
1.0
176
     0
 90
        2
176
     1
  1
strokes_ogs.tif
176
     1
290
     0
176
     1
 40
1.0
176
     1
 40
1.0
176
     1
  0
VISUALSTYLE
  5
DEAFA
102
{ACAD_REACTORS
330
DEAE4
102
}
330
DEAE4
100
AcDbVisualStyle
  2
X-Ray
 70
    25
177
     3
291
     0
 70
    58
 90
        2
176
     1
 90
        2
176
     1
 90
        1
176
     1
 90
        1
176
     1
 40
0.5
176
     1
 40
30.0
176
     1
 62
     7
420
 16777215
176
     1
 90
        1
176
     1
 90
        0
176
     1
 62
     7
176
     1
 62
   257
176
     1
 90
        1
176
     1
 90
        1
176
     1
 40
1.0
176
     1
 90
        8
176
     1
 62
     7
176
     1
 40
1.0
176
     1
 90
        1
176
     1
 90
        6
176
     1
 90
        2
176
     1
 62
     7
176
     1
 90
        3
176
     1
 90
        0
176
     1
 90
        0
176
     1
290
     0
176
     1
 90
       13
176
     1
 40
0.0
176
     1
 90
        0
176
     1
290
     0
176
     1
290
     1
176
     1
290
     1
176
     1
290
     0
176
     1
290
     0
176
     1
290
     0
176
     1
290
     0
176
     1
290
     0
176
     1
290
     0
176
     1
 90
       50
176
     1
 40
0.0
176
     1
 40
1.0
176
     1
 90
        0
176
     1
 62
    18
420
        0
176
     1
 90
       50
176
     1
 90
        3
176
     1
 62
     5
420
      255
176
     1
290
     0
176
     1
 90
       50
176
     1
 90
       50
176
     1
 90
       50
176
     1
290
     0
176
     1
 90
       50
176
     1
 62
   256
176
     0
 40
1.0
176
     0
 90
        2
176
     1
  1
strokes_ogs.tif
176
     1
290
     0
176
     1
 40
1.0
176
     1
 40
1.0
176
     1
  0
DICTIONARYVAR
  5
DEB08
102
{ACAD_REACTORS
330
DEB07
102
}
330
DEB07
100
DictionaryVariables
280
     0
  1
1:1
  0
DICTIONARYVAR
  5
DEB0A
102
{ACAD_REACTORS
330
DEB07
102
}
330
DEB07
100
DictionaryVariables
280
     0
  1
Standard
  0
DICTIONARYVAR
  5
DEB09
102
{ACAD_REACTORS
330
DEB07
102
}
330
DEB07
100
DictionaryVariables
280
     0
  1
Standard
  0
DICTIONARYVAR
  5
DEB0B
102
{ACAD_REACTORS
330
DEB07
102
}
330
DEB07
100
DictionaryVariables
280
     0
  1
0
  0
DICTIONARY
  5
DED4A
330
DEAFE
100
AcDbDictionary
280
     1
281
     1
  3
ACAD_ROUNDTRIP_2008_TABLESTYLE_CELLSTYLEMAP
360
DED4B
  0
CELLSTYLEMAP
  5
DED4B
102
{ACAD_REACTORS
330
DED4A
102
}
330
DED4A
100
AcDbCellStyleMap
 90
        3
300
CELLSTYLE
  1
TABLEFORMAT_BEGIN
 90
        5
170
     1
 91
        0
 92
    32768
 62
   257
 93
        1
300
CONTENTFORMAT
  1
CONTENTFORMAT_BEGIN
 90
        0
 91
        0
 92
        4
 93
        0
300

 40
0.0
140
1.0
 94
        5
 62
     0
340
DEA80
144
0.25
309
CONTENTFORMAT_END
171
     1
301
MARGIN
  1
CELLMARGIN_BEGIN
 40
0.06
 40
0.06
 40
0.06
 40
0.06
 40
0.06
 40
0.06
309
CELLMARGIN_END
 94
        6
 95
        1
302
GRIDFORMAT
  1
GRIDFORMAT_BEGIN
 90
        0
 91
        1
 62
     0
 92
       -2
340
DEA82
 93
        0
 40
0.045
309
GRIDFORMAT_END
 95
        2
302
GRIDFORMAT
  1
GRIDFORMAT_BEGIN
 90
        0
 91
        1
 62
     0
 92
       -2
340
DEA82
 93
        0
 40
0.045
309
GRIDFORMAT_END
 95
        4
302
GRIDFORMAT
  1
GRIDFORMAT_BEGIN
 90
        0
 91
        1
 62
     0
 92
       -2
340
DEA82
 93
        0
 40
0.045
309
GRIDFORMAT_END
 95
        8
302
GRIDFORMAT
  1
GRIDFORMAT_BEGIN
 90
        0
 91
        1
 62
     0
 92
       -2
340
DEA82
 93
        0
 40
0.045
309
GRIDFORMAT_END
 95
       16
302
GRIDFORMAT
  1
GRIDFORMAT_BEGIN
 90
        0
 91
        1
 62
     0
 92
       -2
340
DEA82
 93
        0
 40
0.045
309
GRIDFORMAT_END
 95
       32
302
GRIDFORMAT
  1
GRIDFORMAT_BEGIN
 90
        0
 91
        1
 62
     0
 92
       -2
340
DEA82
 93
        0
 40
0.045
309
GRIDFORMAT_END
309
TABLEFORMAT_END
  1
CELLSTYLE_BEGIN
 90
        1
 91
        1
300
_TITLE
309
CELLSTYLE_END
300
CELLSTYLE
  1
TABLEFORMAT_BEGIN
 90
        5
170
     1
 91
        0
 92
        0
 62
   257
 93
        1
300
CONTENTFORMAT
  1
CONTENTFORMAT_BEGIN
 90
        0
 91
        0
 92
        4
 93
        0
300

 40
0.0
140
1.0
 94
        5
 62
     0
340
DEA80
144
0.18
309
CONTENTFORMAT_END
171
     1
301
MARGIN
  1
CELLMARGIN_BEGIN
 40
0.06
 40
0.06
 40
0.06
 40
0.06
 40
0.06
 40
0.06
309
CELLMARGIN_END
 94
        6
 95
        1
302
GRIDFORMAT
  1
GRIDFORMAT_BEGIN
 90
        0
 91
        1
 62
     0
 92
       -2
340
DEA82
 93
        0
 40
0.045
309
GRIDFORMAT_END
 95
        2
302
GRIDFORMAT
  1
GRIDFORMAT_BEGIN
 90
        0
 91
        1
 62
     0
 92
       -2
340
DEA82
 93
        0
 40
0.045
309
GRIDFORMAT_END
 95
        4
302
GRIDFORMAT
  1
GRIDFORMAT_BEGIN
 90
        0
 91
        1
 62
     0
 92
       -2
340
DEA82
 93
        0
 40
0.045
309
GRIDFORMAT_END
 95
        8
302
GRIDFORMAT
  1
GRIDFORMAT_BEGIN
 90
        0
 91
        1
 62
     0
 92
       -2
340
DEA82
 93
        0
 40
0.045
309
GRIDFORMAT_END
 95
       16
302
GRIDFORMAT
  1
GRIDFORMAT_BEGIN
 90
        0
 91
        1
 62
     0
 92
       -2
340
DEA82
 93
        0
 40
0.045
309
GRIDFORMAT_END
 95
       32
302
GRIDFORMAT
  1
GRIDFORMAT_BEGIN
 90
        0
 91
        1
 62
     0
 92
       -2
340
DEA82
 93
        0
 40
0.045
309
GRIDFORMAT_END
309
TABLEFORMAT_END
  1
CELLSTYLE_BEGIN
 90
        2
 91
        1
300
_HEADER
309
CELLSTYLE_END
300
CELLSTYLE
  1
TABLEFORMAT_BEGIN
 90
        5
170
     1
 91
        0
 92
        0
 62
   257
 93
        1
300
CONTENTFORMAT
  1
CONTENTFORMAT_BEGIN
 90
        0
 91
        0
 92
        4
 93
        0
300

 40
0.0
140
1.0
 94
        2
 62
     0
340
DEA80
144
0.18
309
CONTENTFORMAT_END
171
     1
301
MARGIN
  1
CELLMARGIN_BEGIN
 40
0.06
 40
0.06
 40
0.06
 40
0.06
 40
0.06
 40
0.06
309
CELLMARGIN_END
 94
        6
 95
        1
302
GRIDFORMAT
  1
GRIDFORMAT_BEGIN
 90
        0
 91
        1
 62
     0
 92
       -2
340
DEA82
 93
        0
 40
0.045
309
GRIDFORMAT_END
 95
        2
302
GRIDFORMAT
  1
GRIDFORMAT_BEGIN
 90
        0
 91
        1
 62
     0
 92
       -2
340
DEA82
 93
        0
 40
0.045
309
GRIDFORMAT_END
 95
        4
302
GRIDFORMAT
  1
GRIDFORMAT_BEGIN
 90
        0
 91
        1
 62
     0
 92
       -2
340
DEA82
 93
        0
 40
0.045
309
GRIDFORMAT_END
 95
        8
302
GRIDFORMAT
  1
GRIDFORMAT_BEGIN
 90
        0
 91
        1
 62
     0
 92
       -2
340
DEA82
 93
        0
 40
0.045
309
GRIDFORMAT_END
 95
       16
302
GRIDFORMAT
  1
GRIDFORMAT_BEGIN
 90
        0
 91
        1
 62
     0
 92
       -2
340
DEA82
 93
        0
 40
0.045
309
GRIDFORMAT_END
 95
       32
302
GRIDFORMAT
  1
GRIDFORMAT_BEGIN
 90
        0
 91
        1
 62
     0
 92
       -2
340
DEA82
 93
        0
 40
0.045
309
GRIDFORMAT_END
309
TABLEFORMAT_END
  1
CELLSTYLE_BEGIN
 90
        3
 91
        2
300
_DATA
309
CELLSTYLE_END
  0
ENDSEC
  0
EOF
