  0
SECTION
  2
HEADER
  9
$ACADVER
  1
AC1009
  9
$DWGCODEPAGE
  3
ansi_1252
  9
$INSBASE
 10
0.0
 20
0.0
 30
0.0
  9
$EXTMIN
 10
-4012.685974119231
 20
-987.6576470269351
 30
0.0
  9
$EXTMAX
 10
4012.685974119231
 20
5604.657866880791
 30
0.0
  9
$LIMMIN
 10
0.0
 20
0.0
  9
$LIMMAX
 10
12.0
 20
9.0
  9
$ORTHOMODE
 70
     1
  9
$REGENMODE
 70
     1
  9
$FILLMODE
 70
     1
  9
$QTEXTMODE
 70
     0
  9
$MIRRTEXT
 70
     0
  9
$DRAGMODE
 70
     2
  9
$LTSCALE
 40
5.0
  9
$OSMODE
 70
 16383
  9
$ATTMODE
 70
     1
  9
$TEXTSIZE
 40
19.0
  9
$TRACEWID
 40
0.05
  9
$TEXTSTYLE
  7
STILE1
  9
$CLAYER
  8
0
  9
$CELTYPE
  6
BYLAYER
  9
$CECOLOR
 62
   256
  9
$DIMSCALE
 40
50.0
  9
$DIMASZ
 40
2.5
  9
$DIMEXO
 40
1.0
  9
$DIMDLI
 40
0.0
  9
$DIMRND
 40
0.0
  9
$DIMDLE
 40
0.0
  9
$DIMEXE
 40
1.0
  9
$DIMTP
 40
0.0
  9
$DIMTM
 40
0.0
  9
$DIMTXT
 40
2.5
  9
$DIMCEN
 40
1.0
  9
$DIMTSZ
 40
0.0
  9
$DIMTOL
 70
     0
  9
$DIMLIM
 70
     0
  9
$DIMTIH
 70
     0
  9
$DIMTOH
 70
     0
  9
$DIMSE1
 70
     0
  9
$DIMSE2
 70
     0
  9
$DIMTAD
 70
     1
  9
$DIMZIN
 70
     8
  9
$DIMBLK
  1

  9
$DIMASO
 70
     1
  9
$DIMSHO
 70
     0
  9
$DIMPOST
  1

  9
$DIMAPOST
  1

  9
$DIMALT
 70
     0
  9
$DIMALTD
 70
     2
  9
$DIMALTF
 40
25.4
  9
$DIMLFAC
 40
1.0
  9
$DIMTOFL
 70
     1
  9
$DIMTVP
 40
0.0
  9
$DIMTIX
 70
     1
  9
$DIMSOXD
 70
     0
  9
$DIMSAH
 70
     0
  9
$DIMBLK1
  1

  9
$DIMBLK2
  1

  9
$DIMSTYLE
  2
STANDARD
  9
$DIMCLRD
 70
     0
  9
$DIMCLRE
 70
     0
  9
$DIMCLRT
 70
     0
  9
$DIMTFAC
 40
1.0
  9
$DIMGAP
 40
1.5
  9
$LUNITS
 70
     2
  9
$LUPREC
 70
     4
  9
$SKETCHINC
 40
0.1
  9
$FILLETRAD
 40
20.0
  9
$AUNITS
 70
     0
  9
$AUPREC
 70
     0
  9
$MENU
  1
acad
  9
$ELEVATION
 40
0.0
  9
$PELEVATION
 40
0.0
  9
$THICKNESS
 40
0.0
  9
$LIMCHECK
 70
     0
  9
$CHAMFERA
 40
1200.0
  9
$CHAMFERB
 40
1200.0
  9
$SKPOLY
 70
     0
  9
$TDCREATE
 40
2450277.504307755
  9
$TDUPDATE
 40
2459748.768863923
  9
$TDINDWG
 40
26.2485896644
  9
$TDUSRTIMER
 40
0.0002795023
  9
$USRTIMER
 70
     1
  9
$ANGBASE
 50
0.0
  9
$ANGDIR
 70
     0
  9
$PDMODE
 70
     0
  9
$PDSIZE
 40
0.0
  9
$PLINEWID
 40
0.0
  9
$COORDS
 70
     1
  9
$SPLFRAME
 70
     0
  9
$SPLINETYPE
 70
     6
  9
$SPLINESEGS
 70
     8
  9
$ATTDIA
 70
     0
  9
$ATTREQ
 70
     1
  9
$HANDLING
 70
     1
  9
$HANDSEED
  5
DE7B5
  9
$SURFTAB1
 70
     6
  9
$SURFTAB2
 70
     6
  9
$SURFTYPE
 70
     6
  9
$SURFU
 70
     6
  9
$SURFV
 70
     6
  9
$UCSNAME
  2

  9
$UCSORG
 10
0.0
 20
0.0
 30
0.0
  9
$UCSXDIR
 10
1.0
 20
0.0
 30
0.0
  9
$UCSYDIR
 10
0.0
 20
1.0
 30
0.0
  9
$PUCSNAME
  2

  9
$PUCSORG
 10
0.0
 20
0.0
 30
0.0
  9
$PUCSXDIR
 10
1.0
 20
0.0
 30
0.0
  9
$PUCSYDIR
 10
0.0
 20
1.0
 30
0.0
  9
$USERI1
 70
     0
  9
$USERI2
 70
     0
  9
$USERI3
 70
     0
  9
$USERI4
 70
     0
  9
$USERI5
 70
     0
  9
$USERR1
 40
0.0
  9
$USERR2
 40
0.0
  9
$USERR3
 40
0.0
  9
$USERR4
 40
0.0
  9
$USERR5
 40
0.0
  9
$WORLDVIEW
 70
     0
  9
$SHADEDGE
 70
     3
  9
$SHADEDIF
 70
    70
  9
$TILEMODE
 70
     1
  9
$MAXACTVP
 70
    16
  9
$PLIMCHECK
 70
     0
  9
$PEXTMIN
 10
0.0
 20
0.0
 30
0.0
  9
$PEXTMAX
 10
0.0
 20
0.0
 30
0.0
  9
$PLIMMIN
 10
0.0
 20
0.0
  9
$PLIMMAX
 10
0.0
 20
0.0
  9
$UNITMODE
 70
     0
  9
$VISRETAIN
 70
     0
  9
$PLINEGEN
 70
     0
  9
$PSLTSCALE
 70
     1
  0
ENDSEC
  0
SECTION
  2
TABLES
  0
TABLE
  2
VPORT
 70
     1
  0
VPORT
  2
*ACTIVE
 70
     0
 10
0.0
 20
0.0
 11
1.0
 21
1.0
 12
0.0
 22
2308.500109926928
 13
0.0
 23
0.0
 14
1.0
 24
1.0
 15
0.0
 25
0.0
 16
0.0
 26
0.0
 36
1.0
 17
0.0
 27
0.0
 37
0.0
 40
6724.161824185881
 41
2.040114613180516
 42
50.0
 43
0.0
 44
0.0
 50
0.0
 51
0.0
 71
    16
 72
   100
 73
     1
 74
     1
 75
     0
 76
     1
 77
     0
 78
     0
  0
ENDTAB
  0
TABLE
  2
LTYPE
 70
     1
  0
LTYPE
  2
CONTINUOUS
 70
     0
  3
Solid line
 72
    65
 73
     0
 40
0.0
  0
ENDTAB
  0
TABLE
  2
LAYER
 70
     1
  0
LAYER
  2
0
 70
     0
 62
     7
  6
CONTINUOUS
  0
ENDTAB
  0
TABLE
  2
STYLE
 70
     2
  0
STYLE
  2
STANDARD
 70
     0
 40
0.0
 41
1.0
 50
0.0
 71
     0
 42
2.5
  3
txt
  4

  0
STYLE
  2
STILE1
 70
     0
 40
0.0
 41
1.0
 50
0.0
 71
     0
 42
19.0
  3
ROMANS.SHX
  4

  0
ENDTAB
  0
TABLE
  2
VIEW
 70
     0
  0
ENDTAB
  0
TABLE
  2
UCS
 70
     0
  0
ENDTAB
  0
TABLE
  2
APPID
 70
    40
  0
APPID
  2
ACAD
 70
     0
  0
APPID
  2
DCO15
 70
     0
  0
APPID
  2
ACAECLAYERSTANDARD
 70
     0
  0
APPID
  2
ACDBDYNAMICBLOCKGUID
 70
     0
  0
APPID
  2
ACDBBLOCKREPETAG
 70
     0
  0
APPID
  2
ACAD_PSEXT
 70
     0
  0
APPID
  2
ACAD_DSTYLE_DIMJAG
 70
     0
  0
APPID
  2
ACAD_DSTYLE_DIMTALN
 70
     0
  0
APPID
  2
ACAD_DSTYLE_DIMRADIAL_EXTE
 70
     0
  0
APPID
  2
RAK
 70
     0
  0
APPID
  2
ACLAYERTOOLS
 70
     0
  0
APPID
  2
REVIT
 70
     0
  0
APPID
  2
ACAD_MLEADERVER
 70
     0
  0
APPID
  2
ACAD_DSTYLE_DIMBREAK
 70
     0
  0
APPID
  2
ACCMTRANSPARENCY
 70
     0
  0
APPID
  2
ACAD_NAV_VCDISPLAY
 70
     0
  0
APPID
  2
GRADIENTCOLOR1ACI
 70
     0
  0
APPID
  2
GRADIENTCOLOR2ACI
 70
     0
  0
APPID
  2
PROGE_PRINT_SETTINGS
 70
     0
  0
APPID
  2
AA_WLPR
 70
     0
  0
APPID
  2
AA_WLENT
 70
     0
  0
APPID
  2
AA_WLTP
 70
     0
  0
APPID
  2
AA_WLBK
 70
     0
  0
APPID
  2
ACAD_DSTYLE_DIMJOGGED_JOGA
 70
     0
  0
APPID
  2
$DDT_AUDIT_GENERATED__2CAF
 70
     0
  0
APPID
  2
ACAD_DSTYLE_DIMEXT_LENGTH
 70
     0
  0
APPID
  2
ACAD_DSTYLE_DIMEXT_ENABLED
 70
     0
  0
APPID
  2
ACAD_DSTYLE_DIMJOGGED_JOG0
 70
     0
  0
APPID
  2
ACAD_DSTYLE_DIMARC_LENGTH_
 70
     0
  0
APPID
  2
C_AND_O
 70
     0
  0
APPID
  2
AVE_FINISH
 70
     0
  0
APPID
  2
AVE_RENDER
 70
     0
  0
APPID
  2
AVE_ENTITY_MATERIAL
 70
     0
  0
APPID
  2
AVE_MATERIAL
 70
     0
  0
APPID
  2
ADDC5$_$SETUP-
 70
     0
  0
APPID
  2
ADDC4$_$SETUP-
 70
     0
  0
APPID
  2
ADDC4$_$ARTSETUP-
 70
     0
  0
APPID
  2
GENIUS_GENODEF_13
 70
     0
  0
APPID
  2
GENIUS_GENOBJ-N-REC_13
 70
     0
  0
APPID
  2
GENIUS_GENREC_14
 70
     0
  0
ENDTAB
  0
TABLE
  2
DIMSTYLE
 70
     1
  0
DIMSTYLE
  2
STANDARD
 70
     0
  3

  4

  5

  6

  7

 40
1.0
 41
0.18
 42
0.0625
 43
0.38
 44
0.18
 45
0.0
 46
0.0
 47
0.0
 48
0.0
140
0.18
141
0.09
142
0.0
143
25.4
144
1.0
145
0.0
146
1.0
147
0.09
 71
     0
 72
     0
 73
     1
 74
     1
 75
     0
 76
     0
 77
     0
 78
     0
170
     0
171
     2
172
     0
173
     0
174
     0
175
     0
176
     0
177
     0
178
     0
  0
ENDTAB
  0
ENDSEC
  0
SECTION
  2
BLOCKS
  0
BLOCK
  8
0
  2
$MODEL_SPACE
 70
     0
 10
0.0
 20
0.0
 30
0.0
  3
$MODEL_SPACE
  1

  0
ENDBLK
  5
DDDA5
  8
0
  0
BLOCK
 67
     1
  8
0
  2
$PAPER_SPACE
 70
     0
 10
0.0
 20
0.0
 30
0.0
  3
$PAPER_SPACE
  1

  0
ENDBLK
  5
DDDA1
 67
     1
  8
0
  0
ENDSEC
  0
SECTION
  2
ENTITIES
  0
POLYLINE
  5
DB831
  8
0
 66
     1
 10
0.0
 20
0.0
 30
0.0
 70
     1
  0
VERTEX
  5
DE58A
  8
0
 10
-3557.999959799969
 20
4519.65786688079
 30
0.0
  0
VERTEX
  5
DE58B
  8
0
 10
-3557.999959799969
 20
4532.657866880792
 30
0.0
  0
VERTEX
  5
DE58C
  8
0
 10
-2728.999959799968
 20
4532.657866880792
 30
0.0
  0
VERTEX
  5
DE58D
  8
0
 10
-2728.999959799968
 20
4519.65786688079
 30
0.0
  0
SEQEND
  5
DE74F
  8
0
  0
POLYLINE
  5
DB832
  8
0
 66
     1
 10
0.0
 20
0.0
 30
0.0
 70
     1
  0
VERTEX
  5
DE58E
  8
0
 10
-3532.999959799969
 20
4489.657866880793
 30
0.0
  0
VERTEX
  5
DE58F
  8
0
 10
-3532.999959799969
 20
4519.65786688079
 30
0.0
  0
VERTEX
  5
DE590
  8
0
 10
-2753.999959799968
 20
4519.65786688079
 30
0.0
  0
VERTEX
  5
DE591
  8
0
 10
-2753.999959799968
 20
4489.657866880793
 30
0.0
  0
SEQEND
  5
DE750
  8
0
  0
POLYLINE
  5
DB833
  8
0
 66
     1
 10
0.0
 20
0.0
 30
0.0
 70
     1
  0
VERTEX
  5
DE592
  8
0
 10
-2753.999959799968
 20
3719.657866880793
 30
0.0
  0
VERTEX
  5
DE593
  8
0
 10
-2753.999959799968
 20
4519.65786688079
 30
0.0
  0
VERTEX
  5
DE594
  8
0
 10
-2728.999959799968
 20
4519.65786688079
 30
0.0
  0
VERTEX
  5
DE595
  8
0
 10
-2728.999959799968
 20
3719.657866880793
 30
0.0
  0
SEQEND
  5
DE751
  8
0
  0
POLYLINE
  5
DB834
  8
0
 66
     1
 10
0.0
 20
0.0
 30
0.0
 70
     1
  0
VERTEX
  5
DE596
  8
0
 10
-3557.999959799969
 20
3719.657866880793
 30
0.0
  0
VERTEX
  5
DE597
  8
0
 10
-3557.999959799969
 20
4519.65786688079
 30
0.0
  0
VERTEX
  5
DE598
  8
0
 10
-3532.999959799969
 20
4519.65786688079
 30
0.0
  0
VERTEX
  5
DE599
  8
0
 10
-3532.999959799969
 20
3719.657866880793
 30
0.0
  0
SEQEND
  5
DE752
  8
0
  0
POLYLINE
  5
DB835
  8
0
 66
     1
 10
0.0
 20
0.0
 30
0.0
 70
     1
  0
VERTEX
  5
DE59A
  8
0
 10
-3557.999959799969
 20
3679.657866880793
 30
0.0
  0
VERTEX
  5
DE59B
  8
0
 10
-3557.999959799969
 20
3719.657866880793
 30
0.0
  0
VERTEX
  5
DE59C
  8
0
 10
-2728.999959799968
 20
3719.657866880793
 30
0.0
  0
VERTEX
  5
DE59D
  8
0
 10
-2728.999959799968
 20
3679.657866880793
 30
0.0
  0
SEQEND
  5
DE753
  8
0
  0
POLYLINE
  5
DB836
  8
0
 66
     1
 10
0.0
 20
0.0
 30
0.0
 70
     1
  0
VERTEX
  5
DE59E
  8
0
 10
-3532.999959799969
 20
3719.657866880793
 30
0.0
  0
VERTEX
  5
DE59F
  8
0
 10
-3532.999959799969
 20
3781.657866880793
 30
0.0
  0
VERTEX
  5
DE5A0
  8
0
 10
-2753.999959799968
 20
3781.657866880793
 30
0.0
  0
VERTEX
  5
DE5A1
  8
0
 10
-2753.999959799968
 20
3719.657866880793
 30
0.0
  0
SEQEND
  5
DE754
  8
0
  0
POLYLINE
  5
DB84F
  8
0
 66
     1
 10
0.0
 20
0.0
 30
0.0
 70
     1
  0
VERTEX
  5
DE5A2
  8
0
 10
1957.999959799968
 20
3679.347254469617
 30
0.0
  0
VERTEX
  5
DE5A3
  8
0
 10
1957.999959799968
 20
4519.347254469617
 30
0.0
  0
VERTEX
  5
DE5A4
  8
0
 10
2557.999959799968
 20
4519.347254469617
 30
0.0
  0
VERTEX
  5
DE5A5
  8
0
 10
2557.999959799968
 20
3679.347254469617
 30
0.0
  0
SEQEND
  5
DE755
  8
0
  0
POLYLINE
  5
DB850
  8
0
 66
     1
 10
0.0
 20
0.0
 30
0.0
 70
     1
  0
VERTEX
  5
DE5A6
  8
0
 10
1957.999959799968
 20
4519.347254469617
 30
0.0
  0
VERTEX
  5
DE5A7
  8
0
 10
1957.999959799968
 20
4532.347254469617
 30
0.0
  0
VERTEX
  5
DE5A8
  8
0
 10
2557.999959799968
 20
4532.347254469617
 30
0.0
  0
VERTEX
  5
DE5A9
  8
0
 10
2557.999959799968
 20
4519.347254469617
 30
0.0
  0
SEQEND
  5
DE756
  8
0
  0
POLYLINE
  5
DB851
  8
0
 66
     1
 10
0.0
 20
0.0
 30
0.0
 70
     1
  0
VERTEX
  5
DE5AA
  8
0
 10
-2278.660356874153
 20
4991.657866880792
 30
0.0
  0
VERTEX
  5
DE5AB
  8
0
 10
-2278.660356874153
 20
5004.657866880791
 30
0.0
  0
VERTEX
  5
DE5AC
  8
0
 10
-1449.660356874153
 20
5004.657866880791
 30
0.0
  0
VERTEX
  5
DE5AD
  8
0
 10
-1449.660356874153
 20
4991.657866880792
 30
0.0
  0
SEQEND
  5
DE757
  8
0
  0
POLYLINE
  5
DB852
  8
0
 66
     1
 10
0.0
 20
0.0
 30
0.0
 70
     1
  0
VERTEX
  5
DE5AE
  8
0
 10
-2253.999959799968
 20
4961.65786688079
 30
0.0
  0
VERTEX
  5
DE5AF
  8
0
 10
-2253.999959799968
 20
4991.657866880792
 30
0.0
  0
VERTEX
  5
DE5B0
  8
0
 10
-1474.999959799968
 20
4991.657866880792
 30
0.0
  0
VERTEX
  5
DE5B1
  8
0
 10
-1474.999959799968
 20
4961.65786688079
 30
0.0
  0
SEQEND
  5
DE758
  8
0
  0
POLYLINE
  5
DB853
  8
0
 66
     1
 10
0.0
 20
0.0
 30
0.0
 70
     1
  0
VERTEX
  5
DE5B2
  8
0
 10
-1474.999959799968
 20
3719.657866880793
 30
0.0
  0
VERTEX
  5
DE5B3
  8
0
 10
-1474.999959799968
 20
4991.657866880792
 30
0.0
  0
VERTEX
  5
DE5B4
  8
0
 10
-1449.999959799968
 20
4991.657866880792
 30
0.0
  0
VERTEX
  5
DE5B5
  8
0
 10
-1449.999646934489
 20
3719.657866878345
 30
0.0
  0
SEQEND
  5
DE759
  8
0
  0
POLYLINE
  5
DB854
  8
0
 66
     1
 10
0.0
 20
0.0
 30
0.0
 70
     1
  0
VERTEX
  5
DE5B6
  8
0
 10
-2278.989604377928
 20
3719.66433529269
 30
0.0
  0
VERTEX
  5
DE5B7
  8
0
 10
-2278.660356874153
 20
4991.657866880792
 30
0.0
  0
VERTEX
  5
DE5B8
  8
0
 10
-2253.999959799968
 20
4991.657866880792
 30
0.0
  0
VERTEX
  5
DE5B9
  8
0
 10
-2253.999959799968
 20
3719.657866880793
 30
0.0
  0
SEQEND
  5
DE75A
  8
0
  0
POLYLINE
  5
DB855
  8
0
 66
     1
 10
0.0
 20
0.0
 30
0.0
 70
     1
  0
VERTEX
  5
DE5BA
  8
0
 10
-2278.999959799968
 20
3679.657866880793
 30
0.0
  0
VERTEX
  5
DE5BB
  8
0
 10
-2278.989604377928
 20
3719.66433529269
 30
0.0
  0
VERTEX
  5
DE5BC
  8
0
 10
-1449.999959799968
 20
3719.657866880793
 30
0.0
  0
VERTEX
  5
DE5BD
  8
0
 10
-1449.999959799968
 20
3679.657866880793
 30
0.0
  0
SEQEND
  5
DE75B
  8
0
  0
POLYLINE
  5
DB856
  8
0
 66
     1
 10
0.0
 20
0.0
 30
0.0
 70
     1
  0
VERTEX
  5
DE5BE
  8
0
 10
-2253.999959799968
 20
3719.657866880793
 30
0.0
  0
VERTEX
  5
DE5BF
  8
0
 10
-2253.999959799968
 20
3781.657866880793
 30
0.0
  0
VERTEX
  5
DE5C0
  8
0
 10
-1474.999959799968
 20
3781.657866880793
 30
0.0
  0
VERTEX
  5
DE5C1
  8
0
 10
-1474.999959799968
 20
3719.657866880793
 30
0.0
  0
SEQEND
  5
DE75C
  8
0
  0
POLYLINE
  5
DB86F
  8
0
 66
     1
 10
0.0
 20
0.0
 30
0.0
 70
     1
  0
VERTEX
  5
DE5C2
  8
0
 10
2857.999959799968
 20
3679.347254469617
 30
0.0
  0
VERTEX
  5
DE5C3
  8
0
 10
2857.999959799968
 20
4991.347254469618
 30
0.0
  0
VERTEX
  5
DE5C4
  8
0
 10
3457.999959799969
 20
4991.347254469618
 30
0.0
  0
VERTEX
  5
DE5C5
  8
0
 10
3457.999959799969
 20
3679.347254469617
 30
0.0
  0
SEQEND
  5
DE75D
  8
0
  0
POLYLINE
  5
DB870
  8
0
 66
     1
 10
0.0
 20
0.0
 30
0.0
 70
     1
  0
VERTEX
  5
DE5C6
  8
0
 10
2857.999959799968
 20
4991.347254469618
 30
0.0
  0
VERTEX
  5
DE5C7
  8
0
 10
2857.999959799968
 20
5004.347254469616
 30
0.0
  0
VERTEX
  5
DE5C8
  8
0
 10
3457.999959799969
 20
5004.347254469616
 30
0.0
  0
VERTEX
  5
DE5C9
  8
0
 10
3457.999959799969
 20
4991.347254469618
 30
0.0
  0
SEQEND
  5
DE75E
  8
0
  0
POLYLINE
  5
DB881
  8
0
 66
     1
 10
0.0
 20
0.0
 30
0.0
 70
     1
  0
VERTEX
  5
DE5CA
  8
0
 10
-999.999959799968
 20
4519.65786688079
 30
0.0
  0
VERTEX
  5
DE5CB
  8
0
 10
-999.999959799968
 20
4532.657866880792
 30
0.0
  0
VERTEX
  5
DE5CC
  8
0
 10
-170.9999597999681
 20
4532.657866880792
 30
0.0
  0
VERTEX
  5
DE5CD
  8
0
 10
-170.9999597999681
 20
4519.65786688079
 30
0.0
  0
SEQEND
  5
DE75F
  8
0
  0
POLYLINE
  5
DB882
  8
0
 66
     1
 10
0.0
 20
0.0
 30
0.0
 70
     1
  0
VERTEX
  5
DE5CE
  8
0
 10
-974.999959799968
 20
4489.657866880793
 30
0.0
  0
VERTEX
  5
DE5CF
  8
0
 10
-974.999959799968
 20
4519.65786688079
 30
0.0
  0
VERTEX
  5
DE5D0
  8
0
 10
-195.9999597999681
 20
4519.65786688079
 30
0.0
  0
VERTEX
  5
DE5D1
  8
0
 10
-195.9999597999681
 20
4489.657866880793
 30
0.0
  0
SEQEND
  5
DE760
  8
0
  0
POLYLINE
  5
DB883
  8
0
 66
     1
 10
0.0
 20
0.0
 30
0.0
 70
     1
  0
VERTEX
  5
DE5D2
  8
0
 10
-195.9999597999681
 20
3719.657866880793
 30
0.0
  0
VERTEX
  5
DE5D3
  8
0
 10
-195.9999597999681
 20
4519.65786688079
 30
0.0
  0
VERTEX
  5
DE5D4
  8
0
 10
-170.9999597999681
 20
4519.65786688079
 30
0.0
  0
VERTEX
  5
DE5D5
  8
0
 10
-170.9999597999681
 20
3719.657866880793
 30
0.0
  0
SEQEND
  5
DE761
  8
0
  0
POLYLINE
  5
DB884
  8
0
 66
     1
 10
0.0
 20
0.0
 30
0.0
 70
     1
  0
VERTEX
  5
DE5D6
  8
0
 10
-999.999959799968
 20
3719.657866880793
 30
0.0
  0
VERTEX
  5
DE5D7
  8
0
 10
-999.999959799968
 20
4519.65786688079
 30
0.0
  0
VERTEX
  5
DE5D8
  8
0
 10
-974.999959799968
 20
4519.65786688079
 30
0.0
  0
VERTEX
  5
DE5D9
  8
0
 10
-974.999959799968
 20
3719.657866880793
 30
0.0
  0
SEQEND
  5
DE762
  8
0
  0
POLYLINE
  5
DB885
  8
0
 66
     1
 10
0.0
 20
0.0
 30
0.0
 70
     1
  0
VERTEX
  5
DE5DA
  8
0
 10
-999.999959799968
 20
3679.657866880793
 30
0.0
  0
VERTEX
  5
DE5DB
  8
0
 10
-999.999959799968
 20
3719.657866880793
 30
0.0
  0
VERTEX
  5
DE5DC
  8
0
 10
-170.9999597999681
 20
3719.657866880793
 30
0.0
  0
VERTEX
  5
DE5DD
  8
0
 10
-170.9999597999681
 20
3679.657866880793
 30
0.0
  0
SEQEND
  5
DE763
  8
0
  0
POLYLINE
  5
DB886
  8
0
 66
     1
 10
0.0
 20
0.0
 30
0.0
 70
     1
  0
VERTEX
  5
DE5DE
  8
0
 10
-974.999959799968
 20
3719.657866880793
 30
0.0
  0
VERTEX
  5
DE5DF
  8
0
 10
-974.999959799968
 20
3781.657866880793
 30
0.0
  0
VERTEX
  5
DE5E0
  8
0
 10
-195.9999597999681
 20
3781.657866880793
 30
0.0
  0
VERTEX
  5
DE5E1
  8
0
 10
-195.9999597999681
 20
3719.657866880793
 30
0.0
  0
SEQEND
  5
DE764
  8
0
  0
POLYLINE
  5
DB893
  8
0
 66
     1
 10
0.0
 20
0.0
 30
0.0
 70
     1
  0
VERTEX
  5
DE5E2
  8
0
 10
279.3396431258464
 20
4991.657866880792
 30
0.0
  0
VERTEX
  5
DE5E3
  8
0
 10
279.3396431258464
 20
5004.657866880791
 30
0.0
  0
VERTEX
  5
DE5E4
  8
0
 10
1108.000040200032
 20
5004.657866880791
 30
0.0
  0
VERTEX
  5
DE5E5
  8
0
 10
1108.000040200032
 20
4991.657866880792
 30
0.0
  0
SEQEND
  5
DE765
  8
0
  0
POLYLINE
  5
DB894
  8
0
 66
     1
 10
0.0
 20
0.0
 30
0.0
 70
     1
  0
VERTEX
  5
DE5E6
  8
0
 10
304.0000402000317
 20
4961.65786688079
 30
0.0
  0
VERTEX
  5
DE5E7
  8
0
 10
304.0000402000317
 20
4991.657866880792
 30
0.0
  0
VERTEX
  5
DE5E8
  8
0
 10
1083.000040200032
 20
4991.657866880792
 30
0.0
  0
VERTEX
  5
DE5E9
  8
0
 10
1083.000040200032
 20
4961.65786688079
 30
0.0
  0
SEQEND
  5
DE766
  8
0
  0
POLYLINE
  5
DB895
  8
0
 66
     1
 10
0.0
 20
0.0
 30
0.0
 70
     1
  0
VERTEX
  5
DE5EA
  8
0
 10
1083.000040200032
 20
3719.657866880793
 30
0.0
  0
VERTEX
  5
DE5EB
  8
0
 10
1083.000040200032
 20
4991.657866880792
 30
0.0
  0
VERTEX
  5
DE5EC
  8
0
 10
1108.000040200032
 20
4991.657866880792
 30
0.0
  0
VERTEX
  5
DE5ED
  8
0
 10
1108.000353065511
 20
3719.657866878345
 30
0.0
  0
SEQEND
  5
DE767
  8
0
  0
POLYLINE
  5
DB896
  8
0
 66
     1
 10
0.0
 20
0.0
 30
0.0
 70
     1
  0
VERTEX
  5
DE5EE
  8
0
 10
279.0103956220721
 20
3719.66433529269
 30
0.0
  0
VERTEX
  5
DE5EF
  8
0
 10
279.3396431258464
 20
4991.657866880792
 30
0.0
  0
VERTEX
  5
DE5F0
  8
0
 10
304.0000402000317
 20
4991.657866880792
 30
0.0
  0
VERTEX
  5
DE5F1
  8
0
 10
304.0000402000317
 20
3719.66413983279
 30
0.0
  0
SEQEND
  5
DE768
  8
0
  0
POLYLINE
  5
DB897
  8
0
 66
     1
 10
0.0
 20
0.0
 30
0.0
 70
     1
  0
VERTEX
  5
DE5F2
  8
0
 10
279.0000402000317
 20
3679.657866880793
 30
0.0
  0
VERTEX
  5
DE5F3
  8
0
 10
279.0103956220721
 20
3719.66433529269
 30
0.0
  0
VERTEX
  5
DE5F4
  8
0
 10
1108.000040200032
 20
3719.657866880793
 30
0.0
  0
VERTEX
  5
DE5F5
  8
0
 10
1108.000040200032
 20
3679.657866880793
 30
0.0
  0
SEQEND
  5
DE769
  8
0
  0
POLYLINE
  5
DB898
  8
0
 66
     1
 10
0.0
 20
0.0
 30
0.0
 70
     1
  0
VERTEX
  5
DE5F6
  8
0
 10
304.0000402000317
 20
3719.657866880793
 30
0.0
  0
VERTEX
  5
DE5F7
  8
0
 10
304.0000402000317
 20
3781.657866880793
 30
0.0
  0
VERTEX
  5
DE5F8
  8
0
 10
1083.000040200032
 20
3781.657866880793
 30
0.0
  0
VERTEX
  5
DE5F9
  8
0
 10
1083.000040200032
 20
3719.657866880793
 30
0.0
  0
SEQEND
  5
DE76A
  8
0
  0
POLYLINE
  5
DB96A
  8
0
 66
     1
 10
0.0
 20
0.0
 30
0.0
 70
     1
  0
VERTEX
  5
DE5FA
  8
0
 10
-3432.99995979998
 20
1194.036642058447
 30
0.0
  0
VERTEX
  5
DE5FB
  8
0
 10
-3432.99995979998
 20
1256.036642058447
 30
0.0
  0
VERTEX
  5
DE5FC
  8
0
 10
-2653.999959799978
 20
1256.036642058447
 30
0.0
  0
VERTEX
  5
DE5FD
  8
0
 10
-2653.999959799978
 20
1194.036642058447
 30
0.0
  0
SEQEND
  5
DE76B
  8
0
  0
POLYLINE
  5
DB96B
  8
0
 66
     1
 10
0.0
 20
0.0
 30
0.0
 70
     1
  0
VERTEX
  5
DE5FE
  8
0
 10
-3432.99995979998
 20
1964.036642058447
 30
0.0
  0
VERTEX
  5
DE5FF
  8
0
 10
-3432.99995979998
 20
1994.036642058446
 30
0.0
  0
VERTEX
  5
DE600
  8
0
 10
-2653.999959799978
 20
1994.036642058446
 30
0.0
  0
VERTEX
  5
DE601
  8
0
 10
-2653.999959799978
 20
1964.036642058447
 30
0.0
  0
SEQEND
  5
DE76C
  8
0
  0
POLYLINE
  5
DB96C
  8
0
 66
     1
 10
0.0
 20
0.0
 30
0.0
 70
     1
  0
VERTEX
  5
DE602
  8
0
 10
-3457.999959799979
 20
1994.036642058446
 30
0.0
  0
VERTEX
  5
DE603
  8
0
 10
-3457.999959799979
 20
2007.036642058447
 30
0.0
  0
VERTEX
  5
DE604
  8
0
 10
-2628.999959799978
 20
2007.036642058447
 30
0.0
  0
VERTEX
  5
DE605
  8
0
 10
-2628.999959799978
 20
1994.036642058446
 30
0.0
  0
SEQEND
  5
DE76D
  8
0
  0
POLYLINE
  5
DB96D
  8
0
 66
     1
 10
0.0
 20
0.0
 30
0.0
 70
     1
  0
VERTEX
  5
DE606
  8
0
 10
-3457.999959799979
 20
1154.036642058447
 30
0.0
  0
VERTEX
  5
DE607
  8
0
 10
-3457.999959799979
 20
1194.036642058447
 30
0.0
  0
VERTEX
  5
DE608
  8
0
 10
-2628.999959799978
 20
1194.036642058447
 30
0.0
  0
VERTEX
  5
DE609
  8
0
 10
-2628.999959799978
 20
1154.036642058447
 30
0.0
  0
SEQEND
  5
DE76E
  8
0
  0
POLYLINE
  5
DB96E
  8
0
 66
     1
 10
0.0
 20
0.0
 30
0.0
 70
     1
  0
VERTEX
  5
DE60A
  8
0
 10
-2653.999959799978
 20
1194.036642058447
 30
0.0
  0
VERTEX
  5
DE60B
  8
0
 10
-2653.999959799978
 20
1994.036642058446
 30
0.0
  0
VERTEX
  5
DE60C
  8
0
 10
-2628.999959799978
 20
1994.036642058446
 30
0.0
  0
VERTEX
  5
DE60D
  8
0
 10
-2628.999959799978
 20
1194.036642058447
 30
0.0
  0
SEQEND
  5
DE76F
  8
0
  0
POLYLINE
  5
DB96F
  8
0
 66
     1
 10
0.0
 20
0.0
 30
0.0
 70
     1
  0
VERTEX
  5
DE60E
  8
0
 10
-3457.999959799979
 20
1194.036642058447
 30
0.0
  0
VERTEX
  5
DE60F
  8
0
 10
-3457.999959799979
 20
1994.036642058446
 30
0.0
  0
VERTEX
  5
DE610
  8
0
 10
-3432.99995979998
 20
1994.036642058446
 30
0.0
  0
VERTEX
  5
DE611
  8
0
 10
-3432.99995979998
 20
1194.036642058447
 30
0.0
  0
SEQEND
  5
DE770
  8
0
  0
POLYLINE
  5
DB988
  8
0
 66
     1
 10
0.0
 20
0.0
 30
0.0
 70
     1
  0
VERTEX
  5
DE612
  8
0
 10
-974.9999597999677
 20
1194.036642058447
 30
0.0
  0
VERTEX
  5
DE613
  8
0
 10
-974.9999597999677
 20
1256.036642058447
 30
0.0
  0
VERTEX
  5
DE614
  8
0
 10
-195.9999597999678
 20
1256.036642058447
 30
0.0
  0
VERTEX
  5
DE615
  8
0
 10
-195.9999597999678
 20
1194.036642058447
 30
0.0
  0
SEQEND
  5
DE771
  8
0
  0
POLYLINE
  5
DB989
  8
0
 66
     1
 10
0.0
 20
0.0
 30
0.0
 70
     1
  0
VERTEX
  5
DE616
  8
0
 10
-974.9999597999677
 20
2436.036642058447
 30
0.0
  0
VERTEX
  5
DE617
  8
0
 10
-974.9999597999677
 20
2466.036642058447
 30
0.0
  0
VERTEX
  5
DE618
  8
0
 10
-195.9999597999678
 20
2466.036642058447
 30
0.0
  0
VERTEX
  5
DE619
  8
0
 10
-195.9999597999678
 20
2436.036642058447
 30
0.0
  0
SEQEND
  5
DE772
  8
0
  0
POLYLINE
  5
DB98A
  8
0
 66
     1
 10
0.0
 20
0.0
 30
0.0
 70
     1
  0
VERTEX
  5
DE61A
  8
0
 10
-999.6603568968584
 20
2466.036554154375
 30
0.0
  0
VERTEX
  5
DE61B
  8
0
 10
-999.6603568741457
 20
2479.036642058447
 30
0.0
  0
VERTEX
  5
DE61C
  8
0
 10
-170.9999597999678
 20
2479.036642058447
 30
0.0
  0
VERTEX
  5
DE61D
  8
0
 10
-170.9999597999678
 20
2466.036642058447
 30
0.0
  0
SEQEND
  5
DE773
  8
0
  0
POLYLINE
  5
DB98B
  8
0
 66
     1
 10
0.0
 20
0.0
 30
0.0
 70
     1
  0
VERTEX
  5
DE61E
  8
0
 10
-999.9999597999677
 20
1154.036642058447
 30
0.0
  0
VERTEX
  5
DE61F
  8
0
 10
-999.9896043779271
 20
1194.043110470346
 30
0.0
  0
VERTEX
  5
DE620
  8
0
 10
-170.9999597999678
 20
1194.036642058447
 30
0.0
  0
VERTEX
  5
DE621
  8
0
 10
-170.9999597999678
 20
1154.036642058447
 30
0.0
  0
SEQEND
  5
DE774
  8
0
  0
POLYLINE
  5
DB98C
  8
0
 66
     1
 10
0.0
 20
0.0
 30
0.0
 70
     1
  0
VERTEX
  5
DE622
  8
0
 10
-195.9999597999678
 20
1194.036642058447
 30
0.0
  0
VERTEX
  5
DE623
  8
0
 10
-195.9999597999678
 20
2466.036642058447
 30
0.0
  0
VERTEX
  5
DE624
  8
0
 10
-170.9999597999678
 20
2466.036642058447
 30
0.0
  0
VERTEX
  5
DE625
  8
0
 10
-170.999646934487
 20
1194.036642056002
 30
0.0
  0
SEQEND
  5
DE775
  8
0
  0
POLYLINE
  5
DB98D
  8
0
 66
     1
 10
0.0
 20
0.0
 30
0.0
 70
     1
  0
VERTEX
  5
DE626
  8
0
 10
-999.9896043779271
 20
1194.043110470346
 30
0.0
  0
VERTEX
  5
DE627
  8
0
 10
-999.6603568741457
 20
2466.036642058447
 30
0.0
  0
VERTEX
  5
DE628
  8
0
 10
-974.9999597999677
 20
2466.036642058447
 30
0.0
  0
VERTEX
  5
DE629
  8
0
 10
-974.9999597999677
 20
1194.042915010446
 30
0.0
  0
SEQEND
  5
DE776
  8
0
  0
POLYLINE
  5
DB98E
  8
0
 66
     1
 10
0.0
 20
0.0
 30
0.0
 70
     1
  0
VERTEX
  5
DE62A
  8
0
 10
-2178.660356896875
 20
2466.036554154375
 30
0.0
  0
VERTEX
  5
DE62B
  8
0
 10
-2178.660356896875
 20
2479.036554154375
 30
0.0
  0
VERTEX
  5
DE62C
  8
0
 10
-1349.999959799982
 20
2479.036642058449
 30
0.0
  0
VERTEX
  5
DE62D
  8
0
 10
-1349.999959799982
 20
2466.036642058449
 30
0.0
  0
SEQEND
  5
DE777
  8
0
  0
POLYLINE
  5
DB98F
  8
0
 66
     1
 10
0.0
 20
0.0
 30
0.0
 70
     1
  0
VERTEX
  5
DE62E
  8
0
 10
-2153.999959799983
 20
2436.036642058449
 30
0.0
  0
VERTEX
  5
DE62F
  8
0
 10
-2153.999959799983
 20
2466.036642058449
 30
0.0
  0
VERTEX
  5
DE630
  8
0
 10
-1374.999959799982
 20
2466.036642058449
 30
0.0
  0
VERTEX
  5
DE631
  8
0
 10
-1374.999959799982
 20
2436.036642058449
 30
0.0
  0
SEQEND
  5
DE778
  8
0
  0
POLYLINE
  5
DB990
  8
0
 66
     1
 10
0.0
 20
0.0
 30
0.0
 70
     1
  0
VERTEX
  5
DE632
  8
0
 10
-2153.999959799983
 20
1194.036642058448
 30
0.0
  0
VERTEX
  5
DE633
  8
0
 10
-2153.999959799983
 20
1256.036642058448
 30
0.0
  0
VERTEX
  5
DE634
  8
0
 10
-1374.999959799982
 20
1256.036642058448
 30
0.0
  0
VERTEX
  5
DE635
  8
0
 10
-1374.999959799982
 20
1194.036642058448
 30
0.0
  0
SEQEND
  5
DE779
  8
0
  0
POLYLINE
  5
DB9B1
  8
0
 66
     1
 10
0.0
 20
0.0
 30
0.0
 70
     1
  0
VERTEX
  5
DE636
  8
0
 10
-2178.999959799983
 20
1154.036642058448
 30
0.0
  0
VERTEX
  5
DE637
  8
0
 10
-2178.989604377943
 20
1194.043110470347
 30
0.0
  0
VERTEX
  5
DE638
  8
0
 10
-1349.999959799982
 20
1194.036642058448
 30
0.0
  0
VERTEX
  5
DE639
  8
0
 10
-1349.999959799982
 20
1154.036642058448
 30
0.0
  0
SEQEND
  5
DE77A
  8
0
  0
POLYLINE
  5
DB9B2
  8
0
 66
     1
 10
0.0
 20
0.0
 30
0.0
 70
     1
  0
VERTEX
  5
DE63A
  8
0
 10
-1374.999959799982
 20
1194.036642058448
 30
0.0
  0
VERTEX
  5
DE63B
  8
0
 10
-1374.999959799982
 20
2466.036642058449
 30
0.0
  0
VERTEX
  5
DE63C
  8
0
 10
-1349.999959799982
 20
2466.036642058449
 30
0.0
  0
VERTEX
  5
DE63D
  8
0
 10
-1349.999646934504
 20
1194.036642056003
 30
0.0
  0
SEQEND
  5
DE77B
  8
0
  0
POLYLINE
  5
DB9B3
  8
0
 66
     1
 10
0.0
 20
0.0
 30
0.0
 70
     1
  0
VERTEX
  5
DE63E
  8
0
 10
-2178.989604377943
 20
1194.043110470347
 30
0.0
  0
VERTEX
  5
DE63F
  8
0
 10
-2178.660356874161
 20
2466.036642058449
 30
0.0
  0
VERTEX
  5
DE640
  8
0
 10
-2153.999959799983
 20
2466.036642058449
 30
0.0
  0
VERTEX
  5
DE641
  8
0
 10
-2153.999959799983
 20
1194.042915010447
 30
0.0
  0
SEQEND
  5
DE77C
  8
0
  0
LINE
  5
DBEEF
  8
0
 10
4012.685974119231
 20
0.0000000000002274
 30
0.0
 11
4012.685974119231
 21
-987.6576470269353
 31
0.0
  0
TEXT
  5
DBEF0
  8
0
 10
2240.022522568668
 20
-208.9254166234015
 30
0.0
 40
125.0
  1
2022-06
  7
STILE1
 72
     1
 11
2674.918355902001
 21
-208.9254166234015
 31
0.0
  0
LINE
  5
DBEF1
  8
0
 10
1337.561991373077
 20
-299.9965549039189
 30
0.0
 11
1337.561991373077
 21
0.0
 31
0.0
  0
LINE
  5
DBEF2
  8
0
 10
-1337.561991373077
 20
0.0
 30
0.0
 11
-1337.561991373077
 21
-987.6576470269353
 31
0.0
  0
POLYLINE
  5
DBEF3
  8
0
 66
     1
 10
0.0
 20
0.0
 30
0.0
 70
     1
  0
VERTEX
  5
DE642
  8
0
 10
-4012.685974119231
 20
0.0
 30
0.0
  0
VERTEX
  5
DE643
  8
0
 10
4012.685974119231
 20
0.0
 30
0.0
  0
VERTEX
  5
DE644
  8
0
 10
4012.685974119231
 20
-987.6576470269353
 30
0.0
  0
VERTEX
  5
DE645
  8
0
 10
-4012.685974119231
 20
-987.6576470269353
 30
0.0
  0
SEQEND
  5
DE77D
  8
0
  0
POLYLINE
  5
DBEF4
  8
0
 66
     1
 10
0.0
 20
0.0
 30
0.0
  0
VERTEX
  5
DE646
  8
0
 10
-1337.561991373077
 20
-299.9965549039189
 30
0.0
  0
VERTEX
  5
DE647
  8
0
 10
4012.685974119231
 20
-299.9965549039186
 30
0.0
  0
SEQEND
  5
DE77E
  8
0
  0
TEXT
  5
DBEF5
  8
0
 10
-527.8452372835668
 20
-817.4938565844182
 30
0.0
 40
125.0
  1
This drawing is property of Fantin S.r.l. 
  7
STILE1
 72
     1
 11
1487.035715097386
 21
-817.4938565844182
 31
0.0
  0
POLYLINE
  5
DBEF6
  8
0
  6
CONTINUOUS
 66
     1
 10
0.0
 20
0.0
 30
0.0
 70
     1
  0
VERTEX
  5
DE648
  8
0
  6
CONTINUOUS
 10
-3164.963312949987
 20
-604.0348442923276
 30
0.0
  0
VERTEX
  5
DE649
  8
0
  6
CONTINUOUS
 10
-3164.963312949987
 20
-604.0348442923276
 30
0.0
  0
VERTEX
  5
DE64A
  8
0
  6
CONTINUOUS
 10
-3140.60203043744
 20
-687.6576470269355
 30
0.0
  0
VERTEX
  5
DE64B
  8
0
  6
CONTINUOUS
 10
-3014.885328505188
 20
-687.6576470269355
 30
0.0
  0
VERTEX
  5
DE64C
  8
0
  6
CONTINUOUS
 10
-3132.294182670303
 20
-334.8833143443335
 30
0.0
 42
0.1089385125692126
  0
VERTEX
  5
DE64D
  8
0
  6
CONTINUOUS
 10
-3145.036042486318
 20
-307.2121766244527
 30
0.0
 42
0.1589313772246072
  0
VERTEX
  5
DE64E
  8
0
  6
CONTINUOUS
 10
-3157.031867676415
 20
-299.9273046676535
 30
0.0
 42
0.058673645385263
  0
VERTEX
  5
DE64F
  8
0
  6
CONTINUOUS
 10
-3173.277038573287
 20
-298.3360188803636
 30
0.0
  0
VERTEX
  5
DE650
  8
0
  6
CONTINUOUS
 10
-3173.277038573287
 20
-298.3360188803636
 30
0.0
  0
VERTEX
  5
DE651
  8
0
  6
CONTINUOUS
 10
-3268.525316026062
 20
-298.3360188803636
 30
0.0
 42
0.058673645385263
  0
VERTEX
  5
DE652
  8
0
  6
CONTINUOUS
 10
-3284.770486922936
 20
-299.9273046676535
 30
0.0
 42
0.1589313772246072
  0
VERTEX
  5
DE653
  8
0
  6
CONTINUOUS
 10
-3296.766312113032
 20
-307.2121766244527
 30
0.0
 42
0.1089385125692126
  0
VERTEX
  5
DE654
  8
0
  6
CONTINUOUS
 10
-3309.508171929046
 20
-334.8833143443335
 30
0.0
  0
VERTEX
  5
DE655
  8
0
  6
CONTINUOUS
 10
-3426.917026089505
 20
-687.6576470269355
 30
0.0
  0
VERTEX
  5
DE656
  8
0
  6
CONTINUOUS
 10
-3307.851080996916
 20
-687.6576470269355
 30
0.0
  0
VERTEX
  5
DE657
  8
0
  6
CONTINUOUS
 10
-3284.038581000641
 20
-604.0348442923276
 30
0.0
  0
SEQEND
  5
DE77F
  8
0
  6
CONTINUOUS
  0
POLYLINE
  5
DBEF7
  8
0
  6
CONTINUOUS
 66
     1
 10
0.0
 20
0.0
 30
0.0
  0
VERTEX
  5
DE658
  8
0
  6
CONTINUOUS
 10
-3221.454976396636
 20
-406.8789198133162
 30
0.0
  0
VERTEX
  5
DE659
  8
0
  6
CONTINUOUS
 10
-3188.227030434647
 20
-520.96670193132
 30
0.0
  0
VERTEX
  5
DE65A
  8
0
  6
CONTINUOUS
 10
-3260.775573728607
 20
-520.96670193132
 30
0.0
  0
VERTEX
  5
DE65B
  8
0
  6
CONTINUOUS
 10
-3227.547627761961
 20
-406.8789198133162
 30
0.0
  0
VERTEX
  5
DE65C
  8
0
  6
CONTINUOUS
 10
-3221.454976396636
 20
-406.8789198133162
 30
0.0
  0
SEQEND
  5
DE780
  8
0
  6
CONTINUOUS
  0
POLYLINE
  5
DBEF8
  8
0
  6
CONTINUOUS
 66
     1
 10
0.0
 20
0.0
 30
0.0
  0
VERTEX
  5
DE65D
  8
0
  6
CONTINUOUS
 10
-3407.540086535738
 20
-300.0
 30
0.0
  0
VERTEX
  5
DE65E
  8
0
  6
CONTINUOUS
 10
-3407.540086535738
 20
-389.1607937274967
 30
0.0
  0
VERTEX
  5
DE65F
  8
0
  6
CONTINUOUS
 10
-3593.616583929397
 20
-389.1607937274967
 30
0.0
  0
VERTEX
  5
DE660
  8
0
  6
CONTINUOUS
 10
-3593.616583929397
 20
-466.1362847220151
 30
0.0
  0
VERTEX
  5
DE661
  8
0
  6
CONTINUOUS
 10
-3463.47293430008
 20
-466.1362847220151
 30
0.0
  0
VERTEX
  5
DE662
  8
0
  6
CONTINUOUS
 10
-3463.47293430008
 20
-549.2095947265625
 30
0.0
  0
VERTEX
  5
DE663
  8
0
  6
CONTINUOUS
 10
-3593.616583929397
 20
-549.2095947265625
 30
0.0
  0
VERTEX
  5
DE664
  8
0
  6
CONTINUOUS
 10
-3593.616583929397
 20
-687.6576470269355
 30
0.0
  0
VERTEX
  5
DE665
  8
0
  6
CONTINUOUS
 10
-3712.685974119231
 20
-687.6576470269355
 30
0.0
  0
VERTEX
  5
DE666
  8
0
  6
CONTINUOUS
 10
-3712.685974119231
 20
-300.0
 30
0.0
  0
VERTEX
  5
DE667
  8
0
  6
CONTINUOUS
 10
-3407.540086535738
 20
-300.0
 30
0.0
  0
SEQEND
  5
DE781
  8
0
  6
CONTINUOUS
  0
POLYLINE
  5
DBEF9
  8
0
  6
CONTINUOUS
 66
     1
 10
0.0
 20
0.0
 30
0.0
 70
     1
  0
VERTEX
  5
DE668
  8
0
  6
CONTINUOUS
 10
-2192.47902425006
 20
-299.9982774525415
 30
0.0
  0
VERTEX
  5
DE669
  8
0
  6
CONTINUOUS
 10
-2073.409634060226
 20
-299.9982774525415
 30
0.0
  0
VERTEX
  5
DE66A
  8
0
  6
CONTINUOUS
 10
-2073.409634060226
 20
-687.6576470269355
 30
0.0
  0
VERTEX
  5
DE66B
  8
0
  6
CONTINUOUS
 10
-2192.47902425006
 20
-687.6576470269355
 30
0.0
  0
SEQEND
  5
DE782
  8
0
  6
CONTINUOUS
  0
POLYLINE
  5
DBEFA
  8
0
  6
CONTINUOUS
 66
     1
 10
0.0
 20
0.0
 30
0.0
  0
VERTEX
  5
DE66C
  8
0
  6
CONTINUOUS
 10
-2229.582702633925
 20
-299.9982774525415
 30
0.0
  0
VERTEX
  5
DE66D
  8
0
  6
CONTINUOUS
 10
-2229.582702633925
 20
-390.8213297522161
 30
0.0
  0
VERTEX
  5
DE66E
  8
0
  6
CONTINUOUS
 10
-2345.878790956922
 20
-390.8213297522161
 30
0.0
  0
VERTEX
  5
DE66F
  8
0
  6
CONTINUOUS
 10
-2345.878790956922
 20
-687.6576470269355
 30
0.0
  0
VERTEX
  5
DE670
  8
0
  6
CONTINUOUS
 10
-2464.948181146756
 20
-687.6576470269355
 30
0.0
  0
VERTEX
  5
DE671
  8
0
  6
CONTINUOUS
 10
-2464.948181146756
 20
-390.8213297522161
 30
0.0
  0
VERTEX
  5
DE672
  8
0
  6
CONTINUOUS
 10
-2578.481302894652
 20
-390.8213297522161
 30
0.0
  0
VERTEX
  5
DE673
  8
0
  6
CONTINUOUS
 10
-2578.481302894652
 20
-299.9982774525415
 30
0.0
  0
VERTEX
  5
DE674
  8
0
  6
CONTINUOUS
 10
-2229.582702633925
 20
-299.9982774525415
 30
0.0
  0
SEQEND
  5
DE783
  8
0
  6
CONTINUOUS
  0
POLYLINE
  5
DBEFB
  8
0
  6
CONTINUOUS
 66
     1
 10
0.0
 20
0.0
 30
0.0
  0
VERTEX
  5
DE675
  8
0
  6
CONTINUOUS
 10
-2982.206875272095
 20
-687.6576470269355
 30
0.0
  0
VERTEX
  5
DE676
  8
0
  6
CONTINUOUS
 10
-2982.206875272095
 20
-299.9965549039189
 30
0.0
  0
VERTEX
  5
DE677
  8
0
  6
CONTINUOUS
 10
-2880.857333708556
 20
-299.9965549039189
 30
0.0
 42
-0.316444976687396
  0
VERTEX
  5
DE678
  8
0
  6
CONTINUOUS
 10
-2829.909539115615
 20
-328.2411702477839
 30
0.0
  0
VERTEX
  5
DE679
  8
0
  6
CONTINUOUS
 10
-2729.116380475462
 20
-498.2600775826719
 30
0.0
  0
VERTEX
  5
DE67A
  8
0
  6
CONTINUOUS
 10
-2726.348246252165
 20
-498.2600775826719
 30
0.0
  0
VERTEX
  5
DE67B
  8
0
  6
CONTINUOUS
 10
-2726.348246252165
 20
-299.9965549039189
 30
0.0
  0
VERTEX
  5
DE67C
  8
0
  6
CONTINUOUS
 10
-2613.924445258454
 20
-299.9965549039189
 30
0.0
  0
VERTEX
  5
DE67D
  8
0
  6
CONTINUOUS
 10
-2613.924445258454
 20
-687.6576470269355
 30
0.0
  0
VERTEX
  5
DE67E
  8
0
  6
CONTINUOUS
 10
-2696.446539983154
 20
-687.6576470269355
 30
0.0
 42
-0.312959769389874
  0
VERTEX
  5
DE67F
  8
0
  6
CONTINUOUS
 10
-2747.39433458075
 20
-659.4147542316932
 30
0.0
  0
VERTEX
  5
DE680
  8
0
  6
CONTINUOUS
 10
-2867.014940045774
 20
-466.1380072694737
 30
0.0
  0
VERTEX
  5
DE681
  8
0
  6
CONTINUOUS
 10
-2869.779629176483
 20
-466.1380072694737
 30
0.0
  0
VERTEX
  5
DE682
  8
0
  6
CONTINUOUS
 10
-2869.779629176483
 20
-687.6576470269355
 30
0.0
  0
VERTEX
  5
DE683
  8
0
  6
CONTINUOUS
 10
-2982.206875272095
 20
-687.6576470269355
 30
0.0
  0
SEQEND
  5
DE784
  8
0
  6
CONTINUOUS
  0
POLYLINE
  5
DBEFC
  8
0
  6
CONTINUOUS
 66
     1
 10
0.0
 20
0.0
 30
0.0
  0
VERTEX
  5
DE684
  8
0
  6
CONTINUOUS
 10
-2005.844421386719
 20
-687.6576470269355
 30
0.0
  0
VERTEX
  5
DE685
  8
0
  6
CONTINUOUS
 10
-2005.844421386719
 20
-299.9965549039189
 30
0.0
  0
VERTEX
  5
DE686
  8
0
  6
CONTINUOUS
 10
-1904.494879823178
 20
-299.9965549039189
 30
0.0
 42
-0.316444976687396
  0
VERTEX
  5
DE687
  8
0
  6
CONTINUOUS
 10
-1853.547085234894
 20
-328.2411702477839
 30
0.0
  0
VERTEX
  5
DE688
  8
0
  6
CONTINUOUS
 10
-1752.753926590085
 20
-498.2600775826719
 30
0.0
  0
VERTEX
  5
DE689
  8
0
  6
CONTINUOUS
 10
-1749.985792371444
 20
-498.2600775826719
 30
0.0
  0
VERTEX
  5
DE68A
  8
0
  6
CONTINUOUS
 10
-1749.985792371444
 20
-299.9965549039189
 30
0.0
  0
VERTEX
  5
DE68B
  8
0
  6
CONTINUOUS
 10
-1637.561991373077
 20
-299.9965549039189
 30
0.0
  0
VERTEX
  5
DE68C
  8
0
  6
CONTINUOUS
 10
-1637.561991373077
 20
-687.6576470269355
 30
0.0
  0
VERTEX
  5
DE68D
  8
0
  6
CONTINUOUS
 10
-1720.084086097777
 20
-687.6576470269355
 30
0.0
 42
-0.312959769389874
  0
VERTEX
  5
DE68E
  8
0
  6
CONTINUOUS
 10
-1771.031880690716
 20
-659.4147542316932
 30
0.0
  0
VERTEX
  5
DE68F
  8
0
  6
CONTINUOUS
 10
-1890.652486160398
 20
-466.1380072694737
 30
0.0
  0
VERTEX
  5
DE690
  8
0
  6
CONTINUOUS
 10
-1893.417175291106
 20
-466.1380072694737
 30
0.0
  0
VERTEX
  5
DE691
  8
0
  6
CONTINUOUS
 10
-1893.417175291106
 20
-687.6576470269355
 30
0.0
  0
VERTEX
  5
DE692
  8
0
  6
CONTINUOUS
 10
-2005.844421386719
 20
-687.6576470269355
 30
0.0
  0
SEQEND
  5
DE785
  8
0
  6
CONTINUOUS
  0
TEXT
  5
DBEFD
  8
0
 10
-260.5802695436394
 20
-208.9254166234014
 30
0.0
 40
125.0
  1
Opera
  7
STILE1
 72
     1
 11
7.741903075408115
 21
-208.9254166234014
 31
0.0
  0
TEXT
  5
DBEFE
  8
0
 10
-838.7791374978221
 20
-555.4096502962035
 30
0.0
 40
125.0
  1
Questo disegno è di proprietà di Fantin S.r.l.   
  7
STILE1
 72
     1
 11
1583.839910121225
 21
-555.4096502962035
 31
0.0
  0
POLYLINE
  5
DD8BA
  8
0
 66
     1
 10
0.0
 20
0.0
 30
0.0
 70
     1
  0
VERTEX
  5
DE693
  8
0
 10
-4012.68597411923
 20
5604.657866880791
 30
0.0
  0
VERTEX
  5
DE694
  8
0
 10
4012.685974119231
 20
5604.657866880791
 30
0.0
  0
VERTEX
  5
DE695
  8
0
 10
4012.685974119231
 20
554.0366420584437
 30
0.0
  0
VERTEX
  5
DE696
  8
0
 10
-4012.68597411923
 20
554.0366420584432
 30
0.0
  0
SEQEND
  5
DE786
  8
0
  0
POLYLINE
  5
DD8BB
  8
0
 66
     1
 10
0.0
 20
0.0
 30
0.0
 70
     1
  0
VERTEX
  5
DE697
  8
0
 10
2857.999959799969
 20
2465.726029647274
 30
0.0
  0
VERTEX
  5
DE698
  8
0
 10
2857.999959799969
 20
2478.726029647272
 30
0.0
  0
VERTEX
  5
DE699
  8
0
 10
3457.99995979997
 20
2478.726029647272
 30
0.0
  0
VERTEX
  5
DE69A
  8
0
 10
3457.99995979997
 20
2465.726029647274
 30
0.0
  0
SEQEND
  5
DE787
  8
0
  0
POLYLINE
  5
DD8BC
  8
0
 66
     1
 10
0.0
 20
0.0
 30
0.0
 70
     1
  0
VERTEX
  5
DE69B
  8
0
 10
2857.999959799969
 20
1153.726029647273
 30
0.0
  0
VERTEX
  5
DE69C
  8
0
 10
2857.999959799969
 20
2465.726029647274
 30
0.0
  0
VERTEX
  5
DE69D
  8
0
 10
3457.99995979997
 20
2465.726029647274
 30
0.0
  0
VERTEX
  5
DE69E
  8
0
 10
3457.99995979997
 20
1153.726029647273
 30
0.0
  0
SEQEND
  5
DE788
  8
0
  0
POLYLINE
  5
DD8BD
  8
0
 66
     1
 10
0.0
 20
0.0
 30
0.0
 70
     1
  0
VERTEX
  5
DE69F
  8
0
 10
1957.999959799968
 20
1993.726029647273
 30
0.0
  0
VERTEX
  5
DE6A0
  8
0
 10
1957.999959799968
 20
2006.726029647273
 30
0.0
  0
VERTEX
  5
DE6A1
  8
0
 10
2557.999959799969
 20
2006.726029647273
 30
0.0
  0
VERTEX
  5
DE6A2
  8
0
 10
2557.999959799969
 20
1993.726029647273
 30
0.0
  0
SEQEND
  5
DE789
  8
0
  0
POLYLINE
  5
DD8BE
  8
0
 66
     1
 10
0.0
 20
0.0
 30
0.0
 70
     1
  0
VERTEX
  5
DE6A3
  8
0
 10
1957.999959799968
 20
1153.726029647273
 30
0.0
  0
VERTEX
  5
DE6A4
  8
0
 10
1957.999959799968
 20
1993.726029647273
 30
0.0
  0
VERTEX
  5
DE6A5
  8
0
 10
2557.999959799969
 20
1993.726029647273
 30
0.0
  0
VERTEX
  5
DE6A6
  8
0
 10
2557.999959799969
 20
1153.726029647273
 30
0.0
  0
SEQEND
  5
DE78A
  8
0
  0
POLYLINE
  5
DDDDB
  8
0
 66
     1
 10
0.0
 20
0.0
 30
0.0
 70
     1
  0
VERTEX
  5
DE6A7
  8
0
 10
-3532.999959799969
 20
4489.657866880793
 30
0.0
  0
VERTEX
  5
DE6A8
  8
0
 10
-2753.999959799968
 20
4489.657866880793
 30
0.0
  0
VERTEX
  5
DE6A9
  8
0
 10
-2753.999959799968
 20
4371.657866880791
 30
0.0
  0
VERTEX
  5
DE6AA
  8
0
 10
-3532.999959799969
 20
4371.657866880791
 30
0.0
  0
SEQEND
  5
DE78B
  8
0
  0
POLYLINE
  5
DDDDC
  8
0
 66
     1
 10
0.0
 20
0.0
 30
0.0
 70
     1
  0
VERTEX
  5
DE6AB
  8
0
 10
-3532.999959799969
 20
4371.657866880791
 30
0.0
  0
VERTEX
  5
DE6AC
  8
0
 10
-2753.999959799968
 20
4371.657866880791
 30
0.0
  0
VERTEX
  5
DE6AD
  8
0
 10
-2753.999959799968
 20
4253.657866880788
 30
0.0
  0
VERTEX
  5
DE6AE
  8
0
 10
-3532.999959799969
 20
4253.657866880788
 30
0.0
  0
SEQEND
  5
DE78C
  8
0
  0
POLYLINE
  5
DDDDD
  8
0
 66
     1
 10
0.0
 20
0.0
 30
0.0
 70
     1
  0
VERTEX
  5
DE6AF
  8
0
 10
-3532.999959799969
 20
4135.657866880786
 30
0.0
  0
VERTEX
  5
DE6B0
  8
0
 10
-2753.999959799968
 20
4135.657866880786
 30
0.0
  0
VERTEX
  5
DE6B1
  8
0
 10
-2753.999959799968
 20
4017.657866880784
 30
0.0
  0
VERTEX
  5
DE6B2
  8
0
 10
-3532.999959799969
 20
4017.657866880784
 30
0.0
  0
SEQEND
  5
DE78D
  8
0
  0
POLYLINE
  5
DDDDE
  8
0
 66
     1
 10
0.0
 20
0.0
 30
0.0
 70
     1
  0
VERTEX
  5
DE6B3
  8
0
 10
-3532.999959799969
 20
4253.657866880788
 30
0.0
  0
VERTEX
  5
DE6B4
  8
0
 10
-2753.999959799968
 20
4253.657866880788
 30
0.0
  0
VERTEX
  5
DE6B5
  8
0
 10
-2753.999959799968
 20
4135.657866880786
 30
0.0
  0
VERTEX
  5
DE6B6
  8
0
 10
-3532.999959799969
 20
4135.657866880786
 30
0.0
  0
SEQEND
  5
DE78E
  8
0
  0
POLYLINE
  5
DDDDF
  8
0
 66
     1
 10
0.0
 20
0.0
 30
0.0
 70
     1
  0
VERTEX
  5
DE6B7
  8
0
 10
-3532.999959799969
 20
4017.657866880784
 30
0.0
  0
VERTEX
  5
DE6B8
  8
0
 10
-2753.999959799968
 20
4017.657866880784
 30
0.0
  0
VERTEX
  5
DE6B9
  8
0
 10
-2753.999959799968
 20
3899.657866880783
 30
0.0
  0
VERTEX
  5
DE6BA
  8
0
 10
-3532.999959799969
 20
3899.657866880783
 30
0.0
  0
SEQEND
  5
DE78F
  8
0
  0
POLYLINE
  5
DDDE0
  8
0
 66
     1
 10
0.0
 20
0.0
 30
0.0
 70
     1
  0
VERTEX
  5
DE6BB
  8
0
 10
-3532.999959799969
 20
3899.657866880783
 30
0.0
  0
VERTEX
  5
DE6BC
  8
0
 10
-2753.999959799968
 20
3899.657866880783
 30
0.0
  0
VERTEX
  5
DE6BD
  8
0
 10
-2753.999959799968
 20
3781.657866880781
 30
0.0
  0
VERTEX
  5
DE6BE
  8
0
 10
-3532.999959799969
 20
3781.657866880781
 30
0.0
  0
SEQEND
  5
DE790
  8
0
  0
POLYLINE
  5
DDDE1
  8
0
 66
     1
 10
0.0
 20
0.0
 30
0.0
 70
     1
  0
VERTEX
  5
DE6BF
  8
0
 10
-2253.999959799969
 20
3899.657866880794
 30
0.0
  0
VERTEX
  5
DE6C0
  8
0
 10
-1474.999959799968
 20
3899.657866880794
 30
0.0
  0
VERTEX
  5
DE6C1
  8
0
 10
-1474.999959799968
 20
3781.657866880793
 30
0.0
  0
VERTEX
  5
DE6C2
  8
0
 10
-2253.999959799969
 20
3781.657866880793
 30
0.0
  0
SEQEND
  5
DE791
  8
0
  0
POLYLINE
  5
DDDE2
  8
0
 66
     1
 10
0.0
 20
0.0
 30
0.0
 70
     1
  0
VERTEX
  5
DE6C3
  8
0
 10
-2253.999959799969
 20
4017.657866880796
 30
0.0
  0
VERTEX
  5
DE6C4
  8
0
 10
-1474.999959799968
 20
4017.657866880796
 30
0.0
  0
VERTEX
  5
DE6C5
  8
0
 10
-1474.999959799968
 20
3899.657866880794
 30
0.0
  0
VERTEX
  5
DE6C6
  8
0
 10
-2253.999959799969
 20
3899.657866880794
 30
0.0
  0
SEQEND
  5
DE792
  8
0
  0
POLYLINE
  5
DDDE3
  8
0
 66
     1
 10
0.0
 20
0.0
 30
0.0
 70
     1
  0
VERTEX
  5
DE6C7
  8
0
 10
-2253.999959799969
 20
4253.657866880799
 30
0.0
  0
VERTEX
  5
DE6C8
  8
0
 10
-1474.999959799968
 20
4253.657866880799
 30
0.0
  0
VERTEX
  5
DE6C9
  8
0
 10
-1474.999959799968
 20
4135.657866880797
 30
0.0
  0
VERTEX
  5
DE6CA
  8
0
 10
-2253.999959799969
 20
4135.657866880797
 30
0.0
  0
SEQEND
  5
DE793
  8
0
  0
POLYLINE
  5
DDDE4
  8
0
 66
     1
 10
0.0
 20
0.0
 30
0.0
 70
     1
  0
VERTEX
  5
DE6CB
  8
0
 10
-2253.999959799969
 20
4135.657866880797
 30
0.0
  0
VERTEX
  5
DE6CC
  8
0
 10
-1474.999959799968
 20
4135.657866880797
 30
0.0
  0
VERTEX
  5
DE6CD
  8
0
 10
-1474.999959799968
 20
4017.657866880796
 30
0.0
  0
VERTEX
  5
DE6CE
  8
0
 10
-2253.999959799969
 20
4017.657866880796
 30
0.0
  0
SEQEND
  5
DE794
  8
0
  0
POLYLINE
  5
DDDE5
  8
0
 66
     1
 10
0.0
 20
0.0
 30
0.0
 70
     1
  0
VERTEX
  5
DE6CF
  8
0
 10
-2253.999959799969
 20
4371.657866880801
 30
0.0
  0
VERTEX
  5
DE6D0
  8
0
 10
-1474.999959799968
 20
4371.657866880801
 30
0.0
  0
VERTEX
  5
DE6D1
  8
0
 10
-1474.999959799968
 20
4253.657866880799
 30
0.0
  0
VERTEX
  5
DE6D2
  8
0
 10
-2253.999959799969
 20
4253.657866880799
 30
0.0
  0
SEQEND
  5
DE795
  8
0
  0
POLYLINE
  5
DDDE6
  8
0
 66
     1
 10
0.0
 20
0.0
 30
0.0
 70
     1
  0
VERTEX
  5
DE6D3
  8
0
 10
-2253.999959799969
 20
4489.657866880803
 30
0.0
  0
VERTEX
  5
DE6D4
  8
0
 10
-1474.999959799968
 20
4489.657866880803
 30
0.0
  0
VERTEX
  5
DE6D5
  8
0
 10
-1474.999959799968
 20
4371.657866880801
 30
0.0
  0
VERTEX
  5
DE6D6
  8
0
 10
-2253.999959799969
 20
4371.657866880801
 30
0.0
  0
SEQEND
  5
DE796
  8
0
  0
POLYLINE
  5
DDDE7
  8
0
 66
     1
 10
0.0
 20
0.0
 30
0.0
 70
     1
  0
VERTEX
  5
DE6D7
  8
0
 10
-2253.999959799969
 20
4725.657866880807
 30
0.0
  0
VERTEX
  5
DE6D8
  8
0
 10
-1474.999959799968
 20
4725.657866880807
 30
0.0
  0
VERTEX
  5
DE6D9
  8
0
 10
-1474.999959799968
 20
4607.657866880805
 30
0.0
  0
VERTEX
  5
DE6DA
  8
0
 10
-2253.999959799969
 20
4607.657866880805
 30
0.0
  0
SEQEND
  5
DE797
  8
0
  0
POLYLINE
  5
DDDE8
  8
0
 66
     1
 10
0.0
 20
0.0
 30
0.0
 70
     1
  0
VERTEX
  5
DE6DB
  8
0
 10
-2253.999959799969
 20
4607.657866880805
 30
0.0
  0
VERTEX
  5
DE6DC
  8
0
 10
-1474.999959799968
 20
4607.657866880805
 30
0.0
  0
VERTEX
  5
DE6DD
  8
0
 10
-1474.999959799968
 20
4489.657866880803
 30
0.0
  0
VERTEX
  5
DE6DE
  8
0
 10
-2253.999959799969
 20
4489.657866880803
 30
0.0
  0
SEQEND
  5
DE798
  8
0
  0
POLYLINE
  5
DDDE9
  8
0
 66
     1
 10
0.0
 20
0.0
 30
0.0
 70
     1
  0
VERTEX
  5
DE6DF
  8
0
 10
-2253.999959799969
 20
4843.657866880809
 30
0.0
  0
VERTEX
  5
DE6E0
  8
0
 10
-1474.999959799968
 20
4843.657866880809
 30
0.0
  0
VERTEX
  5
DE6E1
  8
0
 10
-1474.999959799968
 20
4725.657866880807
 30
0.0
  0
VERTEX
  5
DE6E2
  8
0
 10
-2253.999959799969
 20
4725.657866880807
 30
0.0
  0
SEQEND
  5
DE799
  8
0
  0
POLYLINE
  5
DDDEA
  8
0
 66
     1
 10
0.0
 20
0.0
 30
0.0
 70
     1
  0
VERTEX
  5
DE6E3
  8
0
 10
-2253.999959799969
 20
4961.657866880811
 30
0.0
  0
VERTEX
  5
DE6E4
  8
0
 10
-1474.999959799968
 20
4961.657866880811
 30
0.0
  0
VERTEX
  5
DE6E5
  8
0
 10
-1474.999959799968
 20
4843.657866880809
 30
0.0
  0
VERTEX
  5
DE6E6
  8
0
 10
-2253.999959799969
 20
4843.657866880809
 30
0.0
  0
SEQEND
  5
DE79A
  8
0
  0
POLYLINE
  5
DDDFB
  8
0
 66
     1
 10
0.0
 20
0.0
 30
0.0
 70
     1
  0
VERTEX
  5
DE6E7
  8
0
 10
-974.999959799968
 20
3781.657866880793
 30
0.0
  0
VERTEX
  5
DE6E8
  8
0
 10
-195.9999597999676
 20
3781.657866880793
 30
0.0
  0
VERTEX
  5
DE6E9
  8
0
 10
-195.9999597999676
 20
4017.657866880796
 30
0.0
  0
VERTEX
  5
DE6EA
  8
0
 10
-974.999959799968
 20
4017.657866880796
 30
0.0
  0
SEQEND
  5
DE79B
  8
0
  0
POLYLINE
  5
DDDFC
  8
0
 66
     1
 10
0.0
 20
0.0
 30
0.0
 70
     1
  0
VERTEX
  5
DE6EB
  8
0
 10
-195.9999597999681
 20
4017.657866880796
 30
0.0
  0
VERTEX
  5
DE6EC
  8
0
 10
-974.9999597999686
 20
4017.657866880796
 30
0.0
  0
VERTEX
  5
DE6ED
  8
0
 10
-974.9999597999686
 20
4253.657866880799
 30
0.0
  0
VERTEX
  5
DE6EE
  8
0
 10
-195.9999597999681
 20
4253.657866880799
 30
0.0
  0
SEQEND
  5
DE79C
  8
0
  0
POLYLINE
  5
DDDFD
  8
0
 66
     1
 10
0.0
 20
0.0
 30
0.0
 70
     1
  0
VERTEX
  5
DE6EF
  8
0
 10
-974.9999597999686
 20
4253.657866880799
 30
0.0
  0
VERTEX
  5
DE6F0
  8
0
 10
-195.9999597999681
 20
4253.657866880799
 30
0.0
  0
VERTEX
  5
DE6F1
  8
0
 10
-195.9999597999681
 20
4489.657866880793
 30
0.0
  0
VERTEX
  5
DE6F2
  8
0
 10
-974.9999597999686
 20
4489.657866880793
 30
0.0
  0
SEQEND
  5
DE79D
  8
0
  0
POLYLINE
  5
DDDFE
  8
0
 66
     1
 10
0.0
 20
0.0
 30
0.0
 70
     1
  0
VERTEX
  5
DE6F3
  8
0
 10
304.0000402000319
 20
3781.657866880804
 30
0.0
  0
VERTEX
  5
DE6F4
  8
0
 10
1083.000040200033
 20
3781.657866880804
 30
0.0
  0
VERTEX
  5
DE6F5
  8
0
 10
1083.000040200033
 20
4017.657866880806
 30
0.0
  0
VERTEX
  5
DE6F6
  8
0
 10
304.0000402000319
 20
4017.657866880806
 30
0.0
  0
SEQEND
  5
DE79E
  8
0
  0
POLYLINE
  5
DDDFF
  8
0
 66
     1
 10
0.0
 20
0.0
 30
0.0
 70
     1
  0
VERTEX
  5
DE6F7
  8
0
 10
304.0000402000319
 20
4017.657866880806
 30
0.0
  0
VERTEX
  5
DE6F8
  8
0
 10
1083.000040200033
 20
4017.657866880806
 30
0.0
  0
VERTEX
  5
DE6F9
  8
0
 10
1083.000040200033
 20
4253.65786688081
 30
0.0
  0
VERTEX
  5
DE6FA
  8
0
 10
304.0000402000319
 20
4253.65786688081
 30
0.0
  0
SEQEND
  5
DE79F
  8
0
  0
POLYLINE
  5
DDE00
  8
0
 66
     1
 10
0.0
 20
0.0
 30
0.0
 70
     1
  0
VERTEX
  5
DE6FB
  8
0
 10
304.0000402000319
 20
4253.65786688081
 30
0.0
  0
VERTEX
  5
DE6FC
  8
0
 10
1083.000040200033
 20
4253.65786688081
 30
0.0
  0
VERTEX
  5
DE6FD
  8
0
 10
1083.000040200033
 20
4489.657866880814
 30
0.0
  0
VERTEX
  5
DE6FE
  8
0
 10
304.0000402000319
 20
4489.657866880814
 30
0.0
  0
SEQEND
  5
DE7A0
  8
0
  0
POLYLINE
  5
DDE01
  8
0
 66
     1
 10
0.0
 20
0.0
 30
0.0
 70
     1
  0
VERTEX
  5
DE6FF
  8
0
 10
304.0000402000319
 20
4489.657866880814
 30
0.0
  0
VERTEX
  5
DE700
  8
0
 10
1083.000040200033
 20
4489.657866880814
 30
0.0
  0
VERTEX
  5
DE701
  8
0
 10
1083.000040200033
 20
4725.657866880818
 30
0.0
  0
VERTEX
  5
DE702
  8
0
 10
304.0000402000319
 20
4725.657866880818
 30
0.0
  0
SEQEND
  5
DE7A1
  8
0
  0
POLYLINE
  5
DDE02
  8
0
 66
     1
 10
0.0
 20
0.0
 30
0.0
 70
     1
  0
VERTEX
  5
DE703
  8
0
 10
304.0000402000319
 20
4725.657866880818
 30
0.0
  0
VERTEX
  5
DE704
  8
0
 10
1083.000040200032
 20
4725.657866880818
 30
0.0
  0
VERTEX
  5
DE705
  8
0
 10
1083.000040200032
 20
4961.65786688079
 30
0.0
  0
VERTEX
  5
DE706
  8
0
 10
304.0000402000319
 20
4961.65786688079
 30
0.0
  0
SEQEND
  5
DE7A2
  8
0
  0
POLYLINE
  5
DDE05
  8
0
 66
     1
 10
0.0
 20
0.0
 30
0.0
 70
     1
  0
VERTEX
  5
DE707
  8
0
 10
-974.9999597999677
 20
1964.036642058468
 30
0.0
  0
VERTEX
  5
DE708
  8
0
 10
-195.9999597999667
 20
1964.036642058468
 30
0.0
  0
VERTEX
  5
DE709
  8
0
 10
-195.9999597999667
 20
2200.036642058472
 30
0.0
  0
VERTEX
  5
DE70A
  8
0
 10
-974.9999597999677
 20
2200.036642058472
 30
0.0
  0
SEQEND
  5
DE7A3
  8
0
  0
POLYLINE
  5
DDE06
  8
0
 66
     1
 10
0.0
 20
0.0
 30
0.0
 70
     1
  0
VERTEX
  5
DE70B
  8
0
 10
-974.9999597999677
 20
1728.036642058465
 30
0.0
  0
VERTEX
  5
DE70C
  8
0
 10
-195.9999597999667
 20
1728.036642058465
 30
0.0
  0
VERTEX
  5
DE70D
  8
0
 10
-195.9999597999667
 20
1964.036642058468
 30
0.0
  0
VERTEX
  5
DE70E
  8
0
 10
-974.9999597999677
 20
1964.036642058468
 30
0.0
  0
SEQEND
  5
DE7A4
  8
0
  0
POLYLINE
  5
DDE07
  8
0
 66
     1
 10
0.0
 20
0.0
 30
0.0
 70
     1
  0
VERTEX
  5
DE70F
  8
0
 10
-974.9999597999677
 20
1492.036642058461
 30
0.0
  0
VERTEX
  5
DE710
  8
0
 10
-195.9999597999667
 20
1492.036642058461
 30
0.0
  0
VERTEX
  5
DE711
  8
0
 10
-195.9999597999667
 20
1728.036642058465
 30
0.0
  0
VERTEX
  5
DE712
  8
0
 10
-974.9999597999677
 20
1728.036642058465
 30
0.0
  0
SEQEND
  5
DE7A5
  8
0
  0
POLYLINE
  5
DDE08
  8
0
 66
     1
 10
0.0
 20
0.0
 30
0.0
 70
     1
  0
VERTEX
  5
DE713
  8
0
 10
-974.9999597999677
 20
1256.036642058458
 30
0.0
  0
VERTEX
  5
DE714
  8
0
 10
-195.9999597999667
 20
1256.036642058458
 30
0.0
  0
VERTEX
  5
DE715
  8
0
 10
-195.9999597999667
 20
1492.036642058461
 30
0.0
  0
VERTEX
  5
DE716
  8
0
 10
-974.9999597999677
 20
1492.036642058461
 30
0.0
  0
SEQEND
  5
DE7A6
  8
0
  0
POLYLINE
  5
DDE09
  8
0
 66
     1
 10
0.0
 20
0.0
 30
0.0
 70
     1
  0
VERTEX
  5
DE717
  8
0
 10
-2153.999959799984
 20
1728.036642058455
 30
0.0
  0
VERTEX
  5
DE718
  8
0
 10
-1374.999959799983
 20
1728.036642058455
 30
0.0
  0
VERTEX
  5
DE719
  8
0
 10
-1374.999959799983
 20
1964.036642058448
 30
0.0
  0
VERTEX
  5
DE71A
  8
0
 10
-2153.999959799984
 20
1964.036642058448
 30
0.0
  0
SEQEND
  5
DE7A7
  8
0
  0
POLYLINE
  5
DDE0A
  8
0
 66
     1
 10
0.0
 20
0.0
 30
0.0
 70
     1
  0
VERTEX
  5
DE71B
  8
0
 10
-1374.999959799983
 20
1492.036642058451
 30
0.0
  0
VERTEX
  5
DE71C
  8
0
 10
-2153.999959799984
 20
1492.036642058451
 30
0.0
  0
VERTEX
  5
DE71D
  8
0
 10
-2153.999959799984
 20
1728.036642058455
 30
0.0
  0
VERTEX
  5
DE71E
  8
0
 10
-1374.999959799983
 20
1728.036642058455
 30
0.0
  0
SEQEND
  5
DE7A8
  8
0
  0
POLYLINE
  5
DDE0B
  8
0
 66
     1
 10
0.0
 20
0.0
 30
0.0
 70
     1
  0
VERTEX
  5
DE71F
  8
0
 10
-2153.999959799983
 20
1256.036642058448
 30
0.0
  0
VERTEX
  5
DE720
  8
0
 10
-1374.999959799982
 20
1256.036642058448
 30
0.0
  0
VERTEX
  5
DE721
  8
0
 10
-1374.999959799982
 20
1492.036642058451
 30
0.0
  0
VERTEX
  5
DE722
  8
0
 10
-2153.999959799983
 20
1492.036642058451
 30
0.0
  0
SEQEND
  5
DE7A9
  8
0
  0
POLYLINE
  5
DDE0C
  8
0
 66
     1
 10
0.0
 20
0.0
 30
0.0
 70
     1
  0
VERTEX
  5
DE723
  8
0
 10
-3432.99995979998
 20
1256.036642058447
 30
0.0
  0
VERTEX
  5
DE724
  8
0
 10
-2653.999959799979
 20
1256.036642058447
 30
0.0
  0
VERTEX
  5
DE725
  8
0
 10
-2653.999959799979
 20
1492.03664205844
 30
0.0
  0
VERTEX
  5
DE726
  8
0
 10
-3432.99995979998
 20
1492.03664205844
 30
0.0
  0
SEQEND
  5
DE7AA
  8
0
  0
POLYLINE
  5
DDE0D
  8
0
 66
     1
 10
0.0
 20
0.0
 30
0.0
 70
     1
  0
VERTEX
  5
DE727
  8
0
 10
-3432.99995979998
 20
1728.036642058443
 30
0.0
  0
VERTEX
  5
DE728
  8
0
 10
-2653.999959799979
 20
1728.036642058443
 30
0.0
  0
VERTEX
  5
DE729
  8
0
 10
-2653.999959799979
 20
1610.036642058441
 30
0.0
  0
VERTEX
  5
DE72A
  8
0
 10
-3432.99995979998
 20
1610.036642058441
 30
0.0
  0
SEQEND
  5
DE7AB
  8
0
  0
POLYLINE
  5
DDE0E
  8
0
 66
     1
 10
0.0
 20
0.0
 30
0.0
 70
     1
  0
VERTEX
  5
DE72B
  8
0
 10
-3432.99995979998
 20
1610.036642058441
 30
0.0
  0
VERTEX
  5
DE72C
  8
0
 10
-2653.999959799979
 20
1610.036642058441
 30
0.0
  0
VERTEX
  5
DE72D
  8
0
 10
-2653.999959799979
 20
1492.03664205844
 30
0.0
  0
VERTEX
  5
DE72E
  8
0
 10
-3432.99995979998
 20
1492.03664205844
 30
0.0
  0
SEQEND
  5
DE7AC
  8
0
  0
POLYLINE
  5
DDE0F
  8
0
 66
     1
 10
0.0
 20
0.0
 30
0.0
 70
     1
  0
VERTEX
  5
DE72F
  8
0
 10
-3432.99995979998
 20
1846.036642058445
 30
0.0
  0
VERTEX
  5
DE730
  8
0
 10
-2653.999959799979
 20
1846.036642058445
 30
0.0
  0
VERTEX
  5
DE731
  8
0
 10
-2653.999959799979
 20
1728.036642058443
 30
0.0
  0
VERTEX
  5
DE732
  8
0
 10
-3432.99995979998
 20
1728.036642058443
 30
0.0
  0
SEQEND
  5
DE7AD
  8
0
  0
POLYLINE
  5
DDE10
  8
0
 66
     1
 10
0.0
 20
0.0
 30
0.0
 70
     1
  0
VERTEX
  5
DE733
  8
0
 10
-3432.99995979998
 20
1964.036642058447
 30
0.0
  0
VERTEX
  5
DE734
  8
0
 10
-2653.999959799979
 20
1964.036642058447
 30
0.0
  0
VERTEX
  5
DE735
  8
0
 10
-2653.999959799979
 20
1846.036642058445
 30
0.0
  0
VERTEX
  5
DE736
  8
0
 10
-3432.99995979998
 20
1846.036642058445
 30
0.0
  0
SEQEND
  5
DE7AE
  8
0
  0
POLYLINE
  5
DDE11
  8
0
 66
     1
 10
0.0
 20
0.0
 30
0.0
 70
     1
  0
VERTEX
  5
DE737
  8
0
 10
-2153.999959799984
 20
2436.036642058455
 30
0.0
  0
VERTEX
  5
DE738
  8
0
 10
-1374.999959799983
 20
2436.036642058455
 30
0.0
  0
VERTEX
  5
DE739
  8
0
 10
-1374.999959799983
 20
2318.036642058453
 30
0.0
  0
VERTEX
  5
DE73A
  8
0
 10
-2153.999959799984
 20
2318.036642058453
 30
0.0
  0
SEQEND
  5
DE7AF
  8
0
  0
POLYLINE
  5
DDE12
  8
0
 66
     1
 10
0.0
 20
0.0
 30
0.0
 70
     1
  0
VERTEX
  5
DE73B
  8
0
 10
-2153.999959799984
 20
2318.036642058453
 30
0.0
  0
VERTEX
  5
DE73C
  8
0
 10
-1374.999959799983
 20
2318.036642058453
 30
0.0
  0
VERTEX
  5
DE73D
  8
0
 10
-1374.999959799983
 20
2200.036642058452
 30
0.0
  0
VERTEX
  5
DE73E
  8
0
 10
-2153.999959799984
 20
2200.036642058452
 30
0.0
  0
SEQEND
  5
DE7B0
  8
0
  0
POLYLINE
  5
DDE13
  8
0
 66
     1
 10
0.0
 20
0.0
 30
0.0
 70
     1
  0
VERTEX
  5
DE73F
  8
0
 10
-2153.999959799984
 20
2082.036642058449
 30
0.0
  0
VERTEX
  5
DE740
  8
0
 10
-1374.999959799983
 20
2082.036642058449
 30
0.0
  0
VERTEX
  5
DE741
  8
0
 10
-1374.999959799983
 20
1964.036642058448
 30
0.0
  0
VERTEX
  5
DE742
  8
0
 10
-2153.999959799984
 20
1964.036642058448
 30
0.0
  0
SEQEND
  5
DE7B1
  8
0
  0
POLYLINE
  5
DDE14
  8
0
 66
     1
 10
0.0
 20
0.0
 30
0.0
 70
     1
  0
VERTEX
  5
DE743
  8
0
 10
-2153.999959799984
 20
2200.036642058452
 30
0.0
  0
VERTEX
  5
DE744
  8
0
 10
-1374.999959799983
 20
2200.036642058452
 30
0.0
  0
VERTEX
  5
DE745
  8
0
 10
-1374.999959799983
 20
2082.036642058449
 30
0.0
  0
VERTEX
  5
DE746
  8
0
 10
-2153.999959799984
 20
2082.036642058449
 30
0.0
  0
SEQEND
  5
DE7B2
  8
0
  0
POLYLINE
  5
DDE15
  8
0
 66
     1
 10
0.0
 20
0.0
 30
0.0
 70
     1
  0
VERTEX
  5
DE747
  8
0
 10
-974.9999597999677
 20
2318.036642058475
 30
0.0
  0
VERTEX
  5
DE748
  8
0
 10
-195.9999597999665
 20
2318.036642058475
 30
0.0
  0
VERTEX
  5
DE749
  8
0
 10
-195.9999597999665
 20
2200.036642058472
 30
0.0
  0
VERTEX
  5
DE74A
  8
0
 10
-974.9999597999677
 20
2200.036642058472
 30
0.0
  0
SEQEND
  5
DE7B3
  8
0
  0
POLYLINE
  5
DDE16
  8
0
 66
     1
 10
0.0
 20
0.0
 30
0.0
 70
     1
  0
VERTEX
  5
DE74B
  8
0
 10
-974.9999597999677
 20
2436.036642058476
 30
0.0
  0
VERTEX
  5
DE74C
  8
0
 10
-195.9999597999665
 20
2436.036642058476
 30
0.0
  0
VERTEX
  5
DE74D
  8
0
 10
-195.9999597999665
 20
2318.036642058475
 30
0.0
  0
VERTEX
  5
DE74E
  8
0
 10
-974.9999597999677
 20
2318.036642058475
 30
0.0
  0
SEQEND
  5
DE7B4
  8
0
  0
CIRCLE
  5
DE052
  8
0
 10
-3143.499959799969
 20
3840.657866880788
 30
0.0
 40
20.0
  0
CIRCLE
  5
DE055
  8
0
 10
-3143.499959799969
 20
3958.65786688079
 30
0.0
 40
20.0
  0
CIRCLE
  5
DE056
  8
0
 10
-3143.499959799969
 20
4194.657866880794
 30
0.0
 40
20.0
  0
CIRCLE
  5
DE057
  8
0
 10
-3143.499959799969
 20
4076.657866880792
 30
0.0
 40
20.0
  0
CIRCLE
  5
DE058
  8
0
 10
-3143.499959799969
 20
4312.657866880795
 30
0.0
 40
20.0
  0
CIRCLE
  5
DE059
  8
0
 10
-3143.499959799969
 20
4430.657866880797
 30
0.0
 40
20.0
  0
CIRCLE
  5
DE05A
  8
0
 10
-1864.499959799968
 20
4430.657866880808
 30
0.0
 40
20.0
  0
CIRCLE
  5
DE05B
  8
0
 10
-1864.499959799968
 20
4312.657866880805
 30
0.0
 40
20.0
  0
CIRCLE
  5
DE05C
  8
0
 10
-1864.499959799968
 20
4076.657866880802
 30
0.0
 40
20.0
  0
CIRCLE
  5
DE05D
  8
0
 10
-1864.499959799968
 20
4194.657866880804
 30
0.0
 40
20.0
  0
CIRCLE
  5
DE05E
  8
0
 10
-1864.499959799968
 20
3958.657866880801
 30
0.0
 40
20.0
  0
CIRCLE
  5
DE05F
  8
0
 10
-1864.499959799968
 20
3840.657866880799
 30
0.0
 40
20.0
  0
CIRCLE
  5
DE060
  8
0
 10
-1864.499959799968
 20
4666.657866880811
 30
0.0
 40
20.0
  0
CIRCLE
  5
DE061
  8
0
 10
-1864.499959799968
 20
4548.65786688081
 30
0.0
 40
20.0
  0
CIRCLE
  5
DE062
  8
0
 10
-1864.499959799968
 20
4784.657866880813
 30
0.0
 40
20.0
  0
CIRCLE
  5
DE063
  8
0
 10
-1864.499959799968
 20
4902.657866880815
 30
0.0
 40
20.0
  0
CIRCLE
  5
DE065
  8
0
 10
-585.4999597999683
 20
4371.657866880796
 30
0.0
 40
20.0
  0
CIRCLE
  5
DE066
  8
0
 10
-585.4999597999683
 20
4135.657866880793
 30
0.0
 40
20.0
  0
CIRCLE
  5
DE069
  8
0
 10
-585.4999597999683
 20
3899.657866880789
 30
0.0
 40
20.0
  0
CIRCLE
  5
DE06B
  8
0
 10
693.5000402000321
 20
4843.657866880814
 30
0.0
 40
20.0
  0
CIRCLE
  5
DE06C
  8
0
 10
693.5000402000321
 20
4607.65786688081
 30
0.0
 40
20.0
  0
CIRCLE
  5
DE06E
  8
0
 10
693.5000402000321
 20
3899.6578668808
 30
0.0
 40
20.0
  0
CIRCLE
  5
DE071
  8
0
 10
693.5000402000321
 20
4135.657866880803
 30
0.0
 40
20.0
  0
CIRCLE
  5
DE072
  8
0
 10
693.5000402000321
 20
4371.657866880807
 30
0.0
 40
20.0
  0
CIRCLE
  5
DE075
  8
0
 10
-1764.499959799983
 20
1374.036642058444
 30
0.0
 40
20.0
  0
CIRCLE
  5
DE076
  8
0
 10
-1764.499959799983
 20
1610.036642058448
 30
0.0
 40
20.0
  0
CIRCLE
  5
DE077
  8
0
 10
-1764.499959799983
 20
1846.036642058451
 30
0.0
 40
20.0
  0
CIRCLE
  5
DE078
  8
0
 10
-585.4999597999677
 20
1846.036642058462
 30
0.0
 40
20.0
  0
CIRCLE
  5
DE079
  8
0
 10
-585.4999597999677
 20
1610.036642058459
 30
0.0
 40
20.0
  0
CIRCLE
  5
DE07A
  8
0
 10
-585.4999597999677
 20
1374.036642058455
 30
0.0
 40
20.0
  0
CIRCLE
  5
DE07B
  8
0
 10
-585.4999597999677
 20
2082.036642058466
 30
0.0
 40
20.0
  0
CIRCLE
  5
DE07E
  8
0
 10
-585.4999597999672
 20
2377.036642058481
 30
0.0
 40
20.0
  0
CIRCLE
  5
DE07F
  8
0
 10
-585.4999597999672
 20
2259.036642058479
 30
0.0
 40
20.0
  0
CIRCLE
  5
DE080
  8
0
 10
-1764.499959799983
 20
2259.036642058458
 30
0.0
 40
20.0
  0
CIRCLE
  5
DE081
  8
0
 10
-1764.499959799983
 20
2377.03664205846
 30
0.0
 40
20.0
  0
CIRCLE
  5
DE082
  8
0
 10
-1764.499959799983
 20
2141.036642058456
 30
0.0
 40
20.0
  0
CIRCLE
  5
DE083
  8
0
 10
-1764.499959799983
 20
2023.036642058455
 30
0.0
 40
20.0
  0
CIRCLE
  5
DE084
  8
0
 10
-3043.49995979998
 20
1551.036642058446
 30
0.0
 40
20.0
  0
CIRCLE
  5
DE085
  8
0
 10
-3043.49995979998
 20
1669.036642058447
 30
0.0
 40
20.0
  0
CIRCLE
  5
DE086
  8
0
 10
-3043.49995979998
 20
1905.036642058451
 30
0.0
 40
20.0
  0
CIRCLE
  5
DE087
  8
0
 10
-3043.49995979998
 20
1787.036642058449
 30
0.0
 40
20.0
  0
CIRCLE
  5
DE088
  8
0
 10
-3043.499959799979
 20
1374.036642058443
 30
0.0
 40
20.0
  0
VIEWPORT
  5
DAB74
 67
     1
  8
0
 10
0.0
 20
0.0
 30
0.0
 40
10.87270777479893
 41
8.16
 68
     1
 69
     1
1001
ACAD
1000
MVIEW
1002
{
1070
    16
1010
0.0
1020
0.0
1030
0.0
1010
0.0
1020
0.0
1030
1.0
1040
0.0
1040
8.16
1040
6.065999999999998
1040
3.851238605898123
1040
50.0
1040
0.0
1040
0.0
1070
    16
1070
   100
1070
     1
1070
     3
1070
     0
1070
     0
1070
     0
1070
     0
1040
0.0
1040
0.0
1040
0.0
1040
0.5
1040
0.5
1040
0.0
1040
0.0
1070
     0
1002
{
1002
}
1002
}
  0
VIEWPORT
  5
DAB75
 67
     1
  8
0
 10
5.25
 20
4.0
 30
0.0
 40
8.4
 41
6.4
 68
     2
 69
     2
1001
ACAD
1000
MVIEW
1002
{
1070
    16
1010
0.0
1020
0.0
1030
0.0
1010
0.0
1020
0.0
1030
1.0
1040
0.0
1040
12730.99251508979
1040
-238.8342129778575
1040
5240.682605436173
1040
50.0
1040
0.0
1040
0.0
1070
     0
1070
   100
1070
     1
1070
     3
1070
     0
1070
     0
1070
     0
1070
     0
1040
0.0
1040
0.0
1040
0.0
1040
0.5
1040
0.5
1040
0.0
1040
0.0
1070
     0
1002
{
1002
}
1002
}
  0
ENDSEC
  0
EOF
