  0
SECTION
  2
HEADER
  9
$ACADVER
  1
AC1032
  9
$ACADMAINTVER
 90
       55
  9
$DWGCODEPAGE
  3
ANSI_1252
  9
$LASTSAVEDBY
  1
ucom07
  9
$REQUIREDVERSIONS
160
                 0
  9
$INSBASE
 10
0.0
 20
0.0
 30
0.0
  9
$EXTMIN
 10
-4012.685974119231
 20
-987.6576470269356
 30
0.0
  9
$EXTMAX
 10
4012.685974119236
 20
11129.56250615821
 30
0.0
  9
$LIMMIN
 10
0.0
 20
0.0
  9
$LIMMAX
 10
12.0
 20
9.0
  9
$ORTHOMODE
 70
     1
  9
$REGENMODE
 70
     1
  9
$FILLMODE
 70
     1
  9
$QTEXTMODE
 70
     0
  9
$MIRRTEXT
 70
     0
  9
$LTSCALE
 40
5.0
  9
$ATTMODE
 70
     1
  9
$TEXTSIZE
 40
19.0
  9
$TRACEWID
 40
0.05
  9
$TEXTSTYLE
  7
STILE1
  9
$CLAYER
  8
0
  9
$CELTYPE
  6
ByLayer
  9
$CECOLOR
 62
   256
  9
$CELTSCALE
 40
1.0
  9
$DISPSILH
 70
     0
  9
$DIMSCALE
 40
50.0
  9
$DIMASZ
 40
2.5
  9
$DIMEXO
 40
1.0
  9
$DIMDLI
 40
0.0
  9
$DIMRND
 40
0.0
  9
$DIMDLE
 40
0.0
  9
$DIMEXE
 40
1.0
  9
$DIMTP
 40
0.0
  9
$DIMTM
 40
0.0
  9
$DIMTXT
 40
2.5
  9
$DIMCEN
 40
1.0
  9
$DIMTSZ
 40
0.0
  9
$DIMTOL
 70
     0
  9
$DIMLIM
 70
     0
  9
$DIMTIH
 70
     0
  9
$DIMTOH
 70
     0
  9
$DIMSE1
 70
     0
  9
$DIMSE2
 70
     0
  9
$DIMTAD
 70
     1
  9
$DIMZIN
 70
     8
  9
$DIMBLK
  1

  9
$DIMASO
 70
     1
  9
$DIMSHO
 70
     0
  9
$DIMPOST
  1

  9
$DIMAPOST
  1

  9
$DIMALT
 70
     0
  9
$DIMALTD
 70
     2
  9
$DIMALTF
 40
25.4
  9
$DIMLFAC
 40
1.0
  9
$DIMTOFL
 70
     1
  9
$DIMTVP
 40
0.0
  9
$DIMTIX
 70
     1
  9
$DIMSOXD
 70
     0
  9
$DIMSAH
 70
     0
  9
$DIMBLK1
  1

  9
$DIMBLK2
  1

  9
$DIMSTYLE
  2
STANDARD
  9
$DIMCLRD
 70
     0
  9
$DIMCLRE
 70
     0
  9
$DIMCLRT
 70
     0
  9
$DIMTFAC
 40
1.0
  9
$DIMGAP
 40
1.5
  9
$DIMJUST
 70
     0
  9
$DIMSD1
 70
     0
  9
$DIMSD2
 70
     0
  9
$DIMTOLJ
 70
     1
  9
$DIMTZIN
 70
     0
  9
$DIMALTZ
 70
     0
  9
$DIMALTTZ
 70
     0
  9
$DIMUPT
 70
     0
  9
$DIMDEC
 70
     4
  9
$DIMTDEC
 70
     4
  9
$DIMALTU
 70
     2
  9
$DIMALTTD
 70
     2
  9
$DIMTXSTY
  7
STANDARD
  9
$DIMAUNIT
 70
     0
  9
$DIMADEC
 70
     0
  9
$DIMALTRND
 40
0.0
  9
$DIMAZIN
 70
     0
  9
$DIMDSEP
 70
    46
  9
$DIMATFIT
 70
     3
  9
$DIMFRAC
 70
     0
  9
$DIMLDRBLK
  1

  9
$DIMLUNIT
 70
     2
  9
$DIMLWD
 70
    -2
  9
$DIMLWE
 70
    -2
  9
$DIMTMOVE
 70
     2
  9
$DIMFXL
 40
1.0
  9
$DIMFXLON
 70
     0
  9
$DIMJOGANG
 40
0.7853981633974483
  9
$DIMTFILL
 70
     0
  9
$DIMTFILLCLR
 70
     0
  9
$DIMARCSYM
 70
     0
  9
$DIMLTYPE
  6

  9
$DIMLTEX1
  6

  9
$DIMLTEX2
  6

  9
$DIMTXTDIRECTION
 70
     0
  9
$LUNITS
 70
     2
  9
$LUPREC
 70
     4
  9
$SKETCHINC
 40
0.1
  9
$FILLETRAD
 40
20.0
  9
$AUNITS
 70
     0
  9
$AUPREC
 70
     0
  9
$MENU
  1
acad
  9
$ELEVATION
 40
0.0
  9
$PELEVATION
 40
0.0
  9
$THICKNESS
 40
0.0
  9
$LIMCHECK
 70
     0
  9
$CHAMFERA
 40
1200.0
  9
$CHAMFERB
 40
1200.0
  9
$CHAMFERC
 40
0.0
  9
$CHAMFERD
 40
0.0
  9
$SKPOLY
 70
     0
  9
$TDCREATE
 40
2450277.504307755
  9
$TDUCREATE
 40
2450277.420974421
  9
$TDUPDATE
 40
2460453.618909757
  9
$TDUUPDATE
 40
2460453.535576424
  9
$TDINDWG
 40
26.2128325579
  9
$TDUSRTIMER
 40
0.0007188542
  9
$USRTIMER
 70
     1
  9
$ANGBASE
 50
0.0
  9
$ANGDIR
 70
     0
  9
$PDMODE
 70
     0
  9
$PDSIZE
 40
0.0
  9
$PLINEWID
 40
0.0
  9
$SPLFRAME
 70
     0
  9
$SPLINETYPE
 70
     6
  9
$SPLINESEGS
 70
     8
  9
$HANDSEED
  5
DF9A9
  9
$SURFTAB1
 70
     6
  9
$SURFTAB2
 70
     6
  9
$SURFTYPE
 70
     6
  9
$SURFU
 70
     6
  9
$SURFV
 70
     6
  9
$UCSBASE
  2

  9
$UCSNAME
  2

  9
$UCSORG
 10
0.0
 20
0.0
 30
0.0
  9
$UCSXDIR
 10
1.0
 20
0.0
 30
0.0
  9
$UCSYDIR
 10
0.0
 20
1.0
 30
0.0
  9
$UCSORTHOREF
  2

  9
$UCSORTHOVIEW
 70
     0
  9
$UCSORGTOP
 10
0.0
 20
0.0
 30
0.0
  9
$UCSORGBOTTOM
 10
0.0
 20
0.0
 30
0.0
  9
$UCSORGLEFT
 10
0.0
 20
0.0
 30
0.0
  9
$UCSORGRIGHT
 10
0.0
 20
0.0
 30
0.0
  9
$UCSORGFRONT
 10
0.0
 20
0.0
 30
0.0
  9
$UCSORGBACK
 10
0.0
 20
0.0
 30
0.0
  9
$PUCSBASE
  2

  9
$PUCSNAME
  2

  9
$PUCSORG
 10
0.0
 20
0.0
 30
0.0
  9
$PUCSXDIR
 10
1.0
 20
0.0
 30
0.0
  9
$PUCSYDIR
 10
0.0
 20
1.0
 30
0.0
  9
$PUCSORTHOREF
  2

  9
$PUCSORTHOVIEW
 70
     0
  9
$PUCSORGTOP
 10
0.0
 20
0.0
 30
0.0
  9
$PUCSORGBOTTOM
 10
0.0
 20
0.0
 30
0.0
  9
$PUCSORGLEFT
 10
0.0
 20
0.0
 30
0.0
  9
$PUCSORGRIGHT
 10
0.0
 20
0.0
 30
0.0
  9
$PUCSORGFRONT
 10
0.0
 20
0.0
 30
0.0
  9
$PUCSORGBACK
 10
0.0
 20
0.0
 30
0.0
  9
$USERI1
 70
     0
  9
$USERI2
 70
     0
  9
$USERI3
 70
     0
  9
$USERI4
 70
     0
  9
$USERI5
 70
     0
  9
$USERR1
 40
0.0
  9
$USERR2
 40
0.0
  9
$USERR3
 40
0.0
  9
$USERR4
 40
0.0
  9
$USERR5
 40
0.0
  9
$WORLDVIEW
 70
     0
  9
$SHADEDGE
 70
     3
  9
$SHADEDIF
 70
    70
  9
$TILEMODE
 70
     1
  9
$MAXACTVP
 70
    16
  9
$PINSBASE
 10
0.0
 20
0.0
 30
0.0
  9
$PLIMCHECK
 70
     0
  9
$PEXTMIN
 10
0.0
 20
0.0
 30
0.0
  9
$PEXTMAX
 10
0.0
 20
0.0
 30
0.0
  9
$PLIMMIN
 10
0.0
 20
0.0
  9
$PLIMMAX
 10
0.0
 20
0.0
  9
$UNITMODE
 70
     0
  9
$VISRETAIN
 70
     0
  9
$PLINEGEN
 70
     0
  9
$PSLTSCALE
 70
     1
  9
$TREEDEPTH
 70
  3020
  9
$CMLSTYLE
  2
Standard
  9
$CMLJUST
 70
     0
  9
$CMLSCALE
 40
1.0
  9
$PROXYGRAPHICS
 70
     1
  9
$MEASUREMENT
 70
     0
  9
$CELWEIGHT
370
    -1
  9
$ENDCAPS
280
     0
  9
$JOINSTYLE
280
     0
  9
$LWDISPLAY
290
     0
  9
$INSUNITS
 70
     0
  9
$HYPERLINKBASE
  1

  9
$STYLESHEET
  1

  9
$XEDIT
290
     1
  9
$CEPSNTYPE
380
     0
  9
$PSTYLEMODE
290
     1
  9
$FINGERPRINTGUID
  2
{032f3025-ded4-45eb-9e23-3328f66e2eaf}
  9
$VERSIONGUID
  2
{FAEB1C32-E019-11D5-929B-00C0DF256EC4}
  9
$EXTNAMES
290
     1
  9
$PSVPSCALE
 40
0.0
  9
$OLESTARTUP
290
     0
  9
$SORTENTS
280
   127
  9
$INDEXCTL
280
     0
  9
$HIDETEXT
280
     1
  9
$XCLIPFRAME
280
     2
  9
$HALOGAP
280
     0
  9
$OBSCOLOR
 70
   257
  9
$OBSLTYPE
280
     0
  9
$INTERSECTIONDISPLAY
280
     0
  9
$INTERSECTIONCOLOR
 70
   257
  9
$DIMASSOC
280
     2
  9
$PROJECTNAME
  1

  9
$CAMERADISPLAY
290
     0
  9
$LENSLENGTH
 40
50.0
  9
$CAMERAHEIGHT
 40
0.0
  9
$STEPSPERSEC
 40
2.0
  9
$STEPSIZE
 40
6.0
  9
$3DDWFPREC
 40
2.0
  9
$PSOLWIDTH
 40
0.25
  9
$PSOLHEIGHT
 40
4.0
  9
$LOFTANG1
 40
1.570796326794897
  9
$LOFTANG2
 40
1.570796326794897
  9
$LOFTMAG1
 40
0.0
  9
$LOFTMAG2
 40
0.0
  9
$LOFTPARAM
 70
     7
  9
$LOFTNORMALS
280
     1
  9
$LATITUDE
 40
37.795
  9
$LONGITUDE
 40
-122.394
  9
$NORTHDIRECTION
 40
0.0
  9
$TIMEZONE
 70
 -8000
  9
$LIGHTGLYPHDISPLAY
280
     1
  9
$TILEMODELIGHTSYNCH
280
     1
  9
$SOLIDHIST
280
     0
  9
$SHOWHIST
280
     1
  9
$DWFFRAME
280
     2
  9
$DGNFRAME
280
     2
  9
$REALWORLDSCALE
290
     1
  9
$INTERFERECOLOR
 62
   256
  9
$CSHADOW
280
     0
  9
$SHADOWPLANELOCATION
 40
0.0
  0
ENDSEC
  0
SECTION
  2
CLASSES
  0
CLASS
  1
ACDBDICTIONARYWDFLT
  2
AcDbDictionaryWithDefault
  3
ObjectDBX Classes
 90
        0
 91
        3
280
     0
281
     0
  0
CLASS
  1
MATERIAL
  2
AcDbMaterial
  3
ObjectDBX Classes
 90
     1153
 91
        3
280
     0
281
     0
  0
CLASS
  1
SCALE
  2
AcDbScale
  3
ObjectDBX Classes
 90
     1153
 91
        3
280
     0
281
     0
  0
CLASS
  1
VISUALSTYLE
  2
AcDbVisualStyle
  3
ObjectDBX Classes
 90
     4095
 91
        3
280
     0
281
     0
  0
CLASS
  1
TABLESTYLE
  2
AcDbTableStyle
  3
ObjectDBX Classes
 90
     4095
 91
        3
280
     0
281
     0
  0
CLASS
  1
MLEADERSTYLE
  2
AcDbMLeaderStyle
  3
ACDB_MLEADERSTYLE_CLASS
 90
     4095
 91
        3
280
     0
281
     0
  0
CLASS
  1
DICTIONARYVAR
  2
AcDbDictionaryVar
  3
ObjectDBX Classes
 90
        0
 91
        3
280
     0
281
     0
  0
CLASS
  1
SUN
  2
AcDbSun
  3
SCENEOE
 90
     1153
 91
        3
280
     0
281
     0
  0
CLASS
  1
CELLSTYLEMAP
  2
AcDbCellStyleMap
  3
ObjectDBX Classes
 90
     1152
 91
        3
280
     0
281
     0
  0
ENDSEC
  0
SECTION
  2
TABLES
  0
TABLE
  2
VPORT
  5
DF90E
330
0
100
AcDbSymbolTable
 70
     1
  0
VPORT
  5
DF925
330
DF90E
100
AcDbSymbolTableRecord
100
AcDbViewportTableRecord
  2
*ACTIVE
 70
     0
 10
0.0
 20
0.0
 11
1.0
 21
1.0
 12
0.0000000000022737
 22
5070.952429565637
 13
0.0
 23
0.0
 14
1.0
 24
1.0
 15
0.0
 25
0.0
 16
0.0
 26
0.0
 36
1.0
 17
0.0
 27
0.0
 37
0.0
 40
12359.56455624885
 41
1.944065484311051
 42
50.0
 43
0.0
 44
0.0
 50
0.0
 51
0.0
 71
    16
 72
   100
 73
     1
 74
     1
 75
     0
 76
     1
 77
     0
 78
     0
281
     0
 65
     0
110
0.0
120
0.0
130
0.0
111
1.0
121
0.0
131
0.0
112
0.0
122
1.0
132
0.0
 79
     0
146
0.0
348
DF980
 60
     3
 61
     5
292
     1
282
     1
141
0.0
142
0.0
 63
   256
361
DF9A4
  0
ENDTAB
  0
TABLE
  2
LTYPE
  5
DF90B
330
0
100
AcDbSymbolTable
 70
     1
  0
LTYPE
  5
DF919
330
DF90B
100
AcDbSymbolTableRecord
100
AcDbLinetypeTableRecord
  2
ByBlock
 70
     0
  3

 72
    65
 73
     0
 40
0.0
  0
LTYPE
  5
DF91A
330
DF90B
100
AcDbSymbolTableRecord
100
AcDbLinetypeTableRecord
  2
ByLayer
 70
     0
  3

 72
    65
 73
     0
 40
0.0
  0
LTYPE
  5
DF91B
330
DF90B
100
AcDbSymbolTableRecord
100
AcDbLinetypeTableRecord
  2
CONTINUOUS
 70
     0
  3
Solid line
 72
    65
 73
     0
 40
0.0
  0
ENDTAB
  0
TABLE
  2
LAYER
  5
DF909
330
0
100
AcDbSymbolTable
 70
     1
  0
LAYER
  5
DF916
330
DF909
100
AcDbSymbolTableRecord
100
AcDbLayerTableRecord
  2
0
 70
     0
 62
     7
  6
CONTINUOUS
370
    -3
390
DF915
347
DF92B
348
0
  0
ENDTAB
  0
TABLE
  2
STYLE
  5
DF90A
330
0
100
AcDbSymbolTable
 70
     2
  0
STYLE
  5
DF917
330
DF90A
100
AcDbSymbolTableRecord
100
AcDbTextStyleTableRecord
  2
STANDARD
 70
     0
 40
0.0
 41
1.0
 50
0.0
 71
     0
 42
2.5
  3
txt
  4

  0
STYLE
  5
DF92D
330
DF90A
100
AcDbSymbolTableRecord
100
AcDbTextStyleTableRecord
  2
STILE1
 70
     0
 40
0.0
 41
1.0
 50
0.0
 71
     0
 42
19.0
  3
ROMANS.SHX
  4

  0
ENDTAB
  0
TABLE
  2
VIEW
  5
DF90C
330
0
100
AcDbSymbolTable
 70
     0
  0
ENDTAB
  0
TABLE
  2
UCS
  5
DF90D
330
0
100
AcDbSymbolTable
 70
     0
  0
ENDTAB
  0
TABLE
  2
APPID
  5
DF90F
330
0
100
AcDbSymbolTable
 70
    40
  0
APPID
  5
DF918
330
DF90F
100
AcDbSymbolTableRecord
100
AcDbRegAppTableRecord
  2
ACAD
 70
     0
  0
APPID
  5
DF92F
330
DF90F
100
AcDbSymbolTableRecord
100
AcDbRegAppTableRecord
  2
DCO15
 70
     0
  0
APPID
  5
DF930
330
DF90F
100
AcDbSymbolTableRecord
100
AcDbRegAppTableRecord
  2
ACAECLAYERSTANDARD
 70
     0
  0
APPID
  5
DF931
330
DF90F
100
AcDbSymbolTableRecord
100
AcDbRegAppTableRecord
  2
ACDBDYNAMICBLOCKGUID
 70
     0
  0
APPID
  5
DF932
330
DF90F
100
AcDbSymbolTableRecord
100
AcDbRegAppTableRecord
  2
ACDBBLOCKREPETAG
 70
     0
  0
APPID
  5
DF933
330
DF90F
100
AcDbSymbolTableRecord
100
AcDbRegAppTableRecord
  2
ACAD_PSEXT
 70
     0
  0
APPID
  5
DF934
330
DF90F
100
AcDbSymbolTableRecord
100
AcDbRegAppTableRecord
  2
ACAD_DSTYLE_DIMJAG
 70
     0
  0
APPID
  5
DF935
330
DF90F
100
AcDbSymbolTableRecord
100
AcDbRegAppTableRecord
  2
ACAD_DSTYLE_DIMTALN
 70
     0
  0
APPID
  5
DF936
330
DF90F
100
AcDbSymbolTableRecord
100
AcDbRegAppTableRecord
  2
ACAD_DSTYLE_DIMRADIAL_EXTE
 70
     0
  0
APPID
  5
DF937
330
DF90F
100
AcDbSymbolTableRecord
100
AcDbRegAppTableRecord
  2
RAK
 70
     0
  0
APPID
  5
DF938
330
DF90F
100
AcDbSymbolTableRecord
100
AcDbRegAppTableRecord
  2
ACLAYERTOOLS
 70
     0
  0
APPID
  5
DF939
330
DF90F
100
AcDbSymbolTableRecord
100
AcDbRegAppTableRecord
  2
REVIT
 70
     0
  0
APPID
  5
DF93A
330
DF90F
100
AcDbSymbolTableRecord
100
AcDbRegAppTableRecord
  2
ACAD_MLEADERVER
 70
     0
  0
APPID
  5
DF93B
330
DF90F
100
AcDbSymbolTableRecord
100
AcDbRegAppTableRecord
  2
ACAD_DSTYLE_DIMBREAK
 70
     0
  0
APPID
  5
DF93C
330
DF90F
100
AcDbSymbolTableRecord
100
AcDbRegAppTableRecord
  2
ACCMTRANSPARENCY
 70
     0
  0
APPID
  5
DF93D
330
DF90F
100
AcDbSymbolTableRecord
100
AcDbRegAppTableRecord
  2
ACAD_NAV_VCDISPLAY
 70
     0
  0
APPID
  5
DF93E
330
DF90F
100
AcDbSymbolTableRecord
100
AcDbRegAppTableRecord
  2
GRADIENTCOLOR1ACI
 70
     0
  0
APPID
  5
DF93F
330
DF90F
100
AcDbSymbolTableRecord
100
AcDbRegAppTableRecord
  2
GRADIENTCOLOR2ACI
 70
     0
  0
APPID
  5
DF940
330
DF90F
100
AcDbSymbolTableRecord
100
AcDbRegAppTableRecord
  2
PROGE_PRINT_SETTINGS
 70
     0
  0
APPID
  5
DF941
330
DF90F
100
AcDbSymbolTableRecord
100
AcDbRegAppTableRecord
  2
AA_WLPR
 70
     0
  0
APPID
  5
DF942
330
DF90F
100
AcDbSymbolTableRecord
100
AcDbRegAppTableRecord
  2
AA_WLENT
 70
     0
  0
APPID
  5
DF943
330
DF90F
100
AcDbSymbolTableRecord
100
AcDbRegAppTableRecord
  2
AA_WLTP
 70
     0
  0
APPID
  5
DF944
330
DF90F
100
AcDbSymbolTableRecord
100
AcDbRegAppTableRecord
  2
AA_WLBK
 70
     0
  0
APPID
  5
DF945
330
DF90F
100
AcDbSymbolTableRecord
100
AcDbRegAppTableRecord
  2
ACAD_DSTYLE_DIMJOGGED_JOGA
 70
     0
  0
APPID
  5
DF946
330
DF90F
100
AcDbSymbolTableRecord
100
AcDbRegAppTableRecord
  2
$DDT_AUDIT_GENERATED__2CAF
 70
     0
  0
APPID
  5
DF947
330
DF90F
100
AcDbSymbolTableRecord
100
AcDbRegAppTableRecord
  2
ACAD_DSTYLE_DIMEXT_LENGTH
 70
     0
  0
APPID
  5
DF948
330
DF90F
100
AcDbSymbolTableRecord
100
AcDbRegAppTableRecord
  2
ACAD_DSTYLE_DIMEXT_ENABLED
 70
     0
  0
APPID
  5
DF949
330
DF90F
100
AcDbSymbolTableRecord
100
AcDbRegAppTableRecord
  2
ACAD_DSTYLE_DIMJOGGED_JOG0
 70
     0
  0
APPID
  5
DF94A
330
DF90F
100
AcDbSymbolTableRecord
100
AcDbRegAppTableRecord
  2
ACAD_DSTYLE_DIMARC_LENGTH_
 70
     0
  0
APPID
  5
DF94B
330
DF90F
100
AcDbSymbolTableRecord
100
AcDbRegAppTableRecord
  2
C_AND_O
 70
     0
  0
APPID
  5
DF94C
330
DF90F
100
AcDbSymbolTableRecord
100
AcDbRegAppTableRecord
  2
AVE_FINISH
 70
     0
  0
APPID
  5
DF94D
330
DF90F
100
AcDbSymbolTableRecord
100
AcDbRegAppTableRecord
  2
AVE_RENDER
 70
     0
  0
APPID
  5
DF94E
330
DF90F
100
AcDbSymbolTableRecord
100
AcDbRegAppTableRecord
  2
AVE_ENTITY_MATERIAL
 70
     0
  0
APPID
  5
DF94F
330
DF90F
100
AcDbSymbolTableRecord
100
AcDbRegAppTableRecord
  2
AVE_MATERIAL
 70
     0
  0
APPID
  5
DF950
330
DF90F
100
AcDbSymbolTableRecord
100
AcDbRegAppTableRecord
  2
ADDC5$_$SETUP-
 70
     0
  0
APPID
  5
DF951
330
DF90F
100
AcDbSymbolTableRecord
100
AcDbRegAppTableRecord
  2
ADDC4$_$SETUP-
 70
     0
  0
APPID
  5
DF952
330
DF90F
100
AcDbSymbolTableRecord
100
AcDbRegAppTableRecord
  2
ADDC4$_$ARTSETUP-
 70
     0
  0
APPID
  5
DF953
330
DF90F
100
AcDbSymbolTableRecord
100
AcDbRegAppTableRecord
  2
GENIUS_GENODEF_13
 70
     0
  0
APPID
  5
DF954
330
DF90F
100
AcDbSymbolTableRecord
100
AcDbRegAppTableRecord
  2
GENIUS_GENOBJ-N-REC_13
 70
     0
  0
APPID
  5
DF955
330
DF90F
100
AcDbSymbolTableRecord
100
AcDbRegAppTableRecord
  2
GENIUS_GENREC_14
 70
     0
  0
ENDTAB
  0
TABLE
  2
DIMSTYLE
  5
DF910
330
0
100
AcDbSymbolTable
 70
     1
100
AcDbDimStyleTable
  0
DIMSTYLE
105
DF956
330
DF910
100
AcDbSymbolTableRecord
100
AcDbDimStyleTableRecord
  2
STANDARD
 70
     0
178
     0
340
DF92D
  0
ENDTAB
  0
TABLE
  2
BLOCK_RECORD
  5
DF908
330
0
100
AcDbSymbolTable
 70
     0
  0
BLOCK_RECORD
  5
DF922
102
{ACAD_XDICTIONARY
360
DF99B
102
}
330
DF908
100
AcDbSymbolTableRecord
100
AcDbBlockTableRecord
  2
*Model_Space
340
DF923
 70
     0
280
     1
281
     0
  0
BLOCK_RECORD
  5
DF920
330
DF908
100
AcDbSymbolTableRecord
100
AcDbBlockTableRecord
  2
*Paper_Space
340
DF921
 70
     0
280
     1
281
     0
  0
ENDTAB
  0
ENDSEC
  0
SECTION
  2
BLOCKS
  0
BLOCK
  5
DF957
330
DF922
100
AcDbEntity
  8
0
100
AcDbBlockBegin
  2
*Model_Space
 70
     0
 10
0.0
 20
0.0
 30
0.0
  3
*Model_Space
  1

  0
ENDBLK
  5
DE780
330
DF922
100
AcDbEntity
  8
0
100
AcDbBlockEnd
  0
BLOCK
  5
DF958
330
DF920
100
AcDbEntity
 67
     1
  8
0
100
AcDbBlockBegin
  2
*Paper_Space
 70
     0
 10
0.0
 20
0.0
 30
0.0
  3
*Paper_Space
  1

  0
ENDBLK
  5
DE77C
330
DF920
100
AcDbEntity
 67
     1
  8
0
100
AcDbBlockEnd
  0
ENDSEC
  0
SECTION
  2
ENTITIES
  0
LWPOLYLINE
  5
DB88B
330
DF922
100
AcDbEntity
  8
0
100
AcDbPolyline
 90
        9
 70
     0
 43
0.0
 10
3214.83515507932
 20
6760.525864099767
 10
3564.83515507932
 20
6760.525864099767
 10
3564.83515507932
 20
6345.525864099764
 10
3534.83515507932
 20
6345.525864099764
 10
3534.83515507932
 20
6730.525864099767
 10
3244.83515507932
 20
6730.525864099767
 10
3244.83515507932
 20
6345.525864099764
 10
3214.83515507932
 20
6345.525864099764
 10
3214.83515507932
 20
6760.525864099767
  0
LWPOLYLINE
  5
DB88C
330
DF922
100
AcDbEntity
  8
0
100
AcDbPolyline
 90
        4
 70
     1
 43
0.0
 10
3214.83515507932
 20
6760.525864099767
 10
3214.83515507932
 20
6785.525864099767
 10
3294.83515507932
 20
6785.525864099767
 10
3294.83515507932
 20
6760.525864099767
  0
LWPOLYLINE
  5
DB88D
330
DF922
100
AcDbEntity
  8
0
100
AcDbPolyline
 90
        4
 70
     1
 43
0.0
 10
3484.83515507932
 20
6760.525864099767
 10
3484.83515507932
 20
6785.525864099767
 10
3564.83515507932
 20
6785.525864099767
 10
3564.83515507932
 20
6760.525864099767
  0
LWPOLYLINE
  5
DB88E
330
DF922
100
AcDbEntity
  8
0
100
AcDbPolyline
 90
        4
 70
     1
 43
0.0
 10
3304.83515507932
 20
6760.525864099767
 10
3304.83515507932
 20
6785.525864099767
 10
3384.83515507932
 20
6785.525864099767
 10
3384.83515507932
 20
6760.525864099767
  0
LWPOLYLINE
  5
DB88F
330
DF922
100
AcDbEntity
  8
0
100
AcDbPolyline
 90
        4
 70
     1
 43
0.0
 10
3394.83515507932
 20
6760.525864099767
 10
3394.83515507932
 20
6785.525864099767
 10
3474.83515507932
 20
6785.525864099767
 10
3474.83515507932
 20
6760.525864099767
  0
LWPOLYLINE
  5
DB890
330
DF922
100
AcDbEntity
  8
0
100
AcDbPolyline
 90
        4
 70
     1
 43
0.0
 10
-2594.835155079312
 20
4875.525864099769
 10
-2594.835155079312
 20
4795.525864099766
 10
-3594.835155079312
 20
4795.525864099766
 10
-3594.835155079312
 20
4875.525864099769
  0
LWPOLYLINE
  5
DB891
330
DF922
100
AcDbEntity
  8
0
100
AcDbPolyline
 90
        4
 70
     1
 43
0.0
 10
-2594.835155079312
 20
5145.52586409977
 10
-2594.835155079312
 20
5065.525864099766
 10
-3594.835155079312
 20
5065.525864099766
 10
-3594.835155079312
 20
5145.52586409977
  0
LWPOLYLINE
  5
DB892
330
DF922
100
AcDbEntity
  8
0
100
AcDbPolyline
 90
        4
 70
     1
 43
0.0
 10
-2594.835155079312
 20
4965.525864099766
 10
-2594.835155079312
 20
4885.525864099765
 10
-3594.835155079312
 20
4885.525864099765
 10
-3594.835155079312
 20
4965.525864099766
  0
LWPOLYLINE
  5
DB893
330
DF922
100
AcDbEntity
  8
0
100
AcDbPolyline
 90
        4
 70
     1
 43
0.0
 10
-2594.835155079312
 20
5055.525864099765
 10
-2594.835155079312
 20
4975.525864099769
 10
-3594.835155079312
 20
4975.525864099769
 10
-3594.835155079312
 20
5055.525864099765
  0
LWPOLYLINE
  5
DB894
330
DF922
100
AcDbEntity
  8
0
100
AcDbPolyline
 90
        4
 70
     1
 43
0.0
 10
-2594.835155079312
 20
5055.525864099765
 10
-2624.835155079312
 20
5055.525864099765
 10
-2624.835155079312
 20
5065.525864099766
 10
-2594.835155079312
 20
5065.525864099766
  0
LWPOLYLINE
  5
DB895
330
DF922
100
AcDbEntity
  8
0
100
AcDbPolyline
 90
        4
 70
     1
 43
0.0
 10
-3564.835155079312
 20
4875.525864099769
 10
-3594.835155079312
 20
4875.525864099769
 10
-3594.835155079312
 20
4885.525864099765
 10
-3564.835155079312
 20
4885.525864099765
  0
LWPOLYLINE
  5
DB896
330
DF922
100
AcDbEntity
  8
0
100
AcDbPolyline
 90
        4
 70
     1
 43
0.0
 10
-3564.835155079312
 20
4965.525864099766
 10
-3594.835155079312
 20
4965.525864099766
 10
-3594.835155079312
 20
4975.525864099769
 10
-3564.835155079312
 20
4975.525864099769
  0
LWPOLYLINE
  5
DB897
330
DF922
100
AcDbEntity
  8
0
100
AcDbPolyline
 90
        4
 70
     1
 43
0.0
 10
-3564.835155079312
 20
5055.525864099765
 10
-3594.835155079312
 20
5055.525864099765
 10
-3594.835155079312
 20
5065.525864099766
 10
-3564.835155079312
 20
5065.525864099766
  0
LWPOLYLINE
  5
DB898
330
DF922
100
AcDbEntity
  8
0
100
AcDbPolyline
 90
        4
 70
     1
 43
0.0
 10
-2594.835155079312
 20
4965.525864099766
 10
-2624.835155079312
 20
4965.525864099766
 10
-2624.835155079312
 20
4975.525864099769
 10
-2594.835155079312
 20
4975.525864099769
  0
LWPOLYLINE
  5
DB899
330
DF922
100
AcDbEntity
  8
0
100
AcDbPolyline
 90
        4
 70
     1
 43
0.0
 10
-2594.835155079312
 20
4875.525864099769
 10
-2624.835155079312
 20
4875.525864099769
 10
-2624.835155079312
 20
4885.525864099765
 10
-2594.835155079312
 20
4885.525864099765
  0
LWPOLYLINE
  5
DB89A
330
DF922
100
AcDbEntity
  8
0
100
AcDbPolyline
 90
        4
 70
     1
 43
0.0
 10
-3594.835155079312
 20
6760.525864099767
 10
-3594.835155079312
 20
6785.525864099767
 10
-2594.835155079312
 20
6785.525864099767
 10
-2594.835155079312
 20
6760.525864099767
  0
LWPOLYLINE
  5
DB89B
330
DF922
100
AcDbEntity
  8
0
100
AcDbPolyline
 90
        4
 70
     1
 43
0.0
 10
-394.3917534743048
 20
4875.525864099769
 10
-394.3917534743048
 20
4795.525864099766
 10
-1894.391753474304
 20
4795.525864099766
 10
-1894.391753474304
 20
4875.525864099769
  0
LWPOLYLINE
  5
DB89C
330
DF922
100
AcDbEntity
  8
0
100
AcDbPolyline
 90
        4
 70
     1
 43
0.0
 10
-394.3917534743048
 20
5145.52586409977
 10
-394.3917534743048
 20
5065.525864099766
 10
-1894.391753474304
 20
5065.525864099766
 10
-1894.391753474304
 20
5145.52586409977
  0
LWPOLYLINE
  5
DB89D
330
DF922
100
AcDbEntity
  8
0
100
AcDbPolyline
 90
        4
 70
     1
 43
0.0
 10
-394.3917534743048
 20
4965.525864099766
 10
-394.3917534743048
 20
4885.525864099765
 10
-1894.391753474304
 20
4885.525864099765
 10
-1894.391753474304
 20
4965.525864099766
  0
LWPOLYLINE
  5
DB89E
330
DF922
100
AcDbEntity
  8
0
100
AcDbPolyline
 90
        4
 70
     1
 43
0.0
 10
-394.3917534743048
 20
5055.525864099765
 10
-394.3917534743048
 20
4975.525864099769
 10
-1894.391753474304
 20
4975.525864099769
 10
-1894.391753474304
 20
5055.525864099765
  0
LWPOLYLINE
  5
DB89F
330
DF922
100
AcDbEntity
  8
0
100
AcDbPolyline
 90
        4
 70
     1
 43
0.0
 10
-394.3917534743048
 20
5055.525864099765
 10
-424.3917534743048
 20
5055.525864099765
 10
-424.3917534743048
 20
5065.525864099766
 10
-394.3917534743048
 20
5065.525864099766
  0
LWPOLYLINE
  5
DB8A0
330
DF922
100
AcDbEntity
  8
0
100
AcDbPolyline
 90
        4
 70
     1
 43
0.0
 10
-1864.391753474304
 20
4875.525864099769
 10
-1894.391753474304
 20
4875.525864099769
 10
-1894.391753474304
 20
4885.525864099765
 10
-1864.391753474304
 20
4885.525864099765
  0
LWPOLYLINE
  5
DB8A1
330
DF922
100
AcDbEntity
  8
0
100
AcDbPolyline
 90
        4
 70
     1
 43
0.0
 10
-1864.391753474304
 20
4965.525864099766
 10
-1894.391753474304
 20
4965.525864099766
 10
-1894.391753474304
 20
4975.525864099769
 10
-1864.391753474304
 20
4975.525864099769
  0
LWPOLYLINE
  5
DB8A2
330
DF922
100
AcDbEntity
  8
0
100
AcDbPolyline
 90
        4
 70
     1
 43
0.0
 10
-1864.391753474304
 20
5055.525864099765
 10
-1894.391753474304
 20
5055.525864099765
 10
-1894.391753474304
 20
5065.525864099766
 10
-1864.391753474304
 20
5065.525864099766
  0
LWPOLYLINE
  5
DB8A3
330
DF922
100
AcDbEntity
  8
0
100
AcDbPolyline
 90
        4
 70
     1
 43
0.0
 10
-394.3917534743048
 20
4965.525864099766
 10
-424.3917534743048
 20
4965.525864099766
 10
-424.3917534743048
 20
4975.525864099769
 10
-394.3917534743048
 20
4975.525864099769
  0
LWPOLYLINE
  5
DB8A4
330
DF922
100
AcDbEntity
  8
0
100
AcDbPolyline
 90
        4
 70
     1
 43
0.0
 10
-394.3917534743048
 20
4875.525864099769
 10
-424.3917534743048
 20
4875.525864099769
 10
-424.3917534743048
 20
4885.525864099765
 10
-394.3917534743048
 20
4885.525864099765
  0
LWPOLYLINE
  5
DB8A5
330
DF922
100
AcDbEntity
  8
0
100
AcDbPolyline
 90
        4
 70
     1
 43
0.0
 10
-1894.391753474304
 20
6760.525864099767
 10
-1894.391753474304
 20
6785.525864099767
 10
-394.3917534743048
 20
6785.525864099767
 10
-394.3917534743048
 20
6760.525864099767
  0
LWPOLYLINE
  5
DB8A6
330
DF922
100
AcDbEntity
  8
0
100
AcDbPolyline
 90
        4
 70
     1
 43
0.0
 10
305.4035143812108
 20
6760.525864099767
 10
305.4035143812108
 20
6785.525864099767
 10
2305.403514381211
 20
6785.525864099767
 10
2305.403514381211
 20
6760.525864099767
  0
LWPOLYLINE
  5
DB8A7
330
DF922
100
AcDbEntity
  8
0
100
AcDbPolyline
 90
        4
 70
     1
 43
0.0
 10
2305.403514381211
 20
4875.525864099769
 10
2275.403514381211
 20
4875.525864099769
 10
2275.403514381211
 20
4885.525864099765
 10
2305.403514381211
 20
4885.525864099765
  0
LWPOLYLINE
  5
DB8A8
330
DF922
100
AcDbEntity
  8
0
100
AcDbPolyline
 90
        4
 70
     1
 43
0.0
 10
2305.403514381211
 20
4965.525864099766
 10
2275.403514381211
 20
4965.525864099766
 10
2275.403514381211
 20
4975.525864099769
 10
2305.403514381211
 20
4975.525864099769
  0
LWPOLYLINE
  5
DB8A9
330
DF922
100
AcDbEntity
  8
0
100
AcDbPolyline
 90
        4
 70
     1
 43
0.0
 10
335.4035143812109
 20
5055.525864099765
 10
305.4035143812108
 20
5055.525864099765
 10
305.4035143812108
 20
5065.525864099766
 10
335.4035143812109
 20
5065.525864099766
  0
LWPOLYLINE
  5
DB8AA
330
DF922
100
AcDbEntity
  8
0
100
AcDbPolyline
 90
        4
 70
     1
 43
0.0
 10
335.4035143812109
 20
4965.525864099766
 10
305.4035143812108
 20
4965.525864099766
 10
305.4035143812108
 20
4975.525864099769
 10
335.4035143812109
 20
4975.525864099769
  0
LWPOLYLINE
  5
DB8AB
330
DF922
100
AcDbEntity
  8
0
100
AcDbPolyline
 90
        4
 70
     1
 43
0.0
 10
335.4035143812109
 20
4875.525864099769
 10
305.4035143812108
 20
4875.525864099769
 10
305.4035143812108
 20
4885.525864099765
 10
335.4035143812109
 20
4885.525864099765
  0
LWPOLYLINE
  5
DB8AC
330
DF922
100
AcDbEntity
  8
0
100
AcDbPolyline
 90
        4
 70
     1
 43
0.0
 10
2305.403514381211
 20
5055.525864099765
 10
2275.403514381211
 20
5055.525864099765
 10
2275.403514381211
 20
5065.525864099766
 10
2305.403514381211
 20
5065.525864099766
  0
LWPOLYLINE
  5
DB8AD
330
DF922
100
AcDbEntity
  8
0
100
AcDbPolyline
 90
        4
 70
     1
 43
0.0
 10
2305.403514381211
 20
5055.525864099765
 10
2305.403514381211
 20
4975.525864099769
 10
305.4035143812108
 20
4975.525864099769
 10
305.4035143812108
 20
5055.525864099765
  0
LWPOLYLINE
  5
DB8AE
330
DF922
100
AcDbEntity
  8
0
100
AcDbPolyline
 90
        4
 70
     1
 43
0.0
 10
2305.403514381211
 20
4965.525864099766
 10
2305.403514381211
 20
4885.525864099765
 10
305.4035143812108
 20
4885.525864099765
 10
305.4035143812108
 20
4965.525864099766
  0
LWPOLYLINE
  5
DB8AF
330
DF922
100
AcDbEntity
  8
0
100
AcDbPolyline
 90
        4
 70
     1
 43
0.0
 10
2305.403514381211
 20
5145.52586409977
 10
2305.403514381211
 20
5065.525864099766
 10
305.4035143812108
 20
5065.525864099766
 10
305.4035143812108
 20
5145.52586409977
  0
LWPOLYLINE
  5
DB8B0
330
DF922
100
AcDbEntity
  8
0
100
AcDbPolyline
 90
        4
 70
     1
 43
0.0
 10
2305.403514381211
 20
4875.525864099769
 10
2305.403514381211
 20
4795.525864099766
 10
305.4035143812108
 20
4795.525864099766
 10
305.4035143812108
 20
4875.525864099769
  0
LWPOLYLINE
  5
DB8B1
330
DF922
100
AcDbEntity
  8
0
100
AcDbPolyline
 90
        4
 70
     1
 43
0.0
 10
-3594.835155079312
 20
1646.489222041325
 10
-3594.835155079312
 20
1671.489222041326
 10
-2594.835155079312
 20
1671.489222041326
 10
-2594.835155079312
 20
1646.489222041325
  0
LWPOLYLINE
  5
DB8B2
330
DF922
100
AcDbEntity
  8
0
100
AcDbPolyline
 90
        4
 70
     1
 43
0.0
 10
-1894.391753474304
 20
1646.489222041325
 10
-1894.391753474304
 20
1671.489222041326
 10
-394.3917534743048
 20
1671.489222041326
 10
-394.3917534743048
 20
1646.489222041325
  0
LWPOLYLINE
  5
DB8B3
330
DF922
100
AcDbEntity
  8
0
100
AcDbPolyline
 90
        4
 70
     1
 43
0.0
 10
305.4035143812108
 20
1646.489222041325
 10
305.4035143812108
 20
1671.489222041326
 10
2305.403514381211
 20
1671.489222041326
 10
2305.403514381211
 20
1646.489222041325
  0
LWPOLYLINE
  5
DB8B4
330
DF922
100
AcDbEntity
  8
0
100
AcDbPolyline
 90
        4
 70
     1
 43
0.0
 10
-2624.835155079312
 20
1671.489222041326
 10
-2624.835155079312
 20
1871.489222041325
 10
-2594.835155079312
 20
1871.489222041325
 10
-2594.835155079312
 20
1671.489222041326
  0
LWPOLYLINE
  5
DB8B5
330
DF922
100
AcDbEntity
  8
0
100
AcDbPolyline
 90
        4
 70
     1
 43
0.0
 10
-3594.835155079312
 20
3016.489222041324
 10
-3594.835155079312
 20
3041.489222041324
 10
-2594.835155079312
 20
3041.489222041324
 10
-2594.835155079312
 20
3016.489222041324
  0
LWPOLYLINE
  5
DB8B6
330
DF922
100
AcDbEntity
  8
0
100
AcDbPolyline
 90
        4
 70
     1
 43
0.0
 10
-2624.835155079312
 20
2986.489222041324
 10
-2624.835155079312
 20
3016.489222041324
 10
-2594.835155079312
 20
3016.489222041324
 10
-2594.835155079312
 20
2986.489222041324
  0
LWPOLYLINE
  5
DB8B7
330
DF922
100
AcDbEntity
  8
0
100
AcDbPolyline
 90
        4
 70
     1
 43
0.0
 10
-3594.835155079312
 20
2986.489222041324
 10
-3594.835155079312
 20
3016.489222041324
 10
-3564.835155079312
 20
3016.489222041324
 10
-3564.835155079312
 20
2986.489222041324
  0
LWPOLYLINE
  5
DB8B8
330
DF922
100
AcDbEntity
  8
0
100
AcDbPolyline
 90
        4
 70
     1
 43
0.0
 10
-2594.835155079312
 20
1966.489222041325
 10
-3594.835155079312
 20
1966.489222041325
 10
-3594.835155079312
 20
2046.489222041326
 10
-2594.835155079312
 20
2046.489222041326
  0
LWPOLYLINE
  5
DB8B9
330
DF922
100
AcDbEntity
  8
0
100
AcDbPolyline
 90
        4
 70
     1
 43
0.0
 10
-2624.835155079312
 20
2046.489222041326
 10
-2624.835155079312
 20
2741.489222041324
 10
-2594.835155079312
 20
2741.489222041324
 10
-2594.835155079312
 20
2046.489222041326
  0
LWPOLYLINE
  5
DB8BA
330
DF922
100
AcDbEntity
  8
0
100
AcDbPolyline
 90
        4
 70
     1
 43
0.0
 10
-2624.835155079312
 20
2821.489222041325
 10
-2624.835155079312
 20
2986.489222041324
 10
-2594.835155079312
 20
2986.489222041324
 10
-2594.835155079312
 20
2821.489222041325
  0
LWPOLYLINE
  5
DB8BB
330
DF922
100
AcDbEntity
  8
0
100
AcDbPolyline
 90
        4
 70
     1
 43
0.0
 10
-3594.835155079312
 20
2821.489222041325
 10
-3594.835155079312
 20
2986.489222041324
 10
-3564.835155079312
 20
2986.489222041324
 10
-3564.835155079312
 20
2821.489222041325
  0
LWPOLYLINE
  5
DB8BC
330
DF922
100
AcDbEntity
  8
0
100
AcDbPolyline
 90
        4
 70
     1
 43
0.0
 10
-3594.835155079312
 20
2046.489222041326
 10
-3594.835155079312
 20
2741.489222041324
 10
-3564.835155079312
 20
2741.489222041324
 10
-3564.835155079312
 20
2046.489222041326
  0
LWPOLYLINE
  5
DB8BD
330
DF922
100
AcDbEntity
  8
0
100
AcDbPolyline
 90
        4
 70
     1
 43
0.0
 10
-3594.835155079312
 20
1671.489222041326
 10
-3594.835155079312
 20
1871.489222041325
 10
-3564.835155079312
 20
1871.489222041325
 10
-3564.835155079312
 20
1671.489222041326
  0
LWPOLYLINE
  5
DB8BE
330
DF922
100
AcDbEntity
  8
0
100
AcDbPolyline
 90
        4
 70
     1
 43
0.0
 10
-2784.835155079312
 20
2809.619671601082
 10
-2784.835155079312
 20
2799.619671601081
 10
-2704.835155079312
 20
2799.619671601081
 10
-2704.835155079312
 20
2809.619671601082
 42
0.7499999999999128
  0
LWPOLYLINE
  5
DB8BF
330
DF922
100
AcDbEntity
  8
0
100
AcDbPolyline
 90
        4
 70
     1
 43
0.0
 10
-2729.835155079312
 20
2761.489222041324
 10
-2729.835155079312
 20
2741.489222041324
 10
-2759.835155079312
 20
2741.489222041324
 10
-2759.835155079312
 20
2761.489222041324
  0
LWPOLYLINE
  5
DB8C0
330
DF922
100
AcDbEntity
  8
0
100
AcDbPolyline
 90
        4
 70
     1
 43
0.0
 10
-2729.835155079312
 20
2799.619671601081
 10
-2729.835155079312
 20
2761.489222041324
 10
-2759.835155079312
 20
2761.489222041324
 10
-2759.835155079312
 20
2799.619671601081
  0
LWPOLYLINE
  5
DB8C1
330
DF922
100
AcDbEntity
  8
0
100
AcDbPolyline
 90
        4
 70
     1
 43
0.0
 10
-3404.835155079312
 20
2809.619671600994
 10
-3404.835155079312
 20
2799.619671600993
 10
-3484.835155079312
 20
2799.619671600993
 10
-3484.835155079312
 20
2809.619671600994
 42
-0.7499999999999128
  0
LWPOLYLINE
  5
DB8C2
330
DF922
100
AcDbEntity
  8
0
100
AcDbPolyline
 90
        4
 70
     1
 43
0.0
 10
-3459.835155079312
 20
2761.489222041237
 10
-3459.835155079312
 20
2741.489222041237
 10
-3429.835155079312
 20
2741.489222041237
 10
-3429.835155079312
 20
2761.489222041237
  0
LWPOLYLINE
  5
DB8C3
330
DF922
100
AcDbEntity
  8
0
100
AcDbPolyline
 90
        4
 70
     1
 43
0.0
 10
-3459.835155079312
 20
2799.619671600993
 10
-3459.835155079312
 20
2761.489222041237
 10
-3429.835155079312
 20
2761.489222041237
 10
-3429.835155079312
 20
2799.619671600993
  0
LWPOLYLINE
  5
DB8C4
330
DF922
100
AcDbEntity
  8
0
100
AcDbPolyline
 90
        4
 70
     1
 43
0.0
 10
-3109.835155079312
 20
2799.619671600993
 10
-3109.835155079312
 20
2761.489222041237
 10
-3079.835155079312
 20
2761.489222041237
 10
-3079.835155079312
 20
2799.619671600993
  0
LWPOLYLINE
  5
DB8C5
330
DF922
100
AcDbEntity
  8
0
100
AcDbPolyline
 90
        4
 70
     1
 43
0.0
 10
-3109.835155079312
 20
2761.489222041237
 10
-3109.835155079312
 20
2741.489222041237
 10
-3079.835155079312
 20
2741.489222041237
 10
-3079.835155079312
 20
2761.489222041237
  0
LWPOLYLINE
  5
DB8C6
330
DF922
100
AcDbEntity
  8
0
100
AcDbPolyline
 90
        4
 70
     1
 43
0.0
 10
-3054.835155079312
 20
2809.619671600994
 10
-3054.835155079312
 20
2799.619671600993
 10
-3134.835155079312
 20
2799.619671600993
 10
-3134.835155079312
 20
2809.619671600994
 42
-0.7499999999999128
  0
LWPOLYLINE
  5
DB8C7
330
DF922
100
AcDbEntity
  8
0
100
AcDbPolyline
 90
       12
 70
     0
 43
0.0
 10
-3479.217673826553
 20
2821.489222041409
 42
0.079285671292372
 10
-3484.835155079312
 20
2809.619671601082
 10
-3484.835155079312
 20
2799.619671601081
 10
-3459.835155079312
 20
2799.619671601081
 10
-3459.835155079312
 20
2761.489222041324
 10
-3459.835155079312
 20
2741.489222041411
 10
-3594.835155079312
 20
2741.489222041411
 10
-3594.835155079312
 20
2821.489222041409
 10
-3479.217673826553
 20
2821.489222041409
 10
-3594.835155079312
 20
2821.489222041325
 10
-3594.835155079312
 20
2741.489222041324
 10
-3459.835155079312
 20
2741.489222041324
  0
LWPOLYLINE
  5
DB8C8
330
DF922
100
AcDbEntity
  8
0
100
AcDbPolyline
 90
       12
 70
     0
 43
0.0
 10
-3429.835155079312
 20
2741.489222041237
 10
-3429.835155079312
 20
2799.619671600993
 10
-3404.835155079312
 20
2799.619671600993
 10
-3404.835155079312
 20
2809.619671600994
 42
0.0792856712932764
 10
-3410.452636332189
 20
2821.489222041438
 10
-3129.217673826668
 20
2821.489222041325
 42
0.0792856712920094
 10
-3134.835155079312
 20
2809.619671601169
 10
-3134.835155079312
 20
2799.619671601169
 10
-3109.835155079312
 20
2799.619671601169
 10
-3109.835155079312
 20
2741.489222041411
 10
-3429.835155079312
 20
2741.489222041411
 10
-3109.835155079312
 20
2741.489222041411
  0
LWPOLYLINE
  5
DB8C9
330
DF922
100
AcDbEntity
  8
0
100
AcDbPolyline
 90
       12
 70
     0
 43
0.0
 10
-2710.452636332073
 20
2821.489222041325
 42
-0.079285671292372
 10
-2704.835155079312
 20
2809.619671600994
 10
-2704.835155079312
 20
2799.619671600993
 10
-2729.835155079312
 20
2799.619671600993
 10
-2729.835155079312
 20
2761.489222041237
 10
-2729.835155079312
 20
2741.489222041324
 10
-2594.835155079312
 20
2741.489222041324
 10
-2594.835155079312
 20
2821.489222041325
 10
-2710.452636332073
 20
2821.489222041325
 10
-2594.835155079312
 20
2821.489222041237
 10
-2594.835155079312
 20
2741.489222041237
 10
-2729.835155079312
 20
2741.489222041237
  0
LWPOLYLINE
  5
DB8CA
330
DF922
100
AcDbEntity
  8
0
100
AcDbPolyline
 90
       12
 70
     0
 43
0.0
 10
-2759.835155079312
 20
2741.489222041324
 10
-2759.835155079312
 20
2799.619671601081
 10
-2784.835155079312
 20
2799.619671601081
 10
-2784.835155079312
 20
2809.619671601082
 42
-0.0792856712932764
 10
-2779.217673826437
 20
2821.489222041527
 10
-3060.452636331956
 20
2821.489222041409
 42
-0.0792856712920094
 10
-3054.835155079312
 20
2809.619671601256
 10
-3054.835155079312
 20
2799.619671601254
 10
-3079.835155079312
 20
2799.619671601254
 10
-3079.835155079312
 20
2741.489222041499
 10
-2759.835155079312
 20
2741.489222041499
 10
-3079.835155079312
 20
2741.489222041499
  0
LWPOLYLINE
  5
DB8CB
330
DF922
100
AcDbEntity
  8
0
100
AcDbPolyline
 90
        4
 70
     1
 43
0.0
 10
-1894.391753474304
 20
3016.489222041324
 10
-1894.391753474304
 20
3041.489222041324
 10
-394.3917534743048
 20
3041.489222041324
 10
-394.3917534743048
 20
3016.489222041324
  0
LWPOLYLINE
  5
DB8CC
330
DF922
100
AcDbEntity
  8
0
100
AcDbPolyline
 90
        4
 70
     1
 43
0.0
 10
-424.3917534743048
 20
1671.489222041326
 10
-424.3917534743048
 20
1871.489222041325
 10
-394.3917534743048
 20
1871.489222041325
 10
-394.3917534743048
 20
1671.489222041326
  0
LWPOLYLINE
  5
DB8CD
330
DF922
100
AcDbEntity
  8
0
100
AcDbPolyline
 90
        4
 70
     1
 43
0.0
 10
-424.3917534743048
 20
2986.489222041324
 10
-424.3917534743048
 20
3016.489222041324
 10
-394.3917534743048
 20
3016.489222041324
 10
-394.3917534743048
 20
2986.489222041324
  0
LWPOLYLINE
  5
DB8CE
330
DF922
100
AcDbEntity
  8
0
100
AcDbPolyline
 90
        4
 70
     1
 43
0.0
 10
-1894.391753474304
 20
2986.489222041324
 10
-1894.391753474304
 20
3016.489222041324
 10
-1864.391753474304
 20
3016.489222041324
 10
-1864.391753474304
 20
2986.489222041324
  0
LWPOLYLINE
  5
DB8CF
330
DF922
100
AcDbEntity
  8
0
100
AcDbPolyline
 90
        4
 70
     1
 43
0.0
 10
-424.3917534743048
 20
2046.489222041326
 10
-424.3917534743048
 20
2741.489222041324
 10
-394.3917534743048
 20
2741.489222041324
 10
-394.3917534743048
 20
2046.489222041326
  0
LWPOLYLINE
  5
DB8D0
330
DF922
100
AcDbEntity
  8
0
100
AcDbPolyline
 90
        4
 70
     1
 43
0.0
 10
-424.3917534743048
 20
2821.489222041325
 10
-424.3917534743048
 20
2986.489222041324
 10
-394.3917534743048
 20
2986.489222041324
 10
-394.3917534743048
 20
2821.489222041325
  0
LWPOLYLINE
  5
DB8D1
330
DF922
100
AcDbEntity
  8
0
100
AcDbPolyline
 90
        4
 70
     1
 43
0.0
 10
-1894.391753474304
 20
1671.489222041326
 10
-1894.391753474304
 20
1871.489222041325
 10
-1864.391753474304
 20
1871.489222041325
 10
-1864.391753474304
 20
1671.489222041326
  0
LWPOLYLINE
  5
DB8D2
330
DF922
100
AcDbEntity
  8
0
100
AcDbPolyline
 90
        4
 70
     1
 43
0.0
 10
-1894.391753474304
 20
2046.489222041326
 10
-1894.391753474304
 20
2741.489222041324
 10
-1864.391753474304
 20
2741.489222041324
 10
-1864.391753474304
 20
2046.489222041326
  0
LWPOLYLINE
  5
DB8D3
330
DF922
100
AcDbEntity
  8
0
100
AcDbPolyline
 90
        4
 70
     1
 43
0.0
 10
-1894.391753474304
 20
2821.489222041325
 10
-1894.391753474304
 20
2986.489222041324
 10
-1864.391753474304
 20
2986.489222041324
 10
-1864.391753474304
 20
2821.489222041325
  0
LWPOLYLINE
  5
DB8D4
330
DF922
100
AcDbEntity
  8
0
100
AcDbPolyline
 90
        4
 70
     1
 43
0.0
 10
-584.3917534743044
 20
2809.619671601082
 10
-584.3917534743044
 20
2799.619671601081
 10
-504.3917534743048
 20
2799.619671601081
 10
-504.3917534743048
 20
2809.619671601082
 42
0.7499999999999128
  0
LWPOLYLINE
  5
DB8D5
330
DF922
100
AcDbEntity
  8
0
100
AcDbPolyline
 90
        4
 70
     1
 43
0.0
 10
-529.3917534743048
 20
2761.489222041324
 10
-529.3917534743048
 20
2741.489222041324
 10
-559.3917534743046
 20
2741.489222041324
 10
-559.3917534743046
 20
2761.489222041324
  0
LWPOLYLINE
  5
DB8D6
330
DF922
100
AcDbEntity
  8
0
100
AcDbPolyline
 90
        4
 70
     1
 43
0.0
 10
-529.3917534743048
 20
2799.619671601081
 10
-529.3917534743048
 20
2761.489222041324
 10
-559.3917534743046
 20
2761.489222041324
 10
-559.3917534743046
 20
2799.619671601081
  0
LWPOLYLINE
  5
DB8D7
330
DF922
100
AcDbEntity
  8
0
100
AcDbPolyline
 90
        4
 70
     1
 43
0.0
 10
-1759.391753474304
 20
2799.619671600993
 10
-1759.391753474304
 20
2761.489222041237
 10
-1729.391753474304
 20
2761.489222041237
 10
-1729.391753474304
 20
2799.619671600993
  0
LWPOLYLINE
  5
DB8D8
330
DF922
100
AcDbEntity
  8
0
100
AcDbPolyline
 90
        4
 70
     1
 43
0.0
 10
-1759.391753474304
 20
2761.489222041237
 10
-1759.391753474304
 20
2741.489222041237
 10
-1729.391753474304
 20
2741.489222041237
 10
-1729.391753474304
 20
2761.489222041237
  0
LWPOLYLINE
  5
DB8D9
330
DF922
100
AcDbEntity
  8
0
100
AcDbPolyline
 90
        4
 70
     1
 43
0.0
 10
-1704.391753474304
 20
2809.619671600994
 10
-1704.391753474304
 20
2799.619671600993
 10
-1784.391753474304
 20
2799.619671600993
 10
-1784.391753474304
 20
2809.619671600994
 42
-0.7499999999999128
  0
LWPOLYLINE
  5
DB8DA
330
DF922
100
AcDbEntity
  8
0
100
AcDbPolyline
 90
        4
 70
     1
 43
0.0
 10
-1304.391753474304
 20
2809.619671601169
 10
-1304.391753474304
 20
2799.619671601169
 10
-1384.391753474304
 20
2799.619671601169
 10
-1384.391753474304
 20
2809.619671601169
 42
-0.7499999999999128
  0
LWPOLYLINE
  5
DB8DB
330
DF922
100
AcDbEntity
  8
0
100
AcDbPolyline
 90
        4
 70
     1
 43
0.0
 10
-1359.391753474304
 20
2761.489222041409
 10
-1359.391753474304
 20
2741.489222041411
 10
-1329.391753474304
 20
2741.489222041411
 10
-1329.391753474304
 20
2761.489222041409
  0
LWPOLYLINE
  5
DB8DC
330
DF922
100
AcDbEntity
  8
0
100
AcDbPolyline
 90
        4
 70
     1
 43
0.0
 10
-1359.391753474304
 20
2799.619671601169
 10
-1359.391753474304
 20
2761.489222041409
 10
-1329.391753474304
 20
2761.489222041409
 10
-1329.391753474304
 20
2799.619671601169
  0
LWPOLYLINE
  5
DB8DD
330
DF922
100
AcDbEntity
  8
0
100
AcDbPolyline
 90
       12
 70
     0
 43
0.0
 10
-1778.774272221544
 20
2821.489222041409
 42
0.079285671292372
 10
-1784.391753474304
 20
2809.619671601082
 10
-1784.391753474304
 20
2799.619671601081
 10
-1759.391753474304
 20
2799.619671601081
 10
-1759.391753474304
 20
2761.489222041324
 10
-1759.391753474304
 20
2741.489222041411
 10
-1894.391753474304
 20
2741.489222041411
 10
-1894.391753474304
 20
2821.489222041409
 10
-1778.774272221544
 20
2821.489222041409
 10
-1894.391753474304
 20
2821.489222041325
 10
-1894.391753474304
 20
2741.489222041324
 10
-1759.391753474304
 20
2741.489222041324
  0
LWPOLYLINE
  5
DB8DE
330
DF922
100
AcDbEntity
  8
0
100
AcDbPolyline
 90
       12
 70
     0
 43
0.0
 10
-1329.391753474304
 20
2741.489222041411
 10
-1329.391753474304
 20
2799.619671601169
 10
-1304.391753474304
 20
2799.619671601169
 10
-1304.391753474304
 20
2809.619671601169
 42
0.0792856712932764
 10
-1310.009234727181
 20
2821.489222041615
 10
-978.7742722216605
 20
2821.489222041672
 42
0.0792856712920094
 10
-984.3917534743048
 20
2809.619671601516
 10
-984.3917534743048
 20
2799.619671601517
 10
-959.3917534743048
 20
2799.619671601517
 10
-959.3917534743048
 20
2741.489222041761
 10
-1329.391753474304
 20
2741.489222041586
 10
-959.3917534743048
 20
2741.489222041761
  0
LWPOLYLINE
  5
DB8DF
330
DF922
100
AcDbEntity
  8
0
100
AcDbPolyline
 90
       12
 70
     0
 43
0.0
 10
-510.0092347270648
 20
2821.489222041325
 42
-0.079285671292372
 10
-504.3917534743048
 20
2809.619671600994
 10
-504.3917534743048
 20
2799.619671600993
 10
-529.3917534743048
 20
2799.619671600993
 10
-529.3917534743048
 20
2761.489222041237
 10
-529.3917534743048
 20
2741.489222041324
 10
-394.3917534743048
 20
2741.489222041324
 10
-394.3917534743048
 20
2821.489222041325
 10
-510.0092347270648
 20
2821.489222041325
 10
-394.3917534743048
 20
2821.489222041237
 10
-394.3917534743048
 20
2741.489222041237
 10
-529.3917534743048
 20
2741.489222041237
  0
LWPOLYLINE
  5
DB8E0
330
DF922
100
AcDbEntity
  8
0
100
AcDbPolyline
 90
       12
 70
     0
 43
0.0
 10
-559.3917534743046
 20
2741.489222041148
 10
-559.3917534743046
 20
2799.619671600905
 10
-584.3917534743044
 20
2799.619671600905
 10
-584.3917534743044
 20
2809.619671600904
 42
-0.0792856712932764
 10
-578.7742722214275
 20
2821.489222041353
 10
-910.009234726949
 20
2821.489222041409
 42
-0.0792856712920094
 10
-904.3917534743048
 20
2809.619671601256
 10
-904.3917534743048
 20
2799.619671601254
 10
-929.3917534743048
 20
2799.619671601254
 10
-929.3917534743048
 20
2741.489222041499
 10
-559.3917534743046
 20
2741.489222041324
 10
-929.3917534743048
 20
2741.489222041499
  0
LWPOLYLINE
  5
DB8E1
330
DF922
100
AcDbEntity
  8
0
100
AcDbPolyline
 90
        4
 70
     1
 43
0.0
 10
-929.3917534743048
 20
2799.619671601081
 10
-929.3917534743048
 20
2761.489222041324
 10
-959.3917534743048
 20
2761.489222041324
 10
-959.3917534743048
 20
2799.619671601081
  0
LWPOLYLINE
  5
DB8E2
330
DF922
100
AcDbEntity
  8
0
100
AcDbPolyline
 90
        4
 70
     1
 43
0.0
 10
-929.3917534743048
 20
2761.489222041324
 10
-929.3917534743048
 20
2741.489222041324
 10
-959.3917534743048
 20
2741.489222041324
 10
-959.3917534743048
 20
2761.489222041324
  0
LWPOLYLINE
  5
DB8E3
330
DF922
100
AcDbEntity
  8
0
100
AcDbPolyline
 90
        4
 70
     1
 43
0.0
 10
-984.3917534743048
 20
2809.619671601082
 10
-984.3917534743048
 20
2799.619671601081
 10
-904.3917534743048
 20
2799.619671601081
 10
-904.3917534743048
 20
2809.619671601082
 42
0.7499999999999128
  0
LWPOLYLINE
  5
DB8E4
330
DF922
100
AcDbEntity
  8
0
100
AcDbPolyline
 90
       12
 70
     0
 43
0.0
 10
-1729.391753474304
 20
2741.489222041411
 10
-1729.391753474304
 20
2799.619671601169
 10
-1704.391753474304
 20
2799.619671601169
 10
-1704.391753474304
 20
2809.619671601169
 42
0.0792856712932764
 10
-1710.009234727181
 20
2821.489222041615
 10
-1378.77427222166
 20
2821.489222041672
 42
0.0792856712920094
 10
-1384.391753474304
 20
2809.619671601516
 10
-1384.391753474304
 20
2799.619671601517
 10
-1359.391753474304
 20
2799.619671601517
 10
-1359.391753474304
 20
2741.489222041761
 10
-1729.391753474304
 20
2741.489222041586
 10
-1359.391753474304
 20
2741.489222041761
  0
LWPOLYLINE
  5
DB8E5
330
DF922
100
AcDbEntity
  8
0
100
AcDbPolyline
 90
        4
 70
     1
 43
0.0
 10
305.4035143812108
 20
2821.489222041325
 10
305.4035143812108
 20
2986.489222041324
 10
335.4035143812109
 20
2986.489222041324
 10
335.4035143812109
 20
2821.489222041325
  0
LWPOLYLINE
  5
DB8E6
330
DF922
100
AcDbEntity
  8
0
100
AcDbPolyline
 90
        4
 70
     1
 43
0.0
 10
305.4035143812108
 20
2046.489222041326
 10
305.4035143812108
 20
2741.489222041324
 10
335.4035143812109
 20
2741.489222041324
 10
335.4035143812109
 20
2046.489222041326
  0
LWPOLYLINE
  5
DB8E7
330
DF922
100
AcDbEntity
  8
0
100
AcDbPolyline
 90
        4
 70
     1
 43
0.0
 10
305.4035143812108
 20
1671.489222041326
 10
305.4035143812108
 20
1871.489222041325
 10
335.4035143812109
 20
1871.489222041325
 10
335.4035143812109
 20
1671.489222041326
  0
LWPOLYLINE
  5
DB8E8
330
DF922
100
AcDbEntity
  8
0
100
AcDbPolyline
 90
        4
 70
     1
 43
0.0
 10
2275.403514381211
 20
2821.489222041325
 10
2275.403514381211
 20
2986.489222041324
 10
2305.403514381211
 20
2986.489222041324
 10
2305.403514381211
 20
2821.489222041325
  0
LWPOLYLINE
  5
DB8E9
330
DF922
100
AcDbEntity
  8
0
100
AcDbPolyline
 90
        4
 70
     1
 43
0.0
 10
2275.403514381211
 20
2046.489222041326
 10
2275.403514381211
 20
2741.489222041324
 10
2305.403514381211
 20
2741.489222041324
 10
2305.403514381211
 20
2046.489222041326
  0
LWPOLYLINE
  5
DB8EA
330
DF922
100
AcDbEntity
  8
0
100
AcDbPolyline
 90
        4
 70
     1
 43
0.0
 10
305.4035143812108
 20
2986.489222041324
 10
305.4035143812108
 20
3016.489222041324
 10
335.4035143812109
 20
3016.489222041324
 10
335.4035143812109
 20
2986.489222041324
  0
LWPOLYLINE
  5
DB8EB
330
DF922
100
AcDbEntity
  8
0
100
AcDbPolyline
 90
        4
 70
     1
 43
0.0
 10
2275.403514381211
 20
2986.489222041324
 10
2275.403514381211
 20
3016.489222041324
 10
2305.403514381211
 20
3016.489222041324
 10
2305.403514381211
 20
2986.489222041324
  0
LWPOLYLINE
  5
DB8EC
330
DF922
100
AcDbEntity
  8
0
100
AcDbPolyline
 90
        4
 70
     1
 43
0.0
 10
2275.403514381211
 20
1671.489222041326
 10
2275.403514381211
 20
1871.489222041325
 10
2305.403514381211
 20
1871.489222041325
 10
2305.403514381211
 20
1671.489222041326
  0
LWPOLYLINE
  5
DB8ED
330
DF922
100
AcDbEntity
  8
0
100
AcDbPolyline
 90
        4
 70
     1
 43
0.0
 10
305.4035143812108
 20
3016.489222041324
 10
305.4035143812108
 20
3041.489222041324
 10
2305.403514381211
 20
3041.489222041324
 10
2305.403514381211
 20
3016.489222041324
  0
LWPOLYLINE
  5
DB8F6
330
DF922
100
AcDbEntity
  8
0
100
AcDbPolyline
 90
        4
 70
     1
 43
0.0
 10
1320.403514381211
 20
4875.525864099769
 10
1290.403514381211
 20
4875.525864099769
 10
1290.403514381211
 20
4885.525864099765
 10
1320.403514381211
 20
4885.525864099765
  0
LWPOLYLINE
  5
DB8F7
330
DF922
100
AcDbEntity
  8
0
100
AcDbPolyline
 90
        4
 70
     1
 43
0.0
 10
1320.403514381211
 20
4965.525864099766
 10
1290.403514381211
 20
4965.525864099766
 10
1290.403514381211
 20
4975.525864099769
 10
1320.403514381211
 20
4975.525864099769
  0
LWPOLYLINE
  5
DB8F8
330
DF922
100
AcDbEntity
  8
0
100
AcDbPolyline
 90
        4
 70
     1
 43
0.0
 10
1320.403514381211
 20
5055.525864099765
 10
1290.403514381211
 20
5055.525864099765
 10
1290.403514381211
 20
5065.525864099766
 10
1320.403514381211
 20
5065.525864099766
  0
LWPOLYLINE
  5
DB8F9
330
DF922
100
AcDbEntity
  8
0
100
AcDbPolyline
 90
        4
 70
     1
 43
0.0
 10
1290.403514381211
 20
2046.489222041326
 10
1290.403514381211
 20
2741.489222041017
 10
1320.403514381211
 20
2741.489222041017
 10
1320.403514381211
 20
2046.489222041326
  0
LWPOLYLINE
  5
DB8FA
330
DF922
100
AcDbEntity
  8
0
100
AcDbPolyline
 90
        4
 70
     1
 43
0.0
 10
1290.403514381211
 20
2986.489222041324
 10
1290.403514381211
 20
3016.489222041324
 10
1320.403514381211
 20
3016.489222041324
 10
1320.403514381211
 20
2986.489222041324
  0
LWPOLYLINE
  5
DB8FD
330
DF922
100
AcDbEntity
  8
0
100
AcDbPolyline
 90
        9
 70
     0
 43
0.0
 10
-3594.835155079312
 20
6760.525864099767
 10
-3594.835155079312
 20
6345.525864099764
 10
-3564.835155079312
 20
6345.525864099764
 10
-3564.835155079312
 20
6730.525864099767
 10
-2624.835155079312
 20
6730.525864099767
 10
-2624.835155079312
 20
6345.525864099764
 10
-2594.835155079312
 20
6345.525864099764
 10
-2594.835155079312
 20
6760.525864099767
 10
-3594.835155079312
 20
6760.525864099767
  0
LWPOLYLINE
  5
DB8FE
330
DF922
100
AcDbEntity
  8
0
100
AcDbPolyline
 90
        9
 70
     0
 43
0.0
 10
-1894.391753474304
 20
6760.525864099767
 10
-1894.391753474304
 20
6345.525864099764
 10
-1864.391753474304
 20
6345.525864099764
 10
-1864.391753474304
 20
6730.525864099767
 10
-424.3917534743048
 20
6730.525864099767
 10
-424.3917534743048
 20
6345.525864099764
 10
-394.3917534743048
 20
6345.525864099764
 10
-394.3917534743048
 20
6760.525864099767
 10
-1894.391753474304
 20
6760.525864099767
  0
LWPOLYLINE
  5
DB8FF
330
DF922
100
AcDbEntity
  8
0
100
AcDbPolyline
 90
       13
 70
     0
 43
0.0
 10
305.4035143812108
 20
6760.525864099767
 10
305.4035143812108
 20
6345.525864099764
 10
335.4035143812109
 20
6345.525864099764
 10
335.4035143812109
 20
6730.525864099767
 10
1290.403514381211
 20
6730.525864099767
 10
1290.403514381211
 20
6345.525864099764
 10
1320.403514381211
 20
6345.525864099764
 10
1320.403514381211
 20
6730.525864099767
 10
2275.403514381211
 20
6730.525864099767
 10
2275.403514381211
 20
6345.525864099764
 10
2305.403514381211
 20
6345.525864099764
 10
2305.403514381211
 20
6760.525864099767
 10
305.4035143812108
 20
6760.525864099767
  0
LWPOLYLINE
  5
DB900
330
DF922
100
AcDbEntity
  8
0
100
AcDbPolyline
 90
        9
 70
     0
 43
0.0
 10
-3594.835155079312
 20
1646.489222041325
 10
-3594.835155079312
 20
1231.489222041325
 10
-3564.835155079312
 20
1231.489222041325
 10
-3564.835155079312
 20
1616.489222041325
 10
-2624.835155079312
 20
1616.489222041325
 10
-2624.835155079312
 20
1231.489222041325
 10
-2594.835155079312
 20
1231.489222041325
 10
-2594.835155079312
 20
1646.489222041325
 10
-3594.835155079312
 20
1646.489222041325
  0
LWPOLYLINE
  5
DB901
330
DF922
100
AcDbEntity
  8
0
100
AcDbPolyline
 90
        9
 70
     0
 43
0.0
 10
-1894.391753474304
 20
1646.489222041325
 10
-1894.391753474304
 20
1231.489222041325
 10
-1864.391753474304
 20
1231.489222041325
 10
-1864.391753474304
 20
1616.489222041325
 10
-424.3917534743048
 20
1616.489222041325
 10
-424.3917534743048
 20
1231.489222041325
 10
-394.3917534743048
 20
1231.489222041325
 10
-394.3917534743048
 20
1646.489222041325
 10
-1894.391753474304
 20
1646.489222041325
  0
LWPOLYLINE
  5
DB902
330
DF922
100
AcDbEntity
  8
0
100
AcDbPolyline
 90
       13
 70
     0
 43
0.0
 10
305.4035143812108
 20
1646.489222041325
 10
305.4035143812108
 20
1231.489222041325
 10
335.4035143812109
 20
1231.489222041325
 10
335.4035143812109
 20
1616.489222041325
 10
1290.403514381211
 20
1616.489222041325
 10
1290.403514381211
 20
1231.489222041325
 10
1320.403514381211
 20
1231.489222041325
 10
1320.403514381211
 20
1616.489222041325
 10
2275.403514381211
 20
1616.489222041325
 10
2275.403514381211
 20
1231.489222041325
 10
2305.403514381211
 20
1231.489222041325
 10
2305.403514381211
 20
1646.489222041325
 10
305.4035143812108
 20
1646.489222041325
  0
LWPOLYLINE
  5
DB903
330
DF922
100
AcDbEntity
  8
0
100
AcDbPolyline
 90
        4
 70
     1
 43
0.0
 10
-2594.835155079312
 20
1871.489222041325
 10
-3594.835155079312
 20
1871.489222041325
 10
-3594.835155079312
 20
1951.489222041325
 10
-2594.835155079312
 20
1951.489222041325
  0
LWPOLYLINE
  5
DB904
330
DF922
100
AcDbEntity
  8
0
100
AcDbPolyline
 90
        4
 70
     1
 43
0.0
 10
-3594.835155079312
 20
1966.489222041325
 10
-3594.835155079312
 20
1951.489222041325
 10
-3564.835155079312
 20
1951.489222041325
 10
-3564.835155079312
 20
1966.489222041325
  0
LWPOLYLINE
  5
DB905
330
DF922
100
AcDbEntity
  8
0
100
AcDbPolyline
 90
        4
 70
     1
 43
0.0
 10
-2624.835155079312
 20
1966.489222041325
 10
-2624.835155079312
 20
1951.489222041325
 10
-2594.835155079312
 20
1951.489222041325
 10
-2594.835155079312
 20
1966.489222041325
  0
LWPOLYLINE
  5
DB906
330
DF922
100
AcDbEntity
  8
0
100
AcDbPolyline
 90
        4
 70
     1
 43
0.0
 10
-394.3917534743048
 20
1966.489222041325
 10
-1894.391753474304
 20
1966.489222041325
 10
-1894.391753474304
 20
2046.489222041326
 10
-394.3917534743048
 20
2046.489222041326
  0
LWPOLYLINE
  5
DB907
330
DF922
100
AcDbEntity
  8
0
100
AcDbPolyline
 90
        4
 70
     1
 43
0.0
 10
-394.3917534743048
 20
1871.489222041325
 10
-1894.391753474304
 20
1871.489222041325
 10
-1894.391753474304
 20
1951.489222041325
 10
-394.3917534743048
 20
1951.489222041325
  0
LWPOLYLINE
  5
DB908
330
DF922
100
AcDbEntity
  8
0
100
AcDbPolyline
 90
        4
 70
     1
 43
0.0
 10
-1894.391753474304
 20
1966.489222041325
 10
-1894.391753474304
 20
1951.489222041325
 10
-1864.391753474304
 20
1951.489222041325
 10
-1864.391753474304
 20
1966.489222041325
  0
LWPOLYLINE
  5
DB909
330
DF922
100
AcDbEntity
  8
0
100
AcDbPolyline
 90
        4
 70
     1
 43
0.0
 10
-424.3917534743048
 20
1966.489222041325
 10
-424.3917534743048
 20
1951.489222041325
 10
-394.3917534743048
 20
1951.489222041325
 10
-394.3917534743048
 20
1966.489222041325
  0
LWPOLYLINE
  5
DB90A
330
DF922
100
AcDbEntity
  8
0
100
AcDbPolyline
 90
        4
 70
     1
 43
0.0
 10
2305.403514381211
 20
1966.489222041325
 10
305.4035143812108
 20
1966.489222041325
 10
305.4035143812108
 20
2046.489222041326
 10
2305.403514381211
 20
2046.489222041326
  0
LWPOLYLINE
  5
DB90B
330
DF922
100
AcDbEntity
  8
0
100
AcDbPolyline
 90
        4
 70
     1
 43
0.0
 10
2305.403514381211
 20
1871.489222041325
 10
305.4035143812108
 20
1871.489222041325
 10
305.4035143812108
 20
1951.489222041325
 10
2305.403514381211
 20
1951.489222041325
  0
LWPOLYLINE
  5
DB90C
330
DF922
100
AcDbEntity
  8
0
100
AcDbPolyline
 90
        4
 70
     1
 43
0.0
 10
305.4035143812108
 20
1966.489222041325
 10
305.4035143812108
 20
1951.489222041325
 10
335.4035143812109
 20
1951.489222041325
 10
335.4035143812109
 20
1966.489222041325
  0
LWPOLYLINE
  5
DB90D
330
DF922
100
AcDbEntity
  8
0
100
AcDbPolyline
 90
        4
 70
     1
 43
0.0
 10
2275.403514381211
 20
1966.489222041325
 10
2275.403514381211
 20
1951.489222041325
 10
2305.403514381211
 20
1951.489222041325
 10
2305.403514381211
 20
1966.489222041325
  0
LWPOLYLINE
  5
DB90E
330
DF922
100
AcDbEntity
  8
0
100
AcDbPolyline
 90
        4
 70
     1
 43
0.0
 10
1290.403514381211
 20
1966.489222041325
 10
1290.403514381211
 20
1951.489222041325
 10
1320.403514381211
 20
1951.489222041325
 10
1320.403514381211
 20
1966.489222041325
  0
LWPOLYLINE
  5
DB90F
330
DF922
100
AcDbEntity
  8
0
100
AcDbPolyline
 90
        4
 70
     1
 43
0.0
 10
1290.403514381211
 20
1871.489222041325
 10
1290.403514381211
 20
1671.489222041326
 10
1320.403514381211
 20
1671.489222041326
 10
1320.403514381211
 20
1871.489222041325
  0
LWPOLYLINE
  5
DB92A
330
DF922
100
AcDbEntity
  8
0
100
AcDbPolyline
 90
        4
 70
     1
 43
0.0
 10
-2594.835155079312
 20
8889.56250615821
 10
-2594.835155079312
 20
8539.56250615821
 10
-3594.835155079312
 20
8539.56250615821
 10
-3594.835155079312
 20
8889.56250615821
  0
LWPOLYLINE
  5
DB92B
330
DF922
100
AcDbEntity
  8
0
100
AcDbPolyline
 90
        4
 70
     1
 43
0.0
 10
-3594.835155079312
 20
10504.56250615821
 10
-3594.835155079312
 20
10515.56250615821
 10
-2594.835155079312
 20
10515.56250615821
 10
-2594.835155079312
 20
10504.56250615821
  0
LWPOLYLINE
  5
DB92C
330
DF922
100
AcDbEntity
  8
0
100
AcDbPolyline
 90
        4
 70
     1
 43
0.0
 10
-394.3917534743051
 20
8889.56250615821
 10
-394.3917534743051
 20
8539.56250615821
 10
-1894.391753474304
 20
8539.56250615821
 10
-1894.391753474304
 20
8889.56250615821
  0
LWPOLYLINE
  5
DB92D
330
DF922
100
AcDbEntity
  8
0
100
AcDbPolyline
 90
        4
 70
     1
 43
0.0
 10
-1894.391753474304
 20
10504.56250615821
 10
-1894.391753474304
 20
10515.56250615821
 10
-394.3917534743051
 20
10515.56250615821
 10
-394.3917534743051
 20
10504.56250615821
  0
LWPOLYLINE
  5
DB92E
330
DF922
100
AcDbEntity
  8
0
100
AcDbPolyline
 90
        4
 70
     1
 43
0.0
 10
305.4035143812106
 20
10504.56250615821
 10
305.4035143812106
 20
10515.56250615821
 10
2305.403514381211
 20
10515.56250615821
 10
2305.403514381211
 20
10504.56250615821
  0
LWPOLYLINE
  5
DB92F
330
DF922
100
AcDbEntity
  8
0
100
AcDbPolyline
 90
        4
 70
     1
 43
0.0
 10
2305.403514381211
 20
8889.56250615821
 10
2305.403514381211
 20
8539.56250615821
 10
305.4035143812106
 20
8539.56250615821
 10
305.4035143812106
 20
8889.56250615821
  0
LWPOLYLINE
  5
DB930
330
DF922
100
AcDbEntity
  8
0
100
AcDbPolyline
 90
        9
 70
     0
 43
0.0
 10
-3594.835155079312
 20
10504.56250615821
 10
-3594.835155079312
 20
10089.56250615821
 10
-3564.835155079312
 20
10089.56250615821
 10
-3564.835155079312
 20
10474.56250615821
 10
-2624.835155079312
 20
10474.56250615821
 10
-2624.835155079312
 20
10089.56250615821
 10
-2594.835155079312
 20
10089.56250615821
 10
-2594.835155079312
 20
10504.56250615821
 10
-3594.835155079312
 20
10504.56250615821
  0
LWPOLYLINE
  5
DB931
330
DF922
100
AcDbEntity
  8
0
100
AcDbPolyline
 90
        9
 70
     0
 43
0.0
 10
3214.83515507932
 20
10504.56250615821
 10
3564.83515507932
 20
10504.56250615821
 10
3564.83515507932
 20
10089.56250615821
 10
3534.83515507932
 20
10089.56250615821
 10
3534.83515507932
 20
10474.56250615821
 10
3244.83515507932
 20
10474.56250615821
 10
3244.83515507932
 20
10089.56250615821
 10
3214.83515507932
 20
10089.56250615821
 10
3214.83515507932
 20
10504.56250615821
  0
LWPOLYLINE
  5
DB932
330
DF922
100
AcDbEntity
  8
0
100
AcDbPolyline
 90
        9
 70
     0
 43
0.0
 10
-1894.391753474304
 20
10504.56250615821
 10
-1894.391753474304
 20
10089.56250615821
 10
-1864.391753474304
 20
10089.56250615821
 10
-1864.391753474304
 20
10474.56250615821
 10
-424.3917534743048
 20
10474.56250615821
 10
-424.3917534743048
 20
10089.56250615821
 10
-394.3917534743051
 20
10089.56250615821
 10
-394.3917534743051
 20
10504.56250615821
 10
-1894.391753474304
 20
10504.56250615821
  0
LWPOLYLINE
  5
DB933
330
DF922
100
AcDbEntity
  8
0
100
AcDbPolyline
 90
       13
 70
     0
 43
0.0
 10
305.4035143812106
 20
10504.56250615821
 10
305.4035143812106
 20
10089.56250615821
 10
335.4035143812108
 20
10089.56250615821
 10
335.4035143812108
 20
10474.56250615821
 10
1290.403514381211
 20
10474.56250615821
 10
1290.403514381211
 20
10089.56250615821
 10
1320.403514381211
 20
10089.56250615821
 10
1320.403514381211
 20
10474.56250615821
 10
2275.403514381211
 20
10474.56250615821
 10
2275.403514381211
 20
10089.56250615821
 10
2305.403514381211
 20
10089.56250615821
 10
2305.403514381211
 20
10504.56250615821
 10
305.4035143812106
 20
10504.56250615821
  0
LWPOLYLINE
  5
DB934
330
DF922
100
AcDbEntity
  8
0
100
AcDbPolyline
 90
        4
 70
     1
 43
0.0
 10
3214.83515507932
 20
10504.56250615821
 10
3214.83515507932
 20
10515.56250615821
 10
3564.83515507932
 20
10515.56250615821
 10
3564.83515507932
 20
10504.56250615821
  0
LWPOLYLINE
  5
DB935
330
DF922
100
AcDbEntity
  8
0
100
AcDbPolyline
 90
       12
 70
     0
 43
0.0
 10
1120.403514381211
 20
2741.489222041237
 10
1120.403514381211
 20
2799.619671600993
 10
1095.403514381211
 20
2799.619671600993
 10
1095.403514381211
 20
2809.619671600994
 42
-0.0792856712932764
 10
1101.020995634088
 20
2821.489222041438
 10
829.7860331285666
 20
2821.489222041325
 42
-0.0792856712920094
 10
835.403514381211
 20
2809.619671601169
 10
835.403514381211
 20
2799.619671601169
 10
810.403514381211
 20
2799.619671601169
 10
810.403514381211
 20
2741.489222041411
 10
1120.403514381211
 20
2741.489222041411
 10
810.403514381211
 20
2741.489222041411
  0
LWPOLYLINE
  5
DB936
330
DF922
100
AcDbEntity
  8
0
100
AcDbPolyline
 90
       12
 70
     0
 43
0.0
 10
470.4035143812105
 20
2741.489222041148
 10
470.4035143812105
 20
2799.619671600905
 10
495.4035143812105
 20
2799.619671600905
 10
495.4035143812105
 20
2809.619671600904
 42
0.0792856712932764
 10
489.7860331283337
 20
2821.489222041353
 10
761.0209956338551
 20
2821.489222041237
 42
0.0792856712920094
 10
755.403514381211
 20
2809.619671601082
 10
755.403514381211
 20
2799.619671601081
 10
780.403514381211
 20
2799.619671601081
 10
780.403514381211
 20
2741.489222041324
 10
470.4035143812105
 20
2741.489222041324
 10
780.403514381211
 20
2741.489222041324
  0
LWPOLYLINE
  5
DB937
330
DF922
100
AcDbEntity
  8
0
100
AcDbPolyline
 90
       12
 70
     0
 43
0.0
 10
421.0209956339717
 20
2821.489222041325
 42
0.079285671292372
 10
415.4035143812108
 20
2809.619671600994
 10
415.4035143812108
 20
2799.619671600993
 10
440.4035143812108
 20
2799.619671600993
 10
440.4035143812108
 20
2761.489222041237
 10
440.4035143812108
 20
2741.489222041324
 10
305.4035143812108
 20
2741.489222041324
 10
305.4035143812108
 20
2821.489222041325
 10
421.0209956339717
 20
2821.489222041325
 10
305.4035143812108
 20
2821.489222041237
 10
305.4035143812108
 20
2741.489222041237
 10
440.4035143812108
 20
2741.489222041237
  0
LWPOLYLINE
  5
DB938
330
DF922
100
AcDbEntity
  8
0
100
AcDbPolyline
 90
        4
 70
     1
 43
0.0
 10
835.403514381211
 20
2809.619671600904
 10
835.403514381211
 20
2799.619671600905
 10
755.403514381211
 20
2799.619671600905
 10
755.403514381211
 20
2809.619671600904
 42
-0.7499999999999128
  0
LWPOLYLINE
  5
DB939
330
DF922
100
AcDbEntity
  8
0
100
AcDbPolyline
 90
        4
 70
     1
 43
0.0
 10
780.403514381211
 20
2761.489222041146
 10
780.403514381211
 20
2741.489222041148
 10
810.403514381211
 20
2741.489222041148
 10
810.403514381211
 20
2761.489222041146
  0
LWPOLYLINE
  5
DB93A
330
DF922
100
AcDbEntity
  8
0
100
AcDbPolyline
 90
        4
 70
     1
 43
0.0
 10
780.403514381211
 20
2799.619671600905
 10
780.403514381211
 20
2761.489222041146
 10
810.403514381211
 20
2761.489222041146
 10
810.403514381211
 20
2799.619671600905
  0
LWPOLYLINE
  5
DB93B
330
DF922
100
AcDbEntity
  8
0
100
AcDbPolyline
 90
        4
 70
     1
 43
0.0
 10
440.4035143812108
 20
2799.619671600905
 10
440.4035143812108
 20
2761.489222041146
 10
470.4035143812105
 20
2761.489222041146
 10
470.4035143812105
 20
2799.619671600905
  0
LWPOLYLINE
  5
DB93C
330
DF922
100
AcDbEntity
  8
0
100
AcDbPolyline
 90
        4
 70
     1
 43
0.0
 10
440.4035143812108
 20
2761.489222041146
 10
440.4035143812108
 20
2741.489222041148
 10
470.4035143812105
 20
2741.489222041148
 10
470.4035143812105
 20
2761.489222041146
  0
LWPOLYLINE
  5
DB93D
330
DF922
100
AcDbEntity
  8
0
100
AcDbPolyline
 90
        4
 70
     1
 43
0.0
 10
495.4035143812105
 20
2809.619671600904
 10
495.4035143812105
 20
2799.619671600905
 10
415.4035143812108
 20
2799.619671600905
 10
415.4035143812108
 20
2809.619671600904
 42
-0.7499999999999128
  0
LWPOLYLINE
  5
DB93E
330
DF922
100
AcDbEntity
  8
0
100
AcDbPolyline
 90
        4
 70
     1
 43
0.0
 10
1150.403514381211
 20
2799.619671600993
 10
1150.403514381211
 20
2761.489222041237
 10
1120.403514381211
 20
2761.489222041237
 10
1120.403514381211
 20
2799.619671600993
  0
LWPOLYLINE
  5
DB93F
330
DF922
100
AcDbEntity
  8
0
100
AcDbPolyline
 90
        4
 70
     1
 43
0.0
 10
1150.403514381211
 20
2761.489222041237
 10
1150.403514381211
 20
2741.489222041237
 10
1120.403514381211
 20
2741.489222041237
 10
1120.403514381211
 20
2761.489222041237
  0
LWPOLYLINE
  5
DB940
330
DF922
100
AcDbEntity
  8
0
100
AcDbPolyline
 90
        4
 70
     1
 43
0.0
 10
1095.403514381211
 20
2809.619671600994
 10
1095.403514381211
 20
2799.619671600993
 10
1175.403514381211
 20
2799.619671600993
 10
1175.403514381211
 20
2809.619671600994
 42
0.7499999999999128
  0
LWPOLYLINE
  5
DB941
330
DF922
100
AcDbEntity
  8
0
100
AcDbPolyline
 90
       12
 70
     0
 43
0.0
 10
2140.403514381211
 20
2741.489222041148
 10
2140.403514381211
 20
2799.619671600905
 10
2115.403514381211
 20
2799.619671600905
 10
2115.403514381211
 20
2809.619671600904
 42
-0.0792856712932764
 10
2121.020995634088
 20
2821.489222041353
 10
1849.786033128567
 20
2821.489222041237
 42
-0.0792856712920094
 10
1855.403514381211
 20
2809.619671601082
 10
1855.403514381211
 20
2799.619671601081
 10
1830.403514381211
 20
2799.619671601081
 10
1830.403514381211
 20
2741.489222041324
 10
2140.403514381211
 20
2741.489222041324
 10
1830.403514381211
 20
2741.489222041324
  0
LWPOLYLINE
  5
DB942
330
DF922
100
AcDbEntity
  8
0
100
AcDbPolyline
 90
       12
 70
     0
 43
0.0
 10
2189.786033128451
 20
2821.489222041149
 42
-0.079285671292372
 10
2195.403514381211
 20
2809.61967160082
 10
2195.403514381211
 20
2799.61967160082
 10
2170.403514381211
 20
2799.61967160082
 10
2170.403514381211
 20
2761.489222041062
 10
2170.403514381211
 20
2741.489222041148
 10
2305.403514381211
 20
2741.489222041148
 10
2305.403514381211
 20
2821.489222041149
 10
2189.786033128451
 20
2821.489222041149
 10
2305.403514381211
 20
2821.489222041062
 10
2305.403514381211
 20
2741.489222041063
 10
2170.403514381211
 20
2741.489222041063
  0
LWPOLYLINE
  5
DB943
330
DF922
100
AcDbEntity
  8
0
100
AcDbPolyline
 90
       12
 70
     0
 43
0.0
 10
1490.403514381211
 20
2741.489222041063
 10
1490.403514381211
 20
2799.61967160082
 10
1515.403514381211
 20
2799.61967160082
 10
1515.403514381211
 20
2809.61967160082
 42
0.0792856712932764
 10
1509.786033128334
 20
2821.489222041266
 10
1781.020995633855
 20
2821.489222041149
 42
0.0792856712920094
 10
1775.403514381211
 20
2809.619671600994
 10
1775.403514381211
 20
2799.619671600993
 10
1800.403514381211
 20
2799.619671600993
 10
1800.403514381211
 20
2741.489222041237
 10
1490.403514381211
 20
2741.489222041237
 10
1800.403514381211
 20
2741.489222041237
  0
LWPOLYLINE
  5
DB944
330
DF922
100
AcDbEntity
  8
0
100
AcDbPolyline
 90
        4
 70
     1
 43
0.0
 10
1855.403514381211
 20
2809.61967160082
 10
1855.403514381211
 20
2799.61967160082
 10
1775.403514381211
 20
2799.61967160082
 10
1775.403514381211
 20
2809.61967160082
 42
-0.7499999999999128
  0
LWPOLYLINE
  5
DB945
330
DF922
100
AcDbEntity
  8
0
100
AcDbPolyline
 90
        4
 70
     1
 43
0.0
 10
1800.403514381211
 20
2761.489222041062
 10
1800.403514381211
 20
2741.489222041063
 10
1830.403514381211
 20
2741.489222041063
 10
1830.403514381211
 20
2761.489222041062
  0
LWPOLYLINE
  5
DB946
330
DF922
100
AcDbEntity
  8
0
100
AcDbPolyline
 90
        4
 70
     1
 43
0.0
 10
1800.403514381211
 20
2799.61967160082
 10
1800.403514381211
 20
2761.489222041062
 10
1830.403514381211
 20
2761.489222041062
 10
1830.403514381211
 20
2799.61967160082
  0
LWPOLYLINE
  5
DB947
330
DF922
100
AcDbEntity
  8
0
100
AcDbPolyline
 90
        4
 70
     1
 43
0.0
 10
1460.403514381211
 20
2799.61967160082
 10
1460.403514381211
 20
2761.489222041062
 10
1490.403514381211
 20
2761.489222041062
 10
1490.403514381211
 20
2799.61967160082
  0
LWPOLYLINE
  5
DB948
330
DF922
100
AcDbEntity
  8
0
100
AcDbPolyline
 90
        4
 70
     1
 43
0.0
 10
1460.403514381211
 20
2761.489222041062
 10
1460.403514381211
 20
2741.489222041063
 10
1490.403514381211
 20
2741.489222041063
 10
1490.403514381211
 20
2761.489222041062
  0
LWPOLYLINE
  5
DB949
330
DF922
100
AcDbEntity
  8
0
100
AcDbPolyline
 90
        4
 70
     1
 43
0.0
 10
1515.403514381211
 20
2809.61967160082
 10
1515.403514381211
 20
2799.61967160082
 10
1435.403514381211
 20
2799.61967160082
 10
1435.403514381211
 20
2809.61967160082
 42
-0.7499999999999128
  0
LWPOLYLINE
  5
DB94A
330
DF922
100
AcDbEntity
  8
0
100
AcDbPolyline
 90
        4
 70
     1
 43
0.0
 10
2170.403514381211
 20
2799.619671600905
 10
2170.403514381211
 20
2761.489222041146
 10
2140.403514381211
 20
2761.489222041146
 10
2140.403514381211
 20
2799.619671600905
  0
LWPOLYLINE
  5
DB94B
330
DF922
100
AcDbEntity
  8
0
100
AcDbPolyline
 90
        4
 70
     1
 43
0.0
 10
2170.403514381211
 20
2761.489222041146
 10
2170.403514381211
 20
2741.489222041148
 10
2140.403514381211
 20
2741.489222041148
 10
2140.403514381211
 20
2761.489222041146
  0
LWPOLYLINE
  5
DB94C
330
DF922
100
AcDbEntity
  8
0
100
AcDbPolyline
 90
        4
 70
     1
 43
0.0
 10
2115.403514381211
 20
2809.619671600904
 10
2115.403514381211
 20
2799.619671600905
 10
2195.403514381211
 20
2799.619671600905
 10
2195.403514381211
 20
2809.619671600904
 42
0.7499999999999128
  0
LWPOLYLINE
  5
DB94D
330
DF922
100
AcDbEntity
  8
0
100
AcDbPolyline
 90
        4
 70
     1
 43
0.0
 10
1290.403514381211
 20
2821.489222041325
 10
1290.403514381211
 20
2986.489222041324
 10
1320.403514381211
 20
2986.489222041324
 10
1320.403514381211
 20
2821.489222041325
  0
LWPOLYLINE
  5
DB94E
330
DF922
100
AcDbEntity
  8
0
100
AcDbPolyline
 90
       12
 70
     0
 43
0.0
 10
1460.403514381211
 20
2741.489222041063
 10
1460.403514381211
 20
2799.61967160082
 10
1435.403514381211
 20
2799.61967160082
 10
1435.403514381211
 20
2809.61967160082
 42
-0.0792856712932764
 10
1441.020995634088
 20
2821.489222041266
 10
1169.786033128567
 20
2821.489222041149
 42
-0.0792856712920094
 10
1175.403514381211
 20
2809.619671600994
 10
1175.403514381211
 20
2799.619671600993
 10
1150.403514381211
 20
2799.619671600993
 10
1150.403514381211
 20
2741.489222041237
 10
1460.403514381211
 20
2741.489222041237
 10
1150.403514381211
 20
2741.489222041237
  0
LWPOLYLINE
  5
DB94F
330
DF922
100
AcDbEntity
  8
0
100
AcDbPolyline
 90
        4
 70
     1
 43
0.0
 10
3594.83515507932
 20
1646.489222041325
 10
3594.83515507932
 20
1671.489222041326
 10
3514.83515507932
 20
1671.489222041326
 10
3514.83515507932
 20
1646.489222041325
  0
LWPOLYLINE
  5
DB950
330
DF922
100
AcDbEntity
  8
0
100
AcDbPolyline
 90
        4
 70
     1
 43
0.0
 10
3324.83515507932
 20
1646.489222041325
 10
3324.83515507932
 20
1671.489222041326
 10
3244.83515507932
 20
1671.489222041326
 10
3244.83515507932
 20
1646.489222041325
  0
LWPOLYLINE
  5
DB951
330
DF922
100
AcDbEntity
  8
0
100
AcDbPolyline
 90
        4
 70
     1
 43
0.0
 10
3504.83515507932
 20
1646.489222041325
 10
3504.83515507932
 20
1671.489222041326
 10
3424.83515507932
 20
1671.489222041326
 10
3424.83515507932
 20
1646.489222041325
  0
LWPOLYLINE
  5
DB952
330
DF922
100
AcDbEntity
  8
0
100
AcDbPolyline
 90
        4
 70
     1
 43
0.0
 10
3414.83515507932
 20
1646.489222041325
 10
3414.83515507932
 20
1671.489222041326
 10
3334.83515507932
 20
1671.489222041326
 10
3334.83515507932
 20
1646.489222041325
  0
LWPOLYLINE
  5
DB953
330
DF922
100
AcDbEntity
  8
0
100
AcDbPolyline
 90
        7
 70
     1
 43
0.0
 10
3214.83515507932
 20
2986.489222041324
 10
3214.83515507932
 20
1231.489222041325
 10
3244.83515507932
 20
1231.489222041325
 10
3244.83515507932
 20
2986.489222041324
 10
3482.83515507932
 20
2986.489222041324
 10
3482.83515507932
 20
3016.489222041324
 10
3214.83515507932
 20
3016.489222041324
  0
LWPOLYLINE
  5
DB954
330
DF922
100
AcDbEntity
  8
0
100
AcDbPolyline
 90
        4
 70
     1
 43
0.0
 10
3244.83515507932
 20
1871.489222041325
 10
3269.83515507932
 20
1871.489222041325
 10
3269.83515507932
 20
1951.489222041325
 10
3244.83515507932
 20
1951.489222041325
  0
LWPOLYLINE
  5
DB955
330
DF922
100
AcDbEntity
  8
0
100
AcDbPolyline
 90
        4
 70
     1
 43
0.0
 10
3484.83515507932
 20
2986.489222041324
 10
3484.83515507932
 20
3016.489222041324
 10
3482.83515507932
 20
3016.489222041324
 10
3482.83515507932
 20
2986.489222041324
  0
LWPOLYLINE
  5
DB956
330
DF922
100
AcDbEntity
  8
0
100
AcDbPolyline
 90
        4
 70
     1
 43
0.0
 10
3389.83515507932
 20
3016.489222041324
 10
3389.83515507932
 20
3041.489222041324
 10
3309.83515507932
 20
3041.489222041324
 10
3309.83515507932
 20
3016.489222041324
  0
LWPOLYLINE
  5
DB957
330
DF922
100
AcDbEntity
  8
0
100
AcDbPolyline
 90
        4
 70
     1
 43
0.0
 10
3294.83515507932
 20
3016.489222041324
 10
3294.83515507932
 20
3041.489222041324
 10
3214.83515507932
 20
3041.489222041324
 10
3214.83515507932
 20
3016.489222041324
  0
LWPOLYLINE
  5
DB958
330
DF922
100
AcDbEntity
  8
0
100
AcDbPolyline
 90
        4
 70
     1
 43
0.0
 10
3244.83515507932
 20
2741.489222041324
 10
3269.83515507932
 20
2741.489222041324
 10
3269.83515507932
 20
2821.489222041325
 10
3244.83515507932
 20
2821.489222041325
  0
LWPOLYLINE
  5
DB959
330
DF922
100
AcDbEntity
  8
0
100
AcDbPolyline
 90
        4
 70
     1
 43
0.0
 10
3484.83515507932
 20
3016.489222041324
 10
3484.83515507932
 20
3041.489222041324
 10
3404.83515507932
 20
3041.489222041324
 10
3404.83515507932
 20
3016.489222041324
  0
LWPOLYLINE
  5
DB95A
330
DF922
100
AcDbEntity
  8
0
100
AcDbPolyline
 90
        7
 70
     0
 43
0.0
 10
3279.83515507932
 20
2741.489222041324
 10
3294.83515507932
 20
2741.489222041324
 10
3294.83515507932
 20
2761.489222041324
 10
3289.83515507932
 20
2761.489222041324
 10
3289.83515507932
 20
2746.489222041325
 10
3279.83515507932
 20
2746.489222041325
 10
3279.83515507932
 20
2741.489222041324
  0
LWPOLYLINE
  5
DB95B
330
DF922
100
AcDbEntity
  8
0
100
AcDbPolyline
 90
        4
 70
     1
 43
0.0
 10
3279.83515507932
 20
2741.489222041324
 10
3279.83515507932
 20
2821.489222041325
 10
3269.83515507932
 20
2821.489222041325
 10
3269.83515507932
 20
2741.489222041324
  0
LWPOLYLINE
  5
DB95C
330
DF922
100
AcDbEntity
  8
0
100
AcDbPolyline
 90
        4
 70
     1
 43
0.0
 10
3286.6272222093
 20
2821.489222041325
 10
3286.6272222093
 20
2817.610691904139
 10
3279.83515507932
 20
2817.610691904139
 10
3279.83515507932
 20
2821.489222041325
  0
LWPOLYLINE
  5
DB95D
330
DF922
100
AcDbEntity
  8
0
100
AcDbPolyline
 90
        4
 70
     1
 43
0.0
 10
3296.6272222093
 20
2839.619671601081
 10
3296.6272222093
 20
2799.619671601081
 10
3286.6272222093
 20
2799.619671601081
 10
3286.6272222093
 20
2839.619671601081
  0
LWPOLYLINE
  5
DB95E
330
DF922
100
AcDbEntity
  8
0
100
AcDbPolyline
 90
        9
 70
     0
 43
0.0
 10
3594.83515507932
 20
1646.489222041325
 10
3244.83515507932
 20
1646.489222041325
 10
3244.83515507932
 20
1231.489222041325
 10
3274.83515507932
 20
1231.489222041325
 10
3274.83515507932
 20
1616.489222041325
 10
3564.83515507932
 20
1616.489222041325
 10
3564.83515507932
 20
1231.489222041325
 10
3594.83515507932
 20
1231.489222041325
 10
3594.83515507932
 20
1646.489222041325
  0
LINE
  5
DB95F
330
DF922
100
AcDbEntity
  8
0
100
AcDbLine
 10
3244.83515507932
 20
1671.489222041238
 30
0.0
 11
3244.83515507932
 21
1871.489222041237
 31
0.0
  0
LWPOLYLINE
  5
DB960
330
DF922
100
AcDbEntity
  8
0
100
AcDbPolyline
 90
        4
 70
     1
 43
0.0
 10
3244.83515507932
 20
1966.489222041325
 10
3269.83515507932
 20
1966.489222041325
 10
3269.83515507932
 20
2046.489222041326
 10
3244.83515507932
 20
2046.489222041326
  0
TEXT
  5
DBF1A
330
DF922
100
AcDbEntity
  8
0
100
AcDbText
 10
-838.7791374978221
 20
-555.4096502962035
 30
0.0
 40
125.0
  1
Questo disegno è di proprietà di Fantin S.r.l.   
  7
STILE1
 72
     1
 11
1583.839910121225
 21
-555.4096502962035
 31
0.0
100
AcDbText
  0
TEXT
  5
DBF1B
330
DF922
100
AcDbEntity
  8
0
100
AcDbText
 10
-278.0653885912585
 20
-208.9254166234014
 30
0.0
 40
125.0
  1
Panck
  7
STILE1
 72
     1
 11
7.741903075408115
 21
-208.9254166234014
 31
0.0
100
AcDbText
  0
LWPOLYLINE
  5
DBF1C
330
DF922
100
AcDbEntity
  8
0
  6
Continuous
100
AcDbPolyline
 90
       15
 70
     0
 43
0.0
 10
-2005.844421386719
 20
-687.6576470269355
 10
-2005.844421386719
 20
-299.9965549039189
 10
-1904.494879823178
 20
-299.9965549039189
 42
-0.316444976687396
 10
-1853.547085234894
 20
-328.2411702477839
 10
-1752.753926590085
 20
-498.2600775826719
 10
-1749.985792371444
 20
-498.2600775826719
 10
-1749.985792371444
 20
-299.9965549039189
 10
-1637.561991373077
 20
-299.9965549039189
 10
-1637.561991373077
 20
-687.6576470269355
 10
-1720.084086097777
 20
-687.6576470269355
 42
-0.312959769389874
 10
-1771.031880690716
 20
-659.4147542316932
 10
-1890.652486160398
 20
-466.1380072694737
 10
-1893.417175291106
 20
-466.1380072694737
 10
-1893.417175291106
 20
-687.6576470269355
 10
-2005.844421386719
 20
-687.6576470269355
  0
LWPOLYLINE
  5
DBF1D
330
DF922
100
AcDbEntity
  8
0
  6
Continuous
100
AcDbPolyline
 90
       15
 70
     0
 43
0.0
 10
-2982.206875272095
 20
-687.6576470269355
 10
-2982.206875272095
 20
-299.9965549039189
 10
-2880.857333708556
 20
-299.9965549039189
 42
-0.316444976687396
 10
-2829.909539115615
 20
-328.2411702477839
 10
-2729.116380475462
 20
-498.2600775826719
 10
-2726.348246252165
 20
-498.2600775826719
 10
-2726.348246252165
 20
-299.9965549039189
 10
-2613.924445258454
 20
-299.9965549039189
 10
-2613.924445258454
 20
-687.6576470269355
 10
-2696.446539983154
 20
-687.6576470269355
 42
-0.312959769389874
 10
-2747.39433458075
 20
-659.4147542316932
 10
-2867.014940045774
 20
-466.1380072694737
 10
-2869.779629176483
 20
-466.1380072694737
 10
-2869.779629176483
 20
-687.6576470269355
 10
-2982.206875272095
 20
-687.6576470269355
  0
LWPOLYLINE
  5
DBF1E
330
DF922
100
AcDbEntity
  8
0
  6
Continuous
100
AcDbPolyline
 90
        9
 70
     0
 43
0.0
 10
-2229.582702633925
 20
-299.9982774525415
 10
-2229.582702633925
 20
-390.8213297522161
 10
-2345.878790956922
 20
-390.8213297522161
 10
-2345.878790956922
 20
-687.6576470269355
 10
-2464.948181146756
 20
-687.6576470269355
 10
-2464.948181146756
 20
-390.8213297522161
 10
-2578.481302894652
 20
-390.8213297522161
 10
-2578.481302894652
 20
-299.9982774525415
 10
-2229.582702633925
 20
-299.9982774525415
  0
LWPOLYLINE
  5
DBF1F
330
DF922
100
AcDbEntity
  8
0
  6
Continuous
100
AcDbPolyline
 90
        4
 70
     1
 43
0.0
 10
-2192.47902425006
 20
-299.9982774525415
 10
-2073.409634060226
 20
-299.9982774525415
 10
-2073.409634060226
 20
-687.6576470269355
 10
-2192.47902425006
 20
-687.6576470269355
  0
LWPOLYLINE
  5
DBF20
330
DF922
100
AcDbEntity
  8
0
  6
Continuous
100
AcDbPolyline
 90
       11
 70
     0
 43
0.0
 10
-3407.540086535738
 20
-300.0
 10
-3407.540086535738
 20
-389.1607937274967
 10
-3593.616583929397
 20
-389.1607937274967
 10
-3593.616583929397
 20
-466.1362847220151
 10
-3463.47293430008
 20
-466.1362847220151
 10
-3463.47293430008
 20
-549.2095947265625
 10
-3593.616583929397
 20
-549.2095947265625
 10
-3593.616583929397
 20
-687.6576470269355
 10
-3712.685974119231
 20
-687.6576470269355
 10
-3712.685974119231
 20
-300.0
 10
-3407.540086535738
 20
-300.0
  0
LWPOLYLINE
  5
DBF21
330
DF922
100
AcDbEntity
  8
0
  6
Continuous
100
AcDbPolyline
 90
        5
 70
     0
 43
0.0
 10
-3221.454976396636
 20
-406.8789198133162
 10
-3188.227030434647
 20
-520.96670193132
 10
-3260.775573728607
 20
-520.96670193132
 10
-3227.547627761961
 20
-406.8789198133162
 10
-3221.454976396636
 20
-406.8789198133162
  0
LWPOLYLINE
  5
DBF22
330
DF922
100
AcDbEntity
  8
0
  6
Continuous
100
AcDbPolyline
 90
       16
 70
     1
 43
0.0
 10
-3164.963312949987
 20
-604.0348442923276
 10
-3164.963312949987
 20
-604.0348442923276
 10
-3140.60203043744
 20
-687.6576470269355
 10
-3014.885328505188
 20
-687.6576470269355
 10
-3132.294182670303
 20
-334.8833143443335
 42
0.1089385125692126
 10
-3145.036042486318
 20
-307.2121766244527
 42
0.1589313772246072
 10
-3157.031867676415
 20
-299.9273046676535
 42
0.058673645385263
 10
-3173.277038573287
 20
-298.3360188803636
 10
-3173.277038573287
 20
-298.3360188803636
 10
-3268.525316026062
 20
-298.3360188803636
 42
0.058673645385263
 10
-3284.770486922936
 20
-299.9273046676535
 42
0.1589313772246072
 10
-3296.766312113032
 20
-307.2121766244527
 42
0.1089385125692126
 10
-3309.508171929046
 20
-334.8833143443335
 10
-3426.917026089505
 20
-687.6576470269355
 10
-3307.851080996916
 20
-687.6576470269355
 10
-3284.038581000641
 20
-604.0348442923276
  0
TEXT
  5
DBF23
330
DF922
100
AcDbEntity
  8
0
100
AcDbText
 10
-527.8452372835668
 20
-817.4938565844182
 30
0.0
 40
125.0
  1
This drawing is property of Fantin S.r.l. 
  7
STILE1
 72
     1
 11
1487.035715097386
 21
-817.4938565844182
 31
0.0
100
AcDbText
  0
LWPOLYLINE
  5
DBF24
330
DF922
100
AcDbEntity
  8
0
100
AcDbPolyline
 90
        2
 70
     0
 43
0.0
 10
-1337.561991373077
 20
-299.9965549039189
 10
4012.685974119231
 20
-299.9965549039186
  0
LWPOLYLINE
  5
DBF25
330
DF922
100
AcDbEntity
  8
0
100
AcDbPolyline
 90
        4
 70
     1
 43
0.0
 10
-4012.685974119231
 20
0.0
 10
4012.685974119231
 20
0.0
 10
4012.685974119231
 20
-987.6576470269353
 10
-4012.685974119231
 20
-987.6576470269353
  0
LINE
  5
DBF26
330
DF922
100
AcDbEntity
  8
0
100
AcDbLine
 10
-1337.561991373077
 20
0.0
 30
0.0
 11
-1337.561991373077
 21
-987.6576470269353
 31
0.0
  0
LINE
  5
DBF27
330
DF922
100
AcDbEntity
  8
0
100
AcDbLine
 10
1337.561991373077
 20
-299.9965549039189
 30
0.0
 11
1337.561991373077
 21
0.0
 31
0.0
  0
TEXT
  5
DBF28
330
DF922
100
AcDbEntity
  8
0
100
AcDbText
 10
2240.022522568668
 20
-208.9254166234015
 30
0.0
 40
125.0
  1
2024-06
  7
STILE1
 72
     1
 11
2674.918355902001
 21
-208.9254166234015
 31
0.0
100
AcDbText
  0
LINE
  5
DBF29
330
DF922
100
AcDbEntity
  8
0
100
AcDbLine
 10
4012.685974119231
 20
0.0000000000002274
 30
0.0
 11
4012.685974119231
 21
-987.6576470269353
 31
0.0
  0
LWPOLYLINE
  5
DBF2A
330
DF922
100
AcDbEntity
  8
0
100
AcDbPolyline
 90
        4
 70
     1
 43
0.0
 10
-4012.685974119227
 20
600.9422236362243
 10
4012.685974119236
 20
600.9422236362243
 10
4012.685974119235
 20
3641.489222041324
 10
-4012.685974119227
 20
3641.489222041324
  0
LWPOLYLINE
  5
DBF38
330
DF922
100
AcDbEntity
  8
0
100
AcDbPolyline
 90
        4
 70
     1
 43
0.0
 10
-4012.685974119227
 20
4195.52586409977
 10
4012.685974119235
 20
4195.52586409977
 10
4012.685974119235
 20
7385.525864099767
 10
-4012.685974119227
 20
7385.525864099767
  0
LWPOLYLINE
  5
DBF3D
330
DF922
100
AcDbEntity
  8
0
100
AcDbPolyline
 90
        4
 70
     1
 43
0.0
 10
-4012.685974119227
 20
7939.56250615821
 10
4012.685974119235
 20
7939.56250615821
 10
4012.685974119235
 20
11129.56250615821
 10
-4012.685974119227
 20
11129.56250615821
  0
VIEWPORT
  5
DAB74
330
DF920
100
AcDbEntity
 67
     1
  8
0
100
AcDbViewport
 10
0.0
 20
0.0
 30
0.0
 40
10.87270777479893
 41
8.16
 68
     1
 69
     1
 12
6.065999999999998
 22
3.851238605898123
 13
0.0
 23
0.0
 14
0.5
 24
0.5
 15
0.0
 25
0.0
 16
0.0
 26
0.0
 36
1.0
 17
0.0
 27
0.0
 37
0.0
 42
50.0
 43
0.0
 44
0.0
 45
8.16
 50
0.0
 51
0.0
 72
   100
 90
   557296
  1

281
     0
 71
     0
 74
     0
110
0.0
120
0.0
130
0.0
111
1.0
121
0.0
131
0.0
112
0.0
122
1.0
132
0.0
 79
     0
146
0.0
170
     0
 61
     5
348
DF980
292
     1
282
     1
141
0.0
142
0.0
 63
   256
  0
VIEWPORT
  5
DAB75
330
DF920
100
AcDbEntity
 67
     1
  8
0
100
AcDbViewport
 10
5.25
 20
4.0
 30
0.0
 40
8.4
 41
6.4
 68
     2
 69
     2
 12
-238.8342129778575
 22
5240.682605436173
 13
0.0
 23
0.0
 14
0.5
 24
0.5
 15
0.0
 25
0.0
 16
0.0
 26
0.0
 36
1.0
 17
0.0
 27
0.0
 37
0.0
 42
50.0
 43
0.0
 44
0.0
 45
12730.99251508979
 50
0.0
 51
0.0
 72
   100
 90
   557280
  1

281
     0
 71
     0
 74
     0
110
0.0
120
0.0
130
0.0
111
1.0
121
0.0
131
0.0
112
0.0
122
1.0
132
0.0
 79
     0
146
0.0
170
     0
 61
     5
348
DF980
292
     1
282
     1
141
0.0
142
0.0
 63
   256
  0
ENDSEC
  0
SECTION
  2
OBJECTS
  0
DICTIONARY
  5
DF912
330
0
100
AcDbDictionary
281
     1
  3
ACAD_DETAILVIEWSTYLE
350
DF9A2
  3
ACAD_GROUP
350
DF913
  3
ACAD_LAYOUT
350
DF91F
  3
ACAD_MATERIAL
350
DF928
  3
ACAD_MLEADERSTYLE
350
DF996
  3
ACAD_MLINESTYLE
350
DF91C
  3
ACAD_PLOTSETTINGS
350
DF91E
  3
ACAD_PLOTSTYLENAME
350
DF914
  3
ACAD_SCALELIST
350
DF959
  3
ACAD_SECTIONVIEWSTYLE
350
DF9A3
  3
ACAD_TABLESTYLE
350
DF994
  3
ACAD_VISUALSTYLE
350
DF97B
  3
ACDB_RECOMPOSE_DATA
350
DF9A8
  3
AcDbVariableDictionary
350
DF99D
  3
APPDATA
350
DF998
  3
PRINTCONFIG
350
DF9A5
  0
SUN
  5
DF9A4
330
DF925
100
AcDbSun
 90
        1
290
     0
 63
     7
421
 16777215
 40
1.0
291
     1
 91
  2455826
 92
 54000000
292
     0
 70
     2
 71
   256
280
     1
  0
DICTIONARY
  5
DF99B
330
DF922
100
AcDbDictionary
280
     1
281
     1
  3
DIM_BOUNDING_BOXES_V1
360
DF99C
  0
DICTIONARY
  5
DF9A2
102
{ACAD_REACTORS
330
DF912
102
}
330
DF912
100
AcDbDictionary
281
     1
  0
DICTIONARY
  5
DF913
102
{ACAD_REACTORS
330
DF912
102
}
330
DF912
100
AcDbDictionary
281
     1
  0
DICTIONARY
  5
DF91F
102
{ACAD_REACTORS
330
DF912
102
}
330
DF912
100
AcDbDictionary
281
     1
  3
Foglio1
350
DF921
  3
Model
350
DF923
  0
DICTIONARY
  5
DF928
102
{ACAD_REACTORS
330
DF912
102
}
330
DF912
100
AcDbDictionary
281
     1
  3
ByBlock
350
DF92A
  3
ByLayer
350
DF929
  3
Global
350
DF92B
  0
DICTIONARY
  5
DF996
102
{ACAD_REACTORS
330
DF912
102
}
330
DF912
100
AcDbDictionary
281
     1
  3
Standard
350
DF997
  0
DICTIONARY
  5
DF91C
102
{ACAD_REACTORS
330
DF912
102
}
330
DF912
100
AcDbDictionary
281
     1
  3
Standard
350
DF91D
  0
DICTIONARY
  5
DF91E
102
{ACAD_REACTORS
330
DF912
102
}
330
DF912
100
AcDbDictionary
281
     1
  0
ACDBDICTIONARYWDFLT
  5
DF914
102
{ACAD_REACTORS
330
DF912
102
}
330
DF912
100
AcDbDictionary
281
     1
  3
Normal
350
DF915
100
AcDbDictionaryWithDefault
340
DF915
  0
DICTIONARY
  5
DF959
102
{ACAD_REACTORS
330
DF912
102
}
330
DF912
100
AcDbDictionary
281
     1
  3
A0
350
DF95A
  3
A1
350
DF95B
  3
A2
350
DF95C
  3
A3
350
DF95D
  3
A4
350
DF95E
  3
A5
350
DF95F
  3
A6
350
DF960
  3
A7
350
DF961
  3
A8
350
DF962
  3
A9
350
DF963
  3
B0
350
DF964
  3
B1
350
DF965
  3
B2
350
DF966
  3
B3
350
DF967
  3
B4
350
DF968
  3
B5
350
DF969
  3
B6
350
DF96A
  3
B7
350
DF96B
  3
B8
350
DF96C
  3
B9
350
DF96D
  3
C0
350
DF96E
  3
C1
350
DF96F
  3
C2
350
DF970
  3
C3
350
DF971
  3
C4
350
DF972
  3
C5
350
DF973
  3
C6
350
DF974
  3
C7
350
DF975
  3
C8
350
DF976
  3
C9
350
DF977
  3
D0
350
DF978
  3
D1
350
DF979
  3
D2
350
DF97A
  0
DICTIONARY
  5
DF9A3
102
{ACAD_REACTORS
330
DF912
102
}
330
DF912
100
AcDbDictionary
281
     1
  0
DICTIONARY
  5
DF994
102
{ACAD_REACTORS
330
DF912
102
}
330
DF912
100
AcDbDictionary
281
     1
  3
Standard
350
DF995
  0
DICTIONARY
  5
DF97B
102
{ACAD_REACTORS
330
DF912
102
}
330
DF912
100
AcDbDictionary
281
     1
  3
2dWireframe
350
DF980
  3
Basic
350
DF983
  3
Brighten
350
DF987
  3
ColorChange
350
DF98B
  3
Conceptual
350
DF985
  3
Dim
350
DF986
  3
EdgeColorOff
350
DF98E
  3
Facepattern
350
DF98A
  3
Flat
350
DF97C
  3
FlatWithEdges
350
DF97D
  3
Gouraud
350
DF97E
  3
GouraudWithEdges
350
DF97F
  3
Hidden
350
DF982
  3
JitterOff
350
DF98C
  3
Linepattern
350
DF989
  3
OverhangOff
350
DF98D
  3
Realistic
350
DF984
  3
Shaded
350
DF993
  3
Shaded with edges
350
DF992
  3
Shades of Gray
350
DF98F
  3
Sketchy
350
DF990
  3
Thicken
350
DF988
  3
Wireframe
350
DF981
  3
X-Ray
350
DF991
  0
XRECORD
  5
DF9A8
102
{ACAD_REACTORS
330
DF912
102
}
330
DF912
100
AcDbXrecord
280
     1
 90
        1
330
DF995
  0
DICTIONARY
  5
DF99D
102
{ACAD_REACTORS
330
DF912
102
}
330
DF912
100
AcDbDictionary
281
     1
  3
CANNOSCALE
350
DF99E
  3
CMLEADERSTYLE
350
DF9A0
  3
CTABLESTYLE
350
DF99F
  3
MSLTSCALE
350
DF9A1
  0
DICTIONARY
  5
DF998
102
{ACAD_REACTORS
330
DF912
102
}
330
DF912
100
AcDbDictionary
281
     1
  0
DICTIONARYVAR
  5
DF9A5
102
{ACAD_REACTORS
330
DF912
102
}
330
DF912
100
DictionaryVariables
280
     0
  1
0
  0
DICTIONARY
  5
DF99C
102
{ACAD_REACTORS
330
DF99B
102
}
330
DF99B
100
AcDbDictionary
281
     1
  0
LAYOUT
  5
DF921
102
{ACAD_REACTORS
330
DF91F
102
}
330
DF91F
100
AcDbPlotSettings
  1

  2
none_device
  4

  6

 40
0.0
 41
0.0
 42
0.0
 43
0.0
 44
0.0
 45
0.0
 46
0.0
 47
0.0
 48
0.0
 49
0.0
140
0.0
141
0.0
142
1.0
143
1.0
 70
   688
 72
     0
 73
     0
 74
     5
  7

 75
    16
 76
     0
 77
     2
 78
   300
147
1.0
148
0.0
149
0.0
100
AcDbLayout
  1
Foglio1
 70
     1
 71
     1
 10
0.0
 20
0.0
 11
0.0
 21
0.0
 12
0.0
 22
0.0
 32
0.0
 14
0.0
 24
0.0
 34
0.0
 15
0.0
 25
0.0
 35
0.0
146
0.0
 13
0.0
 23
0.0
 33
0.0
 16
1.0
 26
0.0
 36
0.0
 17
0.0
 27
1.0
 37
0.0
 76
     0
330
DF920
331
DAB74
  0
LAYOUT
  5
DF923
102
{ACAD_REACTORS
330
DF91F
102
}
330
DF91F
100
AcDbPlotSettings
  1

  2
none_device
  4
Letter_(8.50_x_11.00_Inches)
  6

 40
6.35
 41
6.35
 42
6.35
 43
6.35
 44
215.9
 45
279.4
 46
0.0
 47
0.0
 48
0.0
 49
0.0
140
0.0
141
0.0
142
1.0
143
1.0
 70
  1712
 72
     0
 73
     0
 74
     0
  7

 75
     0
 76
     0
 77
     2
 78
   300
147
1.0
148
0.0
149
0.0
100
AcDbLayout
  1
Model
 70
     1
 71
     0
 10
0.0
 20
0.0
 11
12.0
 21
9.0
 12
0.0
 22
0.0
 32
0.0
 14
-4012.685974119231
 24
-987.6576470269356
 34
0.0
 15
4012.685974119236
 25
11129.56250615821
 35
0.0
146
0.0
 13
0.0
 23
0.0
 33
0.0
 16
1.0
 26
0.0
 36
0.0
 17
0.0
 27
1.0
 37
0.0
 76
     0
330
DF922
331
DF925
  0
MATERIAL
  5
DF92A
102
{ACAD_REACTORS
330
DF928
102
}
330
DF928
100
AcDbMaterial
  1
ByBlock
 72
     1
 94
      127
  0
MATERIAL
  5
DF929
102
{ACAD_REACTORS
330
DF928
102
}
330
DF928
100
AcDbMaterial
  1
ByLayer
 72
     1
 94
      127
  0
MATERIAL
  5
DF92B
102
{ACAD_REACTORS
330
DF928
102
}
330
DF928
100
AcDbMaterial
  1
Global
 72
     1
 94
      127
  0
MLEADERSTYLE
  5
DF997
102
{ACAD_REACTORS
330
DF996
102
}
330
DF996
100
AcDbMLeaderStyle
179
     2
170
     2
171
     1
172
     0
 90
        2
 40
0.0
 41
0.0
173
     1
 91
-1056964608
340
DF919
 92
       -2
290
     1
 42
0.09
291
     1
 43
0.36
  3
Standard
341
0
 44
0.18
300

342
DF917
174
     1
178
     1
175
     1
176
     0
 93
-1056964608
 45
0.18
292
     0
297
     0
 46
0.18
343
0
 94
-1056964608
 47
1.0
 49
1.0
140
1.0
293
     1
141
0.0
294
     1
177
     0
142
1.0
295
     0
296
     0
143
0.125
271
     0
272
     9
273
     9
298
     0
  0
MLINESTYLE
  5
DF91D
102
{ACAD_REACTORS
330
DF91C
102
}
330
DF91C
100
AcDbMlineStyle
  2
Standard
 70
     0
  3

 62
   256
 51
90.0
 52
90.0
 71
     2
 49
0.5
 62
   256
  6
BYLAYER
 49
-0.5
 62
   256
  6
BYLAYER
  0
ACDBPLACEHOLDER
  5
DF915
102
{ACAD_REACTORS
330
DF914
102
}
330
DF914
  0
SCALE
  5
DF95A
102
{ACAD_REACTORS
330
DF959
102
}
330
DF959
100
AcDbScale
 70
     0
300
1:1
140
1.0
141
1.0
290
     1
  0
SCALE
  5
DF95B
102
{ACAD_REACTORS
330
DF959
102
}
330
DF959
100
AcDbScale
 70
     0
300
1:2
140
1.0
141
2.0
290
     0
  0
SCALE
  5
DF95C
102
{ACAD_REACTORS
330
DF959
102
}
330
DF959
100
AcDbScale
 70
     0
300
1:4
140
1.0
141
4.0
290
     0
  0
SCALE
  5
DF95D
102
{ACAD_REACTORS
330
DF959
102
}
330
DF959
100
AcDbScale
 70
     0
300
1:5
140
1.0
141
5.0
290
     0
  0
SCALE
  5
DF95E
102
{ACAD_REACTORS
330
DF959
102
}
330
DF959
100
AcDbScale
 70
     0
300
1:8
140
1.0
141
8.0
290
     0
  0
SCALE
  5
DF95F
102
{ACAD_REACTORS
330
DF959
102
}
330
DF959
100
AcDbScale
 70
     0
300
1:10
140
1.0
141
10.0
290
     0
  0
SCALE
  5
DF960
102
{ACAD_REACTORS
330
DF959
102
}
330
DF959
100
AcDbScale
 70
     0
300
1:16
140
1.0
141
16.0
290
     0
  0
SCALE
  5
DF961
102
{ACAD_REACTORS
330
DF959
102
}
330
DF959
100
AcDbScale
 70
     0
300
1:20
140
1.0
141
20.0
290
     0
  0
SCALE
  5
DF962
102
{ACAD_REACTORS
330
DF959
102
}
330
DF959
100
AcDbScale
 70
     0
300
1:30
140
1.0
141
30.0
290
     0
  0
SCALE
  5
DF963
102
{ACAD_REACTORS
330
DF959
102
}
330
DF959
100
AcDbScale
 70
     0
300
1:40
140
1.0
141
40.0
290
     0
  0
SCALE
  5
DF964
102
{ACAD_REACTORS
330
DF959
102
}
330
DF959
100
AcDbScale
 70
     0
300
1:50
140
1.0
141
50.0
290
     0
  0
SCALE
  5
DF965
102
{ACAD_REACTORS
330
DF959
102
}
330
DF959
100
AcDbScale
 70
     0
300
1:100
140
1.0
141
100.0
290
     0
  0
SCALE
  5
DF966
102
{ACAD_REACTORS
330
DF959
102
}
330
DF959
100
AcDbScale
 70
     0
300
2:1
140
2.0
141
1.0
290
     0
  0
SCALE
  5
DF967
102
{ACAD_REACTORS
330
DF959
102
}
330
DF959
100
AcDbScale
 70
     0
300
4:1
140
4.0
141
1.0
290
     0
  0
SCALE
  5
DF968
102
{ACAD_REACTORS
330
DF959
102
}
330
DF959
100
AcDbScale
 70
     0
300
8:1
140
8.0
141
1.0
290
     0
  0
SCALE
  5
DF969
102
{ACAD_REACTORS
330
DF959
102
}
330
DF959
100
AcDbScale
 70
     0
300
10:1
140
10.0
141
1.0
290
     0
  0
SCALE
  5
DF96A
102
{ACAD_REACTORS
330
DF959
102
}
330
DF959
100
AcDbScale
 70
     0
300
100:1
140
100.0
141
1.0
290
     0
  0
SCALE
  5
DF96B
102
{ACAD_REACTORS
330
DF959
102
}
330
DF959
100
AcDbScale
 70
     0
300
1/128" = 1'-0"
140
0.0078125
141
12.0
290
     0
  0
SCALE
  5
DF96C
102
{ACAD_REACTORS
330
DF959
102
}
330
DF959
100
AcDbScale
 70
     0
300
1/64" = 1'-0"
140
0.015625
141
12.0
290
     0
  0
SCALE
  5
DF96D
102
{ACAD_REACTORS
330
DF959
102
}
330
DF959
100
AcDbScale
 70
     0
300
1/32" = 1'-0"
140
0.03125
141
12.0
290
     0
  0
SCALE
  5
DF96E
102
{ACAD_REACTORS
330
DF959
102
}
330
DF959
100
AcDbScale
 70
     0
300
1/16" = 1'-0"
140
0.0625
141
12.0
290
     0
  0
SCALE
  5
DF96F
102
{ACAD_REACTORS
330
DF959
102
}
330
DF959
100
AcDbScale
 70
     0
300
3/32" = 1'-0"
140
0.09375
141
12.0
290
     0
  0
SCALE
  5
DF970
102
{ACAD_REACTORS
330
DF959
102
}
330
DF959
100
AcDbScale
 70
     0
300
1/8" = 1'-0"
140
0.125
141
12.0
290
     0
  0
SCALE
  5
DF971
102
{ACAD_REACTORS
330
DF959
102
}
330
DF959
100
AcDbScale
 70
     0
300
3/16" = 1'-0"
140
0.1875
141
12.0
290
     0
  0
SCALE
  5
DF972
102
{ACAD_REACTORS
330
DF959
102
}
330
DF959
100
AcDbScale
 70
     0
300
1/4" = 1'-0"
140
0.25
141
12.0
290
     0
  0
SCALE
  5
DF973
102
{ACAD_REACTORS
330
DF959
102
}
330
DF959
100
AcDbScale
 70
     0
300
3/8" = 1'-0"
140
0.375
141
12.0
290
     0
  0
SCALE
  5
DF974
102
{ACAD_REACTORS
330
DF959
102
}
330
DF959
100
AcDbScale
 70
     0
300
1/2" = 1'-0"
140
0.5
141
12.0
290
     0
  0
SCALE
  5
DF975
102
{ACAD_REACTORS
330
DF959
102
}
330
DF959
100
AcDbScale
 70
     0
300
3/4" = 1'-0"
140
0.75
141
12.0
290
     0
  0
SCALE
  5
DF976
102
{ACAD_REACTORS
330
DF959
102
}
330
DF959
100
AcDbScale
 70
     0
300
1" = 1'-0"
140
1.0
141
12.0
290
     0
  0
SCALE
  5
DF977
102
{ACAD_REACTORS
330
DF959
102
}
330
DF959
100
AcDbScale
 70
     0
300
1-1/2" = 1'-0"
140
1.5
141
12.0
290
     0
  0
SCALE
  5
DF978
102
{ACAD_REACTORS
330
DF959
102
}
330
DF959
100
AcDbScale
 70
     0
300
3" = 1'-0"
140
3.0
141
12.0
290
     0
  0
SCALE
  5
DF979
102
{ACAD_REACTORS
330
DF959
102
}
330
DF959
100
AcDbScale
 70
     0
300
6" = 1'-0"
140
6.0
141
12.0
290
     0
  0
SCALE
  5
DF97A
102
{ACAD_REACTORS
330
DF959
102
}
330
DF959
100
AcDbScale
 70
     0
300
1'-0" = 1'-0"
140
12.0
141
12.0
290
     0
  0
TABLESTYLE
  5
DF995
102
{ACAD_REACTORS
330
DF994
102
}
102
{ACAD_XDICTIONARY
360
DF9A6
102
}
330
DF994
100
AcDbTableStyle
  3
Standard
 70
     0
 71
     0
 40
0.06
 41
0.06
280
     0
281
     0
  7
STANDARD
140
0.18
170
     2
 62
     0
 63
   257
283
     0
 90
        4
 91
        0
  1

274
    -2
284
     1
 64
     0
275
    -2
285
     1
 65
     0
276
    -2
286
     1
 66
     0
277
    -2
287
     1
 67
     0
278
    -2
288
     1
 68
     0
279
    -2
289
     1
 69
     0
  7
STANDARD
140
0.25
170
     5
 62
     0
 63
   257
283
     0
 90
        4
 91
        0
  1

274
    -2
284
     1
 64
     0
275
    -2
285
     1
 65
     0
276
    -2
286
     1
 66
     0
277
    -2
287
     1
 67
     0
278
    -2
288
     1
 68
     0
279
    -2
289
     1
 69
     0
  7
STANDARD
140
0.18
170
     5
 62
     0
 63
   257
283
     0
 90
        4
 91
        0
  1

274
    -2
284
     1
 64
     0
275
    -2
285
     1
 65
     0
276
    -2
286
     1
 66
     0
277
    -2
287
     1
 67
     0
278
    -2
288
     1
 68
     0
279
    -2
289
     1
 69
     0
  0
VISUALSTYLE
  5
DF980
102
{ACAD_REACTORS
330
DF97B
102
}
330
DF97B
100
AcDbVisualStyle
  2
2dWireframe
 70
     4
177
     3
291
     0
 70
    58
 90
        0
176
     1
 90
        2
176
     1
 90
        0
176
     1
 90
        0
176
     1
 40
0.6
176
     1
 40
30.0
176
     1
 62
     7
420
 16777215
176
     1
 90
        1
176
     1
 90
        4
176
     1
 62
     7
176
     1
 62
   257
176
     1
 90
        1
176
     1
 90
        1
176
     1
 40
1.0
176
     1
 90
        0
176
     1
 62
   257
176
     1
 40
1.0
176
     1
 90
        1
176
     1
 90
        6
176
     1
 90
        2
176
     1
 62
     7
176
     1
 90
        5
176
     1
 90
        0
176
     1
 90
        0
176
     1
290
     0
176
     1
 90
        1
176
     1
 40
0.0
176
     1
 90
        0
176
     1
290
     1
176
     1
290
     1
176
     1
290
     0
176
     1
290
     0
176
     1
290
     0
176
     1
290
     0
176
     1
290
     0
176
     1
290
     0
176
     1
290
     0
176
     1
 90
       50
176
     1
 40
0.0
176
     1
 40
1.0
176
     1
 90
        0
176
     1
 62
    18
420
        0
176
     1
 90
       50
176
     1
 90
        3
176
     1
 62
     5
420
      255
176
     1
290
     0
176
     1
 90
       50
176
     1
 90
       50
176
     1
 90
       50
176
     1
290
     0
176
     1
 90
       50
176
     1
 62
   256
176
     0
 40
1.0
176
     0
 90
        2
176
     1
  1
strokes_ogs.tif
176
     1
290
     0
176
     1
 40
1.0
176
     1
 40
1.0
176
     1
  0
VISUALSTYLE
  5
DF983
102
{ACAD_REACTORS
330
DF97B
102
}
330
DF97B
100
AcDbVisualStyle
  2
Basic
 70
     7
177
     3
291
     1
 70
    58
 90
        1
176
     1
 90
        0
176
     1
 90
        1
176
     1
 90
        0
176
     1
 40
0.6
176
     1
 40
30.0
176
     1
 62
     7
420
 16777215
176
     1
 90
        0
176
     1
 90
        4
176
     1
 62
     7
176
     1
 62
   257
176
     1
 90
        1
176
     1
 90
        1
176
     1
 40
1.0
176
     1
 90
        8
176
     1
 62
     7
176
     1
 40
1.0
176
     1
 90
        1
176
     1
 90
        6
176
     1
 90
        2
176
     1
 62
     7
176
     1
 90
        5
176
     1
 90
        0
176
     1
 90
        0
176
     1
290
     0
176
     1
 90
        1
176
     1
 40
0.0
176
     1
 90
        0
176
     1
290
     0
176
     1
290
     1
176
     1
290
     1
176
     1
290
     0
176
     1
290
     0
176
     1
290
     0
176
     1
290
     0
176
     1
290
     0
176
     1
290
     0
176
     1
 90
       50
176
     1
 40
0.0
176
     1
 40
1.0
176
     1
 90
        0
176
     1
 62
    18
420
        0
176
     1
 90
       50
176
     1
 90
        3
176
     1
 62
     5
420
      255
176
     1
290
     0
176
     1
 90
       50
176
     1
 90
       50
176
     1
 90
       50
176
     1
290
     0
176
     1
 90
       50
176
     1
 62
   256
176
     0
 40
1.0
176
     0
 90
        2
176
     1
  1
strokes_ogs.tif
176
     1
290
     0
176
     1
 40
1.0
176
     1
 40
1.0
176
     1
  0
VISUALSTYLE
  5
DF987
102
{ACAD_REACTORS
330
DF97B
102
}
330
DF97B
100
AcDbVisualStyle
  2
Brighten
 70
    12
177
     3
291
     1
 70
    58
 90
        2
176
     1
 90
        2
176
     1
 90
        0
176
     1
 90
        0
176
     1
 40
0.6
176
     1
 40
30.0
176
     1
 62
     7
420
 16777215
176
     1
 90
        1
176
     1
 90
        4
176
     1
 62
     7
176
     1
 62
   257
176
     1
 90
        1
176
     1
 90
        1
176
     1
 40
1.0
176
     1
 90
        8
176
     1
 62
     7
176
     1
 40
1.0
176
     1
 90
        1
176
     1
 90
        6
176
     1
 90
        2
176
     1
 62
     7
176
     1
 90
        5
176
     1
 90
        0
176
     1
 90
        0
176
     1
290
     0
176
     1
 90
        1
176
     1
 40
50.0
176
     1
 90
        0
176
     1
290
     0
176
     1
290
     1
176
     1
290
     1
176
     1
290
     0
176
     1
290
     0
176
     1
290
     0
176
     1
290
     0
176
     1
290
     0
176
     1
290
     0
176
     1
 90
       50
176
     1
 40
0.0
176
     1
 40
1.0
176
     1
 90
        0
176
     1
 62
    18
420
        0
176
     1
 90
       50
176
     1
 90
        3
176
     1
 62
     5
420
      255
176
     1
290
     0
176
     1
 90
       50
176
     1
 90
       50
176
     1
 90
       50
176
     1
290
     0
176
     1
 90
       50
176
     1
 62
   256
176
     0
 40
1.0
176
     0
 90
        2
176
     1
  1
strokes_ogs.tif
176
     1
290
     0
176
     1
 40
1.0
176
     1
 40
1.0
176
     1
  0
VISUALSTYLE
  5
DF98B
102
{ACAD_REACTORS
330
DF97B
102
}
330
DF97B
100
AcDbVisualStyle
  2
ColorChange
 70
    16
177
     3
291
     1
 70
    58
 90
        2
176
     1
 90
        2
176
     1
 90
        3
176
     1
 90
        0
176
     1
 40
0.6
176
     1
 40
30.0
176
     1
 62
     8
420
  8421504
176
     1
 90
        1
176
     1
 90
        4
176
     1
 62
     7
176
     1
 62
   257
176
     1
 90
        1
176
     1
 90
        1
176
     1
 40
1.0
176
     1
 90
        8
176
     1
 62
     8
420
  8421504
176
     1
 40
1.0
176
     1
 90
        1
176
     1
 90
        6
176
     1
 90
        2
176
     1
 62
     7
176
     1
 90
        5
176
     1
 90
        0
176
     1
 90
        0
176
     1
290
     0
176
     1
 90
        1
176
     1
 40
0.0
176
     1
 90
        0
176
     1
290
     0
176
     1
290
     1
176
     1
290
     1
176
     1
290
     0
176
     1
290
     0
176
     1
290
     0
176
     1
290
     0
176
     1
290
     0
176
     1
290
     0
176
     1
 90
       50
176
     1
 40
0.0
176
     1
 40
1.0
176
     1
 90
        0
176
     1
 62
    18
420
        0
176
     1
 90
       50
176
     1
 90
        3
176
     1
 62
     5
420
      255
176
     1
290
     0
176
     1
 90
       50
176
     1
 90
       50
176
     1
 90
       50
176
     1
290
     0
176
     1
 90
       50
176
     1
 62
   256
176
     0
 40
1.0
176
     0
 90
        2
176
     1
  1
strokes_ogs.tif
176
     1
290
     0
176
     1
 40
1.0
176
     1
 40
1.0
176
     1
  0
VISUALSTYLE
  5
DF985
102
{ACAD_REACTORS
330
DF97B
102
}
330
DF97B
100
AcDbVisualStyle
  2
Conceptual
 70
     9
177
     3
291
     0
 70
    58
 90
        3
176
     1
 90
        2
176
     1
 90
        0
176
     1
 90
        0
176
     1
 40
0.6
176
     1
 40
30.0
176
     1
 62
     7
420
 16777215
176
     1
 90
        2
176
     1
 90
        2
176
     1
 62
     7
176
     1
 62
   257
176
     1
 90
        1
176
     1
 90
        1
176
     1
 40
179.0
176
     1
 90
        8
176
     1
 62
     7
176
     1
 40
1.0
176
     1
 90
        1
176
     1
 90
        6
176
     1
 90
        2
176
     1
 62
     7
176
     1
 90
        3
176
     1
 90
        0
176
     1
 90
        0
176
     1
290
     0
176
     1
 90
        1
176
     1
 40
0.0
176
     1
 90
        0
176
     1
290
     0
176
     1
290
     1
176
     1
290
     1
176
     1
290
     0
176
     1
290
     0
176
     1
290
     0
176
     1
290
     0
176
     1
290
     0
176
     1
290
     0
176
     1
 90
       50
176
     1
 40
0.0
176
     1
 40
1.0
176
     1
 90
        0
176
     1
 62
    18
420
        0
176
     1
 90
       50
176
     1
 90
        3
176
     1
 62
     5
420
      255
176
     1
290
     0
176
     1
 90
       50
176
     1
 90
       50
176
     1
 90
       50
176
     1
290
     0
176
     1
 90
       50
176
     1
 62
   256
176
     0
 40
1.0
176
     0
 90
        2
176
     1
  1
strokes_ogs.tif
176
     1
290
     0
176
     1
 40
1.0
176
     1
 40
1.0
176
     1
  0
VISUALSTYLE
  5
DF986
102
{ACAD_REACTORS
330
DF97B
102
}
330
DF97B
100
AcDbVisualStyle
  2
Dim
 70
    11
177
     3
291
     1
 70
    58
 90
        2
176
     1
 90
        2
176
     1
 90
        0
176
     1
 90
        0
176
     1
 40
0.6
176
     1
 40
30.0
176
     1
 62
     7
420
 16777215
176
     1
 90
        1
176
     1
 90
        4
176
     1
 62
     7
176
     1
 62
   257
176
     1
 90
        1
176
     1
 90
        1
176
     1
 40
1.0
176
     1
 90
        8
176
     1
 62
     7
176
     1
 40
1.0
176
     1
 90
        1
176
     1
 90
        6
176
     1
 90
        2
176
     1
 62
     7
176
     1
 90
        5
176
     1
 90
        0
176
     1
 90
        0
176
     1
290
     0
176
     1
 90
        1
176
     1
 40
-50.0
176
     1
 90
        0
176
     1
290
     0
176
     1
290
     1
176
     1
290
     1
176
     1
290
     0
176
     1
290
     0
176
     1
290
     0
176
     1
290
     0
176
     1
290
     0
176
     1
290
     0
176
     1
 90
       50
176
     1
 40
0.0
176
     1
 40
1.0
176
     1
 90
        0
176
     1
 62
    18
420
        0
176
     1
 90
       50
176
     1
 90
        3
176
     1
 62
     5
420
      255
176
     1
290
     0
176
     1
 90
       50
176
     1
 90
       50
176
     1
 90
       50
176
     1
290
     0
176
     1
 90
       50
176
     1
 62
   256
176
     0
 40
1.0
176
     0
 90
        2
176
     1
  1
strokes_ogs.tif
176
     1
290
     0
176
     1
 40
1.0
176
     1
 40
1.0
176
     1
  0
VISUALSTYLE
  5
DF98E
102
{ACAD_REACTORS
330
DF97B
102
}
330
DF97B
100
AcDbVisualStyle
  2
EdgeColorOff
 70
    22
177
     3
291
     1
 70
    58
 90
        2
176
     0
 90
        2
176
     0
 90
        0
176
     0
 90
        0
176
     0
 40
0.6
176
     0
 40
30.0
176
     0
 62
     7
420
 16777215
176
     0
 90
        1
176
     0
 90
        4
176
     0
 62
     7
176
     0
 62
   257
176
     0
 90
        1
176
     0
 90
        1
176
     0
 40
1.0
176
     0
 90
        8
176
     2
 62
     7
176
     0
 40
1.0
176
     0
 90
        1
176
     0
 90
        6
176
     0
 90
        2
176
     0
 62
     7
176
     0
 90
        5
176
     0
 90
        0
176
     0
 90
        0
176
     0
290
     0
176
     0
 90
        1
176
     0
 40
0.0
176
     0
 90
        0
176
     0
290
     0
176
     0
290
     1
176
     0
290
     1
176
     0
290
     0
176
     0
290
     0
176
     0
290
     0
176
     0
290
     0
176
     0
290
     0
176
     0
290
     0
176
     0
 90
       50
176
     0
 40
0.0
176
     0
 40
1.0
176
     0
 90
        0
176
     0
 62
    18
420
        0
176
     0
 90
       50
176
     0
 90
        3
176
     0
 62
     5
420
      255
176
     0
290
     0
176
     0
 90
       50
176
     0
 90
       50
176
     0
 90
       50
176
     0
290
     0
176
     0
 90
       50
176
     0
 62
   256
176
     0
 40
1.0
176
     0
 90
        2
176
     0
  1
strokes_ogs.tif
176
     0
290
     0
176
     0
 40
1.0
176
     0
 40
1.0
176
     0
  0
VISUALSTYLE
  5
DF98A
102
{ACAD_REACTORS
330
DF97B
102
}
330
DF97B
100
AcDbVisualStyle
  2
Facepattern
 70
    15
177
     3
291
     1
 70
    58
 90
        2
176
     1
 90
        2
176
     1
 90
        0
176
     1
 90
        0
176
     1
 40
0.6
176
     1
 40
30.0
176
     1
 62
     7
420
 16777215
176
     1
 90
        1
176
     1
 90
        4
176
     1
 62
     7
176
     1
 62
   257
176
     1
 90
        1
176
     1
 90
        1
176
     1
 40
1.0
176
     1
 90
        8
176
     1
 62
     7
176
     1
 40
1.0
176
     1
 90
        1
176
     1
 90
        6
176
     1
 90
        2
176
     1
 62
     7
176
     1
 90
        5
176
     1
 90
        0
176
     1
 90
        0
176
     1
290
     0
176
     1
 90
        1
176
     1
 40
0.0
176
     1
 90
        0
176
     1
290
     0
176
     1
290
     1
176
     1
290
     1
176
     1
290
     0
176
     1
290
     0
176
     1
290
     0
176
     1
290
     0
176
     1
290
     0
176
     1
290
     0
176
     1
 90
       50
176
     1
 40
0.0
176
     1
 40
1.0
176
     1
 90
        0
176
     1
 62
    18
420
        0
176
     1
 90
       50
176
     1
 90
        3
176
     1
 62
     5
420
      255
176
     1
290
     0
176
     1
 90
       50
176
     1
 90
       50
176
     1
 90
       50
176
     1
290
     0
176
     1
 90
       50
176
     1
 62
   256
176
     0
 40
1.0
176
     0
 90
        2
176
     1
  1
strokes_ogs.tif
176
     1
290
     0
176
     1
 40
1.0
176
     1
 40
1.0
176
     1
  0
VISUALSTYLE
  5
DF97C
102
{ACAD_REACTORS
330
DF97B
102
}
330
DF97B
100
AcDbVisualStyle
  2
Flat
 70
     0
177
     3
291
     1
 70
    58
 90
        2
176
     1
 90
        1
176
     1
 90
        1
176
     1
 90
        2
176
     1
 40
0.6
176
     1
 40
30.0
176
     1
 62
     7
420
 16777215
176
     1
 90
        0
176
     1
 90
        0
176
     1
 62
     7
176
     1
 62
   257
176
     1
 90
        1
176
     1
 90
        1
176
     1
 40
1.0
176
     1
 90
        8
176
     1
 62
     7
176
     1
 40
1.0
176
     1
 90
        1
176
     1
 90
        6
176
     1
 90
        2
176
     1
 62
     7
176
     1
 90
        5
176
     1
 90
        0
176
     1
 90
        0
176
     1
290
     0
176
     1
 90
       13
176
     1
 40
0.0
176
     1
 90
        0
176
     1
290
     0
176
     1
290
     1
176
     1
290
     1
176
     1
290
     0
176
     1
290
     0
176
     1
290
     0
176
     1
290
     0
176
     1
290
     0
176
     1
290
     0
176
     1
 90
       50
176
     1
 40
0.0
176
     1
 40
1.0
176
     1
 90
        0
176
     1
 62
    18
420
        0
176
     1
 90
       50
176
     1
 90
        3
176
     1
 62
     5
420
      255
176
     1
290
     0
176
     1
 90
       50
176
     1
 90
       50
176
     1
 90
       50
176
     1
290
     0
176
     1
 90
       50
176
     1
 62
   256
176
     0
 40
1.0
176
     0
 90
        2
176
     1
  1
strokes_ogs.tif
176
     1
290
     0
176
     1
 40
1.0
176
     1
 40
1.0
176
     1
  0
VISUALSTYLE
  5
DF97D
102
{ACAD_REACTORS
330
DF97B
102
}
330
DF97B
100
AcDbVisualStyle
  2
FlatWithEdges
 70
     1
177
     3
291
     1
 70
    58
 90
        2
176
     1
 90
        1
176
     1
 90
        1
176
     1
 90
        2
176
     1
 40
0.6
176
     1
 40
30.0
176
     1
 62
     7
420
 16777215
176
     1
 90
        1
176
     1
 90
        0
176
     1
 62
     7
176
     1
 62
   257
176
     1
 90
        1
176
     1
 90
        1
176
     1
 40
1.0
176
     1
 90
        0
176
     1
 62
   257
176
     1
 40
1.0
176
     1
 90
        1
176
     1
 90
        6
176
     1
 90
        2
176
     1
 62
     7
176
     1
 90
        5
176
     1
 90
        0
176
     1
 90
        0
176
     1
290
     0
176
     1
 90
       13
176
     1
 40
0.0
176
     1
 90
        0
176
     1
290
     0
176
     1
290
     1
176
     1
290
     1
176
     1
290
     0
176
     1
290
     0
176
     1
290
     0
176
     1
290
     0
176
     1
290
     0
176
     1
290
     0
176
     1
 90
       50
176
     1
 40
0.0
176
     1
 40
1.0
176
     1
 90
        0
176
     1
 62
    18
420
        0
176
     1
 90
       50
176
     1
 90
        3
176
     1
 62
     5
420
      255
176
     1
290
     0
176
     1
 90
       50
176
     1
 90
       50
176
     1
 90
       50
176
     1
290
     0
176
     1
 90
       50
176
     1
 62
   256
176
     0
 40
1.0
176
     0
 90
        2
176
     1
  1
strokes_ogs.tif
176
     1
290
     0
176
     1
 40
1.0
176
     1
 40
1.0
176
     1
  0
VISUALSTYLE
  5
DF97E
102
{ACAD_REACTORS
330
DF97B
102
}
330
DF97B
100
AcDbVisualStyle
  2
Gouraud
 70
     2
177
     3
291
     1
 70
    58
 90
        2
176
     1
 90
        2
176
     1
 90
        1
176
     1
 90
        2
176
     1
 40
0.6
176
     1
 40
30.0
176
     1
 62
     7
420
 16777215
176
     1
 90
        0
176
     1
 90
        0
176
     1
 62
     7
176
     1
 62
   257
176
     1
 90
        1
176
     1
 90
        1
176
     1
 40
1.0
176
     1
 90
        0
176
     1
 62
     7
176
     1
 40
1.0
176
     1
 90
        1
176
     1
 90
        6
176
     1
 90
        2
176
     1
 62
     7
176
     1
 90
        5
176
     1
 90
        0
176
     1
 90
        0
176
     1
290
     0
176
     1
 90
       13
176
     1
 40
0.0
176
     1
 90
        0
176
     1
290
     0
176
     1
290
     1
176
     1
290
     1
176
     1
290
     0
176
     1
290
     0
176
     1
290
     0
176
     1
290
     0
176
     1
290
     0
176
     1
290
     0
176
     1
 90
       50
176
     1
 40
0.0
176
     1
 40
1.0
176
     1
 90
        0
176
     1
 62
    18
420
        0
176
     1
 90
       50
176
     1
 90
        3
176
     1
 62
     5
420
      255
176
     1
290
     0
176
     1
 90
       50
176
     1
 90
       50
176
     1
 90
       50
176
     1
290
     0
176
     1
 90
       50
176
     1
 62
   256
176
     0
 40
1.0
176
     0
 90
        2
176
     1
  1
strokes_ogs.tif
176
     1
290
     0
176
     1
 40
1.0
176
     1
 40
1.0
176
     1
  0
VISUALSTYLE
  5
DF97F
102
{ACAD_REACTORS
330
DF97B
102
}
330
DF97B
100
AcDbVisualStyle
  2
GouraudWithEdges
 70
     3
177
     3
291
     1
 70
    58
 90
        2
176
     1
 90
        2
176
     1
 90
        1
176
     1
 90
        2
176
     1
 40
0.6
176
     1
 40
30.0
176
     1
 62
     7
420
 16777215
176
     1
 90
        1
176
     1
 90
        0
176
     1
 62
     7
176
     1
 62
   257
176
     1
 90
        1
176
     1
 90
        1
176
     1
 40
1.0
176
     1
 90
        0
176
     1
 62
   257
176
     1
 40
1.0
176
     1
 90
        1
176
     1
 90
        6
176
     1
 90
        2
176
     1
 62
     7
176
     1
 90
        5
176
     1
 90
        0
176
     1
 90
        0
176
     1
290
     0
176
     1
 90
       13
176
     1
 40
0.0
176
     1
 90
        0
176
     1
290
     0
176
     1
290
     1
176
     1
290
     1
176
     1
290
     0
176
     1
290
     0
176
     1
290
     0
176
     1
290
     0
176
     1
290
     0
176
     1
290
     0
176
     1
 90
       50
176
     1
 40
0.0
176
     1
 40
1.0
176
     1
 90
        0
176
     1
 62
    18
420
        0
176
     1
 90
       50
176
     1
 90
        3
176
     1
 62
     5
420
      255
176
     1
290
     0
176
     1
 90
       50
176
     1
 90
       50
176
     1
 90
       50
176
     1
290
     0
176
     1
 90
       50
176
     1
 62
   256
176
     0
 40
1.0
176
     0
 90
        2
176
     1
  1
strokes_ogs.tif
176
     1
290
     0
176
     1
 40
1.0
176
     1
 40
1.0
176
     1
  0
VISUALSTYLE
  5
DF982
102
{ACAD_REACTORS
330
DF97B
102
}
330
DF97B
100
AcDbVisualStyle
  2
Hidden
 70
     6
177
     3
291
     0
 70
    58
 90
        1
176
     1
 90
        2
176
     1
 90
        2
176
     1
 90
        0
176
     1
 40
0.6
176
     1
 40
30.0
176
     1
 62
     7
420
 16777215
176
     1
 90
        2
176
     1
 90
        2
176
     1
 62
     7
176
     1
 62
   257
176
     1
 90
        2
176
     1
 90
        1
176
     1
 40
40.0
176
     1
 90
        0
176
     1
 62
   257
176
     1
 40
1.0
176
     1
 90
        1
176
     1
 90
        6
176
     1
 90
        2
176
     1
 62
     7
176
     1
 90
        3
176
     1
 90
        0
176
     1
 90
        0
176
     1
290
     0
176
     1
 90
        1
176
     1
 40
0.0
176
     1
 90
        0
176
     1
290
     0
176
     1
290
     1
176
     1
290
     1
176
     1
290
     0
176
     1
290
     0
176
     1
290
     0
176
     1
290
     0
176
     1
290
     0
176
     1
290
     0
176
     1
 90
       50
176
     1
 40
0.0
176
     1
 40
1.0
176
     1
 90
        0
176
     1
 62
    18
420
        0
176
     1
 90
       50
176
     1
 90
        3
176
     1
 62
     5
420
      255
176
     1
290
     0
176
     1
 90
       50
176
     1
 90
       50
176
     1
 90
       50
176
     1
290
     0
176
     1
 90
       50
176
     1
 62
   256
176
     0
 40
1.0
176
     0
 90
        2
176
     1
  1
strokes_ogs.tif
176
     1
290
     0
176
     1
 40
1.0
176
     1
 40
1.0
176
     1
  0
VISUALSTYLE
  5
DF98C
102
{ACAD_REACTORS
330
DF97B
102
}
330
DF97B
100
AcDbVisualStyle
  2
JitterOff
 70
    20
177
     3
291
     1
 70
    58
 90
        2
176
     0
 90
        2
176
     0
 90
        0
176
     0
 90
        0
176
     0
 40
0.6
176
     0
 40
30.0
176
     0
 62
     7
420
 16777215
176
     0
 90
        1
176
     0
 90
        4
176
     0
 62
     7
176
     0
 62
   257
176
     0
 90
        1
176
     0
 90
        1
176
     0
 40
1.0
176
     0
 90
       10
176
     2
 62
     7
176
     0
 40
1.0
176
     0
 90
        1
176
     0
 90
        6
176
     0
 90
        2
176
     0
 62
     7
176
     0
 90
        5
176
     0
 90
        0
176
     0
 90
        0
176
     0
290
     0
176
     0
 90
        1
176
     0
 40
0.0
176
     0
 90
        0
176
     0
290
     0
176
     0
290
     1
176
     0
290
     1
176
     0
290
     0
176
     0
290
     0
176
     0
290
     0
176
     0
290
     0
176
     0
290
     0
176
     0
290
     0
176
     0
 90
       50
176
     0
 40
0.0
176
     0
 40
1.0
176
     0
 90
        0
176
     0
 62
    18
420
        0
176
     0
 90
       50
176
     0
 90
        3
176
     0
 62
     5
420
      255
176
     0
290
     0
176
     0
 90
       50
176
     0
 90
       50
176
     0
 90
       50
176
     0
290
     0
176
     0
 90
       50
176
     0
 62
   256
176
     0
 40
1.0
176
     0
 90
        2
176
     0
  1
strokes_ogs.tif
176
     0
290
     0
176
     0
 40
1.0
176
     0
 40
1.0
176
     0
  0
VISUALSTYLE
  5
DF989
102
{ACAD_REACTORS
330
DF97B
102
}
330
DF97B
100
AcDbVisualStyle
  2
Linepattern
 70
    14
177
     3
291
     1
 70
    58
 90
        2
176
     1
 90
        2
176
     1
 90
        0
176
     1
 90
        0
176
     1
 40
0.6
176
     1
 40
30.0
176
     1
 62
     7
420
 16777215
176
     1
 90
        1
176
     1
 90
        4
176
     1
 62
     7
176
     1
 62
   257
176
     1
 90
        7
176
     1
 90
        7
176
     1
 40
1.0
176
     1
 90
        8
176
     1
 62
     7
176
     1
 40
1.0
176
     1
 90
        1
176
     1
 90
        6
176
     1
 90
        2
176
     1
 62
     7
176
     1
 90
        5
176
     1
 90
        0
176
     1
 90
        0
176
     1
290
     0
176
     1
 90
        1
176
     1
 40
0.0
176
     1
 90
        0
176
     1
290
     0
176
     1
290
     1
176
     1
290
     1
176
     1
290
     0
176
     1
290
     0
176
     1
290
     0
176
     1
290
     0
176
     1
290
     0
176
     1
290
     0
176
     1
 90
       50
176
     1
 40
0.0
176
     1
 40
1.0
176
     1
 90
        0
176
     1
 62
    18
420
        0
176
     1
 90
       50
176
     1
 90
        3
176
     1
 62
     5
420
      255
176
     1
290
     0
176
     1
 90
       50
176
     1
 90
       50
176
     1
 90
       50
176
     1
290
     0
176
     1
 90
       50
176
     1
 62
   256
176
     0
 40
1.0
176
     0
 90
        2
176
     1
  1
strokes_ogs.tif
176
     1
290
     0
176
     1
 40
1.0
176
     1
 40
1.0
176
     1
  0
VISUALSTYLE
  5
DF98D
102
{ACAD_REACTORS
330
DF97B
102
}
330
DF97B
100
AcDbVisualStyle
  2
OverhangOff
 70
    21
177
     3
291
     1
 70
    58
 90
        2
176
     0
 90
        2
176
     0
 90
        0
176
     0
 90
        0
176
     0
 40
0.6
176
     0
 40
30.0
176
     0
 62
     7
420
 16777215
176
     0
 90
        1
176
     0
 90
        4
176
     0
 62
     7
176
     0
 62
   257
176
     0
 90
        1
176
     0
 90
        1
176
     0
 40
1.0
176
     0
 90
        9
176
     2
 62
     7
176
     0
 40
1.0
176
     0
 90
        1
176
     0
 90
        6
176
     0
 90
        2
176
     0
 62
     7
176
     0
 90
        5
176
     0
 90
        0
176
     0
 90
        0
176
     0
290
     0
176
     0
 90
        1
176
     0
 40
0.0
176
     0
 90
        0
176
     0
290
     0
176
     0
290
     1
176
     0
290
     1
176
     0
290
     0
176
     0
290
     0
176
     0
290
     0
176
     0
290
     0
176
     0
290
     0
176
     0
290
     0
176
     0
 90
       50
176
     0
 40
0.0
176
     0
 40
1.0
176
     0
 90
        0
176
     0
 62
    18
420
        0
176
     0
 90
       50
176
     0
 90
        3
176
     0
 62
     5
420
      255
176
     0
290
     0
176
     0
 90
       50
176
     0
 90
       50
176
     0
 90
       50
176
     0
290
     0
176
     0
 90
       50
176
     0
 62
   256
176
     0
 40
1.0
176
     0
 90
        2
176
     0
  1
strokes_ogs.tif
176
     0
290
     0
176
     0
 40
1.0
176
     0
 40
1.0
176
     0
  0
VISUALSTYLE
  5
DF984
102
{ACAD_REACTORS
330
DF97B
102
}
330
DF97B
100
AcDbVisualStyle
  2
Realistic
 70
     8
177
     3
291
     0
 70
    58
 90
        2
176
     1
 90
        3
176
     1
 90
        0
176
     1
 90
        2
176
     1
 40
0.6
176
     1
 40
30.0
176
     1
 62
     7
420
 16777215
176
     1
 90
        0
176
     1
 90
        0
176
     1
 62
     7
176
     1
 62
   257
176
     1
 90
        1
176
     1
 90
        1
176
     1
 40
1.0
176
     1
 90
        8
176
     1
 62
   257
176
     1
 40
1.0
176
     1
 90
        1
176
     1
 90
        6
176
     1
 90
        2
176
     1
 62
     7
176
     1
 90
        3
176
     1
 90
        0
176
     1
 90
        0
176
     1
290
     0
176
     1
 90
       13
176
     1
 40
0.0
176
     1
 90
        0
176
     1
290
     0
176
     1
290
     1
176
     1
290
     1
176
     1
290
     0
176
     1
290
     0
176
     1
290
     0
176
     1
290
     0
176
     1
290
     0
176
     1
290
     0
176
     1
 90
       50
176
     1
 40
0.0
176
     1
 40
1.0
176
     1
 90
        0
176
     1
 62
    18
420
        0
176
     1
 90
       50
176
     1
 90
        3
176
     1
 62
     5
420
      255
176
     1
290
     0
176
     1
 90
       50
176
     1
 90
       50
176
     1
 90
       50
176
     1
290
     0
176
     1
 90
       50
176
     1
 62
   256
176
     0
 40
1.0
176
     0
 90
        2
176
     1
  1
strokes_ogs.tif
176
     1
290
     0
176
     1
 40
1.0
176
     1
 40
1.0
176
     1
  0
VISUALSTYLE
  5
DF993
102
{ACAD_REACTORS
330
DF97B
102
}
330
DF97B
100
AcDbVisualStyle
  2
Shaded
 70
    27
177
     3
291
     0
 70
    58
 90
        2
176
     1
 90
        2
176
     1
 90
        1
176
     1
 90
        2
176
     1
 40
0.6
176
     1
 40
30.0
176
     1
 62
     7
420
 16777215
176
     1
 90
        0
176
     1
 90
        4
176
     1
 62
     7
176
     1
 62
   257
176
     1
 90
        1
176
     1
 90
        1
176
     1
 40
1.0
176
     1
 90
        8
176
     1
 62
   257
176
     1
 40
1.0
176
     1
 90
        1
176
     1
 90
        6
176
     1
 90
        2
176
     1
 62
     8
420
  7895160
176
     1
 90
        3
176
     1
 90
        0
176
     1
 90
        0
176
     1
290
     0
176
     1
 90
        5
176
     1
 40
0.0
176
     1
 90
        0
176
     1
290
     0
176
     1
290
     1
176
     1
290
     1
176
     1
290
     0
176
     1
290
     0
176
     1
290
     0
176
     1
290
     0
176
     1
290
     0
176
     1
290
     0
176
     1
 90
       50
176
     1
 40
0.0
176
     1
 40
1.0
176
     1
 90
        0
176
     1
 62
    18
420
        0
176
     1
 90
       50
176
     1
 90
        3
176
     1
 62
     5
420
      255
176
     1
290
     0
176
     1
 90
       50
176
     1
 90
       50
176
     1
 90
       50
176
     1
290
     0
176
     1
 90
       50
176
     1
 62
   256
176
     0
 40
1.0
176
     0
 90
        2
176
     1
  1
strokes_ogs.tif
176
     1
290
     0
176
     1
 40
1.0
176
     1
 40
1.0
176
     1
  0
VISUALSTYLE
  5
DF992
102
{ACAD_REACTORS
330
DF97B
102
}
330
DF97B
100
AcDbVisualStyle
  2
Shaded with edges
 70
    26
177
     3
291
     0
 70
    58
 90
        2
176
     1
 90
        2
176
     1
 90
        1
176
     1
 90
        2
176
     1
 40
0.6
176
     1
 40
30.0
176
     1
 62
     7
420
 16777215
176
     1
 90
        1
176
     1
 90
       10
176
     1
 62
     7
176
     1
 62
   257
176
     1
 90
        2
176
     1
 90
        1
176
     1
 40
1.0
176
     1
 90
        8
176
     1
 62
   257
176
     1
 40
1.0
176
     1
 90
        1
176
     1
 90
        6
176
     1
 90
        2
176
     1
 62
     7
176
     1
 90
        3
176
     1
 90
        0
176
     1
 90
        0
176
     1
290
     0
176
     1
 90
        5
176
     1
 40
0.0
176
     1
 90
        0
176
     1
290
     0
176
     1
290
     1
176
     1
290
     1
176
     1
290
     0
176
     1
290
     0
176
     1
290
     0
176
     1
290
     0
176
     1
290
     0
176
     1
290
     0
176
     1
 90
       50
176
     1
 40
0.0
176
     1
 40
1.0
176
     1
 90
        0
176
     1
 62
    18
420
        0
176
     1
 90
       50
176
     1
 90
        3
176
     1
 62
     5
420
      255
176
     1
290
     0
176
     1
 90
       50
176
     1
 90
       50
176
     1
 90
       50
176
     1
290
     0
176
     1
 90
       50
176
     1
 62
   256
176
     0
 40
1.0
176
     0
 90
        2
176
     1
  1
strokes_ogs.tif
176
     1
290
     0
176
     1
 40
1.0
176
     1
 40
1.0
176
     1
  0
VISUALSTYLE
  5
DF98F
102
{ACAD_REACTORS
330
DF97B
102
}
330
DF97B
100
AcDbVisualStyle
  2
Shades of Gray
 70
    23
177
     3
291
     0
 70
    58
 90
        2
176
     1
 90
        2
176
     1
 90
        3
176
     1
 90
        0
176
     1
 40
0.6
176
     1
 40
30.0
176
     1
 62
     7
420
 16777215
176
     1
 90
        2
176
     1
 90
        2
176
     1
 62
     7
176
     1
 62
     7
176
     1
 90
        1
176
     1
 90
        1
176
     1
 40
40.0
176
     1
 90
        8
176
     1
 62
     7
176
     1
 40
1.0
176
     1
 90
        1
176
     1
 90
        6
176
     1
 90
        2
176
     1
 62
     7
176
     1
 90
        3
176
     1
 90
        0
176
     1
 90
        0
176
     1
290
     0
176
     1
 90
        1
176
     1
 40
0.0
176
     1
 90
        0
176
     1
290
     0
176
     1
290
     1
176
     1
290
     1
176
     1
290
     0
176
     1
290
     0
176
     1
290
     0
176
     1
290
     0
176
     1
290
     0
176
     1
290
     0
176
     1
 90
       50
176
     1
 40
0.0
176
     1
 40
1.0
176
     1
 90
        0
176
     1
 62
    18
420
        0
176
     1
 90
       50
176
     1
 90
        3
176
     1
 62
     5
420
      255
176
     1
290
     0
176
     1
 90
       50
176
     1
 90
       50
176
     1
 90
       50
176
     1
290
     0
176
     1
 90
       50
176
     1
 62
   256
176
     0
 40
1.0
176
     0
 90
        2
176
     1
  1
strokes_ogs.tif
176
     1
290
     0
176
     1
 40
1.0
176
     1
 40
1.0
176
     1
  0
VISUALSTYLE
  5
DF990
102
{ACAD_REACTORS
330
DF97B
102
}
330
DF97B
100
AcDbVisualStyle
  2
Sketchy
 70
    24
177
     3
291
     0
 70
    58
 90
        1
176
     1
 90
        2
176
     1
 90
        2
176
     1
 90
        0
176
     1
 40
0.6
176
     1
 40
30.0
176
     1
 62
     7
420
 16777215
176
     1
 90
        2
176
     1
 90
        2
176
     1
 62
     7
176
     1
 62
     7
176
     1
 90
        1
176
     1
 90
        1
176
     1
 40
40.0
176
     1
 90
       11
176
     1
 62
     7
176
     1
 40
1.0
176
     1
 90
        1
176
     1
 90
        6
176
     1
 90
        2
176
     1
 62
     7
176
     1
 90
        6
176
     1
 90
        0
176
     1
 90
        0
176
     1
290
     0
176
     1
 90
        1
176
     1
 40
0.0
176
     1
 90
        0
176
     1
290
     0
176
     1
290
     1
176
     1
290
     1
176
     1
290
     0
176
     1
290
     0
176
     1
290
     0
176
     1
290
     0
176
     1
290
     0
176
     1
290
     0
176
     1
 90
       50
176
     1
 40
0.0
176
     1
 40
1.0
176
     1
 90
        0
176
     1
 62
    18
420
        0
176
     1
 90
       50
176
     1
 90
        3
176
     1
 62
     5
420
      255
176
     1
290
     0
176
     1
 90
       50
176
     1
 90
       50
176
     1
 90
       50
176
     1
290
     0
176
     1
 90
       50
176
     1
 62
   256
176
     0
 40
1.0
176
     0
 90
        2
176
     1
  1
strokes_ogs.tif
176
     1
290
     0
176
     1
 40
1.0
176
     1
 40
1.0
176
     1
  0
VISUALSTYLE
  5
DF988
102
{ACAD_REACTORS
330
DF97B
102
}
330
DF97B
100
AcDbVisualStyle
  2
Thicken
 70
    13
177
     3
291
     1
 70
    58
 90
        2
176
     1
 90
        2
176
     1
 90
        0
176
     1
 90
        0
176
     1
 40
0.6
176
     1
 40
30.0
176
     1
 62
     7
420
 16777215
176
     1
 90
        1
176
     1
 90
        4
176
     1
 62
     7
176
     1
 62
   257
176
     1
 90
        1
176
     1
 90
        1
176
     1
 40
1.0
176
     1
 90
       12
176
     1
 62
     7
176
     1
 40
1.0
176
     1
 90
        1
176
     1
 90
        6
176
     1
 90
        2
176
     1
 62
     7
176
     1
 90
        5
176
     1
 90
        0
176
     1
 90
        0
176
     1
290
     0
176
     1
 90
        1
176
     1
 40
0.0
176
     1
 90
        0
176
     1
290
     0
176
     1
290
     1
176
     1
290
     1
176
     1
290
     0
176
     1
290
     0
176
     1
290
     0
176
     1
290
     0
176
     1
290
     0
176
     1
290
     0
176
     1
 90
       50
176
     1
 40
0.0
176
     1
 40
1.0
176
     1
 90
        0
176
     1
 62
    18
420
        0
176
     1
 90
       50
176
     1
 90
        3
176
     1
 62
     5
420
      255
176
     1
290
     0
176
     1
 90
       50
176
     1
 90
       50
176
     1
 90
       50
176
     1
290
     0
176
     1
 90
       50
176
     1
 62
   256
176
     0
 40
1.0
176
     0
 90
        2
176
     1
  1
strokes_ogs.tif
176
     1
290
     0
176
     1
 40
1.0
176
     1
 40
1.0
176
     1
  0
VISUALSTYLE
  5
DF981
102
{ACAD_REACTORS
330
DF97B
102
}
330
DF97B
100
AcDbVisualStyle
  2
Wireframe
 70
     5
177
     3
291
     0
 70
    58
 90
        0
176
     1
 90
        2
176
     1
 90
        0
176
     1
 90
        0
176
     1
 40
0.6
176
     1
 40
30.0
176
     1
 62
     7
420
 16777215
176
     1
 90
        1
176
     1
 90
        4
176
     1
 62
     7
176
     1
 62
   257
176
     1
 90
        1
176
     1
 90
        1
176
     1
 40
1.0
176
     1
 90
        0
176
     1
 62
   257
176
     1
 40
1.0
176
     1
 90
        1
176
     1
 90
        6
176
     1
 90
        2
176
     1
 62
     7
176
     1
 90
        3
176
     1
 90
        0
176
     1
 90
        0
176
     1
290
     0
176
     1
 90
        1
176
     1
 40
0.0
176
     1
 90
        0
176
     1
290
     0
176
     1
290
     1
176
     1
290
     1
176
     1
290
     0
176
     1
290
     0
176
     1
290
     0
176
     1
290
     0
176
     1
290
     0
176
     1
290
     0
176
     1
 90
       50
176
     1
 40
0.0
176
     1
 40
1.0
176
     1
 90
        0
176
     1
 62
    18
420
        0
176
     1
 90
       50
176
     1
 90
        3
176
     1
 62
     5
420
      255
176
     1
290
     0
176
     1
 90
       50
176
     1
 90
       50
176
     1
 90
       50
176
     1
290
     0
176
     1
 90
       50
176
     1
 62
   256
176
     0
 40
1.0
176
     0
 90
        2
176
     1
  1
strokes_ogs.tif
176
     1
290
     0
176
     1
 40
1.0
176
     1
 40
1.0
176
     1
  0
VISUALSTYLE
  5
DF991
102
{ACAD_REACTORS
330
DF97B
102
}
330
DF97B
100
AcDbVisualStyle
  2
X-Ray
 70
    25
177
     3
291
     0
 70
    58
 90
        2
176
     1
 90
        2
176
     1
 90
        1
176
     1
 90
        1
176
     1
 40
0.5
176
     1
 40
30.0
176
     1
 62
     7
420
 16777215
176
     1
 90
        1
176
     1
 90
        0
176
     1
 62
     7
176
     1
 62
   257
176
     1
 90
        1
176
     1
 90
        1
176
     1
 40
1.0
176
     1
 90
        8
176
     1
 62
     7
176
     1
 40
1.0
176
     1
 90
        1
176
     1
 90
        6
176
     1
 90
        2
176
     1
 62
     7
176
     1
 90
        3
176
     1
 90
        0
176
     1
 90
        0
176
     1
290
     0
176
     1
 90
       13
176
     1
 40
0.0
176
     1
 90
        0
176
     1
290
     0
176
     1
290
     1
176
     1
290
     1
176
     1
290
     0
176
     1
290
     0
176
     1
290
     0
176
     1
290
     0
176
     1
290
     0
176
     1
290
     0
176
     1
 90
       50
176
     1
 40
0.0
176
     1
 40
1.0
176
     1
 90
        0
176
     1
 62
    18
420
        0
176
     1
 90
       50
176
     1
 90
        3
176
     1
 62
     5
420
      255
176
     1
290
     0
176
     1
 90
       50
176
     1
 90
       50
176
     1
 90
       50
176
     1
290
     0
176
     1
 90
       50
176
     1
 62
   256
176
     0
 40
1.0
176
     0
 90
        2
176
     1
  1
strokes_ogs.tif
176
     1
290
     0
176
     1
 40
1.0
176
     1
 40
1.0
176
     1
  0
DICTIONARYVAR
  5
DF99E
102
{ACAD_REACTORS
330
DF99D
102
}
330
DF99D
100
DictionaryVariables
280
     0
  1
1:1
  0
DICTIONARYVAR
  5
DF9A0
102
{ACAD_REACTORS
330
DF99D
102
}
330
DF99D
100
DictionaryVariables
280
     0
  1
Standard
  0
DICTIONARYVAR
  5
DF99F
102
{ACAD_REACTORS
330
DF99D
102
}
330
DF99D
100
DictionaryVariables
280
     0
  1
Standard
  0
DICTIONARYVAR
  5
DF9A1
102
{ACAD_REACTORS
330
DF99D
102
}
330
DF99D
100
DictionaryVariables
280
     0
  1
0
  0
DICTIONARY
  5
DF9A6
330
DF995
100
AcDbDictionary
280
     1
281
     1
  3
ACAD_ROUNDTRIP_2008_TABLESTYLE_CELLSTYLEMAP
360
DF9A7
  0
CELLSTYLEMAP
  5
DF9A7
102
{ACAD_REACTORS
330
DF9A6
102
}
330
DF9A6
100
AcDbCellStyleMap
 90
        3
300
CELLSTYLE
  1
TABLEFORMAT_BEGIN
 90
        5
170
     1
 91
        0
 92
    32768
 62
   257
 93
        1
300
CONTENTFORMAT
  1
CONTENTFORMAT_BEGIN
 90
        0
 91
        0
 92
        4
 93
        0
300

 40
0.0
140
1.0
 94
        5
 62
     0
340
DF917
144
0.25
309
CONTENTFORMAT_END
171
     1
301
MARGIN
  1
CELLMARGIN_BEGIN
 40
0.06
 40
0.06
 40
0.06
 40
0.06
 40
0.06
 40
0.06
309
CELLMARGIN_END
 94
        6
 95
        1
302
GRIDFORMAT
  1
GRIDFORMAT_BEGIN
 90
        0
 91
        1
 62
     0
 92
       -2
340
DF919
 93
        0
 40
0.045
309
GRIDFORMAT_END
 95
        2
302
GRIDFORMAT
  1
GRIDFORMAT_BEGIN
 90
        0
 91
        1
 62
     0
 92
       -2
340
DF919
 93
        0
 40
0.045
309
GRIDFORMAT_END
 95
        4
302
GRIDFORMAT
  1
GRIDFORMAT_BEGIN
 90
        0
 91
        1
 62
     0
 92
       -2
340
DF919
 93
        0
 40
0.045
309
GRIDFORMAT_END
 95
        8
302
GRIDFORMAT
  1
GRIDFORMAT_BEGIN
 90
        0
 91
        1
 62
     0
 92
       -2
340
DF919
 93
        0
 40
0.045
309
GRIDFORMAT_END
 95
       16
302
GRIDFORMAT
  1
GRIDFORMAT_BEGIN
 90
        0
 91
        1
 62
     0
 92
       -2
340
DF919
 93
        0
 40
0.045
309
GRIDFORMAT_END
 95
       32
302
GRIDFORMAT
  1
GRIDFORMAT_BEGIN
 90
        0
 91
        1
 62
     0
 92
       -2
340
DF919
 93
        0
 40
0.045
309
GRIDFORMAT_END
309
TABLEFORMAT_END
  1
CELLSTYLE_BEGIN
 90
        1
 91
        1
300
_TITLE
309
CELLSTYLE_END
300
CELLSTYLE
  1
TABLEFORMAT_BEGIN
 90
        5
170
     1
 91
        0
 92
        0
 62
   257
 93
        1
300
CONTENTFORMAT
  1
CONTENTFORMAT_BEGIN
 90
        0
 91
        0
 92
        4
 93
        0
300

 40
0.0
140
1.0
 94
        5
 62
     0
340
DF917
144
0.18
309
CONTENTFORMAT_END
171
     1
301
MARGIN
  1
CELLMARGIN_BEGIN
 40
0.06
 40
0.06
 40
0.06
 40
0.06
 40
0.06
 40
0.06
309
CELLMARGIN_END
 94
        6
 95
        1
302
GRIDFORMAT
  1
GRIDFORMAT_BEGIN
 90
        0
 91
        1
 62
     0
 92
       -2
340
DF919
 93
        0
 40
0.045
309
GRIDFORMAT_END
 95
        2
302
GRIDFORMAT
  1
GRIDFORMAT_BEGIN
 90
        0
 91
        1
 62
     0
 92
       -2
340
DF919
 93
        0
 40
0.045
309
GRIDFORMAT_END
 95
        4
302
GRIDFORMAT
  1
GRIDFORMAT_BEGIN
 90
        0
 91
        1
 62
     0
 92
       -2
340
DF919
 93
        0
 40
0.045
309
GRIDFORMAT_END
 95
        8
302
GRIDFORMAT
  1
GRIDFORMAT_BEGIN
 90
        0
 91
        1
 62
     0
 92
       -2
340
DF919
 93
        0
 40
0.045
309
GRIDFORMAT_END
 95
       16
302
GRIDFORMAT
  1
GRIDFORMAT_BEGIN
 90
        0
 91
        1
 62
     0
 92
       -2
340
DF919
 93
        0
 40
0.045
309
GRIDFORMAT_END
 95
       32
302
GRIDFORMAT
  1
GRIDFORMAT_BEGIN
 90
        0
 91
        1
 62
     0
 92
       -2
340
DF919
 93
        0
 40
0.045
309
GRIDFORMAT_END
309
TABLEFORMAT_END
  1
CELLSTYLE_BEGIN
 90
        2
 91
        1
300
_HEADER
309
CELLSTYLE_END
300
CELLSTYLE
  1
TABLEFORMAT_BEGIN
 90
        5
170
     1
 91
        0
 92
        0
 62
   257
 93
        1
300
CONTENTFORMAT
  1
CONTENTFORMAT_BEGIN
 90
        0
 91
        0
 92
        4
 93
        0
300

 40
0.0
140
1.0
 94
        2
 62
     0
340
DF917
144
0.18
309
CONTENTFORMAT_END
171
     1
301
MARGIN
  1
CELLMARGIN_BEGIN
 40
0.06
 40
0.06
 40
0.06
 40
0.06
 40
0.06
 40
0.06
309
CELLMARGIN_END
 94
        6
 95
        1
302
GRIDFORMAT
  1
GRIDFORMAT_BEGIN
 90
        0
 91
        1
 62
     0
 92
       -2
340
DF919
 93
        0
 40
0.045
309
GRIDFORMAT_END
 95
        2
302
GRIDFORMAT
  1
GRIDFORMAT_BEGIN
 90
        0
 91
        1
 62
     0
 92
       -2
340
DF919
 93
        0
 40
0.045
309
GRIDFORMAT_END
 95
        4
302
GRIDFORMAT
  1
GRIDFORMAT_BEGIN
 90
        0
 91
        1
 62
     0
 92
       -2
340
DF919
 93
        0
 40
0.045
309
GRIDFORMAT_END
 95
        8
302
GRIDFORMAT
  1
GRIDFORMAT_BEGIN
 90
        0
 91
        1
 62
     0
 92
       -2
340
DF919
 93
        0
 40
0.045
309
GRIDFORMAT_END
 95
       16
302
GRIDFORMAT
  1
GRIDFORMAT_BEGIN
 90
        0
 91
        1
 62
     0
 92
       -2
340
DF919
 93
        0
 40
0.045
309
GRIDFORMAT_END
 95
       32
302
GRIDFORMAT
  1
GRIDFORMAT_BEGIN
 90
        0
 91
        1
 62
     0
 92
       -2
340
DF919
 93
        0
 40
0.045
309
GRIDFORMAT_END
309
TABLEFORMAT_END
  1
CELLSTYLE_BEGIN
 90
        3
 91
        2
300
_DATA
309
CELLSTYLE_END
  0
ENDSEC
  0
EOF
