  0
SECTION
  2
HEADER
  9
$ACADVER
  1
AC1032
  9
$ACADMAINTVER
 90
       55
  9
$DWGCODEPAGE
  3
ANSI_1252
  9
$LASTSAVEDBY
  1
ucom07
  9
$REQUIREDVERSIONS
160
                 0
  9
$INSBASE
 10
0.0
 20
0.0
 30
0.0
  9
$EXTMIN
 10
-4012.685974119231
 20
-987.6576470269356
 30
0.0
  9
$EXTMAX
 10
4012.685974119231
 20
4469.65530057021
 30
0.0
  9
$LIMMIN
 10
0.0
 20
0.0
  9
$LIMMAX
 10
12.0
 20
9.0
  9
$ORTHOMODE
 70
     1
  9
$REGENMODE
 70
     1
  9
$FILLMODE
 70
     1
  9
$QTEXTMODE
 70
     0
  9
$MIRRTEXT
 70
     0
  9
$LTSCALE
 40
5.0
  9
$ATTMODE
 70
     1
  9
$TEXTSIZE
 40
19.0
  9
$TRACEWID
 40
0.05
  9
$TEXTSTYLE
  7
STILE1
  9
$CLAYER
  8
0
  9
$CELTYPE
  6
ByLayer
  9
$CECOLOR
 62
   256
  9
$CELTSCALE
 40
1.0
  9
$DISPSILH
 70
     0
  9
$DIMSCALE
 40
50.0
  9
$DIMASZ
 40
2.5
  9
$DIMEXO
 40
1.0
  9
$DIMDLI
 40
0.0
  9
$DIMRND
 40
0.0
  9
$DIMDLE
 40
0.0
  9
$DIMEXE
 40
1.0
  9
$DIMTP
 40
0.0
  9
$DIMTM
 40
0.0
  9
$DIMTXT
 40
2.5
  9
$DIMCEN
 40
1.0
  9
$DIMTSZ
 40
0.0
  9
$DIMTOL
 70
     0
  9
$DIMLIM
 70
     0
  9
$DIMTIH
 70
     0
  9
$DIMTOH
 70
     0
  9
$DIMSE1
 70
     0
  9
$DIMSE2
 70
     0
  9
$DIMTAD
 70
     1
  9
$DIMZIN
 70
     8
  9
$DIMBLK
  1

  9
$DIMASO
 70
     1
  9
$DIMSHO
 70
     0
  9
$DIMPOST
  1

  9
$DIMAPOST
  1

  9
$DIMALT
 70
     0
  9
$DIMALTD
 70
     2
  9
$DIMALTF
 40
25.4
  9
$DIMLFAC
 40
1.0
  9
$DIMTOFL
 70
     1
  9
$DIMTVP
 40
0.0
  9
$DIMTIX
 70
     1
  9
$DIMSOXD
 70
     0
  9
$DIMSAH
 70
     0
  9
$DIMBLK1
  1

  9
$DIMBLK2
  1

  9
$DIMSTYLE
  2
STANDARD
  9
$DIMCLRD
 70
     0
  9
$DIMCLRE
 70
     0
  9
$DIMCLRT
 70
     0
  9
$DIMTFAC
 40
1.0
  9
$DIMGAP
 40
1.5
  9
$DIMJUST
 70
     0
  9
$DIMSD1
 70
     0
  9
$DIMSD2
 70
     0
  9
$DIMTOLJ
 70
     1
  9
$DIMTZIN
 70
     0
  9
$DIMALTZ
 70
     0
  9
$DIMALTTZ
 70
     0
  9
$DIMUPT
 70
     0
  9
$DIMDEC
 70
     4
  9
$DIMTDEC
 70
     4
  9
$DIMALTU
 70
     2
  9
$DIMALTTD
 70
     2
  9
$DIMTXSTY
  7
STANDARD
  9
$DIMAUNIT
 70
     0
  9
$DIMADEC
 70
     0
  9
$DIMALTRND
 40
0.0
  9
$DIMAZIN
 70
     0
  9
$DIMDSEP
 70
    46
  9
$DIMATFIT
 70
     3
  9
$DIMFRAC
 70
     0
  9
$DIMLDRBLK
  1

  9
$DIMLUNIT
 70
     2
  9
$DIMLWD
 70
    -2
  9
$DIMLWE
 70
    -2
  9
$DIMTMOVE
 70
     2
  9
$DIMFXL
 40
1.0
  9
$DIMFXLON
 70
     0
  9
$DIMJOGANG
 40
0.7853981633974483
  9
$DIMTFILL
 70
     0
  9
$DIMTFILLCLR
 70
     0
  9
$DIMARCSYM
 70
     0
  9
$DIMLTYPE
  6

  9
$DIMLTEX1
  6

  9
$DIMLTEX2
  6

  9
$DIMTXTDIRECTION
 70
     0
  9
$LUNITS
 70
     2
  9
$LUPREC
 70
     4
  9
$SKETCHINC
 40
0.1
  9
$FILLETRAD
 40
20.0
  9
$AUNITS
 70
     0
  9
$AUPREC
 70
     0
  9
$MENU
  1
acad
  9
$ELEVATION
 40
0.0
  9
$PELEVATION
 40
0.0
  9
$THICKNESS
 40
0.0
  9
$LIMCHECK
 70
     0
  9
$CHAMFERA
 40
1200.0
  9
$CHAMFERB
 40
1200.0
  9
$CHAMFERC
 40
0.0
  9
$CHAMFERD
 40
0.0
  9
$SKPOLY
 70
     0
  9
$TDCREATE
 40
2450277.587641065
  9
$TDUCREATE
 40
2450277.504307732
  9
$TDUPDATE
 40
2460453.62207985
  9
$TDUUPDATE
 40
2460453.538746516
  9
$TDINDWG
 40
26.3017046991
  9
$TDUSRTIMER
 40
0.000213206
  9
$USRTIMER
 70
     1
  9
$ANGBASE
 50
0.0
  9
$ANGDIR
 70
     0
  9
$PDMODE
 70
     0
  9
$PDSIZE
 40
0.0
  9
$PLINEWID
 40
0.0
  9
$SPLFRAME
 70
     0
  9
$SPLINETYPE
 70
     6
  9
$SPLINESEGS
 70
     8
  9
$HANDSEED
  5
E02B2
  9
$SURFTAB1
 70
     6
  9
$SURFTAB2
 70
     6
  9
$SURFTYPE
 70
     6
  9
$SURFU
 70
     6
  9
$SURFV
 70
     6
  9
$UCSBASE
  2

  9
$UCSNAME
  2

  9
$UCSORG
 10
0.0
 20
0.0
 30
0.0
  9
$UCSXDIR
 10
1.0
 20
0.0
 30
0.0
  9
$UCSYDIR
 10
0.0
 20
1.0
 30
0.0
  9
$UCSORTHOREF
  2

  9
$UCSORTHOVIEW
 70
     0
  9
$UCSORGTOP
 10
0.0
 20
0.0
 30
0.0
  9
$UCSORGBOTTOM
 10
0.0
 20
0.0
 30
0.0
  9
$UCSORGLEFT
 10
0.0
 20
0.0
 30
0.0
  9
$UCSORGRIGHT
 10
0.0
 20
0.0
 30
0.0
  9
$UCSORGFRONT
 10
0.0
 20
0.0
 30
0.0
  9
$UCSORGBACK
 10
0.0
 20
0.0
 30
0.0
  9
$PUCSBASE
  2

  9
$PUCSNAME
  2

  9
$PUCSORG
 10
0.0
 20
0.0
 30
0.0
  9
$PUCSXDIR
 10
1.0
 20
0.0
 30
0.0
  9
$PUCSYDIR
 10
0.0
 20
1.0
 30
0.0
  9
$PUCSORTHOREF
  2

  9
$PUCSORTHOVIEW
 70
     0
  9
$PUCSORGTOP
 10
0.0
 20
0.0
 30
0.0
  9
$PUCSORGBOTTOM
 10
0.0
 20
0.0
 30
0.0
  9
$PUCSORGLEFT
 10
0.0
 20
0.0
 30
0.0
  9
$PUCSORGRIGHT
 10
0.0
 20
0.0
 30
0.0
  9
$PUCSORGFRONT
 10
0.0
 20
0.0
 30
0.0
  9
$PUCSORGBACK
 10
0.0
 20
0.0
 30
0.0
  9
$USERI1
 70
     0
  9
$USERI2
 70
     0
  9
$USERI3
 70
     0
  9
$USERI4
 70
     0
  9
$USERI5
 70
     0
  9
$USERR1
 40
0.0
  9
$USERR2
 40
0.0
  9
$USERR3
 40
0.0
  9
$USERR4
 40
0.0
  9
$USERR5
 40
0.0
  9
$WORLDVIEW
 70
     1
  9
$SHADEDGE
 70
     3
  9
$SHADEDIF
 70
    70
  9
$TILEMODE
 70
     1
  9
$MAXACTVP
 70
    16
  9
$PINSBASE
 10
0.0
 20
0.0
 30
0.0
  9
$PLIMCHECK
 70
     0
  9
$PEXTMIN
 10
0.0
 20
0.0
 30
0.0
  9
$PEXTMAX
 10
0.0
 20
0.0
 30
0.0
  9
$PLIMMIN
 10
0.0
 20
0.0
  9
$PLIMMAX
 10
0.0
 20
0.0
  9
$UNITMODE
 70
     0
  9
$VISRETAIN
 70
     0
  9
$PLINEGEN
 70
     0
  9
$PSLTSCALE
 70
     1
  9
$TREEDEPTH
 70
  3020
  9
$CMLSTYLE
  2
Standard
  9
$CMLJUST
 70
     0
  9
$CMLSCALE
 40
1.0
  9
$PROXYGRAPHICS
 70
     1
  9
$MEASUREMENT
 70
     0
  9
$CELWEIGHT
370
    -1
  9
$ENDCAPS
280
     0
  9
$JOINSTYLE
280
     0
  9
$LWDISPLAY
290
     0
  9
$INSUNITS
 70
     0
  9
$HYPERLINKBASE
  1

  9
$STYLESHEET
  1

  9
$XEDIT
290
     1
  9
$CEPSNTYPE
380
     0
  9
$PSTYLEMODE
290
     1
  9
$FINGERPRINTGUID
  2
{63cd24d5-406c-47e0-8c3d-13163d18da6b}
  9
$VERSIONGUID
  2
{FAEB1C32-E019-11D5-929B-00C0DF256EC4}
  9
$EXTNAMES
290
     1
  9
$PSVPSCALE
 40
0.0
  9
$OLESTARTUP
290
     0
  9
$SORTENTS
280
   127
  9
$INDEXCTL
280
     0
  9
$HIDETEXT
280
     1
  9
$XCLIPFRAME
280
     2
  9
$HALOGAP
280
     0
  9
$OBSCOLOR
 70
   257
  9
$OBSLTYPE
280
     0
  9
$INTERSECTIONDISPLAY
280
     0
  9
$INTERSECTIONCOLOR
 70
   257
  9
$DIMASSOC
280
     2
  9
$PROJECTNAME
  1

  9
$CAMERADISPLAY
290
     0
  9
$LENSLENGTH
 40
50.0
  9
$CAMERAHEIGHT
 40
0.0
  9
$STEPSPERSEC
 40
2.0
  9
$STEPSIZE
 40
6.0
  9
$3DDWFPREC
 40
2.0
  9
$PSOLWIDTH
 40
0.25
  9
$PSOLHEIGHT
 40
4.0
  9
$LOFTANG1
 40
1.570796326794897
  9
$LOFTANG2
 40
1.570796326794897
  9
$LOFTMAG1
 40
0.0
  9
$LOFTMAG2
 40
0.0
  9
$LOFTPARAM
 70
     7
  9
$LOFTNORMALS
280
     1
  9
$LATITUDE
 40
37.795
  9
$LONGITUDE
 40
-122.394
  9
$NORTHDIRECTION
 40
0.0
  9
$TIMEZONE
 70
 -8000
  9
$LIGHTGLYPHDISPLAY
280
     1
  9
$TILEMODELIGHTSYNCH
280
     1
  9
$SOLIDHIST
280
     0
  9
$SHOWHIST
280
     1
  9
$DWFFRAME
280
     2
  9
$DGNFRAME
280
     2
  9
$REALWORLDSCALE
290
     1
  9
$INTERFERECOLOR
 62
   256
  9
$CSHADOW
280
     0
  9
$SHADOWPLANELOCATION
 40
0.0
  0
ENDSEC
  0
SECTION
  2
CLASSES
  0
CLASS
  1
ACDBDICTIONARYWDFLT
  2
AcDbDictionaryWithDefault
  3
ObjectDBX Classes
 90
        0
 91
        3
280
     0
281
     0
  0
CLASS
  1
MATERIAL
  2
AcDbMaterial
  3
ObjectDBX Classes
 90
     1153
 91
        3
280
     0
281
     0
  0
CLASS
  1
SCALE
  2
AcDbScale
  3
ObjectDBX Classes
 90
     1153
 91
        3
280
     0
281
     0
  0
CLASS
  1
VISUALSTYLE
  2
AcDbVisualStyle
  3
ObjectDBX Classes
 90
     4095
 91
        3
280
     0
281
     0
  0
CLASS
  1
TABLESTYLE
  2
AcDbTableStyle
  3
ObjectDBX Classes
 90
     4095
 91
        3
280
     0
281
     0
  0
CLASS
  1
MLEADERSTYLE
  2
AcDbMLeaderStyle
  3
ACDB_MLEADERSTYLE_CLASS
 90
     4095
 91
        3
280
     0
281
     0
  0
CLASS
  1
DICTIONARYVAR
  2
AcDbDictionaryVar
  3
ObjectDBX Classes
 90
        0
 91
        3
280
     0
281
     0
  0
CLASS
  1
SUN
  2
AcDbSun
  3
SCENEOE
 90
     1153
 91
        3
280
     0
281
     0
  0
CLASS
  1
CELLSTYLEMAP
  2
AcDbCellStyleMap
  3
ObjectDBX Classes
 90
     1152
 91
        3
280
     0
281
     0
  0
ENDSEC
  0
SECTION
  2
TABLES
  0
TABLE
  2
VPORT
  5
E0213
330
0
100
AcDbSymbolTable
 70
     1
  0
VPORT
  5
E022A
330
E0213
100
AcDbSymbolTableRecord
100
AcDbViewportTableRecord
  2
*ACTIVE
 70
     0
 10
0.0
 20
0.0
 11
1.0
 21
1.0
 12
-0.0000000000022737
 22
1740.998826771638
 13
0.0
 23
0.0
 14
1.0
 24
1.0
 15
0.0
 25
0.0
 16
0.0
 26
0.0
 36
1.0
 17
0.0
 27
0.0
 37
0.0
 40
5566.459206549089
 41
1.944065484311051
 42
50.0
 43
0.0
 44
0.0
 50
0.0
 51
0.0
 71
    16
 72
   100
 73
     1
 74
     1
 75
     0
 76
     1
 77
     0
 78
     0
281
     0
 65
     0
110
0.0
120
0.0
130
0.0
111
1.0
121
0.0
131
0.0
112
0.0
122
1.0
132
0.0
 79
     0
146
0.0
348
E0287
 60
     3
 61
     5
292
     1
282
     1
141
0.0
142
0.0
 63
   256
361
E02AA
  0
ENDTAB
  0
TABLE
  2
LTYPE
  5
E0210
330
0
100
AcDbSymbolTable
 70
     1
  0
LTYPE
  5
E021E
330
E0210
100
AcDbSymbolTableRecord
100
AcDbLinetypeTableRecord
  2
ByBlock
 70
     0
  3

 72
    65
 73
     0
 40
0.0
  0
LTYPE
  5
E021F
330
E0210
100
AcDbSymbolTableRecord
100
AcDbLinetypeTableRecord
  2
ByLayer
 70
     0
  3

 72
    65
 73
     0
 40
0.0
  0
LTYPE
  5
E0220
330
E0210
100
AcDbSymbolTableRecord
100
AcDbLinetypeTableRecord
  2
CONTINUOUS
 70
     0
  3
Solid line
 72
    65
 73
     0
 40
0.0
  0
ENDTAB
  0
TABLE
  2
LAYER
  5
E020E
330
0
100
AcDbSymbolTable
 70
     1
  0
LAYER
  5
E021B
330
E020E
100
AcDbSymbolTableRecord
100
AcDbLayerTableRecord
  2
0
 70
     0
 62
     7
  6
CONTINUOUS
370
    -3
390
E021A
347
E0230
348
0
  0
ENDTAB
  0
TABLE
  2
STYLE
  5
E020F
330
0
100
AcDbSymbolTable
 70
     2
  0
STYLE
  5
E021C
330
E020F
100
AcDbSymbolTableRecord
100
AcDbTextStyleTableRecord
  2
STANDARD
 70
     0
 40
0.0
 41
1.0
 50
0.0
 71
     0
 42
2.5
  3
txt
  4

  0
STYLE
  5
E0232
330
E020F
100
AcDbSymbolTableRecord
100
AcDbTextStyleTableRecord
  2
STILE1
 70
     0
 40
0.0
 41
1.0
 50
0.0
 71
     0
 42
19.0
  3
ROMANS.SHX
  4

  0
ENDTAB
  0
TABLE
  2
VIEW
  5
E0211
330
0
100
AcDbSymbolTable
 70
     0
  0
ENDTAB
  0
TABLE
  2
UCS
  5
E0212
330
0
100
AcDbSymbolTable
 70
     0
  0
ENDTAB
  0
TABLE
  2
APPID
  5
E0214
330
0
100
AcDbSymbolTable
 70
    42
  0
APPID
  5
E021D
330
E0214
100
AcDbSymbolTableRecord
100
AcDbRegAppTableRecord
  2
ACAD
 70
     0
  0
APPID
  5
E0234
330
E0214
100
AcDbSymbolTableRecord
100
AcDbRegAppTableRecord
  2
DCO15
 70
     0
  0
APPID
  5
E0235
330
E0214
100
AcDbSymbolTableRecord
100
AcDbRegAppTableRecord
  2
ACAECLAYERSTANDARD
 70
     0
  0
APPID
  5
E0236
330
E0214
100
AcDbSymbolTableRecord
100
AcDbRegAppTableRecord
  2
ACDBDYNAMICBLOCKGUID
 70
     0
  0
APPID
  5
E0237
330
E0214
100
AcDbSymbolTableRecord
100
AcDbRegAppTableRecord
  2
ACDBBLOCKREPETAG
 70
     0
  0
APPID
  5
E0238
330
E0214
100
AcDbSymbolTableRecord
100
AcDbRegAppTableRecord
  2
ACAD_PSEXT
 70
     0
  0
APPID
  5
E0239
330
E0214
100
AcDbSymbolTableRecord
100
AcDbRegAppTableRecord
  2
ACAD_DSTYLE_DIMJAG
 70
     0
  0
APPID
  5
E023A
330
E0214
100
AcDbSymbolTableRecord
100
AcDbRegAppTableRecord
  2
ACAD_DSTYLE_DIMTALN
 70
     0
  0
APPID
  5
E023B
330
E0214
100
AcDbSymbolTableRecord
100
AcDbRegAppTableRecord
  2
ACAD_DSTYLE_DIMRADIAL_EXTE
 70
     0
  0
APPID
  5
E023C
330
E0214
100
AcDbSymbolTableRecord
100
AcDbRegAppTableRecord
  2
RAK
 70
     0
  0
APPID
  5
E023D
330
E0214
100
AcDbSymbolTableRecord
100
AcDbRegAppTableRecord
  2
ACLAYERTOOLS
 70
     0
  0
APPID
  5
E023E
330
E0214
100
AcDbSymbolTableRecord
100
AcDbRegAppTableRecord
  2
REVIT
 70
     0
  0
APPID
  5
E023F
330
E0214
100
AcDbSymbolTableRecord
100
AcDbRegAppTableRecord
  2
ACAD_MLEADERVER
 70
     0
  0
APPID
  5
E0240
330
E0214
100
AcDbSymbolTableRecord
100
AcDbRegAppTableRecord
  2
ACAD_DSTYLE_DIMBREAK
 70
     0
  0
APPID
  5
E0241
330
E0214
100
AcDbSymbolTableRecord
100
AcDbRegAppTableRecord
  2
ACCMTRANSPARENCY
 70
     0
  0
APPID
  5
E0242
330
E0214
100
AcDbSymbolTableRecord
100
AcDbRegAppTableRecord
  2
ACAD_NAV_VCDISPLAY
 70
     0
  0
APPID
  5
E0243
330
E0214
100
AcDbSymbolTableRecord
100
AcDbRegAppTableRecord
  2
GRADIENTCOLOR1ACI
 70
     0
  0
APPID
  5
E0244
330
E0214
100
AcDbSymbolTableRecord
100
AcDbRegAppTableRecord
  2
GRADIENTCOLOR2ACI
 70
     0
  0
APPID
  5
E0245
330
E0214
100
AcDbSymbolTableRecord
100
AcDbRegAppTableRecord
  2
PROGE_PRINT_SETTINGS
 70
     0
  0
APPID
  5
E0246
330
E0214
100
AcDbSymbolTableRecord
100
AcDbRegAppTableRecord
  2
AA_WLPR
 70
     0
  0
APPID
  5
E0247
330
E0214
100
AcDbSymbolTableRecord
100
AcDbRegAppTableRecord
  2
AA_WLENT
 70
     0
  0
APPID
  5
E0248
330
E0214
100
AcDbSymbolTableRecord
100
AcDbRegAppTableRecord
  2
AA_WLTP
 70
     0
  0
APPID
  5
E0249
330
E0214
100
AcDbSymbolTableRecord
100
AcDbRegAppTableRecord
  2
AA_WLBK
 70
     0
  0
APPID
  5
E024A
330
E0214
100
AcDbSymbolTableRecord
100
AcDbRegAppTableRecord
  2
ACAD_DSTYLE_DIMJOGGED_JOGA
 70
     0
  0
APPID
  5
E024B
330
E0214
100
AcDbSymbolTableRecord
100
AcDbRegAppTableRecord
  2
$DDT_AUDIT_GENERATED__2CAF
 70
     0
  0
APPID
  5
E024C
330
E0214
100
AcDbSymbolTableRecord
100
AcDbRegAppTableRecord
  2
ACAD_DSTYLE_DIMEXT_LENGTH
 70
     0
  0
APPID
  5
E024D
330
E0214
100
AcDbSymbolTableRecord
100
AcDbRegAppTableRecord
  2
ACAD_DSTYLE_DIMEXT_ENABLED
 70
     0
  0
APPID
  5
E024E
330
E0214
100
AcDbSymbolTableRecord
100
AcDbRegAppTableRecord
  2
ACAD_DSTYLE_DIMJOGGED_JOG0
 70
     0
  0
APPID
  5
E024F
330
E0214
100
AcDbSymbolTableRecord
100
AcDbRegAppTableRecord
  2
ACAD_DSTYLE_DIMARC_LENGTH_
 70
     0
  0
APPID
  5
E0250
330
E0214
100
AcDbSymbolTableRecord
100
AcDbRegAppTableRecord
  2
C_AND_O
 70
     0
  0
APPID
  5
E0251
330
E0214
100
AcDbSymbolTableRecord
100
AcDbRegAppTableRecord
  2
AVE_FINISH
 70
     0
  0
APPID
  5
E0252
330
E0214
100
AcDbSymbolTableRecord
100
AcDbRegAppTableRecord
  2
AVE_RENDER
 70
     0
  0
APPID
  5
E0253
330
E0214
100
AcDbSymbolTableRecord
100
AcDbRegAppTableRecord
  2
AVE_ENTITY_MATERIAL
 70
     0
  0
APPID
  5
E0254
330
E0214
100
AcDbSymbolTableRecord
100
AcDbRegAppTableRecord
  2
AVE_MATERIAL
 70
     0
  0
APPID
  5
E0255
330
E0214
100
AcDbSymbolTableRecord
100
AcDbRegAppTableRecord
  2
ADDC5$_$SETUP-
 70
     0
  0
APPID
  5
E0256
330
E0214
100
AcDbSymbolTableRecord
100
AcDbRegAppTableRecord
  2
ADDC4$_$SETUP-
 70
     0
  0
APPID
  5
E0257
330
E0214
100
AcDbSymbolTableRecord
100
AcDbRegAppTableRecord
  2
ADDC4$_$ARTSETUP-
 70
     0
  0
APPID
  5
E0258
330
E0214
100
AcDbSymbolTableRecord
100
AcDbRegAppTableRecord
  2
GENIUS_GENODEF_13
 70
     0
  0
APPID
  5
E0259
330
E0214
100
AcDbSymbolTableRecord
100
AcDbRegAppTableRecord
  2
GENIUS_GENOBJ-N-REC_13
 70
     0
  0
APPID
  5
E025A
330
E0214
100
AcDbSymbolTableRecord
100
AcDbRegAppTableRecord
  2
GENIUS_GENREC_14
 70
     0
  0
APPID
  5
E025B
330
E0214
100
AcDbSymbolTableRecord
100
AcDbRegAppTableRecord
  2
PE_URL
 70
     0
  0
APPID
  5
E025C
330
E0214
100
AcDbSymbolTableRecord
100
AcDbRegAppTableRecord
  2
ACAD_DSTYLE_DIMRADIAL_EXT0
 70
     0
  0
ENDTAB
  0
TABLE
  2
DIMSTYLE
  5
E0215
330
0
100
AcDbSymbolTable
 70
     1
100
AcDbDimStyleTable
  0
DIMSTYLE
105
E025D
330
E0215
100
AcDbSymbolTableRecord
100
AcDbDimStyleTableRecord
  2
STANDARD
 70
     0
178
     0
340
E0232
  0
ENDTAB
  0
TABLE
  2
BLOCK_RECORD
  5
E020D
330
0
100
AcDbSymbolTable
 70
     0
  0
BLOCK_RECORD
  5
E0227
102
{ACAD_XDICTIONARY
360
E02A1
102
}
330
E020D
100
AcDbSymbolTableRecord
100
AcDbBlockTableRecord
  2
*Model_Space
340
E0228
 70
     0
280
     1
281
     0
  0
BLOCK_RECORD
  5
E0225
330
E020D
100
AcDbSymbolTableRecord
100
AcDbBlockTableRecord
  2
*Paper_Space
340
E0226
 70
     0
280
     1
281
     0
  0
ENDTAB
  0
ENDSEC
  0
SECTION
  2
BLOCKS
  0
BLOCK
  5
E025E
330
E0227
100
AcDbEntity
  8
0
100
AcDbBlockBegin
  2
*Model_Space
 70
     0
 10
0.0
 20
0.0
 30
0.0
  3
*Model_Space
  1

  0
ENDBLK
  5
DEF0B
330
E0227
100
AcDbEntity
  8
0
100
AcDbBlockEnd
  0
BLOCK
  5
E025F
330
E0225
100
AcDbEntity
 67
     1
  8
0
100
AcDbBlockBegin
  2
*Paper_Space
 70
     0
 10
0.0
 20
0.0
 30
0.0
  3
*Paper_Space
  1

  0
ENDBLK
  5
DEF07
330
E0225
100
AcDbEntity
 67
     1
  8
0
100
AcDbBlockEnd
  0
ENDSEC
  0
SECTION
  2
ENTITIES
  0
TEXT
  5
DAB3C
330
E0227
100
AcDbEntity
  8
0
100
AcDbText
 10
-838.7791374978212
 20
-555.4096502962035
 30
0.0
 40
125.0
  1
Questo disegno è di proprietà di Fantin S.r.l.   
  7
STILE1
 72
     1
 11
1583.839910121226
 21
-555.4096502962035
 31
0.0
100
AcDbText
  0
TEXT
  5
DAB3D
330
E0227
100
AcDbEntity
  8
0
100
AcDbText
 10
-172.5803232177516
 20
-208.9254166234014
 30
0.0
 40
125.0
  1
Run
  7
STILE1
 72
     1
 11
3.107920829867452
 21
-208.9254166234014
 31
0.0
100
AcDbText
  0
LWPOLYLINE
  5
DAB4C
330
E0227
100
AcDbEntity
  8
0
  6
Continuous
100
AcDbPolyline
 90
       15
 70
     0
 43
0.0
 10
-2005.844421386719
 20
-687.6576470269355
 10
-2005.844421386719
 20
-299.9965549039189
 10
-1904.494879823178
 20
-299.9965549039189
 42
-0.316444976687396
 10
-1853.547085234895
 20
-328.2411702477839
 10
-1752.753926590085
 20
-498.2600775826719
 10
-1749.985792371444
 20
-498.2600775826719
 10
-1749.985792371444
 20
-299.9965549039189
 10
-1637.561991373077
 20
-299.9965549039189
 10
-1637.561991373077
 20
-687.6576470269355
 10
-1720.084086097777
 20
-687.6576470269355
 42
-0.312959769389874
 10
-1771.031880690716
 20
-659.4147542316932
 10
-1890.652486160398
 20
-466.1380072694737
 10
-1893.417175291106
 20
-466.1380072694737
 10
-1893.417175291106
 20
-687.6576470269355
 10
-2005.844421386719
 20
-687.6576470269355
  0
LWPOLYLINE
  5
DAB4D
330
E0227
100
AcDbEntity
  8
0
  6
Continuous
100
AcDbPolyline
 90
       15
 70
     0
 43
0.0
 10
-2982.206875272095
 20
-687.6576470269355
 10
-2982.206875272095
 20
-299.9965549039189
 10
-2880.857333708556
 20
-299.9965549039189
 42
-0.316444976687396
 10
-2829.909539115615
 20
-328.2411702477839
 10
-2729.116380475462
 20
-498.2600775826719
 10
-2726.348246252165
 20
-498.2600775826719
 10
-2726.348246252165
 20
-299.9965549039189
 10
-2613.924445258454
 20
-299.9965549039189
 10
-2613.924445258454
 20
-687.6576470269355
 10
-2696.446539983154
 20
-687.6576470269355
 42
-0.312959769389874
 10
-2747.39433458075
 20
-659.4147542316932
 10
-2867.014940045774
 20
-466.1380072694737
 10
-2869.779629176483
 20
-466.1380072694737
 10
-2869.779629176483
 20
-687.6576470269355
 10
-2982.206875272095
 20
-687.6576470269355
  0
LWPOLYLINE
  5
DAB4E
330
E0227
100
AcDbEntity
  8
0
  6
Continuous
100
AcDbPolyline
 90
        9
 70
     0
 43
0.0
 10
-2229.582702633925
 20
-299.9982774525415
 10
-2229.582702633925
 20
-390.8213297522161
 10
-2345.878790956922
 20
-390.8213297522161
 10
-2345.878790956922
 20
-687.6576470269355
 10
-2464.948181146756
 20
-687.6576470269355
 10
-2464.948181146756
 20
-390.8213297522161
 10
-2578.481302894652
 20
-390.8213297522161
 10
-2578.481302894652
 20
-299.9982774525415
 10
-2229.582702633925
 20
-299.9982774525415
  0
LWPOLYLINE
  5
DAB4F
330
E0227
100
AcDbEntity
  8
0
  6
Continuous
100
AcDbPolyline
 90
        4
 70
     1
 43
0.0
 10
-2192.47902425006
 20
-299.9982774525415
 10
-2073.409634060226
 20
-299.9982774525415
 10
-2073.409634060226
 20
-687.6576470269355
 10
-2192.47902425006
 20
-687.6576470269355
  0
LWPOLYLINE
  5
DAB50
330
E0227
100
AcDbEntity
  8
0
  6
Continuous
100
AcDbPolyline
 90
       11
 70
     0
 43
0.0
 10
-3407.540086535738
 20
-300.0
 10
-3407.540086535738
 20
-389.1607937274967
 10
-3593.616583929397
 20
-389.1607937274967
 10
-3593.616583929397
 20
-466.1362847220151
 10
-3463.47293430008
 20
-466.1362847220151
 10
-3463.47293430008
 20
-549.2095947265625
 10
-3593.616583929397
 20
-549.2095947265625
 10
-3593.616583929397
 20
-687.6576470269355
 10
-3712.685974119231
 20
-687.6576470269355
 10
-3712.685974119231
 20
-300.0
 10
-3407.540086535738
 20
-300.0
  0
LWPOLYLINE
  5
DAB51
330
E0227
100
AcDbEntity
  8
0
  6
Continuous
100
AcDbPolyline
 90
        5
 70
     0
 43
0.0
 10
-3221.454976396636
 20
-406.8789198133162
 10
-3188.227030434647
 20
-520.96670193132
 10
-3260.775573728607
 20
-520.96670193132
 10
-3227.547627761961
 20
-406.8789198133162
 10
-3221.454976396636
 20
-406.8789198133162
  0
LWPOLYLINE
  5
DAB52
330
E0227
100
AcDbEntity
  8
0
  6
Continuous
100
AcDbPolyline
 90
       16
 70
     1
 43
0.0
 10
-3164.963312949987
 20
-604.0348442923276
 10
-3164.963312949987
 20
-604.0348442923276
 10
-3140.60203043744
 20
-687.6576470269355
 10
-3014.885328505188
 20
-687.6576470269355
 10
-3132.294182670303
 20
-334.8833143443335
 42
0.1089385125692126
 10
-3145.036042486318
 20
-307.2121766244527
 42
0.1589313772246072
 10
-3157.031867676415
 20
-299.9273046676535
 42
0.058673645385263
 10
-3173.277038573287
 20
-298.3360188803636
 10
-3173.277038573287
 20
-298.3360188803636
 10
-3268.525316026062
 20
-298.3360188803636
 42
0.058673645385263
 10
-3284.770486922936
 20
-299.9273046676535
 42
0.1589313772246072
 10
-3296.766312113032
 20
-307.2121766244527
 42
0.1089385125692126
 10
-3309.508171929046
 20
-334.8833143443335
 10
-3426.917026089505
 20
-687.6576470269355
 10
-3307.851080996916
 20
-687.6576470269355
 10
-3284.038581000641
 20
-604.0348442923276
  0
TEXT
  5
DBD1C
330
E0227
100
AcDbEntity
  8
0
100
AcDbText
 10
-527.8452372835668
 20
-817.4938565844182
 30
0.0
 40
125.0
  1
This drawing is property of Fantin S.r.l. 
  7
STILE1
 72
     1
 11
1487.035715097386
 21
-817.4938565844182
 31
0.0
100
AcDbText
  0
LWPOLYLINE
  5
DBD35
330
E0227
100
AcDbEntity
  8
0
100
AcDbPolyline
 90
        2
 70
     0
 43
0.0
 10
-1337.561991373077
 20
-299.9965549039189
 10
4012.685974119231
 20
-299.9965549039186
  0
LWPOLYLINE
  5
DBD3D
330
E0227
100
AcDbEntity
  8
0
100
AcDbPolyline
 90
        4
 70
     1
 43
0.0
 10
-4012.685974119231
 20
0.0
 10
4012.685974119231
 20
0.0
 10
4012.685974119231
 20
-987.6576470269353
 10
-4012.685974119231
 20
-987.6576470269353
  0
LINE
  5
DBD3E
330
E0227
100
AcDbEntity
  8
0
100
AcDbLine
 10
-1337.561991373077
 20
0.0
 30
0.0
 11
-1337.561991373077
 21
-987.6576470269353
 31
0.0
  0
LINE
  5
DBD3F
330
E0227
100
AcDbEntity
  8
0
100
AcDbLine
 10
1337.561991373077
 20
-299.9965549039188
 30
0.0
 11
1337.561991373077
 21
0.0000000000000284
 31
0.0
  0
TEXT
  5
DBD40
330
E0227
100
AcDbEntity
  8
0
100
AcDbText
 10
2240.022522568668
 20
-208.9254166234015
 30
0.0
 40
125.0
  1
2024-06
  7
STILE1
 72
     1
 11
2674.918355902001
 21
-208.9254166234015
 31
0.0
100
AcDbText
  0
LINE
  5
DBD42
330
E0227
100
AcDbEntity
  8
0
100
AcDbLine
 10
4012.685974119231
 20
0.0000000000002274
 30
0.0
 11
4012.685974119231
 21
-987.6576470269353
 31
0.0
  0
LWPOLYLINE
  5
DE55D
330
E0227
100
AcDbEntity
  8
0
100
AcDbPolyline
 90
        4
 70
     1
 43
0.0
 10
-3493.484305365128
 20
2019.655300570316
 10
-3395.984305365127
 20
2019.655300570316
 10
-3395.984305365127
 20
1994.655300570316
 10
-3493.484305365128
 20
1994.655300570316
 42
-0.9999999999999998
  0
LWPOLYLINE
  5
DE560
330
E0227
100
AcDbEntity
  8
0
100
AcDbPolyline
 90
        4
 70
     1
 43
0.0
 10
-2548.484305365126
 20
2019.655300570231
 10
-2645.984305365128
 20
2019.655300570231
 10
-2645.984305365128
 20
1994.65530057023
 10
-2548.484305365126
 20
1994.65530057023
 42
0.9999999999999998
  0
LWPOLYLINE
  5
DE9F3
330
E0227
100
AcDbEntity
  8
0
100
AcDbPolyline
 90
        4
 70
     1
 43
0.0
 10
-4012.685974119232
 20
4469.65530057021
 10
4012.68597411923
 20
4469.655300570209
 10
4012.685974119227
 20
350.072767426087
 10
-4012.685974119234
 20
350.0727674260879
  0
LWPOLYLINE
  5
DEA00
330
E0227
100
AcDbEntity
  8
0
100
AcDbPolyline
 90
        4
 70
     1
 43
0.0
 10
2420.850667939207
 20
1209.65530057023
 10
2420.850667939207
 20
1289.655300570115
 10
2400.850667939208
 20
1289.655300570115
 10
2400.850667939208
 20
1209.65530057023
  0
LWPOLYLINE
  5
DEA01
330
E0227
100
AcDbEntity
  8
0
100
AcDbPolyline
 90
        8
 70
     1
 43
0.0
 10
2423.850667939206
 20
1240.174444586969
 10
2425.850667939208
 20
1240.174444586969
 10
2425.850667939208
 20
1314.655300570202
 10
2395.850667939207
 20
1314.655300570202
 10
2395.850667939207
 20
1240.174444586969
 10
2397.850667939207
 20
1240.174444586969
 10
2397.850667939207
 20
1292.655300570114
 10
2423.850667939206
 20
1292.655300570114
  0
LWPOLYLINE
  5
DEA02
330
E0227
100
AcDbEntity
  8
0
100
AcDbPolyline
 90
        4
 70
     1
 43
0.0
 10
2418.35303697343
 20
1314.655300570202
 10
2418.35303697343
 20
1319.655300570144
 10
2403.348298905104
 20
1319.655300570144
 10
2403.348298905104
 20
1314.655300570202
  0
LWPOLYLINE
  5
DEA03
330
E0227
100
AcDbEntity
  8
0
100
AcDbPolyline
 90
        4
 70
     1
 43
0.0
 10
2798.348298904987
 20
1314.655300570202
 10
2798.348298904987
 20
1319.65530057023
 10
2813.353036973312
 20
1319.65530057023
 10
2813.353036973312
 20
1314.655300570202
  0
LWPOLYLINE
  5
DEA04
330
E0227
100
AcDbEntity
  8
0
100
AcDbPolyline
 90
        8
 70
     1
 43
0.0
 10
2792.850667939207
 20
1240.174444586969
 10
2790.850667939207
 20
1240.174444586969
 10
2790.850667939207
 20
1314.655300570202
 10
2820.850667939208
 20
1314.655300570202
 10
2820.850667939208
 20
1240.174444586969
 10
2818.850667939208
 20
1240.174444586969
 10
2818.850667939208
 20
1292.6553005702
 10
2792.850667939207
 20
1292.6553005702
  0
LWPOLYLINE
  5
DEA05
330
E0227
100
AcDbEntity
  8
0
100
AcDbPolyline
 90
        4
 70
     1
 43
0.0
 10
2795.850667939207
 20
1209.655300570316
 10
2795.850667939207
 20
1289.6553005702
 10
2815.850667939207
 20
1289.6553005702
 10
2815.850667939207
 20
1209.655300570316
  0
LWPOLYLINE
  5
DEA06
330
E0227
100
AcDbEntity
  8
0
100
AcDbPolyline
 90
        4
 70
     1
 43
0.0
 10
2370.850667939208
 20
1994.655300570273
 42
-0.9999999999999998
 10
2370.850667939208
 20
2019.655300570273
 10
2845.850667939208
 20
2019.655300570317
 42
-0.9999999999999998
 10
2845.850667939208
 20
1994.655300570317
  0
CIRCLE
  5
DEA07
330
E0227
100
AcDbEntity
  8
0
100
AcDbCircle
 10
2358.350667939207
 20
2007.155300570317
 30
0.0
 40
0.0
  0
CIRCLE
  5
DEA08
330
E0227
100
AcDbEntity
  8
0
100
AcDbCircle
 10
2358.350667939207
 20
2007.155300570317
 30
0.0
 40
0.0
  0
LWPOLYLINE
  5
DF8CF
330
E0227
100
AcDbEntity
  8
0
100
AcDbPolyline
 90
        4
 70
     1
 43
0.0
 10
-3395.984305365127
 20
2019.655300570316
 10
-3395.984305365127
 20
1319.655300570316
 10
-2645.984305365128
 20
1319.655300570316
 10
-2645.984305365128
 20
2019.655300570316
  0
LWPOLYLINE
  5
DF8D0
330
E0227
100
AcDbEntity
  8
0
100
AcDbPolyline
 90
        4
 70
     1
 43
0.0
 10
-2675.984305365126
 20
1349.655300570316
 10
-2675.984305365126
 20
1994.655300570316
 10
-3365.984305365128
 20
1994.655300570316
 10
-3365.984305365128
 20
1349.655300570316
  0
LWPOLYLINE
  5
DF8E1
330
E0227
100
AcDbEntity
  8
0
100
AcDbPolyline
 90
        4
 70
     1
 43
0.0
 10
-732.6332384318825
 20
2019.655300570316
 10
-635.1332384318812
 20
2019.655300570316
 10
-635.1332384318812
 20
1994.655300570316
 10
-732.6332384318825
 20
1994.655300570316
 42
-0.9999999999999998
  0
LWPOLYLINE
  5
DF8E2
330
E0227
100
AcDbEntity
  8
0
100
AcDbPolyline
 90
        4
 70
     1
 43
0.0
 10
462.3667615681197
 20
2019.655300570231
 10
364.8667615681175
 20
2019.655300570231
 10
364.8667615681175
 20
1994.65530057023
 10
462.3667615681197
 20
1994.65530057023
 42
0.9999999999999998
  0
LWPOLYLINE
  5
DF8ED
330
E0227
100
AcDbEntity
  8
0
100
AcDbPolyline
 90
        4
 70
     1
 43
0.0
 10
-635.1332384318812
 20
2019.655300570316
 10
-635.1332384318812
 20
1319.655300570316
 10
364.8667615681175
 20
1319.655300570316
 10
364.8667615681175
 20
2019.655300570316
  0
LWPOLYLINE
  5
DF8EE
330
E0227
100
AcDbEntity
  8
0
100
AcDbPolyline
 90
        4
 70
     1
 43
0.0
 10
334.8667615681197
 20
1349.655300570316
 10
334.8667615681197
 20
1994.655300570316
 10
-605.1332384318825
 20
1994.655300570316
 10
-605.1332384318825
 20
1349.655300570316
  0
LWPOLYLINE
  5
DF8F0
330
E0227
100
AcDbEntity
  8
0
100
AcDbPolyline
 90
        4
 70
     1
 43
0.0
 10
2358.350667939207
 20
2019.655300570317
 10
2358.350667939207
 20
1319.655300570402
 10
2858.350667939207
 20
1319.655300570402
 10
2858.350667939207
 20
2019.655300570317
  0
LWPOLYLINE
  5
DF8F3
330
E0227
100
AcDbEntity
  8
0
100
AcDbPolyline
 90
        4
 70
     1
 43
0.0
 10
2388.350667939208
 20
1989.655300570316
 10
2388.350667939208
 20
1349.655300570316
 10
2828.350667939208
 20
1349.655300570316
 10
2828.350667939208
 20
1989.655300570316
  0
LWPOLYLINE
  5
DF906
330
E0227
100
AcDbEntity
  8
0
100
AcDbPolyline
 90
        4
 70
     1
 43
0.0
 10
-3493.484305365128
 20
3429.655300570314
 10
-3395.984305365127
 20
3429.655300570314
 10
-3395.984305365127
 20
3404.655300570314
 10
-3493.484305365128
 20
3404.655300570314
 42
-0.9999999999999998
  0
LWPOLYLINE
  5
DF907
330
E0227
100
AcDbEntity
  8
0
100
AcDbPolyline
 90
        4
 70
     1
 43
0.0
 10
-2548.484305365126
 20
3429.65530057023
 10
-2645.984305365128
 20
3429.65530057023
 10
-2645.984305365128
 20
3404.655300570229
 10
-2548.484305365126
 20
3404.655300570229
 42
0.9999999999999998
  0
LWPOLYLINE
  5
DF918
330
E0227
100
AcDbEntity
  8
0
100
AcDbPolyline
 90
        4
 70
     1
 43
0.0
 10
2370.850667939208
 20
3404.655300570272
 42
-0.9999999999999998
 10
2370.850667939208
 20
3429.655300570272
 10
2845.850667939208
 20
3429.655300570316
 42
-0.9999999999999998
 10
2845.850667939208
 20
3404.655300570316
  0
CIRCLE
  5
DF919
330
E0227
100
AcDbEntity
  8
0
100
AcDbCircle
 10
2358.350667939207
 20
3417.155300570316
 30
0.0
 40
0.0
  0
CIRCLE
  5
DF91A
330
E0227
100
AcDbEntity
  8
0
100
AcDbCircle
 10
2358.350667939207
 20
3417.155300570316
 30
0.0
 40
0.0
  0
LWPOLYLINE
  5
DF91B
330
E0227
100
AcDbEntity
  8
0
100
AcDbPolyline
 90
        4
 70
     1
 43
0.0
 10
-3395.984305365127
 20
3429.655300570314
 10
-3395.984305365127
 20
2729.655300570315
 10
-2645.984305365128
 20
2729.655300570315
 10
-2645.984305365128
 20
3429.655300570314
  0
LWPOLYLINE
  5
DF91C
330
E0227
100
AcDbEntity
  8
0
100
AcDbPolyline
 90
        4
 70
     1
 43
0.0
 10
-2675.984305365126
 20
2759.655300570315
 10
-2675.984305365126
 20
3404.655300570314
 10
-3365.984305365128
 20
3404.655300570314
 10
-3365.984305365128
 20
2759.655300570315
  0
LWPOLYLINE
  5
DF91D
330
E0227
100
AcDbEntity
  8
0
100
AcDbPolyline
 90
        4
 70
     1
 43
0.0
 10
-732.6332384318825
 20
3429.655300570314
 10
-635.1332384318812
 20
3429.655300570314
 10
-635.1332384318812
 20
3404.655300570314
 10
-732.6332384318825
 20
3404.655300570314
 42
-0.9999999999999998
  0
LWPOLYLINE
  5
DF91E
330
E0227
100
AcDbEntity
  8
0
100
AcDbPolyline
 90
        4
 70
     1
 43
0.0
 10
462.3667615681197
 20
3429.65530057023
 10
364.8667615681175
 20
3429.65530057023
 10
364.8667615681175
 20
3404.655300570229
 10
462.3667615681197
 20
3404.655300570229
 42
0.9999999999999998
  0
LWPOLYLINE
  5
DF929
330
E0227
100
AcDbEntity
  8
0
100
AcDbPolyline
 90
        4
 70
     1
 43
0.0
 10
-635.1332384318812
 20
3429.655300570314
 10
-635.1332384318812
 20
2729.655300570315
 10
364.8667615681175
 20
2729.655300570316
 10
364.8667615681175
 20
3429.655300570316
  0
LWPOLYLINE
  5
DF92A
330
E0227
100
AcDbEntity
  8
0
100
AcDbPolyline
 90
        4
 70
     1
 43
0.0
 10
334.8667615681197
 20
2759.655300570316
 10
334.8667615681197
 20
3404.655300570316
 10
-605.1332384318825
 20
3404.655300570314
 10
-605.1332384318825
 20
2759.655300570315
  0
LWPOLYLINE
  5
DF92B
330
E0227
100
AcDbEntity
  8
0
100
AcDbPolyline
 90
        4
 70
     1
 43
0.0
 10
2358.350667939207
 20
3429.655300570316
 10
2358.350667939207
 20
2729.655300570401
 10
2858.350667939207
 20
2729.655300570401
 10
2858.350667939207
 20
3429.655300570316
  0
LWPOLYLINE
  5
DF92C
330
E0227
100
AcDbEntity
  8
0
100
AcDbPolyline
 90
        4
 70
     1
 43
0.0
 10
2388.350667939208
 20
3399.655300570314
 10
2388.350667939208
 20
2759.655300570316
 10
2828.350667939208
 20
2759.655300570316
 10
2828.350667939208
 20
3399.655300570314
  0
LWPOLYLINE
  5
DF968
330
E0227
100
AcDbEntity
  8
0
100
AcDbPolyline
 90
        4
 70
     0
 43
0.0
 10
-3351.984305365069
 20
2706.271493662244
 10
-3351.984305365069
 20
2729.655300570315
 10
-3329.984305365069
 20
2729.655300570315
 10
-3329.984305365069
 20
2678.852519603705
1001
PE_URL
1000

  0
CIRCLE
  5
DF969
330
E0227
100
AcDbEntity
  8
0
100
AcDbCircle
 10
-3369.234305365069
 20
2669.905300570304
 30
0.0
 40
38.00000000000004
1001
PE_URL
1000

  0
LINE
  5
DF96A
330
E0227
100
AcDbEntity
  8
0
100
AcDbLine
 10
-3354.631093806369
 20
2707.432548584704
 30
0.0
 11
-3354.62967976097
 21
2707.432052904206
 31
0.0
1001
PE_URL
1000

  0
CIRCLE
  5
DF96B
330
E0227
100
AcDbEntity
  8
0
100
AcDbCircle
 10
-3369.234305365069
 20
2669.905300570304
 30
0.0
 40
40.25
1001
PE_URL
1000

  0
LWPOLYLINE
  5
DF96C
330
E0227
100
AcDbEntity
  8
0
100
AcDbPolyline
 90
        7
 70
     0
 43
0.0
 10
-3397.683300602912
 20
2698.37839611605
 10
-3397.683300602912
 20
2699.905300570304
 10
-3419.484305365069
 20
2699.905300570304
 10
-3419.484305365069
 20
2694.905300570304
 10
-3409.484305365069
 20
2694.905300570304
 10
-3409.484305365069
 20
2679.905300570304
 10
-3408.29677126564
 20
2679.610261042495
  0
LWPOLYLINE
  5
DF96F
330
E0227
100
AcDbEntity
  8
0
100
AcDbPolyline
 90
        4
 70
     0
 43
0.0
 10
-2711.98430536507
 20
2706.271493662159
 10
-2711.98430536507
 20
2729.655300570229
 10
-2689.98430536507
 20
2729.655300570229
 10
-2689.98430536507
 20
2678.85251960362
1001
PE_URL
1000

  0
CIRCLE
  5
DF970
330
E0227
100
AcDbEntity
  8
0
100
AcDbCircle
 10
-2729.23430536507
 20
2669.905300570218
 30
0.0
 40
38.00000000000004
1001
PE_URL
1000

  0
LINE
  5
DF971
330
E0227
100
AcDbEntity
  8
0
100
AcDbLine
 10
-2714.63109380637
 20
2707.432548584619
 30
0.0
 11
-2714.629679760971
 21
2707.432052904121
 31
0.0
1001
PE_URL
1000

  0
CIRCLE
  5
DF972
330
E0227
100
AcDbEntity
  8
0
100
AcDbCircle
 10
-2729.23430536507
 20
2669.905300570218
 30
0.0
 40
40.25
1001
PE_URL
1000

  0
LWPOLYLINE
  5
DF973
330
E0227
100
AcDbEntity
  8
0
100
AcDbPolyline
 90
        7
 70
     0
 43
0.0
 10
-2757.683300602913
 20
2698.378396115964
 10
-2757.683300602913
 20
2699.905300570218
 10
-2779.48430536507
 20
2699.905300570218
 10
-2779.48430536507
 20
2694.905300570218
 10
-2769.48430536507
 20
2694.905300570218
 10
-2769.48430536507
 20
2679.905300570218
 10
-2768.29677126564
 20
2679.61026104241
  0
LWPOLYLINE
  5
DF974
330
E0227
100
AcDbEntity
  8
0
100
AcDbPolyline
 90
        4
 70
     0
 43
0.0
 10
-591.1332384318239
 20
2706.271493662244
 10
-591.1332384318239
 20
2729.655300570315
 10
-569.1332384318239
 20
2729.655300570315
 10
-569.1332384318239
 20
2678.852519603705
1001
PE_URL
1000

  0
CIRCLE
  5
DF975
330
E0227
100
AcDbEntity
  8
0
100
AcDbCircle
 10
-608.3832384318239
 20
2669.905300570304
 30
0.0
 40
38.00000000000004
1001
PE_URL
1000

  0
LINE
  5
DF976
330
E0227
100
AcDbEntity
  8
0
100
AcDbLine
 10
-593.7800268731235
 20
2707.432548584704
 30
0.0
 11
-593.7786128277248
 21
2707.432052904206
 31
0.0
1001
PE_URL
1000

  0
CIRCLE
  5
DF977
330
E0227
100
AcDbEntity
  8
0
100
AcDbCircle
 10
-608.3832384318239
 20
2669.905300570304
 30
0.0
 40
40.25
1001
PE_URL
1000

  0
LWPOLYLINE
  5
DF978
330
E0227
100
AcDbEntity
  8
0
100
AcDbPolyline
 90
        7
 70
     0
 43
0.0
 10
-636.8322336696665
 20
2698.37839611605
 10
-636.8322336696665
 20
2699.905300570304
 10
-658.6332384318239
 20
2699.905300570304
 10
-658.6332384318239
 20
2694.905300570304
 10
-648.6332384318239
 20
2694.905300570304
 10
-648.6332384318239
 20
2679.905300570304
 10
-647.4457043323941
 20
2679.610261042495
  0
LWPOLYLINE
  5
DF979
330
E0227
100
AcDbEntity
  8
0
100
AcDbPolyline
 90
        4
 70
     0
 43
0.0
 10
298.8667615681757
 20
2706.27149366216
 10
298.8667615681757
 20
2729.65530057023
 10
320.8667615681757
 20
2729.65530057023
 10
320.8667615681757
 20
2678.852519603621
1001
PE_URL
1000

  0
CIRCLE
  5
DF97A
330
E0227
100
AcDbEntity
  8
0
100
AcDbCircle
 10
281.6167615681757
 20
2669.905300570219
 30
0.0
 40
38.00000000000004
1001
PE_URL
1000

  0
LINE
  5
DF97B
330
E0227
100
AcDbEntity
  8
0
100
AcDbLine
 10
296.2199731268761
 20
2707.432548584619
 30
0.0
 11
296.2213871722747
 21
2707.432052904122
 31
0.0
1001
PE_URL
1000

  0
CIRCLE
  5
DF97C
330
E0227
100
AcDbEntity
  8
0
100
AcDbCircle
 10
281.6167615681757
 20
2669.905300570219
 30
0.0
 40
40.25
1001
PE_URL
1000

  0
LWPOLYLINE
  5
DF97D
330
E0227
100
AcDbEntity
  8
0
100
AcDbPolyline
 90
        7
 70
     0
 43
0.0
 10
253.1677663303331
 20
2698.378396115965
 10
253.1677663303331
 20
2699.905300570219
 10
231.3667615681757
 20
2699.905300570219
 10
231.3667615681757
 20
2694.905300570219
 10
241.3667615681757
 20
2694.905300570219
 10
241.3667615681757
 20
2679.905300570219
 10
242.5542956676054
 20
2679.610261042411
  0
LWPOLYLINE
  5
DF9BB
330
E0227
100
AcDbEntity
  8
0
100
AcDbPolyline
 90
        4
 70
     0
 43
0.0
 10
2421.850667939267
 20
2710.121969454413
 10
2421.850667939267
 20
2729.655300570143
 10
2399.850667939267
 20
2729.655300570143
 10
2399.850667939267
 20
2710.121969454413
1001
PE_URL
1000

  0
LWPOLYLINE
  5
DF9BC
330
E0227
100
AcDbEntity
  8
0
100
AcDbPolyline
 90
        4
 70
     1
 43
0.0
 10
2399.850667939267
 20
2710.121969454413
 10
2399.850667939267
 20
2629.655300570143
 10
2389.350667939267
 20
2629.655300570143
 10
2389.350667939267
 20
2710.121969454413
1001
PE_URL
1000

  0
LWPOLYLINE
  5
DF9BD
330
E0227
100
AcDbEntity
  8
0
100
AcDbPolyline
 90
        4
 70
     1
 43
0.0
 10
2421.850667939267
 20
2710.121969454413
 10
2421.850667939267
 20
2629.655300570143
 10
2432.350667939267
 20
2629.655300570143
 10
2432.350667939267
 20
2710.121969454413
1001
PE_URL
1000

  0
LINE
  5
DF9BE
330
E0227
100
AcDbEntity
  8
0
100
AcDbLine
 10
2399.850667939267
 20
2708.121969454413
 30
0.0
 11
2421.850667939267
 21
2708.121969454413
 31
0.0
1001
PE_URL
1000

  0
LWPOLYLINE
  5
DF9BF
330
E0227
100
AcDbEntity
  8
0
100
AcDbPolyline
 90
        4
 70
     0
 43
0.0
 10
2816.850667939149
 20
2710.121969454499
 10
2816.850667939149
 20
2729.655300570229
 10
2794.850667939149
 20
2729.655300570229
 10
2794.850667939149
 20
2710.121969454499
1001
PE_URL
1000

  0
LWPOLYLINE
  5
DF9C0
330
E0227
100
AcDbEntity
  8
0
100
AcDbPolyline
 90
        4
 70
     1
 43
0.0
 10
2794.850667939149
 20
2710.121969454499
 10
2794.850667939149
 20
2629.655300570229
 10
2784.350667939149
 20
2629.655300570229
 10
2784.350667939149
 20
2710.121969454499
1001
PE_URL
1000

  0
LWPOLYLINE
  5
DF9C1
330
E0227
100
AcDbEntity
  8
0
100
AcDbPolyline
 90
        4
 70
     1
 43
0.0
 10
2816.850667939149
 20
2710.121969454499
 10
2816.850667939149
 20
2629.655300570229
 10
2827.350667939149
 20
2629.655300570229
 10
2827.350667939149
 20
2710.121969454499
1001
PE_URL
1000

  0
LINE
  5
DF9C2
330
E0227
100
AcDbEntity
  8
0
100
AcDbLine
 10
2794.850667939149
 20
2708.121969454499
 30
0.0
 11
2816.850667939149
 21
2708.121969454499
 31
0.0
1001
PE_URL
1000

  0
LINE
  5
DF9C6
330
E0227
100
AcDbEntity
  8
0
100
AcDbLine
 10
2399.850667939267
 20
2631.655300570143
 30
0.0
 11
2421.850667939267
 21
2631.655300570143
 31
0.0
1001
PE_URL
1000

  0
LINE
  5
DF9C7
330
E0227
100
AcDbEntity
  8
0
100
AcDbLine
 10
2794.850667939149
 20
2631.655300570229
 30
0.0
 11
2816.850667939149
 21
2631.655300570229
 31
0.0
1001
PE_URL
1000

  0
LINE
  5
DFD43
330
E0227
100
AcDbEntity
  8
0
100
AcDbLine
 10
-3430.833394366972
 20
1294.085300570254
 30
0.0
 11
-3385.833394366972
 21
1301.085300570254
 31
0.0
  0
LINE
  5
DFD44
330
E0227
100
AcDbEntity
  8
0
100
AcDbLine
 10
-3430.833394366972
 20
1294.085300570254
 30
0.0
 11
-3440.833394366972
 21
1294.085300570254
 31
0.0
  0
LINE
  5
DFD45
330
E0227
100
AcDbEntity
  8
0
100
AcDbLine
 10
-3440.833394366972
 20
1294.085300570254
 30
0.0
 11
-3440.833394366972
 21
1292.085300570254
 31
0.0
  0
LINE
  5
DFD46
330
E0227
100
AcDbEntity
  8
0
100
AcDbLine
 10
-3440.833394366972
 20
1292.085300570254
 30
0.0
 11
-3425.833394366972
 21
1292.085300570254
 31
0.0
  0
LINE
  5
DFD48
330
E0227
100
AcDbEntity
  8
0
100
AcDbLine
 10
-3425.833394366972
 20
1292.085300570254
 30
0.0
 11
-3386.910483363157
 21
1288.774117008594
 31
0.0
  0
LINE
  5
DFD50
330
E0227
100
AcDbEntity
  8
0
100
AcDbLine
 10
-3307.984305365069
 20
1296.634942360854
 30
0.0
 11
-3307.984305365069
 21
1305.105300570255
 31
0.0
  0
LINE
  5
DFD51
330
E0227
100
AcDbEntity
  8
0
100
AcDbLine
 10
-3373.984305365069
 20
1305.105300570255
 30
0.0
 11
-3373.984305365069
 21
1301.085300570254
 31
0.0
  0
LINE
  5
DFD7A
330
E0227
100
AcDbEntity
  8
0
100
AcDbLine
 10
-3355.563227325169
 20
1247.619000107254
 30
0.0
 11
-3328.750537416869
 21
1283.200641403754
 31
0.0
  0
LINE
  5
DFD81
330
E0227
100
AcDbEntity
  8
0
100
AcDbLine
 10
-3388.984305365069
 20
1265.070223060454
 30
0.0
 11
-3386.139604689263
 21
1297.585300570254
 31
0.0
  0
LINE
  5
DFD83
330
E0227
100
AcDbEntity
  8
0
100
AcDbLine
 10
-3385.833394366972
 20
1301.085300570254
 30
0.0
 11
-3373.984305365069
 21
1301.085300570254
 31
0.0
  0
LINE
  5
DFD84
330
E0227
100
AcDbEntity
  8
0
100
AcDbLine
 10
-3386.139604689263
 20
1297.585300570254
 30
0.0
 11
-3385.833394366972
 21
1301.085300570254
 31
0.0
  0
LINE
  5
DFD89
330
E0227
100
AcDbEntity
  8
0
100
AcDbLine
 10
-3371.535937526176
 20
1239.655300570254
 30
0.0
 11
-3379.414305365062
 21
1239.655300570254
 31
0.0
  0
ARC
  5
DFD8A
330
E0227
100
AcDbEntity
  8
0
100
AcDbCircle
 10
-3379.414305365062
 20
1249.655300570254
 30
0.0
 40
9.999999999999892
100
AcDbArc
 50
196.8632195997582
 51
270.0
  0
LINE
  5
DFD8B
330
E0227
100
AcDbEntity
  8
0
100
AcDbLine
 10
-3388.984305365069
 20
1265.070223060454
 30
0.0
 11
-3388.984305365069
 21
1246.754421393155
 31
0.0
  0
ARC
  5
DFD9C
330
E0227
100
AcDbEntity
  8
0
100
AcDbCircle
 10
-3377.984305365069
 20
1249.655300570254
 30
0.0
 40
40.00000000000003
100
AcDbArc
 50
102.9111031049041
 51
180.0
  0
ARC
  5
DFD9D
330
E0227
100
AcDbEntity
  8
0
100
AcDbCircle
 10
-3377.984305365069
 20
1249.655300570254
 30
0.0
 40
40.00000000000003
100
AcDbArc
 50
180.0
 51
24.42598433980206
  0
ARC
  5
DFDA9
330
E0227
100
AcDbEntity
  8
0
100
AcDbCircle
 10
-3377.984305365069
 20
1249.655300570254
 30
0.0
 40
24.05045641402504
100
AcDbArc
 50
115.7633306377843
 51
180.0
  0
ARC
  5
DFDAA
330
E0227
100
AcDbEntity
  8
0
100
AcDbCircle
 10
-3377.984305365069
 20
1249.655300570254
 30
0.0
 40
24.05045641402504
100
AcDbArc
 50
180.0
 51
0.2990367185986669
  0
LINE
  5
DFDAD
330
E0227
100
AcDbEntity
  8
0
100
AcDbLine
 10
-3328.750537416869
 20
1283.200641403754
 30
0.0
 11
-3307.984305365069
 21
1296.634942360854
 31
0.0
  0
CIRCLE
  5
DFDAE
330
E0227
100
AcDbEntity
  8
0
100
AcDbCircle
 10
-3377.984305365069
 20
1249.655300570254
 30
0.0
 40
6.5
  0
LINE
  5
DFDB6
330
E0227
100
AcDbEntity
  8
0
100
AcDbLine
 10
-3371.535937526176
 20
1239.655300570254
 30
0.0
 11
-3355.563227325169
 21
1247.619000107254
 31
0.0
  0
ARC
  5
DFDB7
330
E0227
100
AcDbEntity
  8
0
100
AcDbCircle
 10
-3377.984305365069
 20
1249.655300570254
 30
0.0
 40
13.99999999999864
100
AcDbArc
 50
141.786789298269
 51
328.8541418873026
  0
LWPOLYLINE
  5
DFDBA
330
E0227
100
AcDbEntity
  8
0
100
AcDbPolyline
 90
        4
 70
     1
 43
0.0
 10
-3390.984305365069
 20
1319.655300570316
 10
-3290.984305365069
 20
1319.655300570316
 10
-3290.984305365069
 20
1317.155300570316
 10
-3390.984305365069
 20
1317.155300570316
  0
LWPOLYLINE
  5
DFDCD
330
E0227
100
AcDbEntity
  8
0
100
AcDbPolyline
 90
        4
 70
     1
 43
0.0
 10
-3376.984305364371
 20
1317.155300570316
 10
-3375.485526028366
 20
1305.105300570255
 10
-3306.483084701773
 20
1305.105300570255
 10
-3304.984305365768
 20
1317.155300570316
  0
LINE
  5
DFDE6
330
E0227
100
AcDbEntity
  8
0
100
AcDbLine
 10
-2667.98430536507
 20
1296.634942360768
 30
0.0
 11
-2667.98430536507
 21
1305.105300570169
 31
0.0
  0
LINE
  5
DFDE7
330
E0227
100
AcDbEntity
  8
0
100
AcDbLine
 10
-2733.98430536507
 20
1305.105300570169
 30
0.0
 11
-2733.98430536507
 21
1301.085300570168
 31
0.0
  0
LINE
  5
DFDE8
330
E0227
100
AcDbEntity
  8
0
100
AcDbLine
 10
-2715.563227325169
 20
1247.619000107168
 30
0.0
 11
-2688.750537416869
 21
1283.200641403668
 31
0.0
  0
LINE
  5
DFDE9
330
E0227
100
AcDbEntity
  8
0
100
AcDbLine
 10
-2748.98430536507
 20
1265.070223060368
 30
0.0
 11
-2746.139604689263
 21
1297.585300570168
 31
0.0
  0
LINE
  5
DFDEA
330
E0227
100
AcDbEntity
  8
0
100
AcDbLine
 10
-2745.833394366972
 20
1301.085300570168
 30
0.0
 11
-2733.98430536507
 21
1301.085300570168
 31
0.0
  0
LINE
  5
DFDEB
330
E0227
100
AcDbEntity
  8
0
100
AcDbLine
 10
-2746.139604689263
 20
1297.585300570168
 30
0.0
 11
-2745.833394366972
 21
1301.085300570168
 31
0.0
  0
LINE
  5
DFDEC
330
E0227
100
AcDbEntity
  8
0
100
AcDbLine
 10
-2731.535937526177
 20
1239.655300570168
 30
0.0
 11
-2739.414305365063
 21
1239.655300570168
 31
0.0
  0
ARC
  5
DFDED
330
E0227
100
AcDbEntity
  8
0
100
AcDbCircle
 10
-2739.414305365063
 20
1249.655300570168
 30
0.0
 40
9.999999999999892
100
AcDbArc
 50
196.8632195997582
 51
270.0
  0
LINE
  5
DFDEE
330
E0227
100
AcDbEntity
  8
0
100
AcDbLine
 10
-2748.98430536507
 20
1265.070223060368
 30
0.0
 11
-2748.98430536507
 21
1246.754421393069
 31
0.0
  0
ARC
  5
DFDEF
330
E0227
100
AcDbEntity
  8
0
100
AcDbCircle
 10
-2737.98430536507
 20
1249.655300570168
 30
0.0
 40
40.00000000000003
100
AcDbArc
 50
102.9111031049041
 51
180.0
  0
ARC
  5
DFDF0
330
E0227
100
AcDbEntity
  8
0
100
AcDbCircle
 10
-2737.98430536507
 20
1249.655300570168
 30
0.0
 40
40.00000000000003
100
AcDbArc
 50
180.0
 51
24.42598433980206
  0
ARC
  5
DFDF1
330
E0227
100
AcDbEntity
  8
0
100
AcDbCircle
 10
-2737.98430536507
 20
1249.655300570168
 30
0.0
 40
24.05045641402504
100
AcDbArc
 50
115.7633306377843
 51
180.0
  0
ARC
  5
DFDF2
330
E0227
100
AcDbEntity
  8
0
100
AcDbCircle
 10
-2737.98430536507
 20
1249.655300570168
 30
0.0
 40
24.05045641402504
100
AcDbArc
 50
180.0
 51
0.2990367185986669
  0
LINE
  5
DFDF3
330
E0227
100
AcDbEntity
  8
0
100
AcDbLine
 10
-2688.750537416869
 20
1283.200641403668
 30
0.0
 11
-2667.98430536507
 21
1296.634942360768
 31
0.0
  0
CIRCLE
  5
DFDF4
330
E0227
100
AcDbEntity
  8
0
100
AcDbCircle
 10
-2737.98430536507
 20
1249.655300570168
 30
0.0
 40
6.5
  0
LINE
  5
DFDF5
330
E0227
100
AcDbEntity
  8
0
100
AcDbLine
 10
-2731.535937526177
 20
1239.655300570168
 30
0.0
 11
-2715.563227325169
 21
1247.619000107168
 31
0.0
  0
ARC
  5
DFDF6
330
E0227
100
AcDbEntity
  8
0
100
AcDbCircle
 10
-2737.98430536507
 20
1249.655300570168
 30
0.0
 40
13.99999999999864
100
AcDbArc
 50
141.786789298269
 51
328.8541418873026
  0
LWPOLYLINE
  5
DFDF7
330
E0227
100
AcDbEntity
  8
0
100
AcDbPolyline
 90
        4
 70
     1
 43
0.0
 10
-2750.98430536507
 20
1319.65530057023
 10
-2650.98430536507
 20
1319.65530057023
 10
-2650.98430536507
 20
1317.15530057023
 10
-2750.98430536507
 20
1317.15530057023
  0
LWPOLYLINE
  5
DFDF8
330
E0227
100
AcDbEntity
  8
0
100
AcDbPolyline
 90
        4
 70
     1
 43
0.0
 10
-2736.984305364371
 20
1317.15530057023
 10
-2735.485526028366
 20
1305.105300570169
 10
-2666.483084701774
 20
1305.105300570169
 10
-2664.984305365768
 20
1317.15530057023
  0
LINE
  5
DFDF9
330
E0227
100
AcDbEntity
  8
0
100
AcDbLine
 10
-669.9823274337259
 20
1294.085300570254
 30
0.0
 11
-624.9823274337259
 21
1301.085300570254
 31
0.0
  0
LINE
  5
DFDFA
330
E0227
100
AcDbEntity
  8
0
100
AcDbLine
 10
-669.9823274337259
 20
1294.085300570254
 30
0.0
 11
-679.9823274337259
 21
1294.085300570254
 31
0.0
  0
LINE
  5
DFDFB
330
E0227
100
AcDbEntity
  8
0
100
AcDbLine
 10
-679.9823274337259
 20
1294.085300570254
 30
0.0
 11
-679.9823274337259
 21
1292.085300570254
 31
0.0
  0
LINE
  5
DFDFC
330
E0227
100
AcDbEntity
  8
0
100
AcDbLine
 10
-679.9823274337259
 20
1292.085300570254
 30
0.0
 11
-664.9823274337259
 21
1292.085300570254
 31
0.0
  0
LINE
  5
DFDFD
330
E0227
100
AcDbEntity
  8
0
100
AcDbLine
 10
-664.9823274337259
 20
1292.085300570254
 30
0.0
 11
-626.0594164299118
 21
1288.774117008594
 31
0.0
  0
LINE
  5
DFDFE
330
E0227
100
AcDbEntity
  8
0
100
AcDbLine
 10
-547.1332384318239
 20
1296.634942360854
 30
0.0
 11
-547.1332384318239
 21
1305.105300570255
 31
0.0
  0
LINE
  5
DFDFF
330
E0227
100
AcDbEntity
  8
0
100
AcDbLine
 10
-613.1332384318239
 20
1305.105300570255
 30
0.0
 11
-613.1332384318239
 21
1301.085300570254
 31
0.0
  0
LINE
  5
DFE00
330
E0227
100
AcDbEntity
  8
0
100
AcDbLine
 10
-594.7121603919231
 20
1247.619000107254
 30
0.0
 11
-567.8994704836232
 21
1283.200641403754
 31
0.0
  0
LINE
  5
DFE01
330
E0227
100
AcDbEntity
  8
0
100
AcDbLine
 10
-628.1332384318239
 20
1265.070223060454
 30
0.0
 11
-625.2885377560169
 21
1297.585300570254
 31
0.0
  0
LINE
  5
DFE02
330
E0227
100
AcDbEntity
  8
0
100
AcDbLine
 10
-624.9823274337259
 20
1301.085300570254
 30
0.0
 11
-613.1332384318239
 21
1301.085300570254
 31
0.0
  0
LINE
  5
DFE03
330
E0227
100
AcDbEntity
  8
0
100
AcDbLine
 10
-625.2885377560169
 20
1297.585300570254
 30
0.0
 11
-624.9823274337259
 21
1301.085300570254
 31
0.0
  0
LINE
  5
DFE04
330
E0227
100
AcDbEntity
  8
0
100
AcDbLine
 10
-610.6848705929306
 20
1239.655300570254
 30
0.0
 11
-618.5632384318169
 21
1239.655300570254
 31
0.0
  0
ARC
  5
DFE05
330
E0227
100
AcDbEntity
  8
0
100
AcDbCircle
 10
-618.5632384318169
 20
1249.655300570254
 30
0.0
 40
9.999999999999892
100
AcDbArc
 50
196.8632195997583
 51
270.0
  0
LINE
  5
DFE06
330
E0227
100
AcDbEntity
  8
0
100
AcDbLine
 10
-628.1332384318239
 20
1265.070223060454
 30
0.0
 11
-628.1332384318239
 21
1246.754421393155
 31
0.0
  0
ARC
  5
DFE07
330
E0227
100
AcDbEntity
  8
0
100
AcDbCircle
 10
-617.1332384318239
 20
1249.655300570254
 30
0.0
 40
40.00000000000003
100
AcDbArc
 50
102.9111031049041
 51
180.0
  0
ARC
  5
DFE08
330
E0227
100
AcDbEntity
  8
0
100
AcDbCircle
 10
-617.1332384318239
 20
1249.655300570254
 30
0.0
 40
40.00000000000003
100
AcDbArc
 50
180.0
 51
24.425984339802
  0
ARC
  5
DFE09
330
E0227
100
AcDbEntity
  8
0
100
AcDbCircle
 10
-617.1332384318239
 20
1249.655300570254
 30
0.0
 40
24.05045641402504
100
AcDbArc
 50
115.7633306377843
 51
180.0
  0
ARC
  5
DFE0A
330
E0227
100
AcDbEntity
  8
0
100
AcDbCircle
 10
-617.1332384318239
 20
1249.655300570254
 30
0.0
 40
24.05045641402504
100
AcDbArc
 50
180.0
 51
0.2990367185986698
  0
LINE
  5
DFE0B
330
E0227
100
AcDbEntity
  8
0
100
AcDbLine
 10
-567.8994704836232
 20
1283.200641403754
 30
0.0
 11
-547.1332384318239
 21
1296.634942360854
 31
0.0
  0
CIRCLE
  5
DFE0C
330
E0227
100
AcDbEntity
  8
0
100
AcDbCircle
 10
-617.1332384318239
 20
1249.655300570254
 30
0.0
 40
6.5
  0
LINE
  5
DFE0D
330
E0227
100
AcDbEntity
  8
0
100
AcDbLine
 10
-610.6848705929306
 20
1239.655300570254
 30
0.0
 11
-594.7121603919231
 21
1247.619000107254
 31
0.0
  0
ARC
  5
DFE0E
330
E0227
100
AcDbEntity
  8
0
100
AcDbCircle
 10
-617.1332384318239
 20
1249.655300570254
 30
0.0
 40
13.99999999999864
100
AcDbArc
 50
141.786789298269
 51
328.8541418873028
  0
LWPOLYLINE
  5
DFE0F
330
E0227
100
AcDbEntity
  8
0
100
AcDbPolyline
 90
        4
 70
     1
 43
0.0
 10
-630.1332384318239
 20
1319.655300570316
 10
-530.1332384318239
 20
1319.655300570316
 10
-530.1332384318239
 20
1317.155300570316
 10
-630.1332384318239
 20
1317.155300570316
  0
LWPOLYLINE
  5
DFE10
330
E0227
100
AcDbEntity
  8
0
100
AcDbPolyline
 90
        4
 70
     1
 43
0.0
 10
-616.1332384311254
 20
1317.155300570316
 10
-614.6344590951203
 20
1305.105300570255
 10
-545.6320177685275
 20
1305.105300570255
 10
-544.1332384325224
 20
1317.155300570316
  0
LINE
  5
DFE11
330
E0227
100
AcDbEntity
  8
0
100
AcDbLine
 10
342.8667615681757
 20
1296.634942360768
 30
0.0
 11
342.8667615681757
 21
1305.105300570169
 31
0.0
  0
LINE
  5
DFE12
330
E0227
100
AcDbEntity
  8
0
100
AcDbLine
 10
276.8667615681757
 20
1305.105300570169
 30
0.0
 11
276.8667615681757
 21
1301.085300570168
 31
0.0
  0
LINE
  5
DFE13
330
E0227
100
AcDbEntity
  8
0
100
AcDbLine
 10
295.2878396080764
 20
1247.619000107168
 30
0.0
 11
322.1005295163764
 21
1283.200641403668
 31
0.0
  0
LINE
  5
DFE14
330
E0227
100
AcDbEntity
  8
0
100
AcDbLine
 10
261.8667615681757
 20
1265.070223060368
 30
0.0
 11
264.7114622439826
 21
1297.585300570168
 31
0.0
  0
LINE
  5
DFE15
330
E0227
100
AcDbEntity
  8
0
100
AcDbLine
 10
265.0176725662737
 20
1301.085300570168
 30
0.0
 11
276.8667615681757
 21
1301.085300570168
 31
0.0
  0
LINE
  5
DFE16
330
E0227
100
AcDbEntity
  8
0
100
AcDbLine
 10
264.7114622439826
 20
1297.585300570168
 30
0.0
 11
265.0176725662737
 21
1301.085300570168
 31
0.0
  0
LINE
  5
DFE17
330
E0227
100
AcDbEntity
  8
0
100
AcDbLine
 10
279.315129407069
 20
1239.655300570168
 30
0.0
 11
271.4367615681827
 21
1239.655300570168
 31
0.0
  0
ARC
  5
DFE18
330
E0227
100
AcDbEntity
  8
0
100
AcDbCircle
 10
271.4367615681827
 20
1249.655300570168
 30
0.0
 40
9.999999999999892
100
AcDbArc
 50
196.8632195997583
 51
270.0
  0
LINE
  5
DFE19
330
E0227
100
AcDbEntity
  8
0
100
AcDbLine
 10
261.8667615681757
 20
1265.070223060368
 30
0.0
 11
261.8667615681757
 21
1246.754421393069
 31
0.0
  0
ARC
  5
DFE1A
330
E0227
100
AcDbEntity
  8
0
100
AcDbCircle
 10
272.8667615681757
 20
1249.655300570168
 30
0.0
 40
40.00000000000003
100
AcDbArc
 50
102.9111031049041
 51
180.0
  0
ARC
  5
DFE1B
330
E0227
100
AcDbEntity
  8
0
100
AcDbCircle
 10
272.8667615681757
 20
1249.655300570168
 30
0.0
 40
40.00000000000003
100
AcDbArc
 50
180.0
 51
24.42598433980196
  0
ARC
  5
DFE1C
330
E0227
100
AcDbEntity
  8
0
100
AcDbCircle
 10
272.8667615681757
 20
1249.655300570168
 30
0.0
 40
24.05045641402504
100
AcDbArc
 50
115.7633306377843
 51
180.0
  0
ARC
  5
DFE1D
330
E0227
100
AcDbEntity
  8
0
100
AcDbCircle
 10
272.8667615681757
 20
1249.655300570168
 30
0.0
 40
24.05045641402504
100
AcDbArc
 50
180.0
 51
0.2990367185986698
  0
LINE
  5
DFE1E
330
E0227
100
AcDbEntity
  8
0
100
AcDbLine
 10
322.1005295163764
 20
1283.200641403668
 30
0.0
 11
342.8667615681757
 21
1296.634942360768
 31
0.0
  0
CIRCLE
  5
DFE1F
330
E0227
100
AcDbEntity
  8
0
100
AcDbCircle
 10
272.8667615681757
 20
1249.655300570168
 30
0.0
 40
6.5
  0
LINE
  5
DFE20
330
E0227
100
AcDbEntity
  8
0
100
AcDbLine
 10
279.315129407069
 20
1239.655300570168
 30
0.0
 11
295.2878396080764
 21
1247.619000107168
 31
0.0
  0
ARC
  5
DFE21
330
E0227
100
AcDbEntity
  8
0
100
AcDbCircle
 10
272.8667615681757
 20
1249.655300570168
 30
0.0
 40
13.99999999999864
100
AcDbArc
 50
141.786789298269
 51
328.8541418873028
  0
LWPOLYLINE
  5
DFE22
330
E0227
100
AcDbEntity
  8
0
100
AcDbPolyline
 90
        4
 70
     1
 43
0.0
 10
259.8667615681757
 20
1319.65530057023
 10
359.8667615681757
 20
1319.65530057023
 10
359.8667615681757
 20
1317.15530057023
 10
259.8667615681757
 20
1317.15530057023
  0
LWPOLYLINE
  5
DFE23
330
E0227
100
AcDbEntity
  8
0
100
AcDbPolyline
 90
        4
 70
     1
 43
0.0
 10
273.8667615688742
 20
1317.15530057023
 10
275.3655409048793
 20
1305.105300570169
 10
344.3679822314721
 20
1305.105300570169
 10
345.8667615674772
 20
1317.15530057023
  0
VIEWPORT
  5
DAB74
330
E0225
100
AcDbEntity
 67
     1
  8
0
100
AcDbViewport
 10
0.0
 20
0.0
 30
0.0
 40
10.87270777479893
 41
8.16
 68
     1
 69
     1
 12
6.065999999999998
 22
3.851238605898123
 13
0.0
 23
0.0
 14
0.5
 24
0.5
 15
0.0
 25
0.0
 16
0.0
 26
0.0
 36
1.0
 17
0.0
 27
0.0
 37
0.0
 42
50.0
 43
0.0
 44
0.0
 45
8.16
 50
0.0
 51
0.0
 72
   100
 90
   557296
  1

281
     0
 71
     0
 74
     0
110
0.0
120
0.0
130
0.0
111
1.0
121
0.0
131
0.0
112
0.0
122
1.0
132
0.0
 79
     0
146
0.0
170
     0
 61
     5
348
E0287
292
     1
282
     1
141
0.0
142
0.0
 63
   256
  0
VIEWPORT
  5
DAB75
330
E0225
100
AcDbEntity
 67
     1
  8
0
100
AcDbViewport
 10
5.25
 20
4.0
 30
0.0
 40
8.4
 41
6.4
 68
     2
 69
     2
 12
-238.8342129778575
 22
5240.682605436173
 13
0.0
 23
0.0
 14
0.5
 24
0.5
 15
0.0
 25
0.0
 16
0.0
 26
0.0
 36
1.0
 17
0.0
 27
0.0
 37
0.0
 42
50.0
 43
0.0
 44
0.0
 45
12730.99251508979
 50
0.0
 51
0.0
 72
   100
 90
   557280
  1

281
     0
 71
     0
 74
     0
110
0.0
120
0.0
130
0.0
111
1.0
121
0.0
131
0.0
112
0.0
122
1.0
132
0.0
 79
     0
146
0.0
170
     0
 61
     5
348
E0287
292
     1
282
     1
141
0.0
142
0.0
 63
   256
  0
ENDSEC
  0
SECTION
  2
OBJECTS
  0
DICTIONARY
  5
E0217
330
0
100
AcDbDictionary
281
     1
  3
ACAD_DETAILVIEWSTYLE
350
E02A8
  3
ACAD_GROUP
350
E0218
  3
ACAD_LAYOUT
350
E0224
  3
ACAD_MATERIAL
350
E022D
  3
ACAD_MLEADERSTYLE
350
E029D
  3
ACAD_MLINESTYLE
350
E0221
  3
ACAD_PLOTSETTINGS
350
E0223
  3
ACAD_PLOTSTYLENAME
350
E0219
  3
ACAD_SCALELIST
350
E0260
  3
ACAD_SECTIONVIEWSTYLE
350
E02A9
  3
ACAD_TABLESTYLE
350
E029B
  3
ACAD_VISUALSTYLE
350
E0282
  3
ACDB_RECOMPOSE_DATA
350
E02B1
  3
AcDbVariableDictionary
350
E02A3
  3
APPDATA
350
E029F
  3
PRINTCONFIG
350
E02AE
  0
SUN
  5
E02AA
330
E022A
100
AcDbSun
 90
        1
290
     0
 63
     7
421
 16777215
 40
1.0
291
     1
 91
  2455826
 92
 54000000
292
     0
 70
     2
 71
   256
280
     1
  0
DICTIONARY
  5
E02A1
330
E0227
100
AcDbDictionary
280
     1
281
     1
  3
DIM_BOUNDING_BOXES_V1
360
E02A2
  0
DICTIONARY
  5
E02A8
102
{ACAD_REACTORS
330
E0217
102
}
330
E0217
100
AcDbDictionary
281
     1
  0
DICTIONARY
  5
E0218
102
{ACAD_REACTORS
330
E0217
102
}
330
E0217
100
AcDbDictionary
281
     1
  0
DICTIONARY
  5
E0224
102
{ACAD_REACTORS
330
E0217
102
}
330
E0217
100
AcDbDictionary
281
     1
  3
Foglio1
350
E0226
  3
Model
350
E0228
  0
DICTIONARY
  5
E022D
102
{ACAD_REACTORS
330
E0217
102
}
330
E0217
100
AcDbDictionary
281
     1
  3
ByBlock
350
E022F
  3
ByLayer
350
E022E
  3
Global
350
E0230
  0
DICTIONARY
  5
E029D
102
{ACAD_REACTORS
330
E0217
102
}
330
E0217
100
AcDbDictionary
281
     1
  3
Standard
350
E029E
  0
DICTIONARY
  5
E0221
102
{ACAD_REACTORS
330
E0217
102
}
330
E0217
100
AcDbDictionary
281
     1
  3
Standard
350
E0222
  0
DICTIONARY
  5
E0223
102
{ACAD_REACTORS
330
E0217
102
}
330
E0217
100
AcDbDictionary
281
     1
  0
ACDBDICTIONARYWDFLT
  5
E0219
102
{ACAD_REACTORS
330
E0217
102
}
330
E0217
100
AcDbDictionary
281
     1
  3
Normal
350
E021A
100
AcDbDictionaryWithDefault
340
E021A
  0
DICTIONARY
  5
E0260
102
{ACAD_REACTORS
330
E0217
102
}
330
E0217
100
AcDbDictionary
281
     1
  3
A0
350
E0261
  3
A1
350
E0262
  3
A2
350
E0263
  3
A3
350
E0264
  3
A4
350
E0265
  3
A5
350
E0266
  3
A6
350
E0267
  3
A7
350
E0268
  3
A8
350
E0269
  3
A9
350
E026A
  3
B0
350
E026B
  3
B1
350
E026C
  3
B2
350
E026D
  3
B3
350
E026E
  3
B4
350
E026F
  3
B5
350
E0270
  3
B6
350
E0271
  3
B7
350
E0272
  3
B8
350
E0273
  3
B9
350
E0274
  3
C0
350
E0275
  3
C1
350
E0276
  3
C2
350
E0277
  3
C3
350
E0278
  3
C4
350
E0279
  3
C5
350
E027A
  3
C6
350
E027B
  3
C7
350
E027C
  3
C8
350
E027D
  3
C9
350
E027E
  3
D0
350
E027F
  3
D1
350
E0280
  3
D2
350
E0281
  0
DICTIONARY
  5
E02A9
102
{ACAD_REACTORS
330
E0217
102
}
330
E0217
100
AcDbDictionary
281
     1
  0
DICTIONARY
  5
E029B
102
{ACAD_REACTORS
330
E0217
102
}
330
E0217
100
AcDbDictionary
281
     1
  3
Standard
350
E029C
  0
DICTIONARY
  5
E0282
102
{ACAD_REACTORS
330
E0217
102
}
330
E0217
100
AcDbDictionary
281
     1
  3
2dWireframe
350
E0287
  3
Basic
350
E028A
  3
Brighten
350
E028E
  3
ColorChange
350
E0292
  3
Conceptual
350
E028C
  3
Dim
350
E028D
  3
EdgeColorOff
350
E0295
  3
Facepattern
350
E0291
  3
Flat
350
E0283
  3
FlatWithEdges
350
E0284
  3
Gouraud
350
E0285
  3
GouraudWithEdges
350
E0286
  3
Hidden
350
E0289
  3
JitterOff
350
E0293
  3
Linepattern
350
E0290
  3
OverhangOff
350
E0294
  3
Realistic
350
E028B
  3
Shaded
350
E029A
  3
Shaded with edges
350
E0299
  3
Shades of Gray
350
E0296
  3
Sketchy
350
E0297
  3
Thicken
350
E028F
  3
Wireframe
350
E0288
  3
X-Ray
350
E0298
  0
XRECORD
  5
E02B1
102
{ACAD_REACTORS
330
E0217
102
}
330
E0217
100
AcDbXrecord
280
     1
 90
        1
330
E029C
  0
DICTIONARY
  5
E02A3
102
{ACAD_REACTORS
330
E0217
102
}
330
E0217
100
AcDbDictionary
281
     1
  3
CANNOSCALE
350
E02A4
  3
CMLEADERSTYLE
350
E02A6
  3
CTABLESTYLE
350
E02A5
  3
MSLTSCALE
350
E02A7
  0
DICTIONARY
  5
E029F
102
{ACAD_REACTORS
330
E0217
102
}
330
E0217
100
AcDbDictionary
281
     1
  0
DICTIONARYVAR
  5
E02AE
102
{ACAD_REACTORS
330
E0217
102
}
330
E0217
100
DictionaryVariables
280
     0
  1
0
  0
DICTIONARY
  5
E02A2
102
{ACAD_REACTORS
330
E02A1
102
}
330
E02A1
100
AcDbDictionary
281
     1
  0
LAYOUT
  5
E0226
102
{ACAD_REACTORS
330
E0224
102
}
330
E0224
100
AcDbPlotSettings
  1

  2
none_device
  4

  6

 40
0.0
 41
0.0
 42
0.0
 43
0.0
 44
0.0
 45
0.0
 46
0.0
 47
0.0
 48
0.0
 49
0.0
140
0.0
141
0.0
142
1.0
143
1.0
 70
   688
 72
     0
 73
     0
 74
     5
  7

 75
    16
 76
     0
 77
     2
 78
   300
147
1.0
148
0.0
149
0.0
100
AcDbLayout
  1
Foglio1
 70
     1
 71
     1
 10
0.0
 20
0.0
 11
0.0
 21
0.0
 12
0.0
 22
0.0
 32
0.0
 14
0.0
 24
0.0
 34
0.0
 15
0.0
 25
0.0
 35
0.0
146
0.0
 13
0.0
 23
0.0
 33
0.0
 16
1.0
 26
0.0
 36
0.0
 17
0.0
 27
1.0
 37
0.0
 76
     0
330
E0225
331
DAB74
  0
LAYOUT
  5
E0228
102
{ACAD_REACTORS
330
E0224
102
}
330
E0224
100
AcDbPlotSettings
  1

  2
none_device
  4
Letter_(8.50_x_11.00_Inches)
  6

 40
6.35
 41
6.35
 42
6.35
 43
6.35
 44
215.9
 45
279.4
 46
0.0
 47
0.0
 48
0.0
 49
0.0
140
0.0
141
0.0
142
1.0
143
1.0
 70
  1712
 72
     0
 73
     0
 74
     0
  7

 75
     0
 76
     0
 77
     2
 78
   300
147
1.0
148
0.0
149
0.0
100
AcDbLayout
  1
Model
 70
     1
 71
     0
 10
0.0
 20
0.0
 11
12.0
 21
9.0
 12
0.0
 22
0.0
 32
0.0
 14
-4012.685974119231
 24
-987.6576470269356
 34
0.0
 15
4012.685974119231
 25
4469.65530057021
 35
0.0
146
0.0
 13
0.0
 23
0.0
 33
0.0
 16
1.0
 26
0.0
 36
0.0
 17
0.0
 27
1.0
 37
0.0
 76
     0
330
E0227
331
E022A
  0
MATERIAL
  5
E022F
102
{ACAD_REACTORS
330
E022D
102
}
330
E022D
100
AcDbMaterial
  1
ByBlock
 72
     1
 94
      127
  0
MATERIAL
  5
E022E
102
{ACAD_REACTORS
330
E022D
102
}
330
E022D
100
AcDbMaterial
  1
ByLayer
 72
     1
 94
      127
  0
MATERIAL
  5
E0230
102
{ACAD_REACTORS
330
E022D
102
}
330
E022D
100
AcDbMaterial
  1
Global
 72
     1
 94
      127
  0
MLEADERSTYLE
  5
E029E
102
{ACAD_REACTORS
330
E029D
102
}
330
E029D
100
AcDbMLeaderStyle
179
     2
170
     2
171
     1
172
     0
 90
        2
 40
0.0
 41
0.0
173
     1
 91
-1056964608
340
E021E
 92
       -2
290
     1
 42
0.09
291
     1
 43
0.36
  3
Standard
341
0
 44
0.18
300

342
E021C
174
     1
178
     1
175
     1
176
     0
 93
-1056964608
 45
0.18
292
     0
297
     0
 46
0.18
343
0
 94
-1056964608
 47
1.0
 49
1.0
140
1.0
293
     1
141
0.0
294
     1
177
     0
142
1.0
295
     0
296
     0
143
0.125
271
     0
272
     9
273
     9
298
     0
  0
MLINESTYLE
  5
E0222
102
{ACAD_REACTORS
330
E0221
102
}
330
E0221
100
AcDbMlineStyle
  2
Standard
 70
     0
  3

 62
   256
 51
90.0
 52
90.0
 71
     2
 49
0.5
 62
   256
  6
BYLAYER
 49
-0.5
 62
   256
  6
BYLAYER
  0
ACDBPLACEHOLDER
  5
E021A
102
{ACAD_REACTORS
330
E0219
102
}
330
E0219
  0
SCALE
  5
E0261
102
{ACAD_REACTORS
330
E0260
102
}
330
E0260
100
AcDbScale
 70
     0
300
1:1
140
1.0
141
1.0
290
     1
  0
SCALE
  5
E0262
102
{ACAD_REACTORS
330
E0260
102
}
330
E0260
100
AcDbScale
 70
     0
300
1:2
140
1.0
141
2.0
290
     0
  0
SCALE
  5
E0263
102
{ACAD_REACTORS
330
E0260
102
}
330
E0260
100
AcDbScale
 70
     0
300
1:4
140
1.0
141
4.0
290
     0
  0
SCALE
  5
E0264
102
{ACAD_REACTORS
330
E0260
102
}
330
E0260
100
AcDbScale
 70
     0
300
1:5
140
1.0
141
5.0
290
     0
  0
SCALE
  5
E0265
102
{ACAD_REACTORS
330
E0260
102
}
330
E0260
100
AcDbScale
 70
     0
300
1:8
140
1.0
141
8.0
290
     0
  0
SCALE
  5
E0266
102
{ACAD_REACTORS
330
E0260
102
}
330
E0260
100
AcDbScale
 70
     0
300
1:10
140
1.0
141
10.0
290
     0
  0
SCALE
  5
E0267
102
{ACAD_REACTORS
330
E0260
102
}
330
E0260
100
AcDbScale
 70
     0
300
1:16
140
1.0
141
16.0
290
     0
  0
SCALE
  5
E0268
102
{ACAD_REACTORS
330
E0260
102
}
330
E0260
100
AcDbScale
 70
     0
300
1:20
140
1.0
141
20.0
290
     0
  0
SCALE
  5
E0269
102
{ACAD_REACTORS
330
E0260
102
}
330
E0260
100
AcDbScale
 70
     0
300
1:30
140
1.0
141
30.0
290
     0
  0
SCALE
  5
E026A
102
{ACAD_REACTORS
330
E0260
102
}
330
E0260
100
AcDbScale
 70
     0
300
1:40
140
1.0
141
40.0
290
     0
  0
SCALE
  5
E026B
102
{ACAD_REACTORS
330
E0260
102
}
330
E0260
100
AcDbScale
 70
     0
300
1:50
140
1.0
141
50.0
290
     0
  0
SCALE
  5
E026C
102
{ACAD_REACTORS
330
E0260
102
}
330
E0260
100
AcDbScale
 70
     0
300
1:100
140
1.0
141
100.0
290
     0
  0
SCALE
  5
E026D
102
{ACAD_REACTORS
330
E0260
102
}
330
E0260
100
AcDbScale
 70
     0
300
2:1
140
2.0
141
1.0
290
     0
  0
SCALE
  5
E026E
102
{ACAD_REACTORS
330
E0260
102
}
330
E0260
100
AcDbScale
 70
     0
300
4:1
140
4.0
141
1.0
290
     0
  0
SCALE
  5
E026F
102
{ACAD_REACTORS
330
E0260
102
}
330
E0260
100
AcDbScale
 70
     0
300
8:1
140
8.0
141
1.0
290
     0
  0
SCALE
  5
E0270
102
{ACAD_REACTORS
330
E0260
102
}
330
E0260
100
AcDbScale
 70
     0
300
10:1
140
10.0
141
1.0
290
     0
  0
SCALE
  5
E0271
102
{ACAD_REACTORS
330
E0260
102
}
330
E0260
100
AcDbScale
 70
     0
300
100:1
140
100.0
141
1.0
290
     0
  0
SCALE
  5
E0272
102
{ACAD_REACTORS
330
E0260
102
}
330
E0260
100
AcDbScale
 70
     0
300
1/128" = 1'-0"
140
0.0078125
141
12.0
290
     0
  0
SCALE
  5
E0273
102
{ACAD_REACTORS
330
E0260
102
}
330
E0260
100
AcDbScale
 70
     0
300
1/64" = 1'-0"
140
0.015625
141
12.0
290
     0
  0
SCALE
  5
E0274
102
{ACAD_REACTORS
330
E0260
102
}
330
E0260
100
AcDbScale
 70
     0
300
1/32" = 1'-0"
140
0.03125
141
12.0
290
     0
  0
SCALE
  5
E0275
102
{ACAD_REACTORS
330
E0260
102
}
330
E0260
100
AcDbScale
 70
     0
300
1/16" = 1'-0"
140
0.0625
141
12.0
290
     0
  0
SCALE
  5
E0276
102
{ACAD_REACTORS
330
E0260
102
}
330
E0260
100
AcDbScale
 70
     0
300
3/32" = 1'-0"
140
0.09375
141
12.0
290
     0
  0
SCALE
  5
E0277
102
{ACAD_REACTORS
330
E0260
102
}
330
E0260
100
AcDbScale
 70
     0
300
1/8" = 1'-0"
140
0.125
141
12.0
290
     0
  0
SCALE
  5
E0278
102
{ACAD_REACTORS
330
E0260
102
}
330
E0260
100
AcDbScale
 70
     0
300
3/16" = 1'-0"
140
0.1875
141
12.0
290
     0
  0
SCALE
  5
E0279
102
{ACAD_REACTORS
330
E0260
102
}
330
E0260
100
AcDbScale
 70
     0
300
1/4" = 1'-0"
140
0.25
141
12.0
290
     0
  0
SCALE
  5
E027A
102
{ACAD_REACTORS
330
E0260
102
}
330
E0260
100
AcDbScale
 70
     0
300
3/8" = 1'-0"
140
0.375
141
12.0
290
     0
  0
SCALE
  5
E027B
102
{ACAD_REACTORS
330
E0260
102
}
330
E0260
100
AcDbScale
 70
     0
300
1/2" = 1'-0"
140
0.5
141
12.0
290
     0
  0
SCALE
  5
E027C
102
{ACAD_REACTORS
330
E0260
102
}
330
E0260
100
AcDbScale
 70
     0
300
3/4" = 1'-0"
140
0.75
141
12.0
290
     0
  0
SCALE
  5
E027D
102
{ACAD_REACTORS
330
E0260
102
}
330
E0260
100
AcDbScale
 70
     0
300
1" = 1'-0"
140
1.0
141
12.0
290
     0
  0
SCALE
  5
E027E
102
{ACAD_REACTORS
330
E0260
102
}
330
E0260
100
AcDbScale
 70
     0
300
1-1/2" = 1'-0"
140
1.5
141
12.0
290
     0
  0
SCALE
  5
E027F
102
{ACAD_REACTORS
330
E0260
102
}
330
E0260
100
AcDbScale
 70
     0
300
3" = 1'-0"
140
3.0
141
12.0
290
     0
  0
SCALE
  5
E0280
102
{ACAD_REACTORS
330
E0260
102
}
330
E0260
100
AcDbScale
 70
     0
300
6" = 1'-0"
140
6.0
141
12.0
290
     0
  0
SCALE
  5
E0281
102
{ACAD_REACTORS
330
E0260
102
}
330
E0260
100
AcDbScale
 70
     0
300
1'-0" = 1'-0"
140
12.0
141
12.0
290
     0
  0
TABLESTYLE
  5
E029C
102
{ACAD_REACTORS
330
E029B
102
}
102
{ACAD_XDICTIONARY
360
E02AF
102
}
330
E029B
100
AcDbTableStyle
  3
Standard
 70
     0
 71
     0
 40
0.06
 41
0.06
280
     0
281
     0
  7
STANDARD
140
0.18
170
     2
 62
     0
 63
   257
283
     0
 90
        4
 91
        0
  1

274
    -2
284
     1
 64
     0
275
    -2
285
     1
 65
     0
276
    -2
286
     1
 66
     0
277
    -2
287
     1
 67
     0
278
    -2
288
     1
 68
     0
279
    -2
289
     1
 69
     0
  7
STANDARD
140
0.25
170
     5
 62
     0
 63
   257
283
     0
 90
        4
 91
        0
  1

274
    -2
284
     1
 64
     0
275
    -2
285
     1
 65
     0
276
    -2
286
     1
 66
     0
277
    -2
287
     1
 67
     0
278
    -2
288
     1
 68
     0
279
    -2
289
     1
 69
     0
  7
STANDARD
140
0.18
170
     5
 62
     0
 63
   257
283
     0
 90
        4
 91
        0
  1

274
    -2
284
     1
 64
     0
275
    -2
285
     1
 65
     0
276
    -2
286
     1
 66
     0
277
    -2
287
     1
 67
     0
278
    -2
288
     1
 68
     0
279
    -2
289
     1
 69
     0
  0
VISUALSTYLE
  5
E0287
102
{ACAD_REACTORS
330
E0282
102
}
330
E0282
100
AcDbVisualStyle
  2
2dWireframe
 70
     4
177
     3
291
     0
 70
    58
 90
        0
176
     1
 90
        2
176
     1
 90
        0
176
     1
 90
        0
176
     1
 40
0.6
176
     1
 40
30.0
176
     1
 62
     7
420
 16777215
176
     1
 90
        1
176
     1
 90
        4
176
     1
 62
     7
176
     1
 62
   257
176
     1
 90
        1
176
     1
 90
        1
176
     1
 40
1.0
176
     1
 90
        0
176
     1
 62
   257
176
     1
 40
1.0
176
     1
 90
        1
176
     1
 90
        6
176
     1
 90
        2
176
     1
 62
     7
176
     1
 90
        5
176
     1
 90
        0
176
     1
 90
        0
176
     1
290
     0
176
     1
 90
        1
176
     1
 40
0.0
176
     1
 90
        0
176
     1
290
     1
176
     1
290
     1
176
     1
290
     0
176
     1
290
     0
176
     1
290
     0
176
     1
290
     0
176
     1
290
     0
176
     1
290
     0
176
     1
290
     0
176
     1
 90
       50
176
     1
 40
0.0
176
     1
 40
1.0
176
     1
 90
        0
176
     1
 62
    18
420
        0
176
     1
 90
       50
176
     1
 90
        3
176
     1
 62
     5
420
      255
176
     1
290
     0
176
     1
 90
       50
176
     1
 90
       50
176
     1
 90
       50
176
     1
290
     0
176
     1
 90
       50
176
     1
 62
   256
176
     0
 40
1.0
176
     0
 90
        2
176
     1
  1
strokes_ogs.tif
176
     1
290
     0
176
     1
 40
1.0
176
     1
 40
1.0
176
     1
  0
VISUALSTYLE
  5
E028A
102
{ACAD_REACTORS
330
E0282
102
}
330
E0282
100
AcDbVisualStyle
  2
Basic
 70
     7
177
     3
291
     1
 70
    58
 90
        1
176
     1
 90
        0
176
     1
 90
        1
176
     1
 90
        0
176
     1
 40
0.6
176
     1
 40
30.0
176
     1
 62
     7
420
 16777215
176
     1
 90
        0
176
     1
 90
        4
176
     1
 62
     7
176
     1
 62
   257
176
     1
 90
        1
176
     1
 90
        1
176
     1
 40
1.0
176
     1
 90
        8
176
     1
 62
     7
176
     1
 40
1.0
176
     1
 90
        1
176
     1
 90
        6
176
     1
 90
        2
176
     1
 62
     7
176
     1
 90
        5
176
     1
 90
        0
176
     1
 90
        0
176
     1
290
     0
176
     1
 90
        1
176
     1
 40
0.0
176
     1
 90
        0
176
     1
290
     0
176
     1
290
     1
176
     1
290
     1
176
     1
290
     0
176
     1
290
     0
176
     1
290
     0
176
     1
290
     0
176
     1
290
     0
176
     1
290
     0
176
     1
 90
       50
176
     1
 40
0.0
176
     1
 40
1.0
176
     1
 90
        0
176
     1
 62
    18
420
        0
176
     1
 90
       50
176
     1
 90
        3
176
     1
 62
     5
420
      255
176
     1
290
     0
176
     1
 90
       50
176
     1
 90
       50
176
     1
 90
       50
176
     1
290
     0
176
     1
 90
       50
176
     1
 62
   256
176
     0
 40
1.0
176
     0
 90
        2
176
     1
  1
strokes_ogs.tif
176
     1
290
     0
176
     1
 40
1.0
176
     1
 40
1.0
176
     1
  0
VISUALSTYLE
  5
E028E
102
{ACAD_REACTORS
330
E0282
102
}
330
E0282
100
AcDbVisualStyle
  2
Brighten
 70
    12
177
     3
291
     1
 70
    58
 90
        2
176
     1
 90
        2
176
     1
 90
        0
176
     1
 90
        0
176
     1
 40
0.6
176
     1
 40
30.0
176
     1
 62
     7
420
 16777215
176
     1
 90
        1
176
     1
 90
        4
176
     1
 62
     7
176
     1
 62
   257
176
     1
 90
        1
176
     1
 90
        1
176
     1
 40
1.0
176
     1
 90
        8
176
     1
 62
     7
176
     1
 40
1.0
176
     1
 90
        1
176
     1
 90
        6
176
     1
 90
        2
176
     1
 62
     7
176
     1
 90
        5
176
     1
 90
        0
176
     1
 90
        0
176
     1
290
     0
176
     1
 90
        1
176
     1
 40
50.0
176
     1
 90
        0
176
     1
290
     0
176
     1
290
     1
176
     1
290
     1
176
     1
290
     0
176
     1
290
     0
176
     1
290
     0
176
     1
290
     0
176
     1
290
     0
176
     1
290
     0
176
     1
 90
       50
176
     1
 40
0.0
176
     1
 40
1.0
176
     1
 90
        0
176
     1
 62
    18
420
        0
176
     1
 90
       50
176
     1
 90
        3
176
     1
 62
     5
420
      255
176
     1
290
     0
176
     1
 90
       50
176
     1
 90
       50
176
     1
 90
       50
176
     1
290
     0
176
     1
 90
       50
176
     1
 62
   256
176
     0
 40
1.0
176
     0
 90
        2
176
     1
  1
strokes_ogs.tif
176
     1
290
     0
176
     1
 40
1.0
176
     1
 40
1.0
176
     1
  0
VISUALSTYLE
  5
E0292
102
{ACAD_REACTORS
330
E0282
102
}
330
E0282
100
AcDbVisualStyle
  2
ColorChange
 70
    16
177
     3
291
     1
 70
    58
 90
        2
176
     1
 90
        2
176
     1
 90
        3
176
     1
 90
        0
176
     1
 40
0.6
176
     1
 40
30.0
176
     1
 62
     8
420
  8421504
176
     1
 90
        1
176
     1
 90
        4
176
     1
 62
     7
176
     1
 62
   257
176
     1
 90
        1
176
     1
 90
        1
176
     1
 40
1.0
176
     1
 90
        8
176
     1
 62
     8
420
  8421504
176
     1
 40
1.0
176
     1
 90
        1
176
     1
 90
        6
176
     1
 90
        2
176
     1
 62
     7
176
     1
 90
        5
176
     1
 90
        0
176
     1
 90
        0
176
     1
290
     0
176
     1
 90
        1
176
     1
 40
0.0
176
     1
 90
        0
176
     1
290
     0
176
     1
290
     1
176
     1
290
     1
176
     1
290
     0
176
     1
290
     0
176
     1
290
     0
176
     1
290
     0
176
     1
290
     0
176
     1
290
     0
176
     1
 90
       50
176
     1
 40
0.0
176
     1
 40
1.0
176
     1
 90
        0
176
     1
 62
    18
420
        0
176
     1
 90
       50
176
     1
 90
        3
176
     1
 62
     5
420
      255
176
     1
290
     0
176
     1
 90
       50
176
     1
 90
       50
176
     1
 90
       50
176
     1
290
     0
176
     1
 90
       50
176
     1
 62
   256
176
     0
 40
1.0
176
     0
 90
        2
176
     1
  1
strokes_ogs.tif
176
     1
290
     0
176
     1
 40
1.0
176
     1
 40
1.0
176
     1
  0
VISUALSTYLE
  5
E028C
102
{ACAD_REACTORS
330
E0282
102
}
330
E0282
100
AcDbVisualStyle
  2
Conceptual
 70
     9
177
     3
291
     0
 70
    58
 90
        3
176
     1
 90
        2
176
     1
 90
        0
176
     1
 90
        0
176
     1
 40
0.6
176
     1
 40
30.0
176
     1
 62
     7
420
 16777215
176
     1
 90
        2
176
     1
 90
        2
176
     1
 62
     7
176
     1
 62
   257
176
     1
 90
        1
176
     1
 90
        1
176
     1
 40
179.0
176
     1
 90
        8
176
     1
 62
     7
176
     1
 40
1.0
176
     1
 90
        1
176
     1
 90
        6
176
     1
 90
        2
176
     1
 62
     7
176
     1
 90
        3
176
     1
 90
        0
176
     1
 90
        0
176
     1
290
     0
176
     1
 90
        1
176
     1
 40
0.0
176
     1
 90
        0
176
     1
290
     0
176
     1
290
     1
176
     1
290
     1
176
     1
290
     0
176
     1
290
     0
176
     1
290
     0
176
     1
290
     0
176
     1
290
     0
176
     1
290
     0
176
     1
 90
       50
176
     1
 40
0.0
176
     1
 40
1.0
176
     1
 90
        0
176
     1
 62
    18
420
        0
176
     1
 90
       50
176
     1
 90
        3
176
     1
 62
     5
420
      255
176
     1
290
     0
176
     1
 90
       50
176
     1
 90
       50
176
     1
 90
       50
176
     1
290
     0
176
     1
 90
       50
176
     1
 62
   256
176
     0
 40
1.0
176
     0
 90
        2
176
     1
  1
strokes_ogs.tif
176
     1
290
     0
176
     1
 40
1.0
176
     1
 40
1.0
176
     1
  0
VISUALSTYLE
  5
E028D
102
{ACAD_REACTORS
330
E0282
102
}
330
E0282
100
AcDbVisualStyle
  2
Dim
 70
    11
177
     3
291
     1
 70
    58
 90
        2
176
     1
 90
        2
176
     1
 90
        0
176
     1
 90
        0
176
     1
 40
0.6
176
     1
 40
30.0
176
     1
 62
     7
420
 16777215
176
     1
 90
        1
176
     1
 90
        4
176
     1
 62
     7
176
     1
 62
   257
176
     1
 90
        1
176
     1
 90
        1
176
     1
 40
1.0
176
     1
 90
        8
176
     1
 62
     7
176
     1
 40
1.0
176
     1
 90
        1
176
     1
 90
        6
176
     1
 90
        2
176
     1
 62
     7
176
     1
 90
        5
176
     1
 90
        0
176
     1
 90
        0
176
     1
290
     0
176
     1
 90
        1
176
     1
 40
-50.0
176
     1
 90
        0
176
     1
290
     0
176
     1
290
     1
176
     1
290
     1
176
     1
290
     0
176
     1
290
     0
176
     1
290
     0
176
     1
290
     0
176
     1
290
     0
176
     1
290
     0
176
     1
 90
       50
176
     1
 40
0.0
176
     1
 40
1.0
176
     1
 90
        0
176
     1
 62
    18
420
        0
176
     1
 90
       50
176
     1
 90
        3
176
     1
 62
     5
420
      255
176
     1
290
     0
176
     1
 90
       50
176
     1
 90
       50
176
     1
 90
       50
176
     1
290
     0
176
     1
 90
       50
176
     1
 62
   256
176
     0
 40
1.0
176
     0
 90
        2
176
     1
  1
strokes_ogs.tif
176
     1
290
     0
176
     1
 40
1.0
176
     1
 40
1.0
176
     1
  0
VISUALSTYLE
  5
E0295
102
{ACAD_REACTORS
330
E0282
102
}
330
E0282
100
AcDbVisualStyle
  2
EdgeColorOff
 70
    22
177
     3
291
     1
 70
    58
 90
        2
176
     0
 90
        2
176
     0
 90
        0
176
     0
 90
        0
176
     0
 40
0.6
176
     0
 40
30.0
176
     0
 62
     7
420
 16777215
176
     0
 90
        1
176
     0
 90
        4
176
     0
 62
     7
176
     0
 62
   257
176
     0
 90
        1
176
     0
 90
        1
176
     0
 40
1.0
176
     0
 90
        8
176
     2
 62
     7
176
     0
 40
1.0
176
     0
 90
        1
176
     0
 90
        6
176
     0
 90
        2
176
     0
 62
     7
176
     0
 90
        5
176
     0
 90
        0
176
     0
 90
        0
176
     0
290
     0
176
     0
 90
        1
176
     0
 40
0.0
176
     0
 90
        0
176
     0
290
     0
176
     0
290
     1
176
     0
290
     1
176
     0
290
     0
176
     0
290
     0
176
     0
290
     0
176
     0
290
     0
176
     0
290
     0
176
     0
290
     0
176
     0
 90
       50
176
     0
 40
0.0
176
     0
 40
1.0
176
     0
 90
        0
176
     0
 62
    18
420
        0
176
     0
 90
       50
176
     0
 90
        3
176
     0
 62
     5
420
      255
176
     0
290
     0
176
     0
 90
       50
176
     0
 90
       50
176
     0
 90
       50
176
     0
290
     0
176
     0
 90
       50
176
     0
 62
   256
176
     0
 40
1.0
176
     0
 90
        2
176
     0
  1
strokes_ogs.tif
176
     0
290
     0
176
     0
 40
1.0
176
     0
 40
1.0
176
     0
  0
VISUALSTYLE
  5
E0291
102
{ACAD_REACTORS
330
E0282
102
}
330
E0282
100
AcDbVisualStyle
  2
Facepattern
 70
    15
177
     3
291
     1
 70
    58
 90
        2
176
     1
 90
        2
176
     1
 90
        0
176
     1
 90
        0
176
     1
 40
0.6
176
     1
 40
30.0
176
     1
 62
     7
420
 16777215
176
     1
 90
        1
176
     1
 90
        4
176
     1
 62
     7
176
     1
 62
   257
176
     1
 90
        1
176
     1
 90
        1
176
     1
 40
1.0
176
     1
 90
        8
176
     1
 62
     7
176
     1
 40
1.0
176
     1
 90
        1
176
     1
 90
        6
176
     1
 90
        2
176
     1
 62
     7
176
     1
 90
        5
176
     1
 90
        0
176
     1
 90
        0
176
     1
290
     0
176
     1
 90
        1
176
     1
 40
0.0
176
     1
 90
        0
176
     1
290
     0
176
     1
290
     1
176
     1
290
     1
176
     1
290
     0
176
     1
290
     0
176
     1
290
     0
176
     1
290
     0
176
     1
290
     0
176
     1
290
     0
176
     1
 90
       50
176
     1
 40
0.0
176
     1
 40
1.0
176
     1
 90
        0
176
     1
 62
    18
420
        0
176
     1
 90
       50
176
     1
 90
        3
176
     1
 62
     5
420
      255
176
     1
290
     0
176
     1
 90
       50
176
     1
 90
       50
176
     1
 90
       50
176
     1
290
     0
176
     1
 90
       50
176
     1
 62
   256
176
     0
 40
1.0
176
     0
 90
        2
176
     1
  1
strokes_ogs.tif
176
     1
290
     0
176
     1
 40
1.0
176
     1
 40
1.0
176
     1
  0
VISUALSTYLE
  5
E0283
102
{ACAD_REACTORS
330
E0282
102
}
330
E0282
100
AcDbVisualStyle
  2
Flat
 70
     0
177
     3
291
     1
 70
    58
 90
        2
176
     1
 90
        1
176
     1
 90
        1
176
     1
 90
        2
176
     1
 40
0.6
176
     1
 40
30.0
176
     1
 62
     7
420
 16777215
176
     1
 90
        0
176
     1
 90
        0
176
     1
 62
     7
176
     1
 62
   257
176
     1
 90
        1
176
     1
 90
        1
176
     1
 40
1.0
176
     1
 90
        8
176
     1
 62
     7
176
     1
 40
1.0
176
     1
 90
        1
176
     1
 90
        6
176
     1
 90
        2
176
     1
 62
     7
176
     1
 90
        5
176
     1
 90
        0
176
     1
 90
        0
176
     1
290
     0
176
     1
 90
       13
176
     1
 40
0.0
176
     1
 90
        0
176
     1
290
     0
176
     1
290
     1
176
     1
290
     1
176
     1
290
     0
176
     1
290
     0
176
     1
290
     0
176
     1
290
     0
176
     1
290
     0
176
     1
290
     0
176
     1
 90
       50
176
     1
 40
0.0
176
     1
 40
1.0
176
     1
 90
        0
176
     1
 62
    18
420
        0
176
     1
 90
       50
176
     1
 90
        3
176
     1
 62
     5
420
      255
176
     1
290
     0
176
     1
 90
       50
176
     1
 90
       50
176
     1
 90
       50
176
     1
290
     0
176
     1
 90
       50
176
     1
 62
   256
176
     0
 40
1.0
176
     0
 90
        2
176
     1
  1
strokes_ogs.tif
176
     1
290
     0
176
     1
 40
1.0
176
     1
 40
1.0
176
     1
  0
VISUALSTYLE
  5
E0284
102
{ACAD_REACTORS
330
E0282
102
}
330
E0282
100
AcDbVisualStyle
  2
FlatWithEdges
 70
     1
177
     3
291
     1
 70
    58
 90
        2
176
     1
 90
        1
176
     1
 90
        1
176
     1
 90
        2
176
     1
 40
0.6
176
     1
 40
30.0
176
     1
 62
     7
420
 16777215
176
     1
 90
        1
176
     1
 90
        0
176
     1
 62
     7
176
     1
 62
   257
176
     1
 90
        1
176
     1
 90
        1
176
     1
 40
1.0
176
     1
 90
        0
176
     1
 62
   257
176
     1
 40
1.0
176
     1
 90
        1
176
     1
 90
        6
176
     1
 90
        2
176
     1
 62
     7
176
     1
 90
        5
176
     1
 90
        0
176
     1
 90
        0
176
     1
290
     0
176
     1
 90
       13
176
     1
 40
0.0
176
     1
 90
        0
176
     1
290
     0
176
     1
290
     1
176
     1
290
     1
176
     1
290
     0
176
     1
290
     0
176
     1
290
     0
176
     1
290
     0
176
     1
290
     0
176
     1
290
     0
176
     1
 90
       50
176
     1
 40
0.0
176
     1
 40
1.0
176
     1
 90
        0
176
     1
 62
    18
420
        0
176
     1
 90
       50
176
     1
 90
        3
176
     1
 62
     5
420
      255
176
     1
290
     0
176
     1
 90
       50
176
     1
 90
       50
176
     1
 90
       50
176
     1
290
     0
176
     1
 90
       50
176
     1
 62
   256
176
     0
 40
1.0
176
     0
 90
        2
176
     1
  1
strokes_ogs.tif
176
     1
290
     0
176
     1
 40
1.0
176
     1
 40
1.0
176
     1
  0
VISUALSTYLE
  5
E0285
102
{ACAD_REACTORS
330
E0282
102
}
330
E0282
100
AcDbVisualStyle
  2
Gouraud
 70
     2
177
     3
291
     1
 70
    58
 90
        2
176
     1
 90
        2
176
     1
 90
        1
176
     1
 90
        2
176
     1
 40
0.6
176
     1
 40
30.0
176
     1
 62
     7
420
 16777215
176
     1
 90
        0
176
     1
 90
        0
176
     1
 62
     7
176
     1
 62
   257
176
     1
 90
        1
176
     1
 90
        1
176
     1
 40
1.0
176
     1
 90
        0
176
     1
 62
     7
176
     1
 40
1.0
176
     1
 90
        1
176
     1
 90
        6
176
     1
 90
        2
176
     1
 62
     7
176
     1
 90
        5
176
     1
 90
        0
176
     1
 90
        0
176
     1
290
     0
176
     1
 90
       13
176
     1
 40
0.0
176
     1
 90
        0
176
     1
290
     0
176
     1
290
     1
176
     1
290
     1
176
     1
290
     0
176
     1
290
     0
176
     1
290
     0
176
     1
290
     0
176
     1
290
     0
176
     1
290
     0
176
     1
 90
       50
176
     1
 40
0.0
176
     1
 40
1.0
176
     1
 90
        0
176
     1
 62
    18
420
        0
176
     1
 90
       50
176
     1
 90
        3
176
     1
 62
     5
420
      255
176
     1
290
     0
176
     1
 90
       50
176
     1
 90
       50
176
     1
 90
       50
176
     1
290
     0
176
     1
 90
       50
176
     1
 62
   256
176
     0
 40
1.0
176
     0
 90
        2
176
     1
  1
strokes_ogs.tif
176
     1
290
     0
176
     1
 40
1.0
176
     1
 40
1.0
176
     1
  0
VISUALSTYLE
  5
E0286
102
{ACAD_REACTORS
330
E0282
102
}
330
E0282
100
AcDbVisualStyle
  2
GouraudWithEdges
 70
     3
177
     3
291
     1
 70
    58
 90
        2
176
     1
 90
        2
176
     1
 90
        1
176
     1
 90
        2
176
     1
 40
0.6
176
     1
 40
30.0
176
     1
 62
     7
420
 16777215
176
     1
 90
        1
176
     1
 90
        0
176
     1
 62
     7
176
     1
 62
   257
176
     1
 90
        1
176
     1
 90
        1
176
     1
 40
1.0
176
     1
 90
        0
176
     1
 62
   257
176
     1
 40
1.0
176
     1
 90
        1
176
     1
 90
        6
176
     1
 90
        2
176
     1
 62
     7
176
     1
 90
        5
176
     1
 90
        0
176
     1
 90
        0
176
     1
290
     0
176
     1
 90
       13
176
     1
 40
0.0
176
     1
 90
        0
176
     1
290
     0
176
     1
290
     1
176
     1
290
     1
176
     1
290
     0
176
     1
290
     0
176
     1
290
     0
176
     1
290
     0
176
     1
290
     0
176
     1
290
     0
176
     1
 90
       50
176
     1
 40
0.0
176
     1
 40
1.0
176
     1
 90
        0
176
     1
 62
    18
420
        0
176
     1
 90
       50
176
     1
 90
        3
176
     1
 62
     5
420
      255
176
     1
290
     0
176
     1
 90
       50
176
     1
 90
       50
176
     1
 90
       50
176
     1
290
     0
176
     1
 90
       50
176
     1
 62
   256
176
     0
 40
1.0
176
     0
 90
        2
176
     1
  1
strokes_ogs.tif
176
     1
290
     0
176
     1
 40
1.0
176
     1
 40
1.0
176
     1
  0
VISUALSTYLE
  5
E0289
102
{ACAD_REACTORS
330
E0282
102
}
330
E0282
100
AcDbVisualStyle
  2
Hidden
 70
     6
177
     3
291
     0
 70
    58
 90
        1
176
     1
 90
        2
176
     1
 90
        2
176
     1
 90
        0
176
     1
 40
0.6
176
     1
 40
30.0
176
     1
 62
     7
420
 16777215
176
     1
 90
        2
176
     1
 90
        2
176
     1
 62
     7
176
     1
 62
   257
176
     1
 90
        2
176
     1
 90
        1
176
     1
 40
40.0
176
     1
 90
        0
176
     1
 62
   257
176
     1
 40
1.0
176
     1
 90
        1
176
     1
 90
        6
176
     1
 90
        2
176
     1
 62
     7
176
     1
 90
        3
176
     1
 90
        0
176
     1
 90
        0
176
     1
290
     0
176
     1
 90
        1
176
     1
 40
0.0
176
     1
 90
        0
176
     1
290
     0
176
     1
290
     1
176
     1
290
     1
176
     1
290
     0
176
     1
290
     0
176
     1
290
     0
176
     1
290
     0
176
     1
290
     0
176
     1
290
     0
176
     1
 90
       50
176
     1
 40
0.0
176
     1
 40
1.0
176
     1
 90
        0
176
     1
 62
    18
420
        0
176
     1
 90
       50
176
     1
 90
        3
176
     1
 62
     5
420
      255
176
     1
290
     0
176
     1
 90
       50
176
     1
 90
       50
176
     1
 90
       50
176
     1
290
     0
176
     1
 90
       50
176
     1
 62
   256
176
     0
 40
1.0
176
     0
 90
        2
176
     1
  1
strokes_ogs.tif
176
     1
290
     0
176
     1
 40
1.0
176
     1
 40
1.0
176
     1
  0
VISUALSTYLE
  5
E0293
102
{ACAD_REACTORS
330
E0282
102
}
330
E0282
100
AcDbVisualStyle
  2
JitterOff
 70
    20
177
     3
291
     1
 70
    58
 90
        2
176
     0
 90
        2
176
     0
 90
        0
176
     0
 90
        0
176
     0
 40
0.6
176
     0
 40
30.0
176
     0
 62
     7
420
 16777215
176
     0
 90
        1
176
     0
 90
        4
176
     0
 62
     7
176
     0
 62
   257
176
     0
 90
        1
176
     0
 90
        1
176
     0
 40
1.0
176
     0
 90
       10
176
     2
 62
     7
176
     0
 40
1.0
176
     0
 90
        1
176
     0
 90
        6
176
     0
 90
        2
176
     0
 62
     7
176
     0
 90
        5
176
     0
 90
        0
176
     0
 90
        0
176
     0
290
     0
176
     0
 90
        1
176
     0
 40
0.0
176
     0
 90
        0
176
     0
290
     0
176
     0
290
     1
176
     0
290
     1
176
     0
290
     0
176
     0
290
     0
176
     0
290
     0
176
     0
290
     0
176
     0
290
     0
176
     0
290
     0
176
     0
 90
       50
176
     0
 40
0.0
176
     0
 40
1.0
176
     0
 90
        0
176
     0
 62
    18
420
        0
176
     0
 90
       50
176
     0
 90
        3
176
     0
 62
     5
420
      255
176
     0
290
     0
176
     0
 90
       50
176
     0
 90
       50
176
     0
 90
       50
176
     0
290
     0
176
     0
 90
       50
176
     0
 62
   256
176
     0
 40
1.0
176
     0
 90
        2
176
     0
  1
strokes_ogs.tif
176
     0
290
     0
176
     0
 40
1.0
176
     0
 40
1.0
176
     0
  0
VISUALSTYLE
  5
E0290
102
{ACAD_REACTORS
330
E0282
102
}
330
E0282
100
AcDbVisualStyle
  2
Linepattern
 70
    14
177
     3
291
     1
 70
    58
 90
        2
176
     1
 90
        2
176
     1
 90
        0
176
     1
 90
        0
176
     1
 40
0.6
176
     1
 40
30.0
176
     1
 62
     7
420
 16777215
176
     1
 90
        1
176
     1
 90
        4
176
     1
 62
     7
176
     1
 62
   257
176
     1
 90
        7
176
     1
 90
        7
176
     1
 40
1.0
176
     1
 90
        8
176
     1
 62
     7
176
     1
 40
1.0
176
     1
 90
        1
176
     1
 90
        6
176
     1
 90
        2
176
     1
 62
     7
176
     1
 90
        5
176
     1
 90
        0
176
     1
 90
        0
176
     1
290
     0
176
     1
 90
        1
176
     1
 40
0.0
176
     1
 90
        0
176
     1
290
     0
176
     1
290
     1
176
     1
290
     1
176
     1
290
     0
176
     1
290
     0
176
     1
290
     0
176
     1
290
     0
176
     1
290
     0
176
     1
290
     0
176
     1
 90
       50
176
     1
 40
0.0
176
     1
 40
1.0
176
     1
 90
        0
176
     1
 62
    18
420
        0
176
     1
 90
       50
176
     1
 90
        3
176
     1
 62
     5
420
      255
176
     1
290
     0
176
     1
 90
       50
176
     1
 90
       50
176
     1
 90
       50
176
     1
290
     0
176
     1
 90
       50
176
     1
 62
   256
176
     0
 40
1.0
176
     0
 90
        2
176
     1
  1
strokes_ogs.tif
176
     1
290
     0
176
     1
 40
1.0
176
     1
 40
1.0
176
     1
  0
VISUALSTYLE
  5
E0294
102
{ACAD_REACTORS
330
E0282
102
}
330
E0282
100
AcDbVisualStyle
  2
OverhangOff
 70
    21
177
     3
291
     1
 70
    58
 90
        2
176
     0
 90
        2
176
     0
 90
        0
176
     0
 90
        0
176
     0
 40
0.6
176
     0
 40
30.0
176
     0
 62
     7
420
 16777215
176
     0
 90
        1
176
     0
 90
        4
176
     0
 62
     7
176
     0
 62
   257
176
     0
 90
        1
176
     0
 90
        1
176
     0
 40
1.0
176
     0
 90
        9
176
     2
 62
     7
176
     0
 40
1.0
176
     0
 90
        1
176
     0
 90
        6
176
     0
 90
        2
176
     0
 62
     7
176
     0
 90
        5
176
     0
 90
        0
176
     0
 90
        0
176
     0
290
     0
176
     0
 90
        1
176
     0
 40
0.0
176
     0
 90
        0
176
     0
290
     0
176
     0
290
     1
176
     0
290
     1
176
     0
290
     0
176
     0
290
     0
176
     0
290
     0
176
     0
290
     0
176
     0
290
     0
176
     0
290
     0
176
     0
 90
       50
176
     0
 40
0.0
176
     0
 40
1.0
176
     0
 90
        0
176
     0
 62
    18
420
        0
176
     0
 90
       50
176
     0
 90
        3
176
     0
 62
     5
420
      255
176
     0
290
     0
176
     0
 90
       50
176
     0
 90
       50
176
     0
 90
       50
176
     0
290
     0
176
     0
 90
       50
176
     0
 62
   256
176
     0
 40
1.0
176
     0
 90
        2
176
     0
  1
strokes_ogs.tif
176
     0
290
     0
176
     0
 40
1.0
176
     0
 40
1.0
176
     0
  0
VISUALSTYLE
  5
E028B
102
{ACAD_REACTORS
330
E0282
102
}
330
E0282
100
AcDbVisualStyle
  2
Realistic
 70
     8
177
     3
291
     0
 70
    58
 90
        2
176
     1
 90
        3
176
     1
 90
        0
176
     1
 90
        2
176
     1
 40
0.6
176
     1
 40
30.0
176
     1
 62
     7
420
 16777215
176
     1
 90
        0
176
     1
 90
        0
176
     1
 62
     7
176
     1
 62
   257
176
     1
 90
        1
176
     1
 90
        1
176
     1
 40
1.0
176
     1
 90
        8
176
     1
 62
   257
176
     1
 40
1.0
176
     1
 90
        1
176
     1
 90
        6
176
     1
 90
        2
176
     1
 62
     7
176
     1
 90
        3
176
     1
 90
        0
176
     1
 90
        0
176
     1
290
     0
176
     1
 90
       13
176
     1
 40
0.0
176
     1
 90
        0
176
     1
290
     0
176
     1
290
     1
176
     1
290
     1
176
     1
290
     0
176
     1
290
     0
176
     1
290
     0
176
     1
290
     0
176
     1
290
     0
176
     1
290
     0
176
     1
 90
       50
176
     1
 40
0.0
176
     1
 40
1.0
176
     1
 90
        0
176
     1
 62
    18
420
        0
176
     1
 90
       50
176
     1
 90
        3
176
     1
 62
     5
420
      255
176
     1
290
     0
176
     1
 90
       50
176
     1
 90
       50
176
     1
 90
       50
176
     1
290
     0
176
     1
 90
       50
176
     1
 62
   256
176
     0
 40
1.0
176
     0
 90
        2
176
     1
  1
strokes_ogs.tif
176
     1
290
     0
176
     1
 40
1.0
176
     1
 40
1.0
176
     1
  0
VISUALSTYLE
  5
E029A
102
{ACAD_REACTORS
330
E0282
102
}
330
E0282
100
AcDbVisualStyle
  2
Shaded
 70
    27
177
     3
291
     0
 70
    58
 90
        2
176
     1
 90
        2
176
     1
 90
        1
176
     1
 90
        2
176
     1
 40
0.6
176
     1
 40
30.0
176
     1
 62
     7
420
 16777215
176
     1
 90
        0
176
     1
 90
        4
176
     1
 62
     7
176
     1
 62
   257
176
     1
 90
        1
176
     1
 90
        1
176
     1
 40
1.0
176
     1
 90
        8
176
     1
 62
   257
176
     1
 40
1.0
176
     1
 90
        1
176
     1
 90
        6
176
     1
 90
        2
176
     1
 62
     8
420
  7895160
176
     1
 90
        3
176
     1
 90
        0
176
     1
 90
        0
176
     1
290
     0
176
     1
 90
        5
176
     1
 40
0.0
176
     1
 90
        0
176
     1
290
     0
176
     1
290
     1
176
     1
290
     1
176
     1
290
     0
176
     1
290
     0
176
     1
290
     0
176
     1
290
     0
176
     1
290
     0
176
     1
290
     0
176
     1
 90
       50
176
     1
 40
0.0
176
     1
 40
1.0
176
     1
 90
        0
176
     1
 62
    18
420
        0
176
     1
 90
       50
176
     1
 90
        3
176
     1
 62
     5
420
      255
176
     1
290
     0
176
     1
 90
       50
176
     1
 90
       50
176
     1
 90
       50
176
     1
290
     0
176
     1
 90
       50
176
     1
 62
   256
176
     0
 40
1.0
176
     0
 90
        2
176
     1
  1
strokes_ogs.tif
176
     1
290
     0
176
     1
 40
1.0
176
     1
 40
1.0
176
     1
  0
VISUALSTYLE
  5
E0299
102
{ACAD_REACTORS
330
E0282
102
}
330
E0282
100
AcDbVisualStyle
  2
Shaded with edges
 70
    26
177
     3
291
     0
 70
    58
 90
        2
176
     1
 90
        2
176
     1
 90
        1
176
     1
 90
        2
176
     1
 40
0.6
176
     1
 40
30.0
176
     1
 62
     7
420
 16777215
176
     1
 90
        1
176
     1
 90
       10
176
     1
 62
     7
176
     1
 62
   257
176
     1
 90
        2
176
     1
 90
        1
176
     1
 40
1.0
176
     1
 90
        8
176
     1
 62
   257
176
     1
 40
1.0
176
     1
 90
        1
176
     1
 90
        6
176
     1
 90
        2
176
     1
 62
     7
176
     1
 90
        3
176
     1
 90
        0
176
     1
 90
        0
176
     1
290
     0
176
     1
 90
        5
176
     1
 40
0.0
176
     1
 90
        0
176
     1
290
     0
176
     1
290
     1
176
     1
290
     1
176
     1
290
     0
176
     1
290
     0
176
     1
290
     0
176
     1
290
     0
176
     1
290
     0
176
     1
290
     0
176
     1
 90
       50
176
     1
 40
0.0
176
     1
 40
1.0
176
     1
 90
        0
176
     1
 62
    18
420
        0
176
     1
 90
       50
176
     1
 90
        3
176
     1
 62
     5
420
      255
176
     1
290
     0
176
     1
 90
       50
176
     1
 90
       50
176
     1
 90
       50
176
     1
290
     0
176
     1
 90
       50
176
     1
 62
   256
176
     0
 40
1.0
176
     0
 90
        2
176
     1
  1
strokes_ogs.tif
176
     1
290
     0
176
     1
 40
1.0
176
     1
 40
1.0
176
     1
  0
VISUALSTYLE
  5
E0296
102
{ACAD_REACTORS
330
E0282
102
}
330
E0282
100
AcDbVisualStyle
  2
Shades of Gray
 70
    23
177
     3
291
     0
 70
    58
 90
        2
176
     1
 90
        2
176
     1
 90
        3
176
     1
 90
        0
176
     1
 40
0.6
176
     1
 40
30.0
176
     1
 62
     7
420
 16777215
176
     1
 90
        2
176
     1
 90
        2
176
     1
 62
     7
176
     1
 62
     7
176
     1
 90
        1
176
     1
 90
        1
176
     1
 40
40.0
176
     1
 90
        8
176
     1
 62
     7
176
     1
 40
1.0
176
     1
 90
        1
176
     1
 90
        6
176
     1
 90
        2
176
     1
 62
     7
176
     1
 90
        3
176
     1
 90
        0
176
     1
 90
        0
176
     1
290
     0
176
     1
 90
        1
176
     1
 40
0.0
176
     1
 90
        0
176
     1
290
     0
176
     1
290
     1
176
     1
290
     1
176
     1
290
     0
176
     1
290
     0
176
     1
290
     0
176
     1
290
     0
176
     1
290
     0
176
     1
290
     0
176
     1
 90
       50
176
     1
 40
0.0
176
     1
 40
1.0
176
     1
 90
        0
176
     1
 62
    18
420
        0
176
     1
 90
       50
176
     1
 90
        3
176
     1
 62
     5
420
      255
176
     1
290
     0
176
     1
 90
       50
176
     1
 90
       50
176
     1
 90
       50
176
     1
290
     0
176
     1
 90
       50
176
     1
 62
   256
176
     0
 40
1.0
176
     0
 90
        2
176
     1
  1
strokes_ogs.tif
176
     1
290
     0
176
     1
 40
1.0
176
     1
 40
1.0
176
     1
  0
VISUALSTYLE
  5
E0297
102
{ACAD_REACTORS
330
E0282
102
}
330
E0282
100
AcDbVisualStyle
  2
Sketchy
 70
    24
177
     3
291
     0
 70
    58
 90
        1
176
     1
 90
        2
176
     1
 90
        2
176
     1
 90
        0
176
     1
 40
0.6
176
     1
 40
30.0
176
     1
 62
     7
420
 16777215
176
     1
 90
        2
176
     1
 90
        2
176
     1
 62
     7
176
     1
 62
     7
176
     1
 90
        1
176
     1
 90
        1
176
     1
 40
40.0
176
     1
 90
       11
176
     1
 62
     7
176
     1
 40
1.0
176
     1
 90
        1
176
     1
 90
        6
176
     1
 90
        2
176
     1
 62
     7
176
     1
 90
        6
176
     1
 90
        0
176
     1
 90
        0
176
     1
290
     0
176
     1
 90
        1
176
     1
 40
0.0
176
     1
 90
        0
176
     1
290
     0
176
     1
290
     1
176
     1
290
     1
176
     1
290
     0
176
     1
290
     0
176
     1
290
     0
176
     1
290
     0
176
     1
290
     0
176
     1
290
     0
176
     1
 90
       50
176
     1
 40
0.0
176
     1
 40
1.0
176
     1
 90
        0
176
     1
 62
    18
420
        0
176
     1
 90
       50
176
     1
 90
        3
176
     1
 62
     5
420
      255
176
     1
290
     0
176
     1
 90
       50
176
     1
 90
       50
176
     1
 90
       50
176
     1
290
     0
176
     1
 90
       50
176
     1
 62
   256
176
     0
 40
1.0
176
     0
 90
        2
176
     1
  1
strokes_ogs.tif
176
     1
290
     0
176
     1
 40
1.0
176
     1
 40
1.0
176
     1
  0
VISUALSTYLE
  5
E028F
102
{ACAD_REACTORS
330
E0282
102
}
330
E0282
100
AcDbVisualStyle
  2
Thicken
 70
    13
177
     3
291
     1
 70
    58
 90
        2
176
     1
 90
        2
176
     1
 90
        0
176
     1
 90
        0
176
     1
 40
0.6
176
     1
 40
30.0
176
     1
 62
     7
420
 16777215
176
     1
 90
        1
176
     1
 90
        4
176
     1
 62
     7
176
     1
 62
   257
176
     1
 90
        1
176
     1
 90
        1
176
     1
 40
1.0
176
     1
 90
       12
176
     1
 62
     7
176
     1
 40
1.0
176
     1
 90
        1
176
     1
 90
        6
176
     1
 90
        2
176
     1
 62
     7
176
     1
 90
        5
176
     1
 90
        0
176
     1
 90
        0
176
     1
290
     0
176
     1
 90
        1
176
     1
 40
0.0
176
     1
 90
        0
176
     1
290
     0
176
     1
290
     1
176
     1
290
     1
176
     1
290
     0
176
     1
290
     0
176
     1
290
     0
176
     1
290
     0
176
     1
290
     0
176
     1
290
     0
176
     1
 90
       50
176
     1
 40
0.0
176
     1
 40
1.0
176
     1
 90
        0
176
     1
 62
    18
420
        0
176
     1
 90
       50
176
     1
 90
        3
176
     1
 62
     5
420
      255
176
     1
290
     0
176
     1
 90
       50
176
     1
 90
       50
176
     1
 90
       50
176
     1
290
     0
176
     1
 90
       50
176
     1
 62
   256
176
     0
 40
1.0
176
     0
 90
        2
176
     1
  1
strokes_ogs.tif
176
     1
290
     0
176
     1
 40
1.0
176
     1
 40
1.0
176
     1
  0
VISUALSTYLE
  5
E0288
102
{ACAD_REACTORS
330
E0282
102
}
330
E0282
100
AcDbVisualStyle
  2
Wireframe
 70
     5
177
     3
291
     0
 70
    58
 90
        0
176
     1
 90
        2
176
     1
 90
        0
176
     1
 90
        0
176
     1
 40
0.6
176
     1
 40
30.0
176
     1
 62
     7
420
 16777215
176
     1
 90
        1
176
     1
 90
        4
176
     1
 62
     7
176
     1
 62
   257
176
     1
 90
        1
176
     1
 90
        1
176
     1
 40
1.0
176
     1
 90
        0
176
     1
 62
   257
176
     1
 40
1.0
176
     1
 90
        1
176
     1
 90
        6
176
     1
 90
        2
176
     1
 62
     7
176
     1
 90
        3
176
     1
 90
        0
176
     1
 90
        0
176
     1
290
     0
176
     1
 90
        1
176
     1
 40
0.0
176
     1
 90
        0
176
     1
290
     0
176
     1
290
     1
176
     1
290
     1
176
     1
290
     0
176
     1
290
     0
176
     1
290
     0
176
     1
290
     0
176
     1
290
     0
176
     1
290
     0
176
     1
 90
       50
176
     1
 40
0.0
176
     1
 40
1.0
176
     1
 90
        0
176
     1
 62
    18
420
        0
176
     1
 90
       50
176
     1
 90
        3
176
     1
 62
     5
420
      255
176
     1
290
     0
176
     1
 90
       50
176
     1
 90
       50
176
     1
 90
       50
176
     1
290
     0
176
     1
 90
       50
176
     1
 62
   256
176
     0
 40
1.0
176
     0
 90
        2
176
     1
  1
strokes_ogs.tif
176
     1
290
     0
176
     1
 40
1.0
176
     1
 40
1.0
176
     1
  0
VISUALSTYLE
  5
E0298
102
{ACAD_REACTORS
330
E0282
102
}
330
E0282
100
AcDbVisualStyle
  2
X-Ray
 70
    25
177
     3
291
     0
 70
    58
 90
        2
176
     1
 90
        2
176
     1
 90
        1
176
     1
 90
        1
176
     1
 40
0.5
176
     1
 40
30.0
176
     1
 62
     7
420
 16777215
176
     1
 90
        1
176
     1
 90
        0
176
     1
 62
     7
176
     1
 62
   257
176
     1
 90
        1
176
     1
 90
        1
176
     1
 40
1.0
176
     1
 90
        8
176
     1
 62
     7
176
     1
 40
1.0
176
     1
 90
        1
176
     1
 90
        6
176
     1
 90
        2
176
     1
 62
     7
176
     1
 90
        3
176
     1
 90
        0
176
     1
 90
        0
176
     1
290
     0
176
     1
 90
       13
176
     1
 40
0.0
176
     1
 90
        0
176
     1
290
     0
176
     1
290
     1
176
     1
290
     1
176
     1
290
     0
176
     1
290
     0
176
     1
290
     0
176
     1
290
     0
176
     1
290
     0
176
     1
290
     0
176
     1
 90
       50
176
     1
 40
0.0
176
     1
 40
1.0
176
     1
 90
        0
176
     1
 62
    18
420
        0
176
     1
 90
       50
176
     1
 90
        3
176
     1
 62
     5
420
      255
176
     1
290
     0
176
     1
 90
       50
176
     1
 90
       50
176
     1
 90
       50
176
     1
290
     0
176
     1
 90
       50
176
     1
 62
   256
176
     0
 40
1.0
176
     0
 90
        2
176
     1
  1
strokes_ogs.tif
176
     1
290
     0
176
     1
 40
1.0
176
     1
 40
1.0
176
     1
  0
DICTIONARYVAR
  5
E02A4
102
{ACAD_REACTORS
330
E02A3
102
}
330
E02A3
100
DictionaryVariables
280
     0
  1
1:1
  0
DICTIONARYVAR
  5
E02A6
102
{ACAD_REACTORS
330
E02A3
102
}
330
E02A3
100
DictionaryVariables
280
     0
  1
Standard
  0
DICTIONARYVAR
  5
E02A5
102
{ACAD_REACTORS
330
E02A3
102
}
330
E02A3
100
DictionaryVariables
280
     0
  1
Standard
  0
DICTIONARYVAR
  5
E02A7
102
{ACAD_REACTORS
330
E02A3
102
}
330
E02A3
100
DictionaryVariables
280
     0
  1
0
  0
DICTIONARY
  5
E02AF
330
E029C
100
AcDbDictionary
280
     1
281
     1
  3
ACAD_ROUNDTRIP_2008_TABLESTYLE_CELLSTYLEMAP
360
E02B0
  0
CELLSTYLEMAP
  5
E02B0
102
{ACAD_REACTORS
330
E02AF
102
}
330
E02AF
100
AcDbCellStyleMap
 90
        3
300
CELLSTYLE
  1
TABLEFORMAT_BEGIN
 90
        5
170
     1
 91
        0
 92
    32768
 62
   257
 93
        1
300
CONTENTFORMAT
  1
CONTENTFORMAT_BEGIN
 90
        0
 91
        0
 92
        4
 93
        0
300

 40
0.0
140
1.0
 94
        5
 62
     0
340
E021C
144
0.25
309
CONTENTFORMAT_END
171
     1
301
MARGIN
  1
CELLMARGIN_BEGIN
 40
0.06
 40
0.06
 40
0.06
 40
0.06
 40
0.06
 40
0.06
309
CELLMARGIN_END
 94
        6
 95
        1
302
GRIDFORMAT
  1
GRIDFORMAT_BEGIN
 90
        0
 91
        1
 62
     0
 92
       -2
340
E021E
 93
        0
 40
0.045
309
GRIDFORMAT_END
 95
        2
302
GRIDFORMAT
  1
GRIDFORMAT_BEGIN
 90
        0
 91
        1
 62
     0
 92
       -2
340
E021E
 93
        0
 40
0.045
309
GRIDFORMAT_END
 95
        4
302
GRIDFORMAT
  1
GRIDFORMAT_BEGIN
 90
        0
 91
        1
 62
     0
 92
       -2
340
E021E
 93
        0
 40
0.045
309
GRIDFORMAT_END
 95
        8
302
GRIDFORMAT
  1
GRIDFORMAT_BEGIN
 90
        0
 91
        1
 62
     0
 92
       -2
340
E021E
 93
        0
 40
0.045
309
GRIDFORMAT_END
 95
       16
302
GRIDFORMAT
  1
GRIDFORMAT_BEGIN
 90
        0
 91
        1
 62
     0
 92
       -2
340
E021E
 93
        0
 40
0.045
309
GRIDFORMAT_END
 95
       32
302
GRIDFORMAT
  1
GRIDFORMAT_BEGIN
 90
        0
 91
        1
 62
     0
 92
       -2
340
E021E
 93
        0
 40
0.045
309
GRIDFORMAT_END
309
TABLEFORMAT_END
  1
CELLSTYLE_BEGIN
 90
        1
 91
        1
300
_TITLE
309
CELLSTYLE_END
300
CELLSTYLE
  1
TABLEFORMAT_BEGIN
 90
        5
170
     1
 91
        0
 92
        0
 62
   257
 93
        1
300
CONTENTFORMAT
  1
CONTENTFORMAT_BEGIN
 90
        0
 91
        0
 92
        4
 93
        0
300

 40
0.0
140
1.0
 94
        5
 62
     0
340
E021C
144
0.18
309
CONTENTFORMAT_END
171
     1
301
MARGIN
  1
CELLMARGIN_BEGIN
 40
0.06
 40
0.06
 40
0.06
 40
0.06
 40
0.06
 40
0.06
309
CELLMARGIN_END
 94
        6
 95
        1
302
GRIDFORMAT
  1
GRIDFORMAT_BEGIN
 90
        0
 91
        1
 62
     0
 92
       -2
340
E021E
 93
        0
 40
0.045
309
GRIDFORMAT_END
 95
        2
302
GRIDFORMAT
  1
GRIDFORMAT_BEGIN
 90
        0
 91
        1
 62
     0
 92
       -2
340
E021E
 93
        0
 40
0.045
309
GRIDFORMAT_END
 95
        4
302
GRIDFORMAT
  1
GRIDFORMAT_BEGIN
 90
        0
 91
        1
 62
     0
 92
       -2
340
E021E
 93
        0
 40
0.045
309
GRIDFORMAT_END
 95
        8
302
GRIDFORMAT
  1
GRIDFORMAT_BEGIN
 90
        0
 91
        1
 62
     0
 92
       -2
340
E021E
 93
        0
 40
0.045
309
GRIDFORMAT_END
 95
       16
302
GRIDFORMAT
  1
GRIDFORMAT_BEGIN
 90
        0
 91
        1
 62
     0
 92
       -2
340
E021E
 93
        0
 40
0.045
309
GRIDFORMAT_END
 95
       32
302
GRIDFORMAT
  1
GRIDFORMAT_BEGIN
 90
        0
 91
        1
 62
     0
 92
       -2
340
E021E
 93
        0
 40
0.045
309
GRIDFORMAT_END
309
TABLEFORMAT_END
  1
CELLSTYLE_BEGIN
 90
        2
 91
        1
300
_HEADER
309
CELLSTYLE_END
300
CELLSTYLE
  1
TABLEFORMAT_BEGIN
 90
        5
170
     1
 91
        0
 92
        0
 62
   257
 93
        1
300
CONTENTFORMAT
  1
CONTENTFORMAT_BEGIN
 90
        0
 91
        0
 92
        4
 93
        0
300

 40
0.0
140
1.0
 94
        2
 62
     0
340
E021C
144
0.18
309
CONTENTFORMAT_END
171
     1
301
MARGIN
  1
CELLMARGIN_BEGIN
 40
0.06
 40
0.06
 40
0.06
 40
0.06
 40
0.06
 40
0.06
309
CELLMARGIN_END
 94
        6
 95
        1
302
GRIDFORMAT
  1
GRIDFORMAT_BEGIN
 90
        0
 91
        1
 62
     0
 92
       -2
340
E021E
 93
        0
 40
0.045
309
GRIDFORMAT_END
 95
        2
302
GRIDFORMAT
  1
GRIDFORMAT_BEGIN
 90
        0
 91
        1
 62
     0
 92
       -2
340
E021E
 93
        0
 40
0.045
309
GRIDFORMAT_END
 95
        4
302
GRIDFORMAT
  1
GRIDFORMAT_BEGIN
 90
        0
 91
        1
 62
     0
 92
       -2
340
E021E
 93
        0
 40
0.045
309
GRIDFORMAT_END
 95
        8
302
GRIDFORMAT
  1
GRIDFORMAT_BEGIN
 90
        0
 91
        1
 62
     0
 92
       -2
340
E021E
 93
        0
 40
0.045
309
GRIDFORMAT_END
 95
       16
302
GRIDFORMAT
  1
GRIDFORMAT_BEGIN
 90
        0
 91
        1
 62
     0
 92
       -2
340
E021E
 93
        0
 40
0.045
309
GRIDFORMAT_END
 95
       32
302
GRIDFORMAT
  1
GRIDFORMAT_BEGIN
 90
        0
 91
        1
 62
     0
 92
       -2
340
E021E
 93
        0
 40
0.045
309
GRIDFORMAT_END
309
TABLEFORMAT_END
  1
CELLSTYLE_BEGIN
 90
        3
 91
        2
300
_DATA
309
CELLSTYLE_END
  0
ENDSEC
  0
EOF
