  0
SECTION
  2
HEADER
  9
$ACADVER
  1
AC1009
  9
$DWGCODEPAGE
  3
ansi_1252
  9
$INSBASE
 10
0.0
 20
0.0
 30
0.0
  9
$EXTMIN
 10
-4012.685974119231
 20
-987.6576470269356
 30
0.0
  9
$EXTMAX
 10
8437.314025880763
 20
15259.68023507602
 30
0.0
  9
$LIMMIN
 10
0.0
 20
0.0
  9
$LIMMAX
 10
12.0
 20
9.0
  9
$ORTHOMODE
 70
     1
  9
$REGENMODE
 70
     1
  9
$FILLMODE
 70
     1
  9
$QTEXTMODE
 70
     0
  9
$MIRRTEXT
 70
     0
  9
$DRAGMODE
 70
     2
  9
$LTSCALE
 40
5.0
  9
$OSMODE
 70
 16383
  9
$ATTMODE
 70
     1
  9
$TEXTSIZE
 40
19.0
  9
$TRACEWID
 40
0.05
  9
$TEXTSTYLE
  7
STILE1
  9
$CLAYER
  8
0
  9
$CELTYPE
  6
BYLAYER
  9
$CECOLOR
 62
   256
  9
$DIMSCALE
 40
50.0
  9
$DIMASZ
 40
2.5
  9
$DIMEXO
 40
1.0
  9
$DIMDLI
 40
0.0
  9
$DIMRND
 40
0.0
  9
$DIMDLE
 40
0.0
  9
$DIMEXE
 40
1.0
  9
$DIMTP
 40
0.0
  9
$DIMTM
 40
0.0
  9
$DIMTXT
 40
2.5
  9
$DIMCEN
 40
1.0
  9
$DIMTSZ
 40
0.0
  9
$DIMTOL
 70
     0
  9
$DIMLIM
 70
     0
  9
$DIMTIH
 70
     0
  9
$DIMTOH
 70
     0
  9
$DIMSE1
 70
     0
  9
$DIMSE2
 70
     0
  9
$DIMTAD
 70
     1
  9
$DIMZIN
 70
     8
  9
$DIMBLK
  1

  9
$DIMASO
 70
     1
  9
$DIMSHO
 70
     0
  9
$DIMPOST
  1

  9
$DIMAPOST
  1

  9
$DIMALT
 70
     0
  9
$DIMALTD
 70
     2
  9
$DIMALTF
 40
25.4
  9
$DIMLFAC
 40
1.0
  9
$DIMTOFL
 70
     1
  9
$DIMTVP
 40
0.0
  9
$DIMTIX
 70
     1
  9
$DIMSOXD
 70
     0
  9
$DIMSAH
 70
     0
  9
$DIMBLK1
  1

  9
$DIMBLK2
  1

  9
$DIMSTYLE
  2
STANDARD
  9
$DIMCLRD
 70
     0
  9
$DIMCLRE
 70
     0
  9
$DIMCLRT
 70
     0
  9
$DIMTFAC
 40
1.0
  9
$DIMGAP
 40
1.5
  9
$LUNITS
 70
     2
  9
$LUPREC
 70
     4
  9
$SKETCHINC
 40
0.1
  9
$FILLETRAD
 40
20.0
  9
$AUNITS
 70
     0
  9
$AUPREC
 70
     0
  9
$MENU
  1
acad
  9
$ELEVATION
 40
0.0
  9
$PELEVATION
 40
0.0
  9
$THICKNESS
 40
0.0
  9
$LIMCHECK
 70
     0
  9
$CHAMFERA
 40
1200.0
  9
$CHAMFERB
 40
1200.0
  9
$SKPOLY
 70
     0
  9
$TDCREATE
 40
2450277.504307755
  9
$TDUPDATE
 40
2460476.510590174
  9
$TDINDWG
 40
26.3206588542
  9
$TDUSRTIMER
 40
0.0000641435
  9
$USRTIMER
 70
     1
  9
$ANGBASE
 50
0.0
  9
$ANGDIR
 70
     0
  9
$PDMODE
 70
     0
  9
$PDSIZE
 40
0.0
  9
$PLINEWID
 40
0.0
  9
$COORDS
 70
     0
  9
$SPLFRAME
 70
     0
  9
$SPLINETYPE
 70
     6
  9
$SPLINESEGS
 70
     8
  9
$ATTDIA
 70
     0
  9
$ATTREQ
 70
     1
  9
$HANDLING
 70
     1
  9
$HANDSEED
  5
E8908
  9
$SURFTAB1
 70
     6
  9
$SURFTAB2
 70
     6
  9
$SURFTYPE
 70
     6
  9
$SURFU
 70
     6
  9
$SURFV
 70
     6
  9
$UCSNAME
  2

  9
$UCSORG
 10
0.0
 20
0.0
 30
0.0
  9
$UCSXDIR
 10
1.0
 20
0.0
 30
0.0
  9
$UCSYDIR
 10
0.0
 20
1.0
 30
0.0
  9
$PUCSNAME
  2

  9
$PUCSORG
 10
0.0
 20
0.0
 30
0.0
  9
$PUCSXDIR
 10
1.0
 20
0.0
 30
0.0
  9
$PUCSYDIR
 10
0.0
 20
1.0
 30
0.0
  9
$USERI1
 70
     0
  9
$USERI2
 70
     0
  9
$USERI3
 70
     0
  9
$USERI4
 70
     0
  9
$USERI5
 70
     0
  9
$USERR1
 40
0.0
  9
$USERR2
 40
0.0
  9
$USERR3
 40
0.0
  9
$USERR4
 40
0.0
  9
$USERR5
 40
0.0
  9
$WORLDVIEW
 70
     0
  9
$SHADEDGE
 70
     3
  9
$SHADEDIF
 70
    70
  9
$TILEMODE
 70
     1
  9
$MAXACTVP
 70
    16
  9
$PLIMCHECK
 70
     0
  9
$PEXTMIN
 10
0.0
 20
0.0
 30
0.0
  9
$PEXTMAX
 10
0.0
 20
0.0
 30
0.0
  9
$PLIMMIN
 10
0.0
 20
0.0
  9
$PLIMMAX
 10
0.0
 20
0.0
  9
$UNITMODE
 70
     0
  9
$VISRETAIN
 70
     0
  9
$PLINEGEN
 70
     0
  9
$PSLTSCALE
 70
     1
  0
ENDSEC
  0
SECTION
  2
TABLES
  0
TABLE
  2
VPORT
 70
     1
  0
VPORT
  2
*ACTIVE
 70
     0
 10
0.0
 20
0.0
 11
1.0
 21
1.0
 12
2212.314025880766
 22
7136.011294024543
 13
0.0
 23
0.0
 14
1.0
 24
1.0
 15
0.0
 25
0.0
 16
0.0
 26
0.0
 36
1.0
 17
0.0
 27
0.0
 37
0.0
 40
16572.28463974502
 41
2.042226487523992
 42
50.0
 43
0.0
 44
0.0
 50
0.0
 51
0.0
 71
    16
 72
   100
 73
     1
 74
     1
 75
     0
 76
     1
 77
     0
 78
     0
  0
ENDTAB
  0
TABLE
  2
LTYPE
 70
     1
  0
LTYPE
  2
CONTINUOUS
 70
     0
  3
Solid line
 72
    65
 73
     0
 40
0.0
  0
ENDTAB
  0
TABLE
  2
LAYER
 70
     1
  0
LAYER
  2
0
 70
     0
 62
     7
  6
CONTINUOUS
  0
ENDTAB
  0
TABLE
  2
STYLE
 70
     2
  0
STYLE
  2
STANDARD
 70
     0
 40
0.0
 41
1.0
 50
0.0
 71
     0
 42
2.5
  3
txt
  4

  0
STYLE
  2
STILE1
 70
     0
 40
0.0
 41
1.0
 50
0.0
 71
     0
 42
19.0
  3
ROMANS.SHX
  4

  0
ENDTAB
  0
TABLE
  2
VIEW
 70
     0
  0
ENDTAB
  0
TABLE
  2
UCS
 70
     0
  0
ENDTAB
  0
TABLE
  2
APPID
 70
    40
  0
APPID
  2
ACAD
 70
     0
  0
APPID
  2
DCO15
 70
     0
  0
APPID
  2
ACAECLAYERSTANDARD
 70
     0
  0
APPID
  2
ACDBDYNAMICBLOCKGUID
 70
     0
  0
APPID
  2
ACDBBLOCKREPETAG
 70
     0
  0
APPID
  2
ACAD_PSEXT
 70
     0
  0
APPID
  2
ACAD_DSTYLE_DIMJAG
 70
     0
  0
APPID
  2
ACAD_DSTYLE_DIMTALN
 70
     0
  0
APPID
  2
ACAD_DSTYLE_DIMRADIAL_EXTE
 70
     0
  0
APPID
  2
RAK
 70
     0
  0
APPID
  2
ACLAYERTOOLS
 70
     0
  0
APPID
  2
REVIT
 70
     0
  0
APPID
  2
ACAD_MLEADERVER
 70
     0
  0
APPID
  2
ACAD_DSTYLE_DIMBREAK
 70
     0
  0
APPID
  2
ACCMTRANSPARENCY
 70
     0
  0
APPID
  2
ACAD_NAV_VCDISPLAY
 70
     0
  0
APPID
  2
GRADIENTCOLOR1ACI
 70
     0
  0
APPID
  2
GRADIENTCOLOR2ACI
 70
     0
  0
APPID
  2
PROGE_PRINT_SETTINGS
 70
     0
  0
APPID
  2
AA_WLPR
 70
     0
  0
APPID
  2
AA_WLENT
 70
     0
  0
APPID
  2
AA_WLTP
 70
     0
  0
APPID
  2
AA_WLBK
 70
     0
  0
APPID
  2
ACAD_DSTYLE_DIMJOGGED_JOGA
 70
     0
  0
APPID
  2
$DDT_AUDIT_GENERATED__2CAF
 70
     0
  0
APPID
  2
ACAD_DSTYLE_DIMEXT_LENGTH
 70
     0
  0
APPID
  2
ACAD_DSTYLE_DIMEXT_ENABLED
 70
     0
  0
APPID
  2
ACAD_DSTYLE_DIMJOGGED_JOG0
 70
     0
  0
APPID
  2
ACAD_DSTYLE_DIMARC_LENGTH_
 70
     0
  0
APPID
  2
C_AND_O
 70
     0
  0
APPID
  2
AVE_FINISH
 70
     0
  0
APPID
  2
AVE_RENDER
 70
     0
  0
APPID
  2
AVE_ENTITY_MATERIAL
 70
     0
  0
APPID
  2
AVE_MATERIAL
 70
     0
  0
APPID
  2
ADDC5$_$SETUP-
 70
     0
  0
APPID
  2
ADDC4$_$SETUP-
 70
     0
  0
APPID
  2
ADDC4$_$ARTSETUP-
 70
     0
  0
APPID
  2
GENIUS_GENODEF_13
 70
     0
  0
APPID
  2
GENIUS_GENOBJ-N-REC_13
 70
     0
  0
APPID
  2
GENIUS_GENREC_14
 70
     0
  0
ENDTAB
  0
TABLE
  2
DIMSTYLE
 70
     1
  0
DIMSTYLE
  2
STANDARD
 70
     0
  3

  4

  5

  6

  7

 40
1.0
 41
0.18
 42
0.0625
 43
0.38
 44
0.18
 45
0.0
 46
0.0
 47
0.0
 48
0.0
140
0.18
141
0.09
142
0.0
143
25.4
144
1.0
145
0.0
146
1.0
147
0.09
 71
     0
 72
     0
 73
     1
 74
     1
 75
     0
 76
     0
 77
     0
 78
     0
170
     0
171
     2
172
     0
173
     0
174
     0
175
     0
176
     0
177
     0
178
     0
  0
ENDTAB
  0
ENDSEC
  0
SECTION
  2
BLOCKS
  0
BLOCK
  8
0
  2
$MODEL_SPACE
 70
     0
 10
0.0
 20
0.0
 30
0.0
  3
$MODEL_SPACE
  1

  0
ENDBLK
  5
E6F67
  8
0
  0
BLOCK
 67
     1
  8
0
  2
$PAPER_SPACE
 70
     0
 10
0.0
 20
0.0
 30
0.0
  3
$PAPER_SPACE
  1

  0
ENDBLK
  5
E6F63
 67
     1
  8
0
  0
ENDSEC
  0
SECTION
  2
ENTITIES
  0
LINE
  5
DCF82
  8
0
 10
4012.685974119231
 20
0.0000000000002274
 30
0.0
 11
4012.685974119231
 21
-987.6576470269353
 31
0.0
  0
TEXT
  5
DCF83
  8
0
 10
2240.022522568668
 20
-208.9254166234015
 30
0.0
 40
125.0
  1
2024-06
  7
STILE1
 72
     1
 11
2674.918355902001
 21
-208.9254166234015
 31
0.0
  0
LINE
  5
DCF84
  8
0
 10
1337.561991373077
 20
-299.9965549039188
 30
0.0
 11
1337.561991373077
 21
0.0
 31
0.0
  0
LINE
  5
DCF85
  8
0
 10
-1337.561991373077
 20
0.0
 30
0.0
 11
-1337.561991373077
 21
-987.6576470269353
 31
0.0
  0
POLYLINE
  5
DCF86
  8
0
 66
     1
 10
0.0
 20
0.0
 30
0.0
 70
     1
  0
VERTEX
  5
E8321
  8
0
 10
-4012.685974119231
 20
0.0
 30
0.0
  0
VERTEX
  5
E8322
  8
0
 10
4012.685974119231
 20
0.0
 30
0.0
  0
VERTEX
  5
E8323
  8
0
 10
4012.685974119231
 20
-987.6576470269353
 30
0.0
  0
VERTEX
  5
E8324
  8
0
 10
-4012.685974119231
 20
-987.6576470269353
 30
0.0
  0
SEQEND
  5
E87EA
  8
0
  0
POLYLINE
  5
DCF87
  8
0
 66
     1
 10
0.0
 20
0.0
 30
0.0
  0
VERTEX
  5
E8325
  8
0
 10
-1337.561991373077
 20
-299.9965549039189
 30
0.0
  0
VERTEX
  5
E8326
  8
0
 10
4012.685974119231
 20
-299.9965549039186
 30
0.0
  0
SEQEND
  5
E87EB
  8
0
  0
TEXT
  5
DCF88
  8
0
 10
-527.8452372835668
 20
-817.4938565844182
 30
0.0
 40
125.0
  1
This drawing is property of Fantin S.r.l. 
  7
STILE1
 72
     1
 11
1487.035715097386
 21
-817.4938565844182
 31
0.0
  0
POLYLINE
  5
DCF89
  8
0
  6
CONTINUOUS
 66
     1
 10
0.0
 20
0.0
 30
0.0
 70
     1
  0
VERTEX
  5
E8327
  8
0
  6
CONTINUOUS
 10
-3164.963312949987
 20
-604.0348442923276
 30
0.0
  0
VERTEX
  5
E8328
  8
0
  6
CONTINUOUS
 10
-3164.963312949987
 20
-604.0348442923276
 30
0.0
  0
VERTEX
  5
E8329
  8
0
  6
CONTINUOUS
 10
-3140.60203043744
 20
-687.6576470269355
 30
0.0
  0
VERTEX
  5
E832A
  8
0
  6
CONTINUOUS
 10
-3014.885328505188
 20
-687.6576470269355
 30
0.0
  0
VERTEX
  5
E832B
  8
0
  6
CONTINUOUS
 10
-3132.294182670303
 20
-334.8833143443335
 30
0.0
 42
0.1089385125692126
  0
VERTEX
  5
E832C
  8
0
  6
CONTINUOUS
 10
-3145.036042486318
 20
-307.2121766244527
 30
0.0
 42
0.1589313772246072
  0
VERTEX
  5
E832D
  8
0
  6
CONTINUOUS
 10
-3157.031867676415
 20
-299.9273046676535
 30
0.0
 42
0.058673645385263
  0
VERTEX
  5
E832E
  8
0
  6
CONTINUOUS
 10
-3173.277038573287
 20
-298.3360188803636
 30
0.0
  0
VERTEX
  5
E832F
  8
0
  6
CONTINUOUS
 10
-3173.277038573287
 20
-298.3360188803636
 30
0.0
  0
VERTEX
  5
E8330
  8
0
  6
CONTINUOUS
 10
-3268.525316026062
 20
-298.3360188803636
 30
0.0
 42
0.058673645385263
  0
VERTEX
  5
E8331
  8
0
  6
CONTINUOUS
 10
-3284.770486922936
 20
-299.9273046676535
 30
0.0
 42
0.1589313772246072
  0
VERTEX
  5
E8332
  8
0
  6
CONTINUOUS
 10
-3296.766312113032
 20
-307.2121766244527
 30
0.0
 42
0.1089385125692126
  0
VERTEX
  5
E8333
  8
0
  6
CONTINUOUS
 10
-3309.508171929046
 20
-334.8833143443335
 30
0.0
  0
VERTEX
  5
E8334
  8
0
  6
CONTINUOUS
 10
-3426.917026089505
 20
-687.6576470269355
 30
0.0
  0
VERTEX
  5
E8335
  8
0
  6
CONTINUOUS
 10
-3307.851080996916
 20
-687.6576470269355
 30
0.0
  0
VERTEX
  5
E8336
  8
0
  6
CONTINUOUS
 10
-3284.038581000641
 20
-604.0348442923276
 30
0.0
  0
SEQEND
  5
E87EC
  8
0
  6
CONTINUOUS
  0
POLYLINE
  5
DCF8A
  8
0
  6
CONTINUOUS
 66
     1
 10
0.0
 20
0.0
 30
0.0
  0
VERTEX
  5
E8337
  8
0
  6
CONTINUOUS
 10
-3221.454976396636
 20
-406.8789198133162
 30
0.0
  0
VERTEX
  5
E8338
  8
0
  6
CONTINUOUS
 10
-3188.227030434647
 20
-520.96670193132
 30
0.0
  0
VERTEX
  5
E8339
  8
0
  6
CONTINUOUS
 10
-3260.775573728607
 20
-520.96670193132
 30
0.0
  0
VERTEX
  5
E833A
  8
0
  6
CONTINUOUS
 10
-3227.547627761961
 20
-406.8789198133162
 30
0.0
  0
VERTEX
  5
E833B
  8
0
  6
CONTINUOUS
 10
-3221.454976396636
 20
-406.8789198133162
 30
0.0
  0
SEQEND
  5
E87ED
  8
0
  6
CONTINUOUS
  0
POLYLINE
  5
DCF8B
  8
0
  6
CONTINUOUS
 66
     1
 10
0.0
 20
0.0
 30
0.0
  0
VERTEX
  5
E833C
  8
0
  6
CONTINUOUS
 10
-3407.540086535738
 20
-300.0
 30
0.0
  0
VERTEX
  5
E833D
  8
0
  6
CONTINUOUS
 10
-3407.540086535738
 20
-389.1607937274967
 30
0.0
  0
VERTEX
  5
E833E
  8
0
  6
CONTINUOUS
 10
-3593.616583929397
 20
-389.1607937274967
 30
0.0
  0
VERTEX
  5
E833F
  8
0
  6
CONTINUOUS
 10
-3593.616583929397
 20
-466.1362847220151
 30
0.0
  0
VERTEX
  5
E8340
  8
0
  6
CONTINUOUS
 10
-3463.47293430008
 20
-466.1362847220151
 30
0.0
  0
VERTEX
  5
E8341
  8
0
  6
CONTINUOUS
 10
-3463.47293430008
 20
-549.2095947265625
 30
0.0
  0
VERTEX
  5
E8342
  8
0
  6
CONTINUOUS
 10
-3593.616583929397
 20
-549.2095947265625
 30
0.0
  0
VERTEX
  5
E8343
  8
0
  6
CONTINUOUS
 10
-3593.616583929397
 20
-687.6576470269355
 30
0.0
  0
VERTEX
  5
E8344
  8
0
  6
CONTINUOUS
 10
-3712.685974119231
 20
-687.6576470269355
 30
0.0
  0
VERTEX
  5
E8345
  8
0
  6
CONTINUOUS
 10
-3712.685974119231
 20
-300.0
 30
0.0
  0
VERTEX
  5
E8346
  8
0
  6
CONTINUOUS
 10
-3407.540086535738
 20
-300.0
 30
0.0
  0
SEQEND
  5
E87EE
  8
0
  6
CONTINUOUS
  0
POLYLINE
  5
DCF8C
  8
0
  6
CONTINUOUS
 66
     1
 10
0.0
 20
0.0
 30
0.0
 70
     1
  0
VERTEX
  5
E8347
  8
0
  6
CONTINUOUS
 10
-2192.47902425006
 20
-299.9982774525415
 30
0.0
  0
VERTEX
  5
E8348
  8
0
  6
CONTINUOUS
 10
-2073.409634060226
 20
-299.9982774525415
 30
0.0
  0
VERTEX
  5
E8349
  8
0
  6
CONTINUOUS
 10
-2073.409634060226
 20
-687.6576470269355
 30
0.0
  0
VERTEX
  5
E834A
  8
0
  6
CONTINUOUS
 10
-2192.47902425006
 20
-687.6576470269355
 30
0.0
  0
SEQEND
  5
E87EF
  8
0
  6
CONTINUOUS
  0
POLYLINE
  5
DCF8D
  8
0
  6
CONTINUOUS
 66
     1
 10
0.0
 20
0.0
 30
0.0
  0
VERTEX
  5
E834B
  8
0
  6
CONTINUOUS
 10
-2229.582702633925
 20
-299.9982774525415
 30
0.0
  0
VERTEX
  5
E834C
  8
0
  6
CONTINUOUS
 10
-2229.582702633925
 20
-390.8213297522161
 30
0.0
  0
VERTEX
  5
E834D
  8
0
  6
CONTINUOUS
 10
-2345.878790956922
 20
-390.8213297522161
 30
0.0
  0
VERTEX
  5
E834E
  8
0
  6
CONTINUOUS
 10
-2345.878790956922
 20
-687.6576470269355
 30
0.0
  0
VERTEX
  5
E834F
  8
0
  6
CONTINUOUS
 10
-2464.948181146756
 20
-687.6576470269355
 30
0.0
  0
VERTEX
  5
E8350
  8
0
  6
CONTINUOUS
 10
-2464.948181146756
 20
-390.8213297522161
 30
0.0
  0
VERTEX
  5
E8351
  8
0
  6
CONTINUOUS
 10
-2578.481302894652
 20
-390.8213297522161
 30
0.0
  0
VERTEX
  5
E8352
  8
0
  6
CONTINUOUS
 10
-2578.481302894652
 20
-299.9982774525415
 30
0.0
  0
VERTEX
  5
E8353
  8
0
  6
CONTINUOUS
 10
-2229.582702633925
 20
-299.9982774525415
 30
0.0
  0
SEQEND
  5
E87F0
  8
0
  6
CONTINUOUS
  0
POLYLINE
  5
DCF8E
  8
0
  6
CONTINUOUS
 66
     1
 10
0.0
 20
0.0
 30
0.0
  0
VERTEX
  5
E8354
  8
0
  6
CONTINUOUS
 10
-2982.206875272095
 20
-687.6576470269355
 30
0.0
  0
VERTEX
  5
E8355
  8
0
  6
CONTINUOUS
 10
-2982.206875272095
 20
-299.9965549039189
 30
0.0
  0
VERTEX
  5
E8356
  8
0
  6
CONTINUOUS
 10
-2880.857333708556
 20
-299.9965549039189
 30
0.0
 42
-0.316444976687396
  0
VERTEX
  5
E8357
  8
0
  6
CONTINUOUS
 10
-2829.909539115615
 20
-328.2411702477839
 30
0.0
  0
VERTEX
  5
E8358
  8
0
  6
CONTINUOUS
 10
-2729.116380475462
 20
-498.2600775826719
 30
0.0
  0
VERTEX
  5
E8359
  8
0
  6
CONTINUOUS
 10
-2726.348246252165
 20
-498.2600775826719
 30
0.0
  0
VERTEX
  5
E835A
  8
0
  6
CONTINUOUS
 10
-2726.348246252165
 20
-299.9965549039189
 30
0.0
  0
VERTEX
  5
E835B
  8
0
  6
CONTINUOUS
 10
-2613.924445258454
 20
-299.9965549039189
 30
0.0
  0
VERTEX
  5
E835C
  8
0
  6
CONTINUOUS
 10
-2613.924445258454
 20
-687.6576470269355
 30
0.0
  0
VERTEX
  5
E835D
  8
0
  6
CONTINUOUS
 10
-2696.446539983154
 20
-687.6576470269355
 30
0.0
 42
-0.312959769389874
  0
VERTEX
  5
E835E
  8
0
  6
CONTINUOUS
 10
-2747.39433458075
 20
-659.4147542316932
 30
0.0
  0
VERTEX
  5
E835F
  8
0
  6
CONTINUOUS
 10
-2867.014940045774
 20
-466.1380072694737
 30
0.0
  0
VERTEX
  5
E8360
  8
0
  6
CONTINUOUS
 10
-2869.779629176483
 20
-466.1380072694737
 30
0.0
  0
VERTEX
  5
E8361
  8
0
  6
CONTINUOUS
 10
-2869.779629176483
 20
-687.6576470269355
 30
0.0
  0
VERTEX
  5
E8362
  8
0
  6
CONTINUOUS
 10
-2982.206875272095
 20
-687.6576470269355
 30
0.0
  0
SEQEND
  5
E87F1
  8
0
  6
CONTINUOUS
  0
POLYLINE
  5
DCF8F
  8
0
  6
CONTINUOUS
 66
     1
 10
0.0
 20
0.0
 30
0.0
  0
VERTEX
  5
E8363
  8
0
  6
CONTINUOUS
 10
-2005.844421386719
 20
-687.6576470269355
 30
0.0
  0
VERTEX
  5
E8364
  8
0
  6
CONTINUOUS
 10
-2005.844421386719
 20
-299.9965549039189
 30
0.0
  0
VERTEX
  5
E8365
  8
0
  6
CONTINUOUS
 10
-1904.494879823178
 20
-299.9965549039189
 30
0.0
 42
-0.316444976687396
  0
VERTEX
  5
E8366
  8
0
  6
CONTINUOUS
 10
-1853.547085234895
 20
-328.2411702477839
 30
0.0
  0
VERTEX
  5
E8367
  8
0
  6
CONTINUOUS
 10
-1752.753926590085
 20
-498.2600775826719
 30
0.0
  0
VERTEX
  5
E8368
  8
0
  6
CONTINUOUS
 10
-1749.985792371444
 20
-498.2600775826719
 30
0.0
  0
VERTEX
  5
E8369
  8
0
  6
CONTINUOUS
 10
-1749.985792371444
 20
-299.9965549039189
 30
0.0
  0
VERTEX
  5
E836A
  8
0
  6
CONTINUOUS
 10
-1637.561991373077
 20
-299.9965549039189
 30
0.0
  0
VERTEX
  5
E836B
  8
0
  6
CONTINUOUS
 10
-1637.561991373077
 20
-687.6576470269355
 30
0.0
  0
VERTEX
  5
E836C
  8
0
  6
CONTINUOUS
 10
-1720.084086097777
 20
-687.6576470269355
 30
0.0
 42
-0.312959769389874
  0
VERTEX
  5
E836D
  8
0
  6
CONTINUOUS
 10
-1771.031880690716
 20
-659.4147542316932
 30
0.0
  0
VERTEX
  5
E836E
  8
0
  6
CONTINUOUS
 10
-1890.652486160398
 20
-466.1380072694737
 30
0.0
  0
VERTEX
  5
E836F
  8
0
  6
CONTINUOUS
 10
-1893.417175291106
 20
-466.1380072694737
 30
0.0
  0
VERTEX
  5
E8370
  8
0
  6
CONTINUOUS
 10
-1893.417175291106
 20
-687.6576470269355
 30
0.0
  0
VERTEX
  5
E8371
  8
0
  6
CONTINUOUS
 10
-2005.844421386719
 20
-687.6576470269355
 30
0.0
  0
SEQEND
  5
E87F2
  8
0
  6
CONTINUOUS
  0
TEXT
  5
DCF90
  8
0
 10
-144.41583501983
 20
-208.9254166234014
 30
0.0
 40
125.0
  1
Set
  7
STILE1
 72
     1
 11
7.741903075408115
 21
-208.9254166234014
 31
0.0
  0
TEXT
  5
DCF91
  8
0
 10
-838.7791374978212
 20
-555.4096502962035
 30
0.0
 40
125.0
  1
Questo disegno è di proprietà di Fantin S.r.l.   
  7
STILE1
 72
     1
 11
1583.839910121226
 21
-555.4096502962035
 31
0.0
  0
POLYLINE
  5
DCF9E
  8
0
 66
     1
 10
0.0
 20
0.0
 30
0.0
 70
     1
  0
VERTEX
  5
E8372
  8
0
 10
8437.314025880763
 20
554.0366420584437
 30
0.0
  0
VERTEX
  5
E8373
  8
0
 10
-4012.685974119231
 20
554.0366420584437
 30
0.0
  0
VERTEX
  5
E8374
  8
0
 10
-4012.685974119231
 20
2640.036642058258
 30
0.0
  0
VERTEX
  5
E8375
  8
0
 10
8437.314025880763
 20
2640.036642058258
 30
0.0
  0
SEQEND
  5
E87F3
  8
0
  0
POLYLINE
  5
E23FD
  8
0
 66
     1
 10
0.0
 20
0.0
 30
0.0
  0
VERTEX
  5
E8376
  8
0
 10
-3412.685974119192
 20
4664.073284116613
 30
0.0
  0
VERTEX
  5
E8377
  8
0
 10
-3412.685974119309
 20
4664.073284116613
 30
0.0
  0
SEQEND
  5
E87F4
  8
0
  0
POLYLINE
  5
E23FE
  8
0
 66
     1
 10
0.0
 20
0.0
 30
0.0
 70
     1
  0
VERTEX
  5
E8378
  8
0
 10
-2452.685974119307
 20
4664.073284116613
 30
0.0
  0
VERTEX
  5
E8379
  8
0
 10
-2452.685974119307
 20
4014.073284116702
 30
0.0
  0
VERTEX
  5
E837A
  8
0
 10
-3372.685974119308
 20
4014.073284116702
 30
0.0
  0
VERTEX
  5
E837B
  8
0
 10
-3372.685974119308
 20
4664.073284116613
 30
0.0
  0
SEQEND
  5
E87F5
  8
0
  0
POLYLINE
  5
E23FF
  8
0
 66
     1
 10
0.0
 20
0.0
 30
0.0
 70
     1
  0
VERTEX
  5
E837C
  8
0
 10
-2414.685974119306
 20
4704.073284116613
 30
0.0
  0
VERTEX
  5
E837D
  8
0
 10
-2414.685974119306
 20
4754.073284116612
 30
0.0
  0
VERTEX
  5
E837E
  8
0
 10
-2412.685974119308
 20
4754.073284116612
 30
0.0
  0
VERTEX
  5
E837F
  8
0
 10
-2412.685974119308
 20
4704.073284116613
 30
0.0
  0
SEQEND
  5
E87F6
  8
0
  0
POLYLINE
  5
E2400
  8
0
 66
     1
 10
0.0
 20
0.0
 30
0.0
 70
     1
  0
VERTEX
  5
E8380
  8
0
 10
-3412.685974119309
 20
4704.073284116613
 30
0.0
  0
VERTEX
  5
E8381
  8
0
 10
-3412.685974119309
 20
4754.073284116612
 30
0.0
  0
VERTEX
  5
E8382
  8
0
 10
-3410.685974119307
 20
4754.073284116612
 30
0.0
  0
VERTEX
  5
E8383
  8
0
 10
-3410.685974119307
 20
4704.073284116613
 30
0.0
  0
SEQEND
  5
E87F7
  8
0
  0
POLYLINE
  5
E2401
  8
0
 66
     1
 10
0.0
 20
0.0
 30
0.0
 70
     1
  0
VERTEX
  5
E8384
  8
0
 10
-3410.685974119307
 20
4704.073284116613
 30
0.0
  0
VERTEX
  5
E8385
  8
0
 10
-3410.685974119307
 20
4754.073284116612
 30
0.0
  0
VERTEX
  5
E8386
  8
0
 10
-2414.685974119306
 20
4754.073284116612
 30
0.0
  0
VERTEX
  5
E8387
  8
0
 10
-2414.685974119306
 20
4704.073284116613
 30
0.0
  0
SEQEND
  5
E87F8
  8
0
  0
POLYLINE
  5
E2402
  8
0
 66
     1
 10
0.0
 20
0.0
 30
0.0
  0
VERTEX
  5
E8388
  8
0
 10
-3412.685974119192
 20
4664.073284116613
 30
0.0
  0
VERTEX
  5
E8389
  8
0
 10
-3412.685974119309
 20
3794.073284116616
 30
0.0
  0
VERTEX
  5
E838A
  8
0
 10
-3372.685974119308
 20
3794.073284116616
 30
0.0
  0
VERTEX
  5
E838B
  8
0
 10
-3372.685974119308
 20
3974.073284116613
 30
0.0
  0
VERTEX
  5
E838C
  8
0
 10
-2452.685974119307
 20
3974.073284116702
 30
0.0
  0
VERTEX
  5
E838D
  8
0
 10
-2452.685974119307
 20
3794.073284116702
 30
0.0
  0
VERTEX
  5
E838E
  8
0
 10
-2412.685974119308
 20
3794.073284116702
 30
0.0
  0
VERTEX
  5
E838F
  8
0
 10
-2412.685974119308
 20
4664.073284116613
 30
0.0
  0
VERTEX
  5
E8390
  8
0
 10
-2412.685974119308
 20
4704.073284116613
 30
0.0
  0
VERTEX
  5
E8391
  8
0
 10
-3412.685974119309
 20
4704.073284116613
 30
0.0
  0
VERTEX
  5
E8392
  8
0
 10
-3412.685974119309
 20
4664.073284116613
 30
0.0
  0
SEQEND
  5
E87F9
  8
0
  0
POLYLINE
  5
E2403
  8
0
 66
     1
 10
0.0
 20
0.0
 30
0.0
 70
     1
  0
VERTEX
  5
E8393
  8
0
 10
7087.314025880769
 20
4704.073284116701
 30
0.0
  0
VERTEX
  5
E8394
  8
0
 10
7087.314025880769
 20
3794.073284116702
 30
0.0
  0
VERTEX
  5
E8395
  8
0
 10
7127.314025880768
 20
3794.073284116702
 30
0.0
  0
VERTEX
  5
E8396
  8
0
 10
7127.314025880768
 20
3974.073284116702
 30
0.0
  0
VERTEX
  5
E8397
  8
0
 10
7727.314025880771
 20
3974.073284116789
 30
0.0
  0
VERTEX
  5
E8398
  8
0
 10
7727.314025880771
 20
3794.073284116791
 30
0.0
  0
VERTEX
  5
E8399
  8
0
 10
7767.314025880771
 20
3794.073284116791
 30
0.0
  0
VERTEX
  5
E839A
  8
0
 10
7767.314025880771
 20
4704.073284116701
 30
0.0
  0
SEQEND
  5
E87FA
  8
0
  0
POLYLINE
  5
E2404
  8
0
 66
     1
 10
0.0
 20
0.0
 30
0.0
 70
     1
  0
VERTEX
  5
E839B
  8
0
 10
7087.314025880769
 20
4704.073284116701
 30
0.0
  0
VERTEX
  5
E839C
  8
0
 10
7087.314025880769
 20
4754.073284116702
 30
0.0
  0
VERTEX
  5
E839D
  8
0
 10
7747.314025880772
 20
4754.073284116702
 30
0.0
 42
-0.4142135623730951
  0
VERTEX
  5
E839E
  8
0
 10
7767.314025880771
 20
4734.073284116703
 30
0.0
  0
VERTEX
  5
E839F
  8
0
 10
7767.314025880771
 20
4704.073284116701
 30
0.0
  0
SEQEND
  5
E87FB
  8
0
  0
POLYLINE
  5
E2405
  8
0
 66
     1
 10
0.0
 20
0.0
 30
0.0
 70
     1
  0
VERTEX
  5
E83A0
  8
0
 10
7127.314025880768
 20
4664.073284116702
 30
0.0
  0
VERTEX
  5
E83A1
  8
0
 10
7127.314025880768
 20
4014.073284116789
 30
0.0
  0
VERTEX
  5
E83A2
  8
0
 10
7727.314025880771
 20
4014.073284116789
 30
0.0
  0
VERTEX
  5
E83A3
  8
0
 10
7727.314025880771
 20
4664.073284116702
 30
0.0
  0
SEQEND
  5
E87FC
  8
0
  0
POLYLINE
  5
E261F
  8
0
 66
     1
 10
0.0
 20
0.0
 30
0.0
  0
VERTEX
  5
E83A4
  8
0
 10
-3412.685974119192
 20
4664.073284116613
 30
0.0
  0
VERTEX
  5
E83A5
  8
0
 10
-3412.685974119309
 20
4664.073284116613
 30
0.0
  0
SEQEND
  5
E87FD
  8
0
  0
POLYLINE
  5
E2620
  8
0
 66
     1
 10
0.0
 20
0.0
 30
0.0
 70
     1
  0
VERTEX
  5
E83A6
  8
0
 10
-2452.685974119307
 20
4664.073284116613
 30
0.0
  0
VERTEX
  5
E83A7
  8
0
 10
-2452.685974119307
 20
4014.073284116702
 30
0.0
  0
VERTEX
  5
E83A8
  8
0
 10
-3372.685974119308
 20
4014.073284116702
 30
0.0
  0
VERTEX
  5
E83A9
  8
0
 10
-3372.685974119308
 20
4664.073284116613
 30
0.0
  0
SEQEND
  5
E87FE
  8
0
  0
POLYLINE
  5
E2621
  8
0
 66
     1
 10
0.0
 20
0.0
 30
0.0
 70
     1
  0
VERTEX
  5
E83AA
  8
0
 10
-2414.685974119306
 20
4704.073284116613
 30
0.0
  0
VERTEX
  5
E83AB
  8
0
 10
-2414.685974119306
 20
4754.073284116612
 30
0.0
  0
VERTEX
  5
E83AC
  8
0
 10
-2412.685974119308
 20
4754.073284116612
 30
0.0
  0
VERTEX
  5
E83AD
  8
0
 10
-2412.685974119308
 20
4704.073284116613
 30
0.0
  0
SEQEND
  5
E87FF
  8
0
  0
POLYLINE
  5
E2622
  8
0
 66
     1
 10
0.0
 20
0.0
 30
0.0
 70
     1
  0
VERTEX
  5
E83AE
  8
0
 10
-3412.685974119309
 20
4704.073284116613
 30
0.0
  0
VERTEX
  5
E83AF
  8
0
 10
-3412.685974119309
 20
4754.073284116612
 30
0.0
  0
VERTEX
  5
E83B0
  8
0
 10
-3410.685974119307
 20
4754.073284116612
 30
0.0
  0
VERTEX
  5
E83B1
  8
0
 10
-3410.685974119307
 20
4704.073284116613
 30
0.0
  0
SEQEND
  5
E8800
  8
0
  0
POLYLINE
  5
E2623
  8
0
 66
     1
 10
0.0
 20
0.0
 30
0.0
 70
     1
  0
VERTEX
  5
E83B2
  8
0
 10
-3410.685974119307
 20
4704.073284116613
 30
0.0
  0
VERTEX
  5
E83B3
  8
0
 10
-3410.685974119307
 20
4754.073284116612
 30
0.0
  0
VERTEX
  5
E83B4
  8
0
 10
-2414.685974119306
 20
4754.073284116612
 30
0.0
  0
VERTEX
  5
E83B5
  8
0
 10
-2414.685974119306
 20
4704.073284116613
 30
0.0
  0
SEQEND
  5
E8801
  8
0
  0
POLYLINE
  5
E2624
  8
0
 66
     1
 10
0.0
 20
0.0
 30
0.0
  0
VERTEX
  5
E83B6
  8
0
 10
-3412.685974119192
 20
4664.073284116613
 30
0.0
  0
VERTEX
  5
E83B7
  8
0
 10
-3412.685974119309
 20
3794.073284116616
 30
0.0
  0
VERTEX
  5
E83B8
  8
0
 10
-3372.685974119308
 20
3794.073284116616
 30
0.0
  0
VERTEX
  5
E83B9
  8
0
 10
-3372.685974119308
 20
3974.073284116613
 30
0.0
  0
VERTEX
  5
E83BA
  8
0
 10
-2452.685974119307
 20
3974.073284116702
 30
0.0
  0
VERTEX
  5
E83BB
  8
0
 10
-2452.685974119307
 20
3794.073284116702
 30
0.0
  0
VERTEX
  5
E83BC
  8
0
 10
-2412.685974119308
 20
3794.073284116702
 30
0.0
  0
VERTEX
  5
E83BD
  8
0
 10
-2412.685974119308
 20
4664.073284116613
 30
0.0
  0
VERTEX
  5
E83BE
  8
0
 10
-2412.685974119308
 20
4704.073284116613
 30
0.0
  0
VERTEX
  5
E83BF
  8
0
 10
-3412.685974119309
 20
4704.073284116613
 30
0.0
  0
VERTEX
  5
E83C0
  8
0
 10
-3412.685974119309
 20
4664.073284116613
 30
0.0
  0
SEQEND
  5
E8802
  8
0
  0
POLYLINE
  5
E2625
  8
0
 66
     1
 10
0.0
 20
0.0
 30
0.0
 70
     1
  0
VERTEX
  5
E83C1
  8
0
 10
7087.314025880769
 20
4704.073284116701
 30
0.0
  0
VERTEX
  5
E83C2
  8
0
 10
7087.314025880769
 20
3794.073284116702
 30
0.0
  0
VERTEX
  5
E83C3
  8
0
 10
7127.314025880768
 20
3794.073284116702
 30
0.0
  0
VERTEX
  5
E83C4
  8
0
 10
7127.314025880768
 20
3974.073284116702
 30
0.0
  0
VERTEX
  5
E83C5
  8
0
 10
7727.314025880771
 20
3974.073284116789
 30
0.0
  0
VERTEX
  5
E83C6
  8
0
 10
7727.314025880771
 20
3794.073284116791
 30
0.0
  0
VERTEX
  5
E83C7
  8
0
 10
7767.314025880771
 20
3794.073284116791
 30
0.0
  0
VERTEX
  5
E83C8
  8
0
 10
7767.314025880771
 20
4704.073284116701
 30
0.0
  0
SEQEND
  5
E8803
  8
0
  0
POLYLINE
  5
E2626
  8
0
 66
     1
 10
0.0
 20
0.0
 30
0.0
 70
     1
  0
VERTEX
  5
E83C9
  8
0
 10
7087.314025880769
 20
4704.073284116701
 30
0.0
  0
VERTEX
  5
E83CA
  8
0
 10
7087.314025880769
 20
4754.073284116702
 30
0.0
  0
VERTEX
  5
E83CB
  8
0
 10
7747.314025880772
 20
4754.073284116702
 30
0.0
 42
-0.4142135623730951
  0
VERTEX
  5
E83CC
  8
0
 10
7767.314025880771
 20
4734.073284116703
 30
0.0
  0
VERTEX
  5
E83CD
  8
0
 10
7767.314025880771
 20
4704.073284116701
 30
0.0
  0
SEQEND
  5
E8804
  8
0
  0
POLYLINE
  5
E2627
  8
0
 66
     1
 10
0.0
 20
0.0
 30
0.0
 70
     1
  0
VERTEX
  5
E83CE
  8
0
 10
7127.314025880768
 20
4664.073284116702
 30
0.0
  0
VERTEX
  5
E83CF
  8
0
 10
7127.314025880768
 20
4014.073284116789
 30
0.0
  0
VERTEX
  5
E83D0
  8
0
 10
7727.314025880771
 20
4014.073284116789
 30
0.0
  0
VERTEX
  5
E83D1
  8
0
 10
7727.314025880771
 20
4664.073284116702
 30
0.0
  0
SEQEND
  5
E8805
  8
0
  0
POLYLINE
  5
E2841
  8
0
 66
     1
 10
0.0
 20
0.0
 30
0.0
  0
VERTEX
  5
E83D2
  8
0
 10
-3412.685974119192
 20
4664.073284116613
 30
0.0
  0
VERTEX
  5
E83D3
  8
0
 10
-3412.685974119309
 20
4664.073284116613
 30
0.0
  0
SEQEND
  5
E8806
  8
0
  0
POLYLINE
  5
E2842
  8
0
 66
     1
 10
0.0
 20
0.0
 30
0.0
 70
     1
  0
VERTEX
  5
E83D4
  8
0
 10
-2452.685974119307
 20
4664.073284116613
 30
0.0
  0
VERTEX
  5
E83D5
  8
0
 10
-2452.685974119307
 20
4014.073284116702
 30
0.0
  0
VERTEX
  5
E83D6
  8
0
 10
-3372.685974119308
 20
4014.073284116702
 30
0.0
  0
VERTEX
  5
E83D7
  8
0
 10
-3372.685974119308
 20
4664.073284116613
 30
0.0
  0
SEQEND
  5
E8807
  8
0
  0
POLYLINE
  5
E2843
  8
0
 66
     1
 10
0.0
 20
0.0
 30
0.0
 70
     1
  0
VERTEX
  5
E83D8
  8
0
 10
-2414.685974119306
 20
4704.073284116613
 30
0.0
  0
VERTEX
  5
E83D9
  8
0
 10
-2414.685974119306
 20
4754.073284116612
 30
0.0
  0
VERTEX
  5
E83DA
  8
0
 10
-2412.685974119308
 20
4754.073284116612
 30
0.0
  0
VERTEX
  5
E83DB
  8
0
 10
-2412.685974119308
 20
4704.073284116613
 30
0.0
  0
SEQEND
  5
E8808
  8
0
  0
POLYLINE
  5
E2844
  8
0
 66
     1
 10
0.0
 20
0.0
 30
0.0
 70
     1
  0
VERTEX
  5
E83DC
  8
0
 10
-3412.685974119309
 20
4704.073284116613
 30
0.0
  0
VERTEX
  5
E83DD
  8
0
 10
-3412.685974119309
 20
4754.073284116612
 30
0.0
  0
VERTEX
  5
E83DE
  8
0
 10
-3410.685974119307
 20
4754.073284116612
 30
0.0
  0
VERTEX
  5
E83DF
  8
0
 10
-3410.685974119307
 20
4704.073284116613
 30
0.0
  0
SEQEND
  5
E8809
  8
0
  0
POLYLINE
  5
E2845
  8
0
 66
     1
 10
0.0
 20
0.0
 30
0.0
 70
     1
  0
VERTEX
  5
E83E0
  8
0
 10
-3410.685974119307
 20
4704.073284116613
 30
0.0
  0
VERTEX
  5
E83E1
  8
0
 10
-3410.685974119307
 20
4754.073284116612
 30
0.0
  0
VERTEX
  5
E83E2
  8
0
 10
-2414.685974119306
 20
4754.073284116612
 30
0.0
  0
VERTEX
  5
E83E3
  8
0
 10
-2414.685974119306
 20
4704.073284116613
 30
0.0
  0
SEQEND
  5
E880A
  8
0
  0
POLYLINE
  5
E2846
  8
0
 66
     1
 10
0.0
 20
0.0
 30
0.0
  0
VERTEX
  5
E83E4
  8
0
 10
-3412.685974119192
 20
4664.073284116613
 30
0.0
  0
VERTEX
  5
E83E5
  8
0
 10
-3412.685974119309
 20
3794.073284116616
 30
0.0
  0
VERTEX
  5
E83E6
  8
0
 10
-3372.685974119308
 20
3794.073284116616
 30
0.0
  0
VERTEX
  5
E83E7
  8
0
 10
-3372.685974119308
 20
3974.073284116613
 30
0.0
  0
VERTEX
  5
E83E8
  8
0
 10
-2452.685974119307
 20
3974.073284116702
 30
0.0
  0
VERTEX
  5
E83E9
  8
0
 10
-2452.685974119307
 20
3794.073284116702
 30
0.0
  0
VERTEX
  5
E83EA
  8
0
 10
-2412.685974119308
 20
3794.073284116702
 30
0.0
  0
VERTEX
  5
E83EB
  8
0
 10
-2412.685974119308
 20
4664.073284116613
 30
0.0
  0
VERTEX
  5
E83EC
  8
0
 10
-2412.685974119308
 20
4704.073284116613
 30
0.0
  0
VERTEX
  5
E83ED
  8
0
 10
-3412.685974119309
 20
4704.073284116613
 30
0.0
  0
VERTEX
  5
E83EE
  8
0
 10
-3412.685974119309
 20
4664.073284116613
 30
0.0
  0
SEQEND
  5
E880B
  8
0
  0
POLYLINE
  5
E2847
  8
0
 66
     1
 10
0.0
 20
0.0
 30
0.0
 70
     1
  0
VERTEX
  5
E83EF
  8
0
 10
7087.314025880769
 20
4704.073284116701
 30
0.0
  0
VERTEX
  5
E83F0
  8
0
 10
7087.314025880769
 20
3794.073284116702
 30
0.0
  0
VERTEX
  5
E83F1
  8
0
 10
7127.314025880768
 20
3794.073284116702
 30
0.0
  0
VERTEX
  5
E83F2
  8
0
 10
7127.314025880768
 20
3974.073284116702
 30
0.0
  0
VERTEX
  5
E83F3
  8
0
 10
7727.314025880771
 20
3974.073284116789
 30
0.0
  0
VERTEX
  5
E83F4
  8
0
 10
7727.314025880771
 20
3794.073284116791
 30
0.0
  0
VERTEX
  5
E83F5
  8
0
 10
7767.314025880771
 20
3794.073284116791
 30
0.0
  0
VERTEX
  5
E83F6
  8
0
 10
7767.314025880771
 20
4704.073284116701
 30
0.0
  0
SEQEND
  5
E880C
  8
0
  0
POLYLINE
  5
E2848
  8
0
 66
     1
 10
0.0
 20
0.0
 30
0.0
 70
     1
  0
VERTEX
  5
E83F7
  8
0
 10
7087.314025880769
 20
4704.073284116701
 30
0.0
  0
VERTEX
  5
E83F8
  8
0
 10
7087.314025880769
 20
4754.073284116702
 30
0.0
  0
VERTEX
  5
E83F9
  8
0
 10
7747.314025880772
 20
4754.073284116702
 30
0.0
 42
-0.4142135623730951
  0
VERTEX
  5
E83FA
  8
0
 10
7767.314025880771
 20
4734.073284116703
 30
0.0
  0
VERTEX
  5
E83FB
  8
0
 10
7767.314025880771
 20
4704.073284116701
 30
0.0
  0
SEQEND
  5
E880D
  8
0
  0
POLYLINE
  5
E2849
  8
0
 66
     1
 10
0.0
 20
0.0
 30
0.0
 70
     1
  0
VERTEX
  5
E83FC
  8
0
 10
7127.314025880768
 20
4664.073284116702
 30
0.0
  0
VERTEX
  5
E83FD
  8
0
 10
7127.314025880768
 20
4014.073284116789
 30
0.0
  0
VERTEX
  5
E83FE
  8
0
 10
7727.314025880771
 20
4014.073284116789
 30
0.0
  0
VERTEX
  5
E83FF
  8
0
 10
7727.314025880771
 20
4664.073284116702
 30
0.0
  0
SEQEND
  5
E880E
  8
0
  0
POLYLINE
  5
E6036
  8
0
 66
     1
 10
0.0
 20
0.0
 30
0.0
 70
     1
  0
VERTEX
  5
E8400
  8
0
 10
-3412.685974119231
 20
9348.109926174588
 30
0.0
  0
VERTEX
  5
E8401
  8
0
 10
-3412.685974119231
 20
9406.109926174588
 30
0.0
  0
VERTEX
  5
E8402
  8
0
 10
-1912.685974119231
 20
9406.109926174497
 30
0.0
  0
VERTEX
  5
E8403
  8
0
 10
-1912.685974119231
 20
9348.109926174498
 30
0.0
  0
SEQEND
  5
E880F
  8
0
  0
POLYLINE
  5
E6037
  8
0
 66
     1
 10
0.0
 20
0.0
 30
0.0
 70
     1
  0
VERTEX
  5
E8404
  8
0
 10
-1972.685974119231
 20
8546.109926174588
 30
0.0
  0
VERTEX
  5
E8405
  8
0
 10
-1972.685974119231
 20
9348.109926174411
 30
0.0
  0
VERTEX
  5
E8406
  8
0
 10
-1912.685974119231
 20
9348.109926174411
 30
0.0
  0
VERTEX
  5
E8407
  8
0
 10
-1912.685974119231
 20
8546.109926174588
 30
0.0
  0
SEQEND
  5
E8810
  8
0
  0
POLYLINE
  5
E6038
  8
0
 66
     1
 10
0.0
 20
0.0
 30
0.0
 70
     1
  0
VERTEX
  5
E8408
  8
0
 10
-3352.685974119231
 20
8546.109926174588
 30
0.0
  0
VERTEX
  5
E8409
  8
0
 10
-3352.685974119231
 20
9348.109926174411
 30
0.0
  0
VERTEX
  5
E840A
  8
0
 10
-3412.685974119231
 20
9348.109926174411
 30
0.0
  0
VERTEX
  5
E840B
  8
0
 10
-3412.685974119231
 20
8546.109926174588
 30
0.0
  0
SEQEND
  5
E8811
  8
0
  0
POLYLINE
  5
E6039
  8
0
 66
     1
 10
0.0
 20
0.0
 30
0.0
 70
     1
  0
VERTEX
  5
E840C
  8
0
 10
-3352.685974119231
 20
8701.109926174588
 30
0.0
  0
VERTEX
  5
E840D
  8
0
 10
-3352.685974119231
 20
8741.109926174586
 30
0.0
  0
VERTEX
  5
E840E
  8
0
 10
-1972.685974119231
 20
8741.1099261745
 30
0.0
  0
VERTEX
  5
E840F
  8
0
 10
-1972.685974119231
 20
8701.109926174588
 30
0.0
  0
SEQEND
  5
E8812
  8
0
  0
CIRCLE
  5
E603A
  8
0
 10
-1930.685974119231
 20
9377.109926174498
 30
0.0
 40
9.0
  0
CIRCLE
  5
E603B
  8
0
 10
-1930.685974119231
 20
9377.109926174498
 30
0.0
 40
3.611593896290287
  0
CIRCLE
  5
E603C
  8
0
 10
-1963.685974119231
 20
9377.109926174498
 30
0.0
 40
9.0
  0
CIRCLE
  5
E603D
  8
0
 10
-1963.685974119231
 20
9377.109926174498
 30
0.0
 40
3.611593896290287
  0
CIRCLE
  5
E603E
  8
0
 10
-3394.685974119231
 20
9377.109926174498
 30
0.0
 40
9.0
  0
CIRCLE
  5
E603F
  8
0
 10
-3394.685974119231
 20
9377.109926174498
 30
0.0
 40
3.611593896290287
  0
CIRCLE
  5
E6040
  8
0
 10
-3361.685974119231
 20
9377.109926174498
 30
0.0
 40
3.611593896290287
  0
CIRCLE
  5
E6041
  8
0
 10
-3361.685974119231
 20
9377.109926174498
 30
0.0
 40
9.0
  0
POLYLINE
  5
E6042
  8
0
 66
     1
 10
0.0
 20
0.0
 30
0.0
 70
     1
  0
VERTEX
  5
E8410
  8
0
 10
-3352.685974119231
 20
9348.109926174411
 30
0.0
  0
VERTEX
  5
E8411
  8
0
 10
-3352.685974119231
 20
8741.1099261745
 30
0.0
  0
VERTEX
  5
E8412
  8
0
 10
-1972.685974119231
 20
8741.1099261745
 30
0.0
  0
VERTEX
  5
E8413
  8
0
 10
-1972.685974119231
 20
9348.109926174411
 30
0.0
  0
SEQEND
  5
E8813
  8
0
  0
POLYLINE
  5
E6043
  8
0
 66
     1
 10
0.0
 20
0.0
 30
0.0
 70
     1
  0
VERTEX
  5
E8414
  8
0
 10
-412.6859741192308
 20
9348.109926174588
 30
0.0
  0
VERTEX
  5
E8415
  8
0
 10
-412.6859741192308
 20
9406.109926174588
 30
0.0
  0
VERTEX
  5
E8416
  8
0
 10
1587.314025880768
 20
9406.109926174497
 30
0.0
  0
VERTEX
  5
E8417
  8
0
 10
1587.314025880768
 20
9348.109926174498
 30
0.0
  0
SEQEND
  5
E8814
  8
0
  0
POLYLINE
  5
E6044
  8
0
 66
     1
 10
0.0
 20
0.0
 30
0.0
 70
     1
  0
VERTEX
  5
E8418
  8
0
 10
1527.314025880768
 20
8546.109926174588
 30
0.0
  0
VERTEX
  5
E8419
  8
0
 10
1527.314025880768
 20
9348.109926174411
 30
0.0
  0
VERTEX
  5
E841A
  8
0
 10
1587.314025880768
 20
9348.109926174411
 30
0.0
  0
VERTEX
  5
E841B
  8
0
 10
1587.314025880768
 20
8546.109926174588
 30
0.0
  0
SEQEND
  5
E8815
  8
0
  0
POLYLINE
  5
E6045
  8
0
 66
     1
 10
0.0
 20
0.0
 30
0.0
 70
     1
  0
VERTEX
  5
E841C
  8
0
 10
-352.6859741192311
 20
8546.109926174588
 30
0.0
  0
VERTEX
  5
E841D
  8
0
 10
-352.6859741192311
 20
9348.109926174411
 30
0.0
  0
VERTEX
  5
E841E
  8
0
 10
-412.6859741192308
 20
9348.109926174411
 30
0.0
  0
VERTEX
  5
E841F
  8
0
 10
-412.6859741192308
 20
8546.109926174588
 30
0.0
  0
SEQEND
  5
E8816
  8
0
  0
POLYLINE
  5
E6046
  8
0
 66
     1
 10
0.0
 20
0.0
 30
0.0
 70
     1
  0
VERTEX
  5
E8420
  8
0
 10
-352.6859741192311
 20
8701.109926174588
 30
0.0
  0
VERTEX
  5
E8421
  8
0
 10
-352.6859741192311
 20
8741.109926174586
 30
0.0
  0
VERTEX
  5
E8422
  8
0
 10
1527.314025880768
 20
8741.1099261745
 30
0.0
  0
VERTEX
  5
E8423
  8
0
 10
1527.314025880768
 20
8701.109926174588
 30
0.0
  0
SEQEND
  5
E8817
  8
0
  0
CIRCLE
  5
E6047
  8
0
 10
1569.314025880769
 20
9377.109926174498
 30
0.0
 40
9.0
  0
CIRCLE
  5
E6048
  8
0
 10
1569.314025880769
 20
9377.109926174498
 30
0.0
 40
3.611593896290287
  0
CIRCLE
  5
E6049
  8
0
 10
1536.314025880769
 20
9377.109926174498
 30
0.0
 40
9.0
  0
CIRCLE
  5
E604A
  8
0
 10
1536.314025880769
 20
9377.109926174498
 30
0.0
 40
3.611593896290287
  0
CIRCLE
  5
E604B
  8
0
 10
-394.6859741192311
 20
9377.109926174498
 30
0.0
 40
9.0
  0
CIRCLE
  5
E604C
  8
0
 10
-394.6859741192311
 20
9377.109926174498
 30
0.0
 40
3.611593896290287
  0
CIRCLE
  5
E604D
  8
0
 10
-361.6859741192311
 20
9377.109926174498
 30
0.0
 40
3.611593896290287
  0
CIRCLE
  5
E604E
  8
0
 10
-361.6859741192311
 20
9377.109926174498
 30
0.0
 40
9.0
  0
POLYLINE
  5
E604F
  8
0
 66
     1
 10
0.0
 20
0.0
 30
0.0
 70
     1
  0
VERTEX
  5
E8424
  8
0
 10
-352.6859741192311
 20
9348.109926174411
 30
0.0
  0
VERTEX
  5
E8425
  8
0
 10
-352.6859741192311
 20
8741.1099261745
 30
0.0
  0
VERTEX
  5
E8426
  8
0
 10
1527.314025880768
 20
8741.1099261745
 30
0.0
  0
VERTEX
  5
E8427
  8
0
 10
1527.314025880768
 20
9348.109926174411
 30
0.0
  0
SEQEND
  5
E8818
  8
0
  0
CIRCLE
  5
E6050
  8
0
 10
7748.314025880772
 20
8720.109926174588
 30
0.0
 40
9.0
  0
CIRCLE
  5
E6051
  8
0
 10
7748.314025880772
 20
8720.109926174588
 30
0.0
 40
3.611593896290287
  0
CIRCLE
  5
E6052
  8
0
 10
7176.31402588077
 20
8720.109926174588
 30
0.0
 40
3.611593896290287
  0
CIRCLE
  5
E6053
  8
0
 10
7176.31402588077
 20
8720.109926174588
 30
0.0
 40
9.0
  0
POLYLINE
  5
E6058
  8
0
 66
     1
 10
0.0
 20
0.0
 30
0.0
 70
     1
  0
VERTEX
  5
E8428
  8
0
 10
3147.314025880769
 20
9348.109926174411
 30
0.0
  0
VERTEX
  5
E8429
  8
0
 10
3147.314025880769
 20
8741.1099261745
 30
0.0
  0
VERTEX
  5
E842A
  8
0
 10
5527.31402588077
 20
8741.1099261745
 30
0.0
  0
VERTEX
  5
E842B
  8
0
 10
5527.31402588077
 20
9348.109926174411
 30
0.0
  0
SEQEND
  5
E8819
  8
0
  0
POLYLINE
  5
E6059
  8
0
 66
     1
 10
0.0
 20
0.0
 30
0.0
 70
     1
  0
VERTEX
  5
E842C
  8
0
 10
7087.314025880769
 20
9348.109926174411
 30
0.0
  0
VERTEX
  5
E842D
  8
0
 10
7087.314025880769
 20
8701.109926174588
 30
0.0
  0
VERTEX
  5
E842E
  8
0
 10
7837.314025880771
 20
8701.109926174675
 30
0.0
  0
VERTEX
  5
E842F
  8
0
 10
7837.314025880771
 20
9348.109926174411
 30
0.0
  0
SEQEND
  5
E881A
  8
0
  0
CIRCLE
  5
E605A
  8
0
 10
3138.314025880769
 20
9377.109926174498
 30
0.0
 40
9.0
  0
CIRCLE
  5
E605B
  8
0
 10
3138.314025880769
 20
9377.109926174498
 30
0.0
 40
3.611593896290287
  0
CIRCLE
  5
E605C
  8
0
 10
3105.314025880769
 20
9377.109926174498
 30
0.0
 40
3.611593896290287
  0
CIRCLE
  5
E605D
  8
0
 10
3105.314025880769
 20
9377.109926174498
 30
0.0
 40
9.0
  0
CIRCLE
  5
E605E
  8
0
 10
5536.314025880769
 20
9377.109926174498
 30
0.0
 40
3.611593896290287
  0
CIRCLE
  5
E605F
  8
0
 10
5536.314025880769
 20
9377.109926174498
 30
0.0
 40
9.0
  0
CIRCLE
  5
E6060
  8
0
 10
5569.314025880768
 20
9377.109926174498
 30
0.0
 40
3.611593896290287
  0
CIRCLE
  5
E6061
  8
0
 10
5569.314025880768
 20
9377.109926174498
 30
0.0
 40
9.0
  0
POLYLINE
  5
E6062
  8
0
 66
     1
 10
0.0
 20
0.0
 30
0.0
 70
     1
  0
VERTEX
  5
E8430
  8
0
 10
3147.314025880769
 20
8701.109926174588
 30
0.0
  0
VERTEX
  5
E8431
  8
0
 10
3147.314025880769
 20
8741.109926174586
 30
0.0
  0
VERTEX
  5
E8432
  8
0
 10
5527.31402588077
 20
8741.1099261745
 30
0.0
  0
VERTEX
  5
E8433
  8
0
 10
5527.31402588077
 20
8701.109926174588
 30
0.0
  0
SEQEND
  5
E881B
  8
0
  0
POLYLINE
  5
E6063
  8
0
 66
     1
 10
0.0
 20
0.0
 30
0.0
 70
     1
  0
VERTEX
  5
E8434
  8
0
 10
3147.314025880769
 20
8546.109926174588
 30
0.0
  0
VERTEX
  5
E8435
  8
0
 10
3147.314025880769
 20
9348.109926174411
 30
0.0
  0
VERTEX
  5
E8436
  8
0
 10
3087.314025880769
 20
9348.109926174411
 30
0.0
  0
VERTEX
  5
E8437
  8
0
 10
3087.314025880769
 20
8546.109926174588
 30
0.0
  0
SEQEND
  5
E881C
  8
0
  0
POLYLINE
  5
E6064
  8
0
 66
     1
 10
0.0
 20
0.0
 30
0.0
 70
     1
  0
VERTEX
  5
E8438
  8
0
 10
5527.31402588077
 20
8546.109926174588
 30
0.0
  0
VERTEX
  5
E8439
  8
0
 10
5527.31402588077
 20
9348.109926174411
 30
0.0
  0
VERTEX
  5
E843A
  8
0
 10
5587.314025880768
 20
9348.109926174411
 30
0.0
  0
VERTEX
  5
E843B
  8
0
 10
5587.314025880768
 20
8546.109926174588
 30
0.0
  0
SEQEND
  5
E881D
  8
0
  0
POLYLINE
  5
E6065
  8
0
 66
     1
 10
0.0
 20
0.0
 30
0.0
 70
     1
  0
VERTEX
  5
E843C
  8
0
 10
3087.314025880769
 20
9348.109926174588
 30
0.0
  0
VERTEX
  5
E843D
  8
0
 10
3087.314025880769
 20
9406.109926174588
 30
0.0
  0
VERTEX
  5
E843E
  8
0
 10
5587.314025880768
 20
9406.109926174497
 30
0.0
  0
VERTEX
  5
E843F
  8
0
 10
5587.314025880768
 20
9348.109926174498
 30
0.0
  0
SEQEND
  5
E881E
  8
0
  0
POLYLINE
  5
E6066
  8
0
 66
     1
 10
0.0
 20
0.0
 30
0.0
 70
     1
  0
VERTEX
  5
E8440
  8
0
 10
7127.314025880768
 20
8546.109926174588
 30
0.0
  0
VERTEX
  5
E8441
  8
0
 10
7127.314025880768
 20
8701.109926174588
 30
0.0
  0
VERTEX
  5
E8442
  8
0
 10
7087.314025880885
 20
8701.109926174588
 30
0.0
  0
VERTEX
  5
E8443
  8
0
 10
7087.314025880769
 20
8546.109926174588
 30
0.0
  0
SEQEND
  5
E881F
  8
0
  0
POLYLINE
  5
E6067
  8
0
 66
     1
 10
0.0
 20
0.0
 30
0.0
 70
     1
  0
VERTEX
  5
E8444
  8
0
 10
7797.314025880772
 20
8546.109926174677
 30
0.0
  0
VERTEX
  5
E8445
  8
0
 10
7797.314025880772
 20
8701.109926174675
 30
0.0
  0
VERTEX
  5
E8446
  8
0
 10
7837.314025880771
 20
8701.109926174675
 30
0.0
  0
VERTEX
  5
E8447
  8
0
 10
7837.314025880771
 20
8546.109926174677
 30
0.0
  0
SEQEND
  5
E8820
  8
0
  0
POLYLINE
  5
E6068
  8
0
 66
     1
 10
0.0
 20
0.0
 30
0.0
 70
     1
  0
VERTEX
  5
E8448
  8
0
 10
7087.314025880769
 20
9348.109926174588
 30
0.0
  0
VERTEX
  5
E8449
  8
0
 10
7087.314025880769
 20
9406.109926174588
 30
0.0
  0
VERTEX
  5
E844A
  8
0
 10
7837.314025880771
 20
9406.109926174588
 30
0.0
  0
VERTEX
  5
E844B
  8
0
 10
7837.314025880771
 20
9348.109926174588
 30
0.0
  0
SEQEND
  5
E8821
  8
0
  0
POLYLINE
  5
E6069
  8
0
 66
     1
 10
0.0
 20
0.0
 30
0.0
 70
     1
  0
VERTEX
  5
E844C
  8
0
 10
-3412.685974119229
 20
11988.14656823284
 30
0.0
  0
VERTEX
  5
E844D
  8
0
 10
-3412.685974119229
 20
12046.14656823284
 30
0.0
  0
VERTEX
  5
E844E
  8
0
 10
-1912.685974119229
 20
12046.14656823275
 30
0.0
  0
VERTEX
  5
E844F
  8
0
 10
-1912.685974119229
 20
11988.14656823275
 30
0.0
  0
SEQEND
  5
E8822
  8
0
  0
POLYLINE
  5
E606A
  8
0
 66
     1
 10
0.0
 20
0.0
 30
0.0
 70
     1
  0
VERTEX
  5
E8450
  8
0
 10
-1972.685974119229
 20
11186.14656823284
 30
0.0
  0
VERTEX
  5
E8451
  8
0
 10
-1972.685974119229
 20
11988.14656823267
 30
0.0
  0
VERTEX
  5
E8452
  8
0
 10
-1912.685974119229
 20
11988.14656823267
 30
0.0
  0
VERTEX
  5
E8453
  8
0
 10
-1912.685974119229
 20
11186.14656823284
 30
0.0
  0
SEQEND
  5
E8823
  8
0
  0
POLYLINE
  5
E606B
  8
0
 66
     1
 10
0.0
 20
0.0
 30
0.0
 70
     1
  0
VERTEX
  5
E8454
  8
0
 10
-3352.685974119231
 20
11186.14656823284
 30
0.0
  0
VERTEX
  5
E8455
  8
0
 10
-3352.685974119231
 20
11988.14656823267
 30
0.0
  0
VERTEX
  5
E8456
  8
0
 10
-3412.685974119229
 20
11988.14656823267
 30
0.0
  0
VERTEX
  5
E8457
  8
0
 10
-3412.685974119229
 20
11186.14656823284
 30
0.0
  0
SEQEND
  5
E8824
  8
0
  0
POLYLINE
  5
E606C
  8
0
 66
     1
 10
0.0
 20
0.0
 30
0.0
 70
     1
  0
VERTEX
  5
E8458
  8
0
 10
-3352.685974119231
 20
11341.14656823284
 30
0.0
  0
VERTEX
  5
E8459
  8
0
 10
-3352.685974119231
 20
11381.14656823284
 30
0.0
  0
VERTEX
  5
E845A
  8
0
 10
-1972.685974119229
 20
11381.14656823275
 30
0.0
  0
VERTEX
  5
E845B
  8
0
 10
-1972.685974119229
 20
11341.14656823284
 30
0.0
  0
SEQEND
  5
E8825
  8
0
  0
CIRCLE
  5
E606D
  8
0
 10
-1930.685974119229
 20
12017.14656823275
 30
0.0
 40
9.0
  0
CIRCLE
  5
E606E
  8
0
 10
-1930.685974119229
 20
12017.14656823275
 30
0.0
 40
3.611593896290287
  0
CIRCLE
  5
E606F
  8
0
 10
-1963.685974119229
 20
12017.14656823275
 30
0.0
 40
9.0
  0
CIRCLE
  5
E6070
  8
0
 10
-1963.685974119229
 20
12017.14656823275
 30
0.0
 40
3.611593896290287
  0
CIRCLE
  5
E6071
  8
0
 10
-3394.685974119229
 20
12017.14656823275
 30
0.0
 40
9.0
  0
CIRCLE
  5
E6072
  8
0
 10
-3394.685974119229
 20
12017.14656823275
 30
0.0
 40
3.611593896290287
  0
CIRCLE
  5
E6073
  8
0
 10
-3361.685974119229
 20
12017.14656823275
 30
0.0
 40
3.611593896290287
  0
CIRCLE
  5
E6074
  8
0
 10
-3361.685974119229
 20
12017.14656823275
 30
0.0
 40
9.0
  0
CIRCLE
  5
E6075
  8
0
 10
-361.6859741192293
 20
12017.14656823275
 30
0.0
 40
9.0
  0
CIRCLE
  5
E6076
  8
0
 10
-361.6859741192293
 20
12017.14656823275
 30
0.0
 40
3.611593896290287
  0
CIRCLE
  5
E6077
  8
0
 10
-394.6859741192293
 20
12017.14656823275
 30
0.0
 40
3.611593896290287
  0
CIRCLE
  5
E6078
  8
0
 10
-394.6859741192293
 20
12017.14656823275
 30
0.0
 40
9.0
  0
CIRCLE
  5
E6079
  8
0
 10
1536.314025880771
 20
12017.14656823275
 30
0.0
 40
3.611593896290287
  0
CIRCLE
  5
E607A
  8
0
 10
1536.314025880771
 20
12017.14656823275
 30
0.0
 40
9.0
  0
CIRCLE
  5
E607B
  8
0
 10
1569.31402588077
 20
12017.14656823275
 30
0.0
 40
3.611593896290287
  0
CIRCLE
  5
E607C
  8
0
 10
1569.31402588077
 20
12017.14656823275
 30
0.0
 40
9.0
  0
POLYLINE
  5
E607D
  8
0
 66
     1
 10
0.0
 20
0.0
 30
0.0
 70
     1
  0
VERTEX
  5
E845C
  8
0
 10
-352.6859741192293
 20
11341.14656823284
 30
0.0
  0
VERTEX
  5
E845D
  8
0
 10
-352.6859741192293
 20
11381.14656823284
 30
0.0
  0
VERTEX
  5
E845E
  8
0
 10
1527.314025880771
 20
11381.14656823275
 30
0.0
  0
VERTEX
  5
E845F
  8
0
 10
1527.314025880771
 20
11341.14656823284
 30
0.0
  0
SEQEND
  5
E8826
  8
0
  0
POLYLINE
  5
E607E
  8
0
 66
     1
 10
0.0
 20
0.0
 30
0.0
 70
     1
  0
VERTEX
  5
E8460
  8
0
 10
-352.6859741192293
 20
11186.14656823284
 30
0.0
  0
VERTEX
  5
E8461
  8
0
 10
-352.6859741192293
 20
11988.14656823267
 30
0.0
  0
VERTEX
  5
E8462
  8
0
 10
-412.6859741192292
 20
11988.14656823267
 30
0.0
  0
VERTEX
  5
E8463
  8
0
 10
-412.6859741192292
 20
11186.14656823284
 30
0.0
  0
SEQEND
  5
E8827
  8
0
  0
POLYLINE
  5
E607F
  8
0
 66
     1
 10
0.0
 20
0.0
 30
0.0
 70
     1
  0
VERTEX
  5
E8464
  8
0
 10
1527.314025880771
 20
11186.14656823284
 30
0.0
  0
VERTEX
  5
E8465
  8
0
 10
1527.314025880771
 20
11988.14656823267
 30
0.0
  0
VERTEX
  5
E8466
  8
0
 10
1587.31402588077
 20
11988.14656823267
 30
0.0
  0
VERTEX
  5
E8467
  8
0
 10
1587.31402588077
 20
11186.14656823284
 30
0.0
  0
SEQEND
  5
E8828
  8
0
  0
POLYLINE
  5
E6080
  8
0
 66
     1
 10
0.0
 20
0.0
 30
0.0
 70
     1
  0
VERTEX
  5
E8468
  8
0
 10
-412.6859741192292
 20
11988.14656823284
 30
0.0
  0
VERTEX
  5
E8469
  8
0
 10
-412.6859741192292
 20
12046.14656823284
 30
0.0
  0
VERTEX
  5
E846A
  8
0
 10
1587.31402588077
 20
12046.14656823275
 30
0.0
  0
VERTEX
  5
E846B
  8
0
 10
1587.31402588077
 20
11988.14656823275
 30
0.0
  0
SEQEND
  5
E8829
  8
0
  0
POLYLINE
  5
E6081
  8
0
 66
     1
 10
0.0
 20
0.0
 30
0.0
 70
     1
  0
VERTEX
  5
E846C
  8
0
 10
3087.314025880771
 20
11988.14656823284
 30
0.0
  0
VERTEX
  5
E846D
  8
0
 10
3087.314025880771
 20
12046.14656823284
 30
0.0
  0
VERTEX
  5
E846E
  8
0
 10
5587.314025880771
 20
12046.14656823275
 30
0.0
  0
VERTEX
  5
E846F
  8
0
 10
5587.314025880771
 20
11988.14656823275
 30
0.0
  0
SEQEND
  5
E882A
  8
0
  0
POLYLINE
  5
E6082
  8
0
 66
     1
 10
0.0
 20
0.0
 30
0.0
 70
     1
  0
VERTEX
  5
E8470
  8
0
 10
5527.31402588077
 20
11186.14656823284
 30
0.0
  0
VERTEX
  5
E8471
  8
0
 10
5527.31402588077
 20
11988.14656823267
 30
0.0
  0
VERTEX
  5
E8472
  8
0
 10
5587.314025880771
 20
11988.14656823267
 30
0.0
  0
VERTEX
  5
E8473
  8
0
 10
5587.314025880771
 20
11186.14656823284
 30
0.0
  0
SEQEND
  5
E882B
  8
0
  0
POLYLINE
  5
E6083
  8
0
 66
     1
 10
0.0
 20
0.0
 30
0.0
 70
     1
  0
VERTEX
  5
E8474
  8
0
 10
3147.314025880771
 20
11186.14656823284
 30
0.0
  0
VERTEX
  5
E8475
  8
0
 10
3147.314025880771
 20
11988.14656823267
 30
0.0
  0
VERTEX
  5
E8476
  8
0
 10
3087.314025880771
 20
11988.14656823267
 30
0.0
  0
VERTEX
  5
E8477
  8
0
 10
3087.314025880771
 20
11186.14656823284
 30
0.0
  0
SEQEND
  5
E882C
  8
0
  0
POLYLINE
  5
E6084
  8
0
 66
     1
 10
0.0
 20
0.0
 30
0.0
 70
     1
  0
VERTEX
  5
E8478
  8
0
 10
3147.314025880771
 20
11341.14656823284
 30
0.0
  0
VERTEX
  5
E8479
  8
0
 10
3147.314025880771
 20
11381.14656823284
 30
0.0
  0
VERTEX
  5
E847A
  8
0
 10
5527.31402588077
 20
11381.14656823275
 30
0.0
  0
VERTEX
  5
E847B
  8
0
 10
5527.31402588077
 20
11341.14656823284
 30
0.0
  0
SEQEND
  5
E882D
  8
0
  0
CIRCLE
  5
E6085
  8
0
 10
5569.314025880771
 20
12017.14656823275
 30
0.0
 40
9.0
  0
CIRCLE
  5
E6086
  8
0
 10
5569.314025880771
 20
12017.14656823275
 30
0.0
 40
3.611593896290287
  0
CIRCLE
  5
E6087
  8
0
 10
5536.314025880771
 20
12017.14656823275
 30
0.0
 40
9.0
  0
CIRCLE
  5
E6088
  8
0
 10
5536.314025880771
 20
12017.14656823275
 30
0.0
 40
3.611593896290287
  0
CIRCLE
  5
E6089
  8
0
 10
3105.314025880771
 20
12017.14656823275
 30
0.0
 40
9.0
  0
CIRCLE
  5
E608A
  8
0
 10
3105.314025880771
 20
12017.14656823275
 30
0.0
 40
3.611593896290287
  0
CIRCLE
  5
E608B
  8
0
 10
3138.314025880771
 20
12017.14656823275
 30
0.0
 40
3.611593896290287
  0
CIRCLE
  5
E608C
  8
0
 10
3138.314025880771
 20
12017.14656823275
 30
0.0
 40
9.0
  0
POLYLINE
  5
E608D
  8
0
 66
     1
 10
0.0
 20
0.0
 30
0.0
 70
     1
  0
VERTEX
  5
E847C
  8
0
 10
7087.314025880771
 20
11988.14656823284
 30
0.0
  0
VERTEX
  5
E847D
  8
0
 10
7087.314025880771
 20
12046.14656823284
 30
0.0
  0
VERTEX
  5
E847E
  8
0
 10
7837.314025880771
 20
12046.14656823284
 30
0.0
  0
VERTEX
  5
E847F
  8
0
 10
7837.314025880771
 20
11988.14656823284
 30
0.0
  0
SEQEND
  5
E882E
  8
0
  0
POLYLINE
  5
E608E
  8
0
 66
     1
 10
0.0
 20
0.0
 30
0.0
 70
     1
  0
VERTEX
  5
E8480
  8
0
 10
7797.314025880772
 20
11186.14656823293
 30
0.0
  0
VERTEX
  5
E8481
  8
0
 10
7797.314025880772
 20
11988.14656823284
 30
0.0
  0
VERTEX
  5
E8482
  8
0
 10
7837.314025880771
 20
11988.14656823284
 30
0.0
  0
VERTEX
  5
E8483
  8
0
 10
7837.314025880771
 20
11186.14656823293
 30
0.0
  0
SEQEND
  5
E882F
  8
0
  0
POLYLINE
  5
E608F
  8
0
 66
     1
 10
0.0
 20
0.0
 30
0.0
 70
     1
  0
VERTEX
  5
E8484
  8
0
 10
7127.314025880771
 20
11186.14656823284
 30
0.0
  0
VERTEX
  5
E8485
  8
0
 10
7127.314025880771
 20
11988.14656823284
 30
0.0
  0
VERTEX
  5
E8486
  8
0
 10
7087.314025880887
 20
11988.14656823284
 30
0.0
  0
VERTEX
  5
E8487
  8
0
 10
7087.314025880771
 20
11186.14656823284
 30
0.0
  0
SEQEND
  5
E8830
  8
0
  0
POLYLINE
  5
E6090
  8
0
 66
     1
 10
0.0
 20
0.0
 30
0.0
 70
     1
  0
VERTEX
  5
E8488
  8
0
 10
7127.314025880771
 20
11381.14656823293
 30
0.0
  0
VERTEX
  5
E8489
  8
0
 10
7127.314025880771
 20
11341.14656823284
 30
0.0
  0
VERTEX
  5
E848A
  8
0
 10
7797.314025880772
 20
11341.14656823293
 30
0.0
  0
VERTEX
  5
E848B
  8
0
 10
7797.314025880772
 20
11381.14656823293
 30
0.0
  0
SEQEND
  5
E8831
  8
0
  0
POLYLINE
  5
E6095
  8
0
 66
     1
 10
0.0
 20
0.0
 30
0.0
 70
     1
  0
VERTEX
  5
E848C
  8
0
 10
-3412.685974119231
 20
9348.109926174588
 30
0.0
  0
VERTEX
  5
E848D
  8
0
 10
-3412.685974119231
 20
9406.109926174588
 30
0.0
  0
VERTEX
  5
E848E
  8
0
 10
-1912.685974119231
 20
9406.109926174497
 30
0.0
  0
VERTEX
  5
E848F
  8
0
 10
-1912.685974119231
 20
9348.109926174498
 30
0.0
  0
SEQEND
  5
E8832
  8
0
  0
POLYLINE
  5
E6096
  8
0
 66
     1
 10
0.0
 20
0.0
 30
0.0
 70
     1
  0
VERTEX
  5
E8490
  8
0
 10
-1972.685974119231
 20
8546.109926174588
 30
0.0
  0
VERTEX
  5
E8491
  8
0
 10
-1972.685974119231
 20
9348.109926174411
 30
0.0
  0
VERTEX
  5
E8492
  8
0
 10
-1912.685974119231
 20
9348.109926174411
 30
0.0
  0
VERTEX
  5
E8493
  8
0
 10
-1912.685974119231
 20
8546.109926174588
 30
0.0
  0
SEQEND
  5
E8833
  8
0
  0
POLYLINE
  5
E6097
  8
0
 66
     1
 10
0.0
 20
0.0
 30
0.0
 70
     1
  0
VERTEX
  5
E8494
  8
0
 10
-3352.685974119231
 20
8546.109926174588
 30
0.0
  0
VERTEX
  5
E8495
  8
0
 10
-3352.685974119231
 20
9348.109926174411
 30
0.0
  0
VERTEX
  5
E8496
  8
0
 10
-3412.685974119231
 20
9348.109926174411
 30
0.0
  0
VERTEX
  5
E8497
  8
0
 10
-3412.685974119231
 20
8546.109926174588
 30
0.0
  0
SEQEND
  5
E8834
  8
0
  0
POLYLINE
  5
E6098
  8
0
 66
     1
 10
0.0
 20
0.0
 30
0.0
 70
     1
  0
VERTEX
  5
E8498
  8
0
 10
-3352.685974119231
 20
8701.109926174588
 30
0.0
  0
VERTEX
  5
E8499
  8
0
 10
-3352.685974119231
 20
8741.109926174586
 30
0.0
  0
VERTEX
  5
E849A
  8
0
 10
-1972.685974119231
 20
8741.1099261745
 30
0.0
  0
VERTEX
  5
E849B
  8
0
 10
-1972.685974119231
 20
8701.109926174588
 30
0.0
  0
SEQEND
  5
E8835
  8
0
  0
CIRCLE
  5
E6099
  8
0
 10
-1930.685974119231
 20
9377.109926174498
 30
0.0
 40
9.0
  0
CIRCLE
  5
E609A
  8
0
 10
-1930.685974119231
 20
9377.109926174498
 30
0.0
 40
3.611593896290287
  0
CIRCLE
  5
E609B
  8
0
 10
-1963.685974119231
 20
9377.109926174498
 30
0.0
 40
9.0
  0
CIRCLE
  5
E609C
  8
0
 10
-1963.685974119231
 20
9377.109926174498
 30
0.0
 40
3.611593896290287
  0
CIRCLE
  5
E609D
  8
0
 10
-3394.685974119231
 20
9377.109926174498
 30
0.0
 40
9.0
  0
CIRCLE
  5
E609E
  8
0
 10
-3394.685974119231
 20
9377.109926174498
 30
0.0
 40
3.611593896290287
  0
CIRCLE
  5
E609F
  8
0
 10
-3361.685974119231
 20
9377.109926174498
 30
0.0
 40
3.611593896290287
  0
CIRCLE
  5
E60A0
  8
0
 10
-3361.685974119231
 20
9377.109926174498
 30
0.0
 40
9.0
  0
POLYLINE
  5
E60A1
  8
0
 66
     1
 10
0.0
 20
0.0
 30
0.0
 70
     1
  0
VERTEX
  5
E849C
  8
0
 10
-3352.685974119231
 20
9348.109926174411
 30
0.0
  0
VERTEX
  5
E849D
  8
0
 10
-3352.685974119231
 20
8741.1099261745
 30
0.0
  0
VERTEX
  5
E849E
  8
0
 10
-1972.685974119231
 20
8741.1099261745
 30
0.0
  0
VERTEX
  5
E849F
  8
0
 10
-1972.685974119231
 20
9348.109926174411
 30
0.0
  0
SEQEND
  5
E8836
  8
0
  0
POLYLINE
  5
E60A2
  8
0
 66
     1
 10
0.0
 20
0.0
 30
0.0
 70
     1
  0
VERTEX
  5
E84A0
  8
0
 10
-412.6859741192308
 20
9348.109926174588
 30
0.0
  0
VERTEX
  5
E84A1
  8
0
 10
-412.6859741192308
 20
9406.109926174588
 30
0.0
  0
VERTEX
  5
E84A2
  8
0
 10
1587.314025880768
 20
9406.109926174497
 30
0.0
  0
VERTEX
  5
E84A3
  8
0
 10
1587.314025880768
 20
9348.109926174498
 30
0.0
  0
SEQEND
  5
E8837
  8
0
  0
POLYLINE
  5
E60A3
  8
0
 66
     1
 10
0.0
 20
0.0
 30
0.0
 70
     1
  0
VERTEX
  5
E84A4
  8
0
 10
1527.314025880768
 20
8546.109926174588
 30
0.0
  0
VERTEX
  5
E84A5
  8
0
 10
1527.314025880768
 20
9348.109926174411
 30
0.0
  0
VERTEX
  5
E84A6
  8
0
 10
1587.314025880768
 20
9348.109926174411
 30
0.0
  0
VERTEX
  5
E84A7
  8
0
 10
1587.314025880768
 20
8546.109926174588
 30
0.0
  0
SEQEND
  5
E8838
  8
0
  0
POLYLINE
  5
E60A4
  8
0
 66
     1
 10
0.0
 20
0.0
 30
0.0
 70
     1
  0
VERTEX
  5
E84A8
  8
0
 10
-352.6859741192311
 20
8546.109926174588
 30
0.0
  0
VERTEX
  5
E84A9
  8
0
 10
-352.6859741192311
 20
9348.109926174411
 30
0.0
  0
VERTEX
  5
E84AA
  8
0
 10
-412.6859741192308
 20
9348.109926174411
 30
0.0
  0
VERTEX
  5
E84AB
  8
0
 10
-412.6859741192308
 20
8546.109926174588
 30
0.0
  0
SEQEND
  5
E8839
  8
0
  0
POLYLINE
  5
E60A5
  8
0
 66
     1
 10
0.0
 20
0.0
 30
0.0
 70
     1
  0
VERTEX
  5
E84AC
  8
0
 10
-352.6859741192311
 20
8701.109926174588
 30
0.0
  0
VERTEX
  5
E84AD
  8
0
 10
-352.6859741192311
 20
8741.109926174586
 30
0.0
  0
VERTEX
  5
E84AE
  8
0
 10
1527.314025880768
 20
8741.1099261745
 30
0.0
  0
VERTEX
  5
E84AF
  8
0
 10
1527.314025880768
 20
8701.109926174588
 30
0.0
  0
SEQEND
  5
E883A
  8
0
  0
CIRCLE
  5
E60A6
  8
0
 10
1569.314025880769
 20
9377.109926174498
 30
0.0
 40
9.0
  0
CIRCLE
  5
E60A7
  8
0
 10
1569.314025880769
 20
9377.109926174498
 30
0.0
 40
3.611593896290287
  0
CIRCLE
  5
E60A8
  8
0
 10
1536.314025880769
 20
9377.109926174498
 30
0.0
 40
9.0
  0
CIRCLE
  5
E60A9
  8
0
 10
1536.314025880769
 20
9377.109926174498
 30
0.0
 40
3.611593896290287
  0
CIRCLE
  5
E60AA
  8
0
 10
-394.6859741192311
 20
9377.109926174498
 30
0.0
 40
9.0
  0
CIRCLE
  5
E60AB
  8
0
 10
-394.6859741192311
 20
9377.109926174498
 30
0.0
 40
3.611593896290287
  0
CIRCLE
  5
E60AC
  8
0
 10
-361.6859741192311
 20
9377.109926174498
 30
0.0
 40
3.611593896290287
  0
CIRCLE
  5
E60AD
  8
0
 10
-361.6859741192311
 20
9377.109926174498
 30
0.0
 40
9.0
  0
POLYLINE
  5
E60AE
  8
0
 66
     1
 10
0.0
 20
0.0
 30
0.0
 70
     1
  0
VERTEX
  5
E84B0
  8
0
 10
-352.6859741192311
 20
9348.109926174411
 30
0.0
  0
VERTEX
  5
E84B1
  8
0
 10
-352.6859741192311
 20
8741.1099261745
 30
0.0
  0
VERTEX
  5
E84B2
  8
0
 10
1527.314025880768
 20
8741.1099261745
 30
0.0
  0
VERTEX
  5
E84B3
  8
0
 10
1527.314025880768
 20
9348.109926174411
 30
0.0
  0
SEQEND
  5
E883B
  8
0
  0
CIRCLE
  5
E60AF
  8
0
 10
7748.314025880772
 20
8720.109926174588
 30
0.0
 40
9.0
  0
CIRCLE
  5
E60B0
  8
0
 10
7748.314025880772
 20
8720.109926174588
 30
0.0
 40
3.611593896290287
  0
CIRCLE
  5
E60B1
  8
0
 10
7176.31402588077
 20
8720.109926174588
 30
0.0
 40
3.611593896290287
  0
CIRCLE
  5
E60B2
  8
0
 10
7176.31402588077
 20
8720.109926174588
 30
0.0
 40
9.0
  0
POLYLINE
  5
E60B7
  8
0
 66
     1
 10
0.0
 20
0.0
 30
0.0
 70
     1
  0
VERTEX
  5
E84B4
  8
0
 10
3147.314025880769
 20
9348.109926174411
 30
0.0
  0
VERTEX
  5
E84B5
  8
0
 10
3147.314025880769
 20
8741.1099261745
 30
0.0
  0
VERTEX
  5
E84B6
  8
0
 10
5527.31402588077
 20
8741.1099261745
 30
0.0
  0
VERTEX
  5
E84B7
  8
0
 10
5527.31402588077
 20
9348.109926174411
 30
0.0
  0
SEQEND
  5
E883C
  8
0
  0
POLYLINE
  5
E60B8
  8
0
 66
     1
 10
0.0
 20
0.0
 30
0.0
 70
     1
  0
VERTEX
  5
E84B8
  8
0
 10
7087.314025880769
 20
9348.109926174411
 30
0.0
  0
VERTEX
  5
E84B9
  8
0
 10
7087.314025880769
 20
8701.109926174588
 30
0.0
  0
VERTEX
  5
E84BA
  8
0
 10
7837.314025880771
 20
8701.109926174675
 30
0.0
  0
VERTEX
  5
E84BB
  8
0
 10
7837.314025880771
 20
9348.109926174411
 30
0.0
  0
SEQEND
  5
E883D
  8
0
  0
CIRCLE
  5
E60B9
  8
0
 10
3138.314025880769
 20
9377.109926174498
 30
0.0
 40
9.0
  0
CIRCLE
  5
E60BA
  8
0
 10
3138.314025880769
 20
9377.109926174498
 30
0.0
 40
3.611593896290287
  0
CIRCLE
  5
E60BB
  8
0
 10
3105.314025880769
 20
9377.109926174498
 30
0.0
 40
3.611593896290287
  0
CIRCLE
  5
E60BC
  8
0
 10
3105.314025880769
 20
9377.109926174498
 30
0.0
 40
9.0
  0
CIRCLE
  5
E60BD
  8
0
 10
5536.314025880769
 20
9377.109926174498
 30
0.0
 40
3.611593896290287
  0
CIRCLE
  5
E60BE
  8
0
 10
5536.314025880769
 20
9377.109926174498
 30
0.0
 40
9.0
  0
CIRCLE
  5
E60BF
  8
0
 10
5569.314025880768
 20
9377.109926174498
 30
0.0
 40
3.611593896290287
  0
CIRCLE
  5
E60C0
  8
0
 10
5569.314025880768
 20
9377.109926174498
 30
0.0
 40
9.0
  0
POLYLINE
  5
E60C1
  8
0
 66
     1
 10
0.0
 20
0.0
 30
0.0
 70
     1
  0
VERTEX
  5
E84BC
  8
0
 10
3147.314025880769
 20
8701.109926174588
 30
0.0
  0
VERTEX
  5
E84BD
  8
0
 10
3147.314025880769
 20
8741.109926174586
 30
0.0
  0
VERTEX
  5
E84BE
  8
0
 10
5527.31402588077
 20
8741.1099261745
 30
0.0
  0
VERTEX
  5
E84BF
  8
0
 10
5527.31402588077
 20
8701.109926174588
 30
0.0
  0
SEQEND
  5
E883E
  8
0
  0
POLYLINE
  5
E60C2
  8
0
 66
     1
 10
0.0
 20
0.0
 30
0.0
 70
     1
  0
VERTEX
  5
E84C0
  8
0
 10
3147.314025880769
 20
8546.109926174588
 30
0.0
  0
VERTEX
  5
E84C1
  8
0
 10
3147.314025880769
 20
9348.109926174411
 30
0.0
  0
VERTEX
  5
E84C2
  8
0
 10
3087.314025880769
 20
9348.109926174411
 30
0.0
  0
VERTEX
  5
E84C3
  8
0
 10
3087.314025880769
 20
8546.109926174588
 30
0.0
  0
SEQEND
  5
E883F
  8
0
  0
POLYLINE
  5
E60C3
  8
0
 66
     1
 10
0.0
 20
0.0
 30
0.0
 70
     1
  0
VERTEX
  5
E84C4
  8
0
 10
5527.31402588077
 20
8546.109926174588
 30
0.0
  0
VERTEX
  5
E84C5
  8
0
 10
5527.31402588077
 20
9348.109926174411
 30
0.0
  0
VERTEX
  5
E84C6
  8
0
 10
5587.314025880768
 20
9348.109926174411
 30
0.0
  0
VERTEX
  5
E84C7
  8
0
 10
5587.314025880768
 20
8546.109926174588
 30
0.0
  0
SEQEND
  5
E8840
  8
0
  0
POLYLINE
  5
E60C4
  8
0
 66
     1
 10
0.0
 20
0.0
 30
0.0
 70
     1
  0
VERTEX
  5
E84C8
  8
0
 10
3087.314025880769
 20
9348.109926174588
 30
0.0
  0
VERTEX
  5
E84C9
  8
0
 10
3087.314025880769
 20
9406.109926174588
 30
0.0
  0
VERTEX
  5
E84CA
  8
0
 10
5587.314025880768
 20
9406.109926174497
 30
0.0
  0
VERTEX
  5
E84CB
  8
0
 10
5587.314025880768
 20
9348.109926174498
 30
0.0
  0
SEQEND
  5
E8841
  8
0
  0
POLYLINE
  5
E60C5
  8
0
 66
     1
 10
0.0
 20
0.0
 30
0.0
 70
     1
  0
VERTEX
  5
E84CC
  8
0
 10
7127.314025880768
 20
8546.109926174588
 30
0.0
  0
VERTEX
  5
E84CD
  8
0
 10
7127.314025880768
 20
8701.109926174588
 30
0.0
  0
VERTEX
  5
E84CE
  8
0
 10
7087.314025880885
 20
8701.109926174588
 30
0.0
  0
VERTEX
  5
E84CF
  8
0
 10
7087.314025880769
 20
8546.109926174588
 30
0.0
  0
SEQEND
  5
E8842
  8
0
  0
POLYLINE
  5
E60C6
  8
0
 66
     1
 10
0.0
 20
0.0
 30
0.0
 70
     1
  0
VERTEX
  5
E84D0
  8
0
 10
7797.314025880772
 20
8546.109926174677
 30
0.0
  0
VERTEX
  5
E84D1
  8
0
 10
7797.314025880772
 20
8701.109926174675
 30
0.0
  0
VERTEX
  5
E84D2
  8
0
 10
7837.314025880771
 20
8701.109926174675
 30
0.0
  0
VERTEX
  5
E84D3
  8
0
 10
7837.314025880771
 20
8546.109926174677
 30
0.0
  0
SEQEND
  5
E8843
  8
0
  0
POLYLINE
  5
E60C7
  8
0
 66
     1
 10
0.0
 20
0.0
 30
0.0
 70
     1
  0
VERTEX
  5
E84D4
  8
0
 10
7087.314025880769
 20
9348.109926174588
 30
0.0
  0
VERTEX
  5
E84D5
  8
0
 10
7087.314025880769
 20
9406.109926174588
 30
0.0
  0
VERTEX
  5
E84D6
  8
0
 10
7837.314025880771
 20
9406.109926174588
 30
0.0
  0
VERTEX
  5
E84D7
  8
0
 10
7837.314025880771
 20
9348.109926174588
 30
0.0
  0
SEQEND
  5
E8844
  8
0
  0
POLYLINE
  5
E60C8
  8
0
 66
     1
 10
0.0
 20
0.0
 30
0.0
 70
     1
  0
VERTEX
  5
E84D8
  8
0
 10
-3412.685974119229
 20
11988.14656823284
 30
0.0
  0
VERTEX
  5
E84D9
  8
0
 10
-3412.685974119229
 20
12046.14656823284
 30
0.0
  0
VERTEX
  5
E84DA
  8
0
 10
-1912.685974119229
 20
12046.14656823275
 30
0.0
  0
VERTEX
  5
E84DB
  8
0
 10
-1912.685974119229
 20
11988.14656823275
 30
0.0
  0
SEQEND
  5
E8845
  8
0
  0
POLYLINE
  5
E60C9
  8
0
 66
     1
 10
0.0
 20
0.0
 30
0.0
 70
     1
  0
VERTEX
  5
E84DC
  8
0
 10
-1972.685974119229
 20
11186.14656823284
 30
0.0
  0
VERTEX
  5
E84DD
  8
0
 10
-1972.685974119229
 20
11988.14656823267
 30
0.0
  0
VERTEX
  5
E84DE
  8
0
 10
-1912.685974119229
 20
11988.14656823267
 30
0.0
  0
VERTEX
  5
E84DF
  8
0
 10
-1912.685974119229
 20
11186.14656823284
 30
0.0
  0
SEQEND
  5
E8846
  8
0
  0
POLYLINE
  5
E60CA
  8
0
 66
     1
 10
0.0
 20
0.0
 30
0.0
 70
     1
  0
VERTEX
  5
E84E0
  8
0
 10
-3352.685974119231
 20
11186.14656823284
 30
0.0
  0
VERTEX
  5
E84E1
  8
0
 10
-3352.685974119231
 20
11988.14656823267
 30
0.0
  0
VERTEX
  5
E84E2
  8
0
 10
-3412.685974119229
 20
11988.14656823267
 30
0.0
  0
VERTEX
  5
E84E3
  8
0
 10
-3412.685974119229
 20
11186.14656823284
 30
0.0
  0
SEQEND
  5
E8847
  8
0
  0
POLYLINE
  5
E60CB
  8
0
 66
     1
 10
0.0
 20
0.0
 30
0.0
 70
     1
  0
VERTEX
  5
E84E4
  8
0
 10
-3352.685974119231
 20
11341.14656823284
 30
0.0
  0
VERTEX
  5
E84E5
  8
0
 10
-3352.685974119231
 20
11381.14656823284
 30
0.0
  0
VERTEX
  5
E84E6
  8
0
 10
-1972.685974119229
 20
11381.14656823275
 30
0.0
  0
VERTEX
  5
E84E7
  8
0
 10
-1972.685974119229
 20
11341.14656823284
 30
0.0
  0
SEQEND
  5
E8848
  8
0
  0
CIRCLE
  5
E60CC
  8
0
 10
-1930.685974119229
 20
12017.14656823275
 30
0.0
 40
9.0
  0
CIRCLE
  5
E60CD
  8
0
 10
-1930.685974119229
 20
12017.14656823275
 30
0.0
 40
3.611593896290287
  0
CIRCLE
  5
E60CE
  8
0
 10
-1963.685974119229
 20
12017.14656823275
 30
0.0
 40
9.0
  0
CIRCLE
  5
E60CF
  8
0
 10
-1963.685974119229
 20
12017.14656823275
 30
0.0
 40
3.611593896290287
  0
CIRCLE
  5
E60D0
  8
0
 10
-3394.685974119229
 20
12017.14656823275
 30
0.0
 40
9.0
  0
CIRCLE
  5
E60D1
  8
0
 10
-3394.685974119229
 20
12017.14656823275
 30
0.0
 40
3.611593896290287
  0
CIRCLE
  5
E60D2
  8
0
 10
-3361.685974119229
 20
12017.14656823275
 30
0.0
 40
3.611593896290287
  0
CIRCLE
  5
E60D3
  8
0
 10
-3361.685974119229
 20
12017.14656823275
 30
0.0
 40
9.0
  0
CIRCLE
  5
E60D4
  8
0
 10
-361.6859741192293
 20
12017.14656823275
 30
0.0
 40
9.0
  0
CIRCLE
  5
E60D5
  8
0
 10
-361.6859741192293
 20
12017.14656823275
 30
0.0
 40
3.611593896290287
  0
CIRCLE
  5
E60D6
  8
0
 10
-394.6859741192293
 20
12017.14656823275
 30
0.0
 40
3.611593896290287
  0
CIRCLE
  5
E60D7
  8
0
 10
-394.6859741192293
 20
12017.14656823275
 30
0.0
 40
9.0
  0
CIRCLE
  5
E60D8
  8
0
 10
1536.314025880771
 20
12017.14656823275
 30
0.0
 40
3.611593896290287
  0
CIRCLE
  5
E60D9
  8
0
 10
1536.314025880771
 20
12017.14656823275
 30
0.0
 40
9.0
  0
CIRCLE
  5
E60DA
  8
0
 10
1569.31402588077
 20
12017.14656823275
 30
0.0
 40
3.611593896290287
  0
CIRCLE
  5
E60DB
  8
0
 10
1569.31402588077
 20
12017.14656823275
 30
0.0
 40
9.0
  0
POLYLINE
  5
E60DC
  8
0
 66
     1
 10
0.0
 20
0.0
 30
0.0
 70
     1
  0
VERTEX
  5
E84E8
  8
0
 10
-352.6859741192293
 20
11341.14656823284
 30
0.0
  0
VERTEX
  5
E84E9
  8
0
 10
-352.6859741192293
 20
11381.14656823284
 30
0.0
  0
VERTEX
  5
E84EA
  8
0
 10
1527.314025880771
 20
11381.14656823275
 30
0.0
  0
VERTEX
  5
E84EB
  8
0
 10
1527.314025880771
 20
11341.14656823284
 30
0.0
  0
SEQEND
  5
E8849
  8
0
  0
POLYLINE
  5
E60DD
  8
0
 66
     1
 10
0.0
 20
0.0
 30
0.0
 70
     1
  0
VERTEX
  5
E84EC
  8
0
 10
-352.6859741192293
 20
11186.14656823284
 30
0.0
  0
VERTEX
  5
E84ED
  8
0
 10
-352.6859741192293
 20
11988.14656823267
 30
0.0
  0
VERTEX
  5
E84EE
  8
0
 10
-412.6859741192292
 20
11988.14656823267
 30
0.0
  0
VERTEX
  5
E84EF
  8
0
 10
-412.6859741192292
 20
11186.14656823284
 30
0.0
  0
SEQEND
  5
E884A
  8
0
  0
POLYLINE
  5
E60DE
  8
0
 66
     1
 10
0.0
 20
0.0
 30
0.0
 70
     1
  0
VERTEX
  5
E84F0
  8
0
 10
1527.314025880771
 20
11186.14656823284
 30
0.0
  0
VERTEX
  5
E84F1
  8
0
 10
1527.314025880771
 20
11988.14656823267
 30
0.0
  0
VERTEX
  5
E84F2
  8
0
 10
1587.31402588077
 20
11988.14656823267
 30
0.0
  0
VERTEX
  5
E84F3
  8
0
 10
1587.31402588077
 20
11186.14656823284
 30
0.0
  0
SEQEND
  5
E884B
  8
0
  0
POLYLINE
  5
E60DF
  8
0
 66
     1
 10
0.0
 20
0.0
 30
0.0
 70
     1
  0
VERTEX
  5
E84F4
  8
0
 10
-412.6859741192292
 20
11988.14656823284
 30
0.0
  0
VERTEX
  5
E84F5
  8
0
 10
-412.6859741192292
 20
12046.14656823284
 30
0.0
  0
VERTEX
  5
E84F6
  8
0
 10
1587.31402588077
 20
12046.14656823275
 30
0.0
  0
VERTEX
  5
E84F7
  8
0
 10
1587.31402588077
 20
11988.14656823275
 30
0.0
  0
SEQEND
  5
E884C
  8
0
  0
POLYLINE
  5
E60E0
  8
0
 66
     1
 10
0.0
 20
0.0
 30
0.0
 70
     1
  0
VERTEX
  5
E84F8
  8
0
 10
3087.314025880771
 20
11988.14656823284
 30
0.0
  0
VERTEX
  5
E84F9
  8
0
 10
3087.314025880771
 20
12046.14656823284
 30
0.0
  0
VERTEX
  5
E84FA
  8
0
 10
5587.314025880771
 20
12046.14656823275
 30
0.0
  0
VERTEX
  5
E84FB
  8
0
 10
5587.314025880771
 20
11988.14656823275
 30
0.0
  0
SEQEND
  5
E884D
  8
0
  0
POLYLINE
  5
E60E1
  8
0
 66
     1
 10
0.0
 20
0.0
 30
0.0
 70
     1
  0
VERTEX
  5
E84FC
  8
0
 10
5527.31402588077
 20
11186.14656823284
 30
0.0
  0
VERTEX
  5
E84FD
  8
0
 10
5527.31402588077
 20
11988.14656823267
 30
0.0
  0
VERTEX
  5
E84FE
  8
0
 10
5587.314025880771
 20
11988.14656823267
 30
0.0
  0
VERTEX
  5
E84FF
  8
0
 10
5587.314025880771
 20
11186.14656823284
 30
0.0
  0
SEQEND
  5
E884E
  8
0
  0
POLYLINE
  5
E60E2
  8
0
 66
     1
 10
0.0
 20
0.0
 30
0.0
 70
     1
  0
VERTEX
  5
E8500
  8
0
 10
3147.314025880771
 20
11186.14656823284
 30
0.0
  0
VERTEX
  5
E8501
  8
0
 10
3147.314025880771
 20
11988.14656823267
 30
0.0
  0
VERTEX
  5
E8502
  8
0
 10
3087.314025880771
 20
11988.14656823267
 30
0.0
  0
VERTEX
  5
E8503
  8
0
 10
3087.314025880771
 20
11186.14656823284
 30
0.0
  0
SEQEND
  5
E884F
  8
0
  0
POLYLINE
  5
E60E3
  8
0
 66
     1
 10
0.0
 20
0.0
 30
0.0
 70
     1
  0
VERTEX
  5
E8504
  8
0
 10
3147.314025880771
 20
11341.14656823284
 30
0.0
  0
VERTEX
  5
E8505
  8
0
 10
3147.314025880771
 20
11381.14656823284
 30
0.0
  0
VERTEX
  5
E8506
  8
0
 10
5527.31402588077
 20
11381.14656823275
 30
0.0
  0
VERTEX
  5
E8507
  8
0
 10
5527.31402588077
 20
11341.14656823284
 30
0.0
  0
SEQEND
  5
E8850
  8
0
  0
CIRCLE
  5
E60E4
  8
0
 10
5569.314025880771
 20
12017.14656823275
 30
0.0
 40
9.0
  0
CIRCLE
  5
E60E5
  8
0
 10
5569.314025880771
 20
12017.14656823275
 30
0.0
 40
3.611593896290287
  0
CIRCLE
  5
E60E6
  8
0
 10
5536.314025880771
 20
12017.14656823275
 30
0.0
 40
9.0
  0
CIRCLE
  5
E60E7
  8
0
 10
5536.314025880771
 20
12017.14656823275
 30
0.0
 40
3.611593896290287
  0
CIRCLE
  5
E60E8
  8
0
 10
3105.314025880771
 20
12017.14656823275
 30
0.0
 40
9.0
  0
CIRCLE
  5
E60E9
  8
0
 10
3105.314025880771
 20
12017.14656823275
 30
0.0
 40
3.611593896290287
  0
CIRCLE
  5
E60EA
  8
0
 10
3138.314025880771
 20
12017.14656823275
 30
0.0
 40
3.611593896290287
  0
CIRCLE
  5
E60EB
  8
0
 10
3138.314025880771
 20
12017.14656823275
 30
0.0
 40
9.0
  0
POLYLINE
  5
E60EC
  8
0
 66
     1
 10
0.0
 20
0.0
 30
0.0
 70
     1
  0
VERTEX
  5
E8508
  8
0
 10
7087.314025880771
 20
11988.14656823284
 30
0.0
  0
VERTEX
  5
E8509
  8
0
 10
7087.314025880771
 20
12046.14656823284
 30
0.0
  0
VERTEX
  5
E850A
  8
0
 10
7837.314025880771
 20
12046.14656823284
 30
0.0
  0
VERTEX
  5
E850B
  8
0
 10
7837.314025880771
 20
11988.14656823284
 30
0.0
  0
SEQEND
  5
E8851
  8
0
  0
POLYLINE
  5
E60ED
  8
0
 66
     1
 10
0.0
 20
0.0
 30
0.0
 70
     1
  0
VERTEX
  5
E850C
  8
0
 10
7797.314025880772
 20
11186.14656823293
 30
0.0
  0
VERTEX
  5
E850D
  8
0
 10
7797.314025880772
 20
11988.14656823284
 30
0.0
  0
VERTEX
  5
E850E
  8
0
 10
7837.314025880771
 20
11988.14656823284
 30
0.0
  0
VERTEX
  5
E850F
  8
0
 10
7837.314025880771
 20
11186.14656823293
 30
0.0
  0
SEQEND
  5
E8852
  8
0
  0
POLYLINE
  5
E60EE
  8
0
 66
     1
 10
0.0
 20
0.0
 30
0.0
 70
     1
  0
VERTEX
  5
E8510
  8
0
 10
7127.314025880771
 20
11186.14656823284
 30
0.0
  0
VERTEX
  5
E8511
  8
0
 10
7127.314025880771
 20
11988.14656823284
 30
0.0
  0
VERTEX
  5
E8512
  8
0
 10
7087.314025880887
 20
11988.14656823284
 30
0.0
  0
VERTEX
  5
E8513
  8
0
 10
7087.314025880771
 20
11186.14656823284
 30
0.0
  0
SEQEND
  5
E8853
  8
0
  0
POLYLINE
  5
E60EF
  8
0
 66
     1
 10
0.0
 20
0.0
 30
0.0
 70
     1
  0
VERTEX
  5
E8514
  8
0
 10
7127.314025880771
 20
11381.14656823293
 30
0.0
  0
VERTEX
  5
E8515
  8
0
 10
7127.314025880771
 20
11341.14656823284
 30
0.0
  0
VERTEX
  5
E8516
  8
0
 10
7797.314025880772
 20
11341.14656823293
 30
0.0
  0
VERTEX
  5
E8517
  8
0
 10
7797.314025880772
 20
11381.14656823293
 30
0.0
  0
SEQEND
  5
E8854
  8
0
  0
POLYLINE
  5
E60F4
  8
0
 66
     1
 10
0.0
 20
0.0
 30
0.0
 70
     1
  0
VERTEX
  5
E8518
  8
0
 10
-3412.685974119231
 20
9348.109926174588
 30
0.0
  0
VERTEX
  5
E8519
  8
0
 10
-3412.685974119231
 20
9406.109926174588
 30
0.0
  0
VERTEX
  5
E851A
  8
0
 10
-1912.685974119231
 20
9406.109926174497
 30
0.0
  0
VERTEX
  5
E851B
  8
0
 10
-1912.685974119231
 20
9348.109926174498
 30
0.0
  0
SEQEND
  5
E8855
  8
0
  0
POLYLINE
  5
E60F5
  8
0
 66
     1
 10
0.0
 20
0.0
 30
0.0
 70
     1
  0
VERTEX
  5
E851C
  8
0
 10
-1972.685974119231
 20
8546.109926174588
 30
0.0
  0
VERTEX
  5
E851D
  8
0
 10
-1972.685974119231
 20
9348.109926174411
 30
0.0
  0
VERTEX
  5
E851E
  8
0
 10
-1912.685974119231
 20
9348.109926174411
 30
0.0
  0
VERTEX
  5
E851F
  8
0
 10
-1912.685974119231
 20
8546.109926174588
 30
0.0
  0
SEQEND
  5
E8856
  8
0
  0
POLYLINE
  5
E60F6
  8
0
 66
     1
 10
0.0
 20
0.0
 30
0.0
 70
     1
  0
VERTEX
  5
E8520
  8
0
 10
-3352.685974119231
 20
8546.109926174588
 30
0.0
  0
VERTEX
  5
E8521
  8
0
 10
-3352.685974119231
 20
9348.109926174411
 30
0.0
  0
VERTEX
  5
E8522
  8
0
 10
-3412.685974119231
 20
9348.109926174411
 30
0.0
  0
VERTEX
  5
E8523
  8
0
 10
-3412.685974119231
 20
8546.109926174588
 30
0.0
  0
SEQEND
  5
E8857
  8
0
  0
POLYLINE
  5
E60F7
  8
0
 66
     1
 10
0.0
 20
0.0
 30
0.0
 70
     1
  0
VERTEX
  5
E8524
  8
0
 10
-3352.685974119231
 20
8701.109926174588
 30
0.0
  0
VERTEX
  5
E8525
  8
0
 10
-3352.685974119231
 20
8741.109926174586
 30
0.0
  0
VERTEX
  5
E8526
  8
0
 10
-1972.685974119231
 20
8741.1099261745
 30
0.0
  0
VERTEX
  5
E8527
  8
0
 10
-1972.685974119231
 20
8701.109926174588
 30
0.0
  0
SEQEND
  5
E8858
  8
0
  0
CIRCLE
  5
E60F8
  8
0
 10
-1930.685974119231
 20
9377.109926174498
 30
0.0
 40
9.0
  0
CIRCLE
  5
E60F9
  8
0
 10
-1930.685974119231
 20
9377.109926174498
 30
0.0
 40
3.611593896290287
  0
CIRCLE
  5
E60FA
  8
0
 10
-1963.685974119231
 20
9377.109926174498
 30
0.0
 40
9.0
  0
CIRCLE
  5
E60FB
  8
0
 10
-1963.685974119231
 20
9377.109926174498
 30
0.0
 40
3.611593896290287
  0
CIRCLE
  5
E60FC
  8
0
 10
-3394.685974119231
 20
9377.109926174498
 30
0.0
 40
9.0
  0
CIRCLE
  5
E60FD
  8
0
 10
-3394.685974119231
 20
9377.109926174498
 30
0.0
 40
3.611593896290287
  0
CIRCLE
  5
E60FE
  8
0
 10
-3361.685974119231
 20
9377.109926174498
 30
0.0
 40
3.611593896290287
  0
CIRCLE
  5
E60FF
  8
0
 10
-3361.685974119231
 20
9377.109926174498
 30
0.0
 40
9.0
  0
POLYLINE
  5
E6100
  8
0
 66
     1
 10
0.0
 20
0.0
 30
0.0
 70
     1
  0
VERTEX
  5
E8528
  8
0
 10
-3352.685974119231
 20
9348.109926174411
 30
0.0
  0
VERTEX
  5
E8529
  8
0
 10
-3352.685974119231
 20
8741.1099261745
 30
0.0
  0
VERTEX
  5
E852A
  8
0
 10
-1972.685974119231
 20
8741.1099261745
 30
0.0
  0
VERTEX
  5
E852B
  8
0
 10
-1972.685974119231
 20
9348.109926174411
 30
0.0
  0
SEQEND
  5
E8859
  8
0
  0
POLYLINE
  5
E6101
  8
0
 66
     1
 10
0.0
 20
0.0
 30
0.0
 70
     1
  0
VERTEX
  5
E852C
  8
0
 10
-412.6859741192308
 20
9348.109926174588
 30
0.0
  0
VERTEX
  5
E852D
  8
0
 10
-412.6859741192308
 20
9406.109926174588
 30
0.0
  0
VERTEX
  5
E852E
  8
0
 10
1587.314025880768
 20
9406.109926174497
 30
0.0
  0
VERTEX
  5
E852F
  8
0
 10
1587.314025880768
 20
9348.109926174498
 30
0.0
  0
SEQEND
  5
E885A
  8
0
  0
POLYLINE
  5
E6102
  8
0
 66
     1
 10
0.0
 20
0.0
 30
0.0
 70
     1
  0
VERTEX
  5
E8530
  8
0
 10
1527.314025880768
 20
8546.109926174588
 30
0.0
  0
VERTEX
  5
E8531
  8
0
 10
1527.314025880768
 20
9348.109926174411
 30
0.0
  0
VERTEX
  5
E8532
  8
0
 10
1587.314025880768
 20
9348.109926174411
 30
0.0
  0
VERTEX
  5
E8533
  8
0
 10
1587.314025880768
 20
8546.109926174588
 30
0.0
  0
SEQEND
  5
E885B
  8
0
  0
POLYLINE
  5
E6103
  8
0
 66
     1
 10
0.0
 20
0.0
 30
0.0
 70
     1
  0
VERTEX
  5
E8534
  8
0
 10
-352.6859741192311
 20
8546.109926174588
 30
0.0
  0
VERTEX
  5
E8535
  8
0
 10
-352.6859741192311
 20
9348.109926174411
 30
0.0
  0
VERTEX
  5
E8536
  8
0
 10
-412.6859741192308
 20
9348.109926174411
 30
0.0
  0
VERTEX
  5
E8537
  8
0
 10
-412.6859741192308
 20
8546.109926174588
 30
0.0
  0
SEQEND
  5
E885C
  8
0
  0
POLYLINE
  5
E6104
  8
0
 66
     1
 10
0.0
 20
0.0
 30
0.0
 70
     1
  0
VERTEX
  5
E8538
  8
0
 10
-352.6859741192311
 20
8701.109926174588
 30
0.0
  0
VERTEX
  5
E8539
  8
0
 10
-352.6859741192311
 20
8741.109926174586
 30
0.0
  0
VERTEX
  5
E853A
  8
0
 10
1527.314025880768
 20
8741.1099261745
 30
0.0
  0
VERTEX
  5
E853B
  8
0
 10
1527.314025880768
 20
8701.109926174588
 30
0.0
  0
SEQEND
  5
E885D
  8
0
  0
CIRCLE
  5
E6105
  8
0
 10
1569.314025880769
 20
9377.109926174498
 30
0.0
 40
9.0
  0
CIRCLE
  5
E6106
  8
0
 10
1569.314025880769
 20
9377.109926174498
 30
0.0
 40
3.611593896290287
  0
CIRCLE
  5
E6107
  8
0
 10
1536.314025880769
 20
9377.109926174498
 30
0.0
 40
9.0
  0
CIRCLE
  5
E6108
  8
0
 10
1536.314025880769
 20
9377.109926174498
 30
0.0
 40
3.611593896290287
  0
CIRCLE
  5
E6109
  8
0
 10
-394.6859741192311
 20
9377.109926174498
 30
0.0
 40
9.0
  0
CIRCLE
  5
E610A
  8
0
 10
-394.6859741192311
 20
9377.109926174498
 30
0.0
 40
3.611593896290287
  0
CIRCLE
  5
E610B
  8
0
 10
-361.6859741192311
 20
9377.109926174498
 30
0.0
 40
3.611593896290287
  0
CIRCLE
  5
E610C
  8
0
 10
-361.6859741192311
 20
9377.109926174498
 30
0.0
 40
9.0
  0
POLYLINE
  5
E610D
  8
0
 66
     1
 10
0.0
 20
0.0
 30
0.0
 70
     1
  0
VERTEX
  5
E853C
  8
0
 10
-352.6859741192311
 20
9348.109926174411
 30
0.0
  0
VERTEX
  5
E853D
  8
0
 10
-352.6859741192311
 20
8741.1099261745
 30
0.0
  0
VERTEX
  5
E853E
  8
0
 10
1527.314025880768
 20
8741.1099261745
 30
0.0
  0
VERTEX
  5
E853F
  8
0
 10
1527.314025880768
 20
9348.109926174411
 30
0.0
  0
SEQEND
  5
E885E
  8
0
  0
CIRCLE
  5
E610E
  8
0
 10
7748.314025880772
 20
8720.109926174588
 30
0.0
 40
9.0
  0
CIRCLE
  5
E610F
  8
0
 10
7748.314025880772
 20
8720.109926174588
 30
0.0
 40
3.611593896290287
  0
CIRCLE
  5
E6110
  8
0
 10
7176.31402588077
 20
8720.109926174588
 30
0.0
 40
3.611593896290287
  0
CIRCLE
  5
E6111
  8
0
 10
7176.31402588077
 20
8720.109926174588
 30
0.0
 40
9.0
  0
POLYLINE
  5
E6116
  8
0
 66
     1
 10
0.0
 20
0.0
 30
0.0
 70
     1
  0
VERTEX
  5
E8540
  8
0
 10
3147.314025880769
 20
9348.109926174411
 30
0.0
  0
VERTEX
  5
E8541
  8
0
 10
3147.314025880769
 20
8741.1099261745
 30
0.0
  0
VERTEX
  5
E8542
  8
0
 10
5527.31402588077
 20
8741.1099261745
 30
0.0
  0
VERTEX
  5
E8543
  8
0
 10
5527.31402588077
 20
9348.109926174411
 30
0.0
  0
SEQEND
  5
E885F
  8
0
  0
POLYLINE
  5
E6117
  8
0
 66
     1
 10
0.0
 20
0.0
 30
0.0
 70
     1
  0
VERTEX
  5
E8544
  8
0
 10
7087.314025880769
 20
9348.109926174411
 30
0.0
  0
VERTEX
  5
E8545
  8
0
 10
7087.314025880769
 20
8701.109926174588
 30
0.0
  0
VERTEX
  5
E8546
  8
0
 10
7837.314025880771
 20
8701.109926174675
 30
0.0
  0
VERTEX
  5
E8547
  8
0
 10
7837.314025880771
 20
9348.109926174411
 30
0.0
  0
SEQEND
  5
E8860
  8
0
  0
CIRCLE
  5
E6118
  8
0
 10
3138.314025880769
 20
9377.109926174498
 30
0.0
 40
9.0
  0
CIRCLE
  5
E6119
  8
0
 10
3138.314025880769
 20
9377.109926174498
 30
0.0
 40
3.611593896290287
  0
CIRCLE
  5
E611A
  8
0
 10
3105.314025880769
 20
9377.109926174498
 30
0.0
 40
3.611593896290287
  0
CIRCLE
  5
E611B
  8
0
 10
3105.314025880769
 20
9377.109926174498
 30
0.0
 40
9.0
  0
CIRCLE
  5
E611C
  8
0
 10
5536.314025880769
 20
9377.109926174498
 30
0.0
 40
3.611593896290287
  0
CIRCLE
  5
E611D
  8
0
 10
5536.314025880769
 20
9377.109926174498
 30
0.0
 40
9.0
  0
CIRCLE
  5
E611E
  8
0
 10
5569.314025880768
 20
9377.109926174498
 30
0.0
 40
3.611593896290287
  0
CIRCLE
  5
E611F
  8
0
 10
5569.314025880768
 20
9377.109926174498
 30
0.0
 40
9.0
  0
POLYLINE
  5
E6120
  8
0
 66
     1
 10
0.0
 20
0.0
 30
0.0
 70
     1
  0
VERTEX
  5
E8548
  8
0
 10
3147.314025880769
 20
8701.109926174588
 30
0.0
  0
VERTEX
  5
E8549
  8
0
 10
3147.314025880769
 20
8741.109926174586
 30
0.0
  0
VERTEX
  5
E854A
  8
0
 10
5527.31402588077
 20
8741.1099261745
 30
0.0
  0
VERTEX
  5
E854B
  8
0
 10
5527.31402588077
 20
8701.109926174588
 30
0.0
  0
SEQEND
  5
E8861
  8
0
  0
POLYLINE
  5
E6121
  8
0
 66
     1
 10
0.0
 20
0.0
 30
0.0
 70
     1
  0
VERTEX
  5
E854C
  8
0
 10
3147.314025880769
 20
8546.109926174588
 30
0.0
  0
VERTEX
  5
E854D
  8
0
 10
3147.314025880769
 20
9348.109926174411
 30
0.0
  0
VERTEX
  5
E854E
  8
0
 10
3087.314025880769
 20
9348.109926174411
 30
0.0
  0
VERTEX
  5
E854F
  8
0
 10
3087.314025880769
 20
8546.109926174588
 30
0.0
  0
SEQEND
  5
E8862
  8
0
  0
POLYLINE
  5
E6122
  8
0
 66
     1
 10
0.0
 20
0.0
 30
0.0
 70
     1
  0
VERTEX
  5
E8550
  8
0
 10
5527.31402588077
 20
8546.109926174588
 30
0.0
  0
VERTEX
  5
E8551
  8
0
 10
5527.31402588077
 20
9348.109926174411
 30
0.0
  0
VERTEX
  5
E8552
  8
0
 10
5587.314025880768
 20
9348.109926174411
 30
0.0
  0
VERTEX
  5
E8553
  8
0
 10
5587.314025880768
 20
8546.109926174588
 30
0.0
  0
SEQEND
  5
E8863
  8
0
  0
POLYLINE
  5
E6123
  8
0
 66
     1
 10
0.0
 20
0.0
 30
0.0
 70
     1
  0
VERTEX
  5
E8554
  8
0
 10
3087.314025880769
 20
9348.109926174588
 30
0.0
  0
VERTEX
  5
E8555
  8
0
 10
3087.314025880769
 20
9406.109926174588
 30
0.0
  0
VERTEX
  5
E8556
  8
0
 10
5587.314025880768
 20
9406.109926174497
 30
0.0
  0
VERTEX
  5
E8557
  8
0
 10
5587.314025880768
 20
9348.109926174498
 30
0.0
  0
SEQEND
  5
E8864
  8
0
  0
POLYLINE
  5
E6124
  8
0
 66
     1
 10
0.0
 20
0.0
 30
0.0
 70
     1
  0
VERTEX
  5
E8558
  8
0
 10
7127.314025880768
 20
8546.109926174588
 30
0.0
  0
VERTEX
  5
E8559
  8
0
 10
7127.314025880768
 20
8701.109926174588
 30
0.0
  0
VERTEX
  5
E855A
  8
0
 10
7087.314025880885
 20
8701.109926174588
 30
0.0
  0
VERTEX
  5
E855B
  8
0
 10
7087.314025880769
 20
8546.109926174588
 30
0.0
  0
SEQEND
  5
E8865
  8
0
  0
POLYLINE
  5
E6125
  8
0
 66
     1
 10
0.0
 20
0.0
 30
0.0
 70
     1
  0
VERTEX
  5
E855C
  8
0
 10
7797.314025880772
 20
8546.109926174677
 30
0.0
  0
VERTEX
  5
E855D
  8
0
 10
7797.314025880772
 20
8701.109926174675
 30
0.0
  0
VERTEX
  5
E855E
  8
0
 10
7837.314025880771
 20
8701.109926174675
 30
0.0
  0
VERTEX
  5
E855F
  8
0
 10
7837.314025880771
 20
8546.109926174677
 30
0.0
  0
SEQEND
  5
E8866
  8
0
  0
POLYLINE
  5
E6126
  8
0
 66
     1
 10
0.0
 20
0.0
 30
0.0
 70
     1
  0
VERTEX
  5
E8560
  8
0
 10
7087.314025880769
 20
9348.109926174588
 30
0.0
  0
VERTEX
  5
E8561
  8
0
 10
7087.314025880769
 20
9406.109926174588
 30
0.0
  0
VERTEX
  5
E8562
  8
0
 10
7837.314025880771
 20
9406.109926174588
 30
0.0
  0
VERTEX
  5
E8563
  8
0
 10
7837.314025880771
 20
9348.109926174588
 30
0.0
  0
SEQEND
  5
E8867
  8
0
  0
POLYLINE
  5
E6127
  8
0
 66
     1
 10
0.0
 20
0.0
 30
0.0
 70
     1
  0
VERTEX
  5
E8564
  8
0
 10
-3412.685974119229
 20
11988.14656823284
 30
0.0
  0
VERTEX
  5
E8565
  8
0
 10
-3412.685974119229
 20
12046.14656823284
 30
0.0
  0
VERTEX
  5
E8566
  8
0
 10
-1912.685974119229
 20
12046.14656823275
 30
0.0
  0
VERTEX
  5
E8567
  8
0
 10
-1912.685974119229
 20
11988.14656823275
 30
0.0
  0
SEQEND
  5
E8868
  8
0
  0
POLYLINE
  5
E6128
  8
0
 66
     1
 10
0.0
 20
0.0
 30
0.0
 70
     1
  0
VERTEX
  5
E8568
  8
0
 10
-1972.685974119229
 20
11186.14656823284
 30
0.0
  0
VERTEX
  5
E8569
  8
0
 10
-1972.685974119229
 20
11988.14656823267
 30
0.0
  0
VERTEX
  5
E856A
  8
0
 10
-1912.685974119229
 20
11988.14656823267
 30
0.0
  0
VERTEX
  5
E856B
  8
0
 10
-1912.685974119229
 20
11186.14656823284
 30
0.0
  0
SEQEND
  5
E8869
  8
0
  0
POLYLINE
  5
E6129
  8
0
 66
     1
 10
0.0
 20
0.0
 30
0.0
 70
     1
  0
VERTEX
  5
E856C
  8
0
 10
-3352.685974119231
 20
11186.14656823284
 30
0.0
  0
VERTEX
  5
E856D
  8
0
 10
-3352.685974119231
 20
11988.14656823267
 30
0.0
  0
VERTEX
  5
E856E
  8
0
 10
-3412.685974119229
 20
11988.14656823267
 30
0.0
  0
VERTEX
  5
E856F
  8
0
 10
-3412.685974119229
 20
11186.14656823284
 30
0.0
  0
SEQEND
  5
E886A
  8
0
  0
POLYLINE
  5
E612A
  8
0
 66
     1
 10
0.0
 20
0.0
 30
0.0
 70
     1
  0
VERTEX
  5
E8570
  8
0
 10
-3352.685974119231
 20
11341.14656823284
 30
0.0
  0
VERTEX
  5
E8571
  8
0
 10
-3352.685974119231
 20
11381.14656823284
 30
0.0
  0
VERTEX
  5
E8572
  8
0
 10
-1972.685974119229
 20
11381.14656823275
 30
0.0
  0
VERTEX
  5
E8573
  8
0
 10
-1972.685974119229
 20
11341.14656823284
 30
0.0
  0
SEQEND
  5
E886B
  8
0
  0
CIRCLE
  5
E612B
  8
0
 10
-1930.685974119229
 20
12017.14656823275
 30
0.0
 40
9.0
  0
CIRCLE
  5
E612C
  8
0
 10
-1930.685974119229
 20
12017.14656823275
 30
0.0
 40
3.611593896290287
  0
CIRCLE
  5
E612D
  8
0
 10
-1963.685974119229
 20
12017.14656823275
 30
0.0
 40
9.0
  0
CIRCLE
  5
E612E
  8
0
 10
-1963.685974119229
 20
12017.14656823275
 30
0.0
 40
3.611593896290287
  0
CIRCLE
  5
E612F
  8
0
 10
-3394.685974119229
 20
12017.14656823275
 30
0.0
 40
9.0
  0
CIRCLE
  5
E6130
  8
0
 10
-3394.685974119229
 20
12017.14656823275
 30
0.0
 40
3.611593896290287
  0
CIRCLE
  5
E6131
  8
0
 10
-3361.685974119229
 20
12017.14656823275
 30
0.0
 40
3.611593896290287
  0
CIRCLE
  5
E6132
  8
0
 10
-3361.685974119229
 20
12017.14656823275
 30
0.0
 40
9.0
  0
CIRCLE
  5
E6133
  8
0
 10
-361.6859741192293
 20
12017.14656823275
 30
0.0
 40
9.0
  0
CIRCLE
  5
E6134
  8
0
 10
-361.6859741192293
 20
12017.14656823275
 30
0.0
 40
3.611593896290287
  0
CIRCLE
  5
E6135
  8
0
 10
-394.6859741192293
 20
12017.14656823275
 30
0.0
 40
3.611593896290287
  0
CIRCLE
  5
E6136
  8
0
 10
-394.6859741192293
 20
12017.14656823275
 30
0.0
 40
9.0
  0
CIRCLE
  5
E6137
  8
0
 10
1536.314025880771
 20
12017.14656823275
 30
0.0
 40
3.611593896290287
  0
CIRCLE
  5
E6138
  8
0
 10
1536.314025880771
 20
12017.14656823275
 30
0.0
 40
9.0
  0
CIRCLE
  5
E6139
  8
0
 10
1569.31402588077
 20
12017.14656823275
 30
0.0
 40
3.611593896290287
  0
CIRCLE
  5
E613A
  8
0
 10
1569.31402588077
 20
12017.14656823275
 30
0.0
 40
9.0
  0
POLYLINE
  5
E613B
  8
0
 66
     1
 10
0.0
 20
0.0
 30
0.0
 70
     1
  0
VERTEX
  5
E8574
  8
0
 10
-352.6859741192293
 20
11341.14656823284
 30
0.0
  0
VERTEX
  5
E8575
  8
0
 10
-352.6859741192293
 20
11381.14656823284
 30
0.0
  0
VERTEX
  5
E8576
  8
0
 10
1527.314025880771
 20
11381.14656823275
 30
0.0
  0
VERTEX
  5
E8577
  8
0
 10
1527.314025880771
 20
11341.14656823284
 30
0.0
  0
SEQEND
  5
E886C
  8
0
  0
POLYLINE
  5
E613C
  8
0
 66
     1
 10
0.0
 20
0.0
 30
0.0
 70
     1
  0
VERTEX
  5
E8578
  8
0
 10
-352.6859741192293
 20
11186.14656823284
 30
0.0
  0
VERTEX
  5
E8579
  8
0
 10
-352.6859741192293
 20
11988.14656823267
 30
0.0
  0
VERTEX
  5
E857A
  8
0
 10
-412.6859741192292
 20
11988.14656823267
 30
0.0
  0
VERTEX
  5
E857B
  8
0
 10
-412.6859741192292
 20
11186.14656823284
 30
0.0
  0
SEQEND
  5
E886D
  8
0
  0
POLYLINE
  5
E613D
  8
0
 66
     1
 10
0.0
 20
0.0
 30
0.0
 70
     1
  0
VERTEX
  5
E857C
  8
0
 10
1527.314025880771
 20
11186.14656823284
 30
0.0
  0
VERTEX
  5
E857D
  8
0
 10
1527.314025880771
 20
11988.14656823267
 30
0.0
  0
VERTEX
  5
E857E
  8
0
 10
1587.31402588077
 20
11988.14656823267
 30
0.0
  0
VERTEX
  5
E857F
  8
0
 10
1587.31402588077
 20
11186.14656823284
 30
0.0
  0
SEQEND
  5
E886E
  8
0
  0
POLYLINE
  5
E613E
  8
0
 66
     1
 10
0.0
 20
0.0
 30
0.0
 70
     1
  0
VERTEX
  5
E8580
  8
0
 10
-412.6859741192292
 20
11988.14656823284
 30
0.0
  0
VERTEX
  5
E8581
  8
0
 10
-412.6859741192292
 20
12046.14656823284
 30
0.0
  0
VERTEX
  5
E8582
  8
0
 10
1587.31402588077
 20
12046.14656823275
 30
0.0
  0
VERTEX
  5
E8583
  8
0
 10
1587.31402588077
 20
11988.14656823275
 30
0.0
  0
SEQEND
  5
E886F
  8
0
  0
POLYLINE
  5
E613F
  8
0
 66
     1
 10
0.0
 20
0.0
 30
0.0
 70
     1
  0
VERTEX
  5
E8584
  8
0
 10
3087.314025880771
 20
11988.14656823284
 30
0.0
  0
VERTEX
  5
E8585
  8
0
 10
3087.314025880771
 20
12046.14656823284
 30
0.0
  0
VERTEX
  5
E8586
  8
0
 10
5587.314025880771
 20
12046.14656823275
 30
0.0
  0
VERTEX
  5
E8587
  8
0
 10
5587.314025880771
 20
11988.14656823275
 30
0.0
  0
SEQEND
  5
E8870
  8
0
  0
POLYLINE
  5
E6140
  8
0
 66
     1
 10
0.0
 20
0.0
 30
0.0
 70
     1
  0
VERTEX
  5
E8588
  8
0
 10
5527.31402588077
 20
11186.14656823284
 30
0.0
  0
VERTEX
  5
E8589
  8
0
 10
5527.31402588077
 20
11988.14656823267
 30
0.0
  0
VERTEX
  5
E858A
  8
0
 10
5587.314025880771
 20
11988.14656823267
 30
0.0
  0
VERTEX
  5
E858B
  8
0
 10
5587.314025880771
 20
11186.14656823284
 30
0.0
  0
SEQEND
  5
E8871
  8
0
  0
POLYLINE
  5
E6141
  8
0
 66
     1
 10
0.0
 20
0.0
 30
0.0
 70
     1
  0
VERTEX
  5
E858C
  8
0
 10
3147.314025880771
 20
11186.14656823284
 30
0.0
  0
VERTEX
  5
E858D
  8
0
 10
3147.314025880771
 20
11988.14656823267
 30
0.0
  0
VERTEX
  5
E858E
  8
0
 10
3087.314025880771
 20
11988.14656823267
 30
0.0
  0
VERTEX
  5
E858F
  8
0
 10
3087.314025880771
 20
11186.14656823284
 30
0.0
  0
SEQEND
  5
E8872
  8
0
  0
POLYLINE
  5
E6142
  8
0
 66
     1
 10
0.0
 20
0.0
 30
0.0
 70
     1
  0
VERTEX
  5
E8590
  8
0
 10
3147.314025880771
 20
11341.14656823284
 30
0.0
  0
VERTEX
  5
E8591
  8
0
 10
3147.314025880771
 20
11381.14656823284
 30
0.0
  0
VERTEX
  5
E8592
  8
0
 10
5527.31402588077
 20
11381.14656823275
 30
0.0
  0
VERTEX
  5
E8593
  8
0
 10
5527.31402588077
 20
11341.14656823284
 30
0.0
  0
SEQEND
  5
E8873
  8
0
  0
CIRCLE
  5
E6143
  8
0
 10
5569.314025880771
 20
12017.14656823275
 30
0.0
 40
9.0
  0
CIRCLE
  5
E6144
  8
0
 10
5569.314025880771
 20
12017.14656823275
 30
0.0
 40
3.611593896290287
  0
CIRCLE
  5
E6145
  8
0
 10
5536.314025880771
 20
12017.14656823275
 30
0.0
 40
9.0
  0
CIRCLE
  5
E6146
  8
0
 10
5536.314025880771
 20
12017.14656823275
 30
0.0
 40
3.611593896290287
  0
CIRCLE
  5
E6147
  8
0
 10
3105.314025880771
 20
12017.14656823275
 30
0.0
 40
9.0
  0
CIRCLE
  5
E6148
  8
0
 10
3105.314025880771
 20
12017.14656823275
 30
0.0
 40
3.611593896290287
  0
CIRCLE
  5
E6149
  8
0
 10
3138.314025880771
 20
12017.14656823275
 30
0.0
 40
3.611593896290287
  0
CIRCLE
  5
E614A
  8
0
 10
3138.314025880771
 20
12017.14656823275
 30
0.0
 40
9.0
  0
POLYLINE
  5
E614B
  8
0
 66
     1
 10
0.0
 20
0.0
 30
0.0
 70
     1
  0
VERTEX
  5
E8594
  8
0
 10
7087.314025880771
 20
11988.14656823284
 30
0.0
  0
VERTEX
  5
E8595
  8
0
 10
7087.314025880771
 20
12046.14656823284
 30
0.0
  0
VERTEX
  5
E8596
  8
0
 10
7837.314025880771
 20
12046.14656823284
 30
0.0
  0
VERTEX
  5
E8597
  8
0
 10
7837.314025880771
 20
11988.14656823284
 30
0.0
  0
SEQEND
  5
E8874
  8
0
  0
POLYLINE
  5
E614C
  8
0
 66
     1
 10
0.0
 20
0.0
 30
0.0
 70
     1
  0
VERTEX
  5
E8598
  8
0
 10
7797.314025880772
 20
11186.14656823293
 30
0.0
  0
VERTEX
  5
E8599
  8
0
 10
7797.314025880772
 20
11988.14656823284
 30
0.0
  0
VERTEX
  5
E859A
  8
0
 10
7837.314025880771
 20
11988.14656823284
 30
0.0
  0
VERTEX
  5
E859B
  8
0
 10
7837.314025880771
 20
11186.14656823293
 30
0.0
  0
SEQEND
  5
E8875
  8
0
  0
POLYLINE
  5
E614D
  8
0
 66
     1
 10
0.0
 20
0.0
 30
0.0
 70
     1
  0
VERTEX
  5
E859C
  8
0
 10
7127.314025880771
 20
11186.14656823284
 30
0.0
  0
VERTEX
  5
E859D
  8
0
 10
7127.314025880771
 20
11988.14656823284
 30
0.0
  0
VERTEX
  5
E859E
  8
0
 10
7087.314025880887
 20
11988.14656823284
 30
0.0
  0
VERTEX
  5
E859F
  8
0
 10
7087.314025880771
 20
11186.14656823284
 30
0.0
  0
SEQEND
  5
E8876
  8
0
  0
POLYLINE
  5
E614E
  8
0
 66
     1
 10
0.0
 20
0.0
 30
0.0
 70
     1
  0
VERTEX
  5
E85A0
  8
0
 10
7127.314025880771
 20
11381.14656823293
 30
0.0
  0
VERTEX
  5
E85A1
  8
0
 10
7127.314025880771
 20
11341.14656823284
 30
0.0
  0
VERTEX
  5
E85A2
  8
0
 10
7797.314025880772
 20
11341.14656823293
 30
0.0
  0
VERTEX
  5
E85A3
  8
0
 10
7797.314025880772
 20
11381.14656823293
 30
0.0
  0
SEQEND
  5
E8877
  8
0
  0
POLYLINE
  5
E6168
  8
0
 66
     1
 10
0.0
 20
0.0
 30
0.0
 70
     1
  0
VERTEX
  5
E85A4
  8
0
 10
-912.6859741192495
 20
1982.036642058345
 30
0.0
  0
VERTEX
  5
E85A5
  8
0
 10
-912.6859741192495
 20
2040.036642058345
 30
0.0
  0
VERTEX
  5
E85A6
  8
0
 10
1087.31402588075
 20
2040.036642058257
 30
0.0
  0
VERTEX
  5
E85A7
  8
0
 10
1087.31402588075
 20
1982.036642058258
 30
0.0
  0
SEQEND
  5
E8878
  8
0
  0
POLYLINE
  5
E6169
  8
0
 66
     1
 10
0.0
 20
0.0
 30
0.0
 70
     1
  0
VERTEX
  5
E85A8
  8
0
 10
1027.31402588075
 20
1180.036642058345
 30
0.0
  0
VERTEX
  5
E85A9
  8
0
 10
1027.31402588075
 20
1982.036642058169
 30
0.0
  0
VERTEX
  5
E85AA
  8
0
 10
1087.31402588075
 20
1982.036642058169
 30
0.0
  0
VERTEX
  5
E85AB
  8
0
 10
1087.31402588075
 20
1180.036642058345
 30
0.0
  0
SEQEND
  5
E8879
  8
0
  0
POLYLINE
  5
E616A
  8
0
 66
     1
 10
0.0
 20
0.0
 30
0.0
 70
     1
  0
VERTEX
  5
E85AC
  8
0
 10
-852.6859741192492
 20
1180.036642058345
 30
0.0
  0
VERTEX
  5
E85AD
  8
0
 10
-852.6859741192492
 20
1982.036642058169
 30
0.0
  0
VERTEX
  5
E85AE
  8
0
 10
-912.6859741192495
 20
1982.036642058169
 30
0.0
  0
VERTEX
  5
E85AF
  8
0
 10
-912.6859741192495
 20
1180.036642058345
 30
0.0
  0
SEQEND
  5
E887A
  8
0
  0
POLYLINE
  5
E616B
  8
0
 66
     1
 10
0.0
 20
0.0
 30
0.0
 70
     1
  0
VERTEX
  5
E85B0
  8
0
 10
-852.6859741192492
 20
1335.036642058345
 30
0.0
  0
VERTEX
  5
E85B1
  8
0
 10
-852.6859741192492
 20
1375.036642058345
 30
0.0
  0
VERTEX
  5
E85B2
  8
0
 10
1027.31402588075
 20
1375.036642058258
 30
0.0
  0
VERTEX
  5
E85B3
  8
0
 10
1027.31402588075
 20
1335.036642058345
 30
0.0
  0
SEQEND
  5
E887B
  8
0
  0
POLYLINE
  5
E616C
  8
0
 66
     1
 10
0.0
 20
0.0
 30
0.0
 70
     1
  0
VERTEX
  5
E85B4
  8
0
 10
-912.6859741192495
 20
2040.036642058345
 30
0.0
  0
VERTEX
  5
E85B5
  8
0
 10
-912.6859741192495
 20
2070.036642058345
 30
0.0
 42
-0.4142135623731081
  0
VERTEX
  5
E85B6
  8
0
 10
-892.6859741192492
 20
2090.036642058345
 30
0.0
  0
VERTEX
  5
E85B7
  8
0
 10
1067.31402588075
 20
2090.036642058258
 30
0.0
 42
-0.4142135623730824
  0
VERTEX
  5
E85B8
  8
0
 10
1087.31402588075
 20
2070.036642058258
 30
0.0
  0
VERTEX
  5
E85B9
  8
0
 10
1087.31402588075
 20
2040.036642058257
 30
0.0
  0
SEQEND
  5
E887C
  8
0
  0
CIRCLE
  5
E616D
  8
0
 10
1069.31402588075
 20
2011.036642058257
 30
0.0
 40
9.0
  0
CIRCLE
  5
E616E
  8
0
 10
1069.31402588075
 20
2011.036642058257
 30
0.0
 40
3.611593896290287
  0
CIRCLE
  5
E616F
  8
0
 10
1036.31402588075
 20
2011.036642058257
 30
0.0
 40
9.0
  0
CIRCLE
  5
E6170
  8
0
 10
1036.31402588075
 20
2011.036642058257
 30
0.0
 40
3.611593896290287
  0
CIRCLE
  5
E6171
  8
0
 10
-894.6859741192495
 20
2011.036642058257
 30
0.0
 40
9.0
  0
CIRCLE
  5
E6172
  8
0
 10
-894.6859741192495
 20
2011.036642058257
 30
0.0
 40
3.611593896290287
  0
CIRCLE
  5
E6173
  8
0
 10
-861.6859741192495
 20
2011.036642058257
 30
0.0
 40
3.611593896290287
  0
CIRCLE
  5
E6174
  8
0
 10
-861.6859741192495
 20
2011.036642058257
 30
0.0
 40
9.0
  0
POLYLINE
  5
E6175
  8
0
 66
     1
 10
0.0
 20
0.0
 30
0.0
 70
     1
  0
VERTEX
  5
E85BA
  8
0
 10
-852.6859741192492
 20
1982.036642058169
 30
0.0
  0
VERTEX
  5
E85BB
  8
0
 10
-852.6859741192492
 20
1375.036642058258
 30
0.0
  0
VERTEX
  5
E85BC
  8
0
 10
1027.31402588075
 20
1375.036642058258
 30
0.0
  0
VERTEX
  5
E85BD
  8
0
 10
1027.31402588075
 20
1982.036642058169
 30
0.0
  0
SEQEND
  5
E887D
  8
0
  0
POLYLINE
  5
E6176
  8
0
 66
     1
 10
0.0
 20
0.0
 30
0.0
 70
     1
  0
VERTEX
  5
E85BE
  8
0
 10
1647.314025880751
 20
1982.036642058169
 30
0.0
  0
VERTEX
  5
E85BF
  8
0
 10
1647.314025880751
 20
1375.036642058258
 30
0.0
  0
VERTEX
  5
E85C0
  8
0
 10
4027.314025880751
 20
1375.036642058258
 30
0.0
  0
VERTEX
  5
E85C1
  8
0
 10
4027.314025880751
 20
1982.036642058169
 30
0.0
  0
SEQEND
  5
E887E
  8
0
  0
CIRCLE
  5
E6177
  8
0
 10
1638.314025880751
 20
2011.036642058257
 30
0.0
 40
9.0
  0
CIRCLE
  5
E6178
  8
0
 10
1638.314025880751
 20
2011.036642058257
 30
0.0
 40
3.611593896290287
  0
CIRCLE
  5
E6179
  8
0
 10
1605.31402588075
 20
2011.036642058257
 30
0.0
 40
3.611593896290287
  0
CIRCLE
  5
E617A
  8
0
 10
1605.31402588075
 20
2011.036642058257
 30
0.0
 40
9.0
  0
CIRCLE
  5
E617B
  8
0
 10
4036.314025880749
 20
2011.036642058257
 30
0.0
 40
3.611593896290287
  0
CIRCLE
  5
E617C
  8
0
 10
4036.314025880749
 20
2011.036642058257
 30
0.0
 40
9.0
  0
CIRCLE
  5
E617D
  8
0
 10
4069.314025880751
 20
2011.036642058257
 30
0.0
 40
3.611593896290287
  0
CIRCLE
  5
E617E
  8
0
 10
4069.314025880751
 20
2011.036642058257
 30
0.0
 40
9.0
  0
POLYLINE
  5
E617F
  8
0
 66
     1
 10
0.0
 20
0.0
 30
0.0
 70
     1
  0
VERTEX
  5
E85C2
  8
0
 10
1647.314025880751
 20
1335.036642058345
 30
0.0
  0
VERTEX
  5
E85C3
  8
0
 10
1647.314025880751
 20
1375.036642058345
 30
0.0
  0
VERTEX
  5
E85C4
  8
0
 10
4027.314025880751
 20
1375.036642058258
 30
0.0
  0
VERTEX
  5
E85C5
  8
0
 10
4027.314025880751
 20
1335.036642058345
 30
0.0
  0
SEQEND
  5
E887F
  8
0
  0
POLYLINE
  5
E6180
  8
0
 66
     1
 10
0.0
 20
0.0
 30
0.0
 70
     1
  0
VERTEX
  5
E85C6
  8
0
 10
1647.314025880751
 20
1180.036642058345
 30
0.0
  0
VERTEX
  5
E85C7
  8
0
 10
1647.314025880751
 20
1982.036642058169
 30
0.0
  0
VERTEX
  5
E85C8
  8
0
 10
1587.314025880751
 20
1982.036642058169
 30
0.0
  0
VERTEX
  5
E85C9
  8
0
 10
1587.314025880751
 20
1180.036642058345
 30
0.0
  0
SEQEND
  5
E8880
  8
0
  0
POLYLINE
  5
E6181
  8
0
 66
     1
 10
0.0
 20
0.0
 30
0.0
 70
     1
  0
VERTEX
  5
E85CA
  8
0
 10
4027.314025880751
 20
1180.036642058345
 30
0.0
  0
VERTEX
  5
E85CB
  8
0
 10
4027.314025880751
 20
1982.036642058169
 30
0.0
  0
VERTEX
  5
E85CC
  8
0
 10
4087.31402588075
 20
1982.036642058169
 30
0.0
  0
VERTEX
  5
E85CD
  8
0
 10
4087.31402588075
 20
1180.036642058345
 30
0.0
  0
SEQEND
  5
E8881
  8
0
  0
POLYLINE
  5
E6182
  8
0
 66
     1
 10
0.0
 20
0.0
 30
0.0
 70
     1
  0
VERTEX
  5
E85CE
  8
0
 10
1587.314025880751
 20
1982.036642058345
 30
0.0
  0
VERTEX
  5
E85CF
  8
0
 10
1587.314025880751
 20
2040.036642058345
 30
0.0
  0
VERTEX
  5
E85D0
  8
0
 10
4087.31402588075
 20
2040.036642058257
 30
0.0
  0
VERTEX
  5
E85D1
  8
0
 10
4087.31402588075
 20
1982.036642058258
 30
0.0
  0
SEQEND
  5
E8882
  8
0
  0
POLYLINE
  5
E6183
  8
0
 66
     1
 10
0.0
 20
0.0
 30
0.0
 70
     1
  0
VERTEX
  5
E85D2
  8
0
 10
4587.31402588075
 20
1982.036642058345
 30
0.0
  0
VERTEX
  5
E85D3
  8
0
 10
4587.31402588075
 20
2040.036642058345
 30
0.0
  0
VERTEX
  5
E85D4
  8
0
 10
6087.31402588075
 20
2040.036642058257
 30
0.0
  0
VERTEX
  5
E85D5
  8
0
 10
6087.31402588075
 20
1982.036642058258
 30
0.0
  0
SEQEND
  5
E8883
  8
0
  0
POLYLINE
  5
E6184
  8
0
 66
     1
 10
0.0
 20
0.0
 30
0.0
 70
     1
  0
VERTEX
  5
E85D6
  8
0
 10
6027.314025880751
 20
1180.036642058345
 30
0.0
  0
VERTEX
  5
E85D7
  8
0
 10
6027.314025880751
 20
1982.036642058169
 30
0.0
  0
VERTEX
  5
E85D8
  8
0
 10
6087.31402588075
 20
1982.036642058169
 30
0.0
  0
VERTEX
  5
E85D9
  8
0
 10
6087.31402588075
 20
1180.036642058345
 30
0.0
  0
SEQEND
  5
E8884
  8
0
  0
POLYLINE
  5
E6185
  8
0
 66
     1
 10
0.0
 20
0.0
 30
0.0
 70
     1
  0
VERTEX
  5
E85DA
  8
0
 10
4647.314025880751
 20
1180.036642058345
 30
0.0
  0
VERTEX
  5
E85DB
  8
0
 10
4647.314025880751
 20
1982.036642058169
 30
0.0
  0
VERTEX
  5
E85DC
  8
0
 10
4587.31402588075
 20
1982.036642058169
 30
0.0
  0
VERTEX
  5
E85DD
  8
0
 10
4587.31402588075
 20
1180.036642058345
 30
0.0
  0
SEQEND
  5
E8885
  8
0
  0
POLYLINE
  5
E6186
  8
0
 66
     1
 10
0.0
 20
0.0
 30
0.0
 70
     1
  0
VERTEX
  5
E85DE
  8
0
 10
4647.314025880751
 20
1335.036642058345
 30
0.0
  0
VERTEX
  5
E85DF
  8
0
 10
4647.314025880751
 20
1375.036642058345
 30
0.0
  0
VERTEX
  5
E85E0
  8
0
 10
6027.314025880751
 20
1375.036642058258
 30
0.0
  0
VERTEX
  5
E85E1
  8
0
 10
6027.314025880751
 20
1335.036642058345
 30
0.0
  0
SEQEND
  5
E8886
  8
0
  0
CIRCLE
  5
E6187
  8
0
 10
6069.314025880751
 20
2011.036642058257
 30
0.0
 40
9.0
  0
CIRCLE
  5
E6188
  8
0
 10
6069.314025880751
 20
2011.036642058257
 30
0.0
 40
3.611593896290287
  0
CIRCLE
  5
E6189
  8
0
 10
6036.314025880749
 20
2011.036642058257
 30
0.0
 40
9.0
  0
CIRCLE
  5
E618A
  8
0
 10
6036.314025880749
 20
2011.036642058257
 30
0.0
 40
3.611593896290287
  0
CIRCLE
  5
E618B
  8
0
 10
4605.314025880749
 20
2011.036642058257
 30
0.0
 40
9.0
  0
CIRCLE
  5
E618C
  8
0
 10
4605.314025880749
 20
2011.036642058257
 30
0.0
 40
3.611593896290287
  0
CIRCLE
  5
E618D
  8
0
 10
4638.314025880751
 20
2011.036642058257
 30
0.0
 40
3.611593896290287
  0
CIRCLE
  5
E618E
  8
0
 10
4638.314025880751
 20
2011.036642058257
 30
0.0
 40
9.0
  0
POLYLINE
  5
E618F
  8
0
 66
     1
 10
0.0
 20
0.0
 30
0.0
 70
     1
  0
VERTEX
  5
E85E2
  8
0
 10
4647.314025880751
 20
1982.036642058169
 30
0.0
  0
VERTEX
  5
E85E3
  8
0
 10
4647.314025880751
 20
1375.036642058258
 30
0.0
  0
VERTEX
  5
E85E4
  8
0
 10
6027.314025880751
 20
1375.036642058258
 30
0.0
  0
VERTEX
  5
E85E5
  8
0
 10
6027.314025880751
 20
1982.036642058169
 30
0.0
  0
SEQEND
  5
E8887
  8
0
  0
POLYLINE
  5
E6190
  8
0
 66
     1
 10
0.0
 20
0.0
 30
0.0
 70
     1
  0
VERTEX
  5
E85E6
  8
0
 10
-3352.685974119246
 20
1982.036642058169
 30
0.0
  0
VERTEX
  5
E85E7
  8
0
 10
-3352.685974119246
 20
1375.036642058258
 30
0.0
  0
VERTEX
  5
E85E8
  8
0
 10
-1472.685974119249
 20
1375.036642058258
 30
0.0
  0
VERTEX
  5
E85E9
  8
0
 10
-1472.685974119249
 20
1982.036642058169
 30
0.0
  0
SEQEND
  5
E8888
  8
0
  0
CIRCLE
  5
E6191
  8
0
 10
-3361.685974119244
 20
2011.036642058257
 30
0.0
 40
9.0
  0
CIRCLE
  5
E6192
  8
0
 10
-3361.685974119244
 20
2011.036642058257
 30
0.0
 40
3.611593896290287
  0
CIRCLE
  5
E6193
  8
0
 10
-3394.685974119246
 20
2011.036642058257
 30
0.0
 40
3.611593896290287
  0
CIRCLE
  5
E6194
  8
0
 10
-3394.685974119246
 20
2011.036642058257
 30
0.0
 40
9.0
  0
CIRCLE
  5
E6195
  8
0
 10
-1463.685974119249
 20
2011.036642058257
 30
0.0
 40
3.611593896290287
  0
CIRCLE
  5
E6196
  8
0
 10
-1463.685974119249
 20
2011.036642058257
 30
0.0
 40
9.0
  0
CIRCLE
  5
E6197
  8
0
 10
-1430.685974119249
 20
2011.036642058257
 30
0.0
 40
3.611593896290287
  0
CIRCLE
  5
E6198
  8
0
 10
-1430.685974119249
 20
2011.036642058257
 30
0.0
 40
9.0
  0
POLYLINE
  5
E6199
  8
0
 66
     1
 10
0.0
 20
0.0
 30
0.0
 70
     1
  0
VERTEX
  5
E85EA
  8
0
 10
-3352.685974119246
 20
1335.036642058345
 30
0.0
  0
VERTEX
  5
E85EB
  8
0
 10
-3352.685974119246
 20
1375.036642058345
 30
0.0
  0
VERTEX
  5
E85EC
  8
0
 10
-1472.685974119249
 20
1375.036642058258
 30
0.0
  0
VERTEX
  5
E85ED
  8
0
 10
-1472.685974119249
 20
1335.036642058345
 30
0.0
  0
SEQEND
  5
E8889
  8
0
  0
POLYLINE
  5
E619A
  8
0
 66
     1
 10
0.0
 20
0.0
 30
0.0
 70
     1
  0
VERTEX
  5
E85EE
  8
0
 10
-3352.685974119246
 20
1180.036642058345
 30
0.0
  0
VERTEX
  5
E85EF
  8
0
 10
-3352.685974119246
 20
1982.036642058169
 30
0.0
  0
VERTEX
  5
E85F0
  8
0
 10
-3412.685974119249
 20
1982.036642058169
 30
0.0
  0
VERTEX
  5
E85F1
  8
0
 10
-3412.685974119249
 20
1180.036642058345
 30
0.0
  0
SEQEND
  5
E888A
  8
0
  0
POLYLINE
  5
E619B
  8
0
 66
     1
 10
0.0
 20
0.0
 30
0.0
 70
     1
  0
VERTEX
  5
E85F2
  8
0
 10
-1472.685974119249
 20
1180.036642058345
 30
0.0
  0
VERTEX
  5
E85F3
  8
0
 10
-1472.685974119249
 20
1982.036642058169
 30
0.0
  0
VERTEX
  5
E85F4
  8
0
 10
-1412.685974119249
 20
1982.036642058169
 30
0.0
  0
VERTEX
  5
E85F5
  8
0
 10
-1412.685974119249
 20
1180.036642058345
 30
0.0
  0
SEQEND
  5
E888B
  8
0
  0
POLYLINE
  5
E619C
  8
0
 66
     1
 10
0.0
 20
0.0
 30
0.0
 70
     1
  0
VERTEX
  5
E85F6
  8
0
 10
-3412.685974119249
 20
1982.036642058345
 30
0.0
  0
VERTEX
  5
E85F7
  8
0
 10
-3412.685974119249
 20
2040.036642058345
 30
0.0
  0
VERTEX
  5
E85F8
  8
0
 10
-1412.685974119249
 20
2040.036642058257
 30
0.0
  0
VERTEX
  5
E85F9
  8
0
 10
-1412.685974119249
 20
1982.036642058258
 30
0.0
  0
SEQEND
  5
E888C
  8
0
  0
CIRCLE
  5
E619D
  8
0
 10
-2976.685974119249
 20
1957.036642281688
 30
0.0
 40
12.0
  0
POLYLINE
  5
E619E
  8
0
 66
     1
 10
0.0
 20
0.0
 30
0.0
 70
     1
  0
VERTEX
  5
E85FA
  8
0
 10
-2977.435974119249
 20
1951.036642281688
 30
0.0
  0
VERTEX
  5
E85FB
  8
0
 10
-2977.435974119249
 20
1963.036642281688
 30
0.0
  0
VERTEX
  5
E85FC
  8
0
 10
-2975.935974119249
 20
1963.036642281688
 30
0.0
  0
VERTEX
  5
E85FD
  8
0
 10
-2975.935974119249
 20
1951.036642281688
 30
0.0
  0
SEQEND
  5
E888D
  8
0
  0
POLYLINE
  5
E619F
  8
0
 66
     1
 10
0.0
 20
0.0
 30
0.0
 70
     1
  0
VERTEX
  5
E85FE
  8
0
 10
-3342.685974119244
 20
1822.289780057559
 30
0.0
  0
VERTEX
  5
E85FF
  8
0
 10
-3342.685974119244
 20
1972.036642281688
 30
0.0
  0
VERTEX
  5
E8600
  8
0
 10
-2962.685974119251
 20
1972.036642281688
 30
0.0
  0
VERTEX
  5
E8601
  8
0
 10
-2962.685974119251
 20
1822.289780057559
 30
0.0
  0
SEQEND
  5
E888E
  8
0
  0
POLYLINE
  5
E61A0
  8
0
 66
     1
 10
0.0
 20
0.0
 30
0.0
 70
     1
  0
VERTEX
  5
E8602
  8
0
 10
-3342.685974119244
 20
1671.986645339406
 30
0.0
  0
VERTEX
  5
E8603
  8
0
 10
-3342.685974119244
 20
1822.289780057559
 30
0.0
  0
VERTEX
  5
E8604
  8
0
 10
-2962.685974119251
 20
1822.289780057559
 30
0.0
  0
VERTEX
  5
E8605
  8
0
 10
-2962.685974119251
 20
1671.986645339406
 30
0.0
  0
SEQEND
  5
E888F
  8
0
  0
POLYLINE
  5
E61A1
  8
0
 66
     1
 10
0.0
 20
0.0
 30
0.0
 70
     1
  0
VERTEX
  5
E8606
  8
0
 10
-3342.685974119244
 20
1521.986645339406
 30
0.0
  0
VERTEX
  5
E8607
  8
0
 10
-3342.685974119244
 20
1671.986645339406
 30
0.0
  0
VERTEX
  5
E8608
  8
0
 10
-2962.685974119251
 20
1671.986645339406
 30
0.0
  0
VERTEX
  5
E8609
  8
0
 10
-2962.685974119251
 20
1521.986645339406
 30
0.0
  0
SEQEND
  5
E8890
  8
0
  0
POLYLINE
  5
E61A2
  8
0
 66
     1
 10
0.0
 20
0.0
 30
0.0
 70
     1
  0
VERTEX
  5
E860A
  8
0
 10
-3352.685974119246
 20
1982.036642058169
 30
0.0
  0
VERTEX
  5
E860B
  8
0
 10
-3352.685974119246
 20
1508.986645339406
 30
0.0
  0
VERTEX
  5
E860C
  8
0
 10
-2952.685974119249
 20
1508.986645339406
 30
0.0
  0
VERTEX
  5
E860D
  8
0
 10
-2952.685974119249
 20
1982.036642058169
 30
0.0
  0
SEQEND
  5
E8891
  8
0
  0
CIRCLE
  5
E61A3
  8
0
 10
-476.68597411926
 20
1957.036642281688
 30
0.0
 40
12.0
  0
POLYLINE
  5
E61A4
  8
0
 66
     1
 10
0.0
 20
0.0
 30
0.0
 70
     1
  0
VERTEX
  5
E860E
  8
0
 10
-477.435974119249
 20
1951.036642281688
 30
0.0
  0
VERTEX
  5
E860F
  8
0
 10
-477.435974119249
 20
1963.036642281688
 30
0.0
  0
VERTEX
  5
E8610
  8
0
 10
-475.9359741192493
 20
1963.036642281688
 30
0.0
  0
VERTEX
  5
E8611
  8
0
 10
-475.9359741192493
 20
1951.036642281688
 30
0.0
  0
SEQEND
  5
E8892
  8
0
  0
POLYLINE
  5
E61A5
  8
0
 66
     1
 10
0.0
 20
0.0
 30
0.0
 70
     1
  0
VERTEX
  5
E8612
  8
0
 10
-842.6859741192492
 20
1822.289780057559
 30
0.0
  0
VERTEX
  5
E8613
  8
0
 10
-842.6859741192492
 20
1972.036642281688
 30
0.0
  0
VERTEX
  5
E8614
  8
0
 10
-462.685974119249
 20
1972.036642281688
 30
0.0
  0
VERTEX
  5
E8615
  8
0
 10
-462.685974119249
 20
1822.289780057559
 30
0.0
  0
SEQEND
  5
E8893
  8
0
  0
POLYLINE
  5
E61A6
  8
0
 66
     1
 10
0.0
 20
0.0
 30
0.0
 70
     1
  0
VERTEX
  5
E8616
  8
0
 10
-842.6859741192492
 20
1671.986645339406
 30
0.0
  0
VERTEX
  5
E8617
  8
0
 10
-842.6859741192492
 20
1822.289780057559
 30
0.0
  0
VERTEX
  5
E8618
  8
0
 10
-462.685974119249
 20
1822.289780057559
 30
0.0
  0
VERTEX
  5
E8619
  8
0
 10
-462.685974119249
 20
1671.986645339406
 30
0.0
  0
SEQEND
  5
E8894
  8
0
  0
POLYLINE
  5
E61A7
  8
0
 66
     1
 10
0.0
 20
0.0
 30
0.0
 70
     1
  0
VERTEX
  5
E861A
  8
0
 10
-842.6859741192492
 20
1521.986645339406
 30
0.0
  0
VERTEX
  5
E861B
  8
0
 10
-842.6859741192492
 20
1671.986645339406
 30
0.0
  0
VERTEX
  5
E861C
  8
0
 10
-462.685974119249
 20
1671.986645339406
 30
0.0
  0
VERTEX
  5
E861D
  8
0
 10
-462.685974119249
 20
1521.986645339406
 30
0.0
  0
SEQEND
  5
E8895
  8
0
  0
POLYLINE
  5
E61A8
  8
0
 66
     1
 10
0.0
 20
0.0
 30
0.0
 70
     1
  0
VERTEX
  5
E861E
  8
0
 10
-852.6859741192492
 20
1982.036642058169
 30
0.0
  0
VERTEX
  5
E861F
  8
0
 10
-852.6859741192492
 20
1508.986645339406
 30
0.0
  0
VERTEX
  5
E8620
  8
0
 10
-452.6859741192493
 20
1508.986645339406
 30
0.0
  0
VERTEX
  5
E8621
  8
0
 10
-452.6859741192493
 20
1982.036642058169
 30
0.0
  0
SEQEND
  5
E8896
  8
0
  0
POLYLINE
  5
E61A9
  8
0
 66
     1
 10
0.0
 20
0.0
 30
0.0
 70
     1
  0
VERTEX
  5
E8622
  8
0
 10
3627.314025880751
 20
1982.036642058169
 30
0.0
  0
VERTEX
  5
E8623
  8
0
 10
3627.314025880751
 20
1508.986645339406
 30
0.0
  0
VERTEX
  5
E8624
  8
0
 10
4027.314025880751
 20
1508.986645339406
 30
0.0
  0
VERTEX
  5
E8625
  8
0
 10
4027.314025880751
 20
1982.036642058169
 30
0.0
  0
SEQEND
  5
E8897
  8
0
  0
POLYLINE
  5
E61AA
  8
0
 66
     1
 10
0.0
 20
0.0
 30
0.0
 70
     1
  0
VERTEX
  5
E8626
  8
0
 10
3637.314025880751
 20
1521.986645339406
 30
0.0
  0
VERTEX
  5
E8627
  8
0
 10
3637.314025880751
 20
1671.986645339406
 30
0.0
  0
VERTEX
  5
E8628
  8
0
 10
4017.31402588074
 20
1671.986645339406
 30
0.0
  0
VERTEX
  5
E8629
  8
0
 10
4017.31402588074
 20
1521.986645339406
 30
0.0
  0
SEQEND
  5
E8898
  8
0
  0
POLYLINE
  5
E61AB
  8
0
 66
     1
 10
0.0
 20
0.0
 30
0.0
 70
     1
  0
VERTEX
  5
E862A
  8
0
 10
3637.314025880751
 20
1671.986645339406
 30
0.0
  0
VERTEX
  5
E862B
  8
0
 10
3637.314025880751
 20
1822.289780057559
 30
0.0
  0
VERTEX
  5
E862C
  8
0
 10
4017.31402588074
 20
1822.289780057559
 30
0.0
  0
VERTEX
  5
E862D
  8
0
 10
4017.31402588074
 20
1671.986645339406
 30
0.0
  0
SEQEND
  5
E8899
  8
0
  0
POLYLINE
  5
E61AC
  8
0
 66
     1
 10
0.0
 20
0.0
 30
0.0
 70
     1
  0
VERTEX
  5
E862E
  8
0
 10
3637.314025880751
 20
1822.289780057559
 30
0.0
  0
VERTEX
  5
E862F
  8
0
 10
3637.314025880751
 20
1972.036642281688
 30
0.0
  0
VERTEX
  5
E8630
  8
0
 10
4017.31402588074
 20
1972.036642281688
 30
0.0
  0
VERTEX
  5
E8631
  8
0
 10
4017.31402588074
 20
1822.289780057559
 30
0.0
  0
SEQEND
  5
E889A
  8
0
  0
POLYLINE
  5
E61AD
  8
0
 66
     1
 10
0.0
 20
0.0
 30
0.0
 70
     1
  0
VERTEX
  5
E8632
  8
0
 10
4002.564025880749
 20
1951.036642281688
 30
0.0
  0
VERTEX
  5
E8633
  8
0
 10
4002.564025880749
 20
1963.036642281688
 30
0.0
  0
VERTEX
  5
E8634
  8
0
 10
4004.064025880749
 20
1963.036642281688
 30
0.0
  0
VERTEX
  5
E8635
  8
0
 10
4004.064025880749
 20
1951.036642281688
 30
0.0
  0
SEQEND
  5
E889B
  8
0
  0
CIRCLE
  5
E61AE
  8
0
 10
4003.314025880749
 20
1957.036642281688
 30
0.0
 40
12.0
  0
POLYLINE
  5
E61B1
  8
0
 66
     1
 10
0.0
 20
0.0
 30
0.0
 70
     1
  0
VERTEX
  5
E8636
  8
0
 10
2037.314025880751
 20
1822.289780057457
 30
0.0
  0
VERTEX
  5
E8637
  8
0
 10
2037.314025880751
 20
1972.036642281586
 30
0.0
  0
VERTEX
  5
E8638
  8
0
 10
1657.31402588075
 20
1972.036642281586
 30
0.0
  0
VERTEX
  5
E8639
  8
0
 10
1657.31402588075
 20
1822.289780057457
 30
0.0
  0
SEQEND
  5
E889C
  8
0
  0
POLYLINE
  5
E61B2
  8
0
 66
     1
 10
0.0
 20
0.0
 30
0.0
 70
     1
  0
VERTEX
  5
E863A
  8
0
 10
2037.314025880751
 20
1671.986645339304
 30
0.0
  0
VERTEX
  5
E863B
  8
0
 10
2037.314025880751
 20
1822.289780057457
 30
0.0
  0
VERTEX
  5
E863C
  8
0
 10
1657.31402588075
 20
1822.289780057457
 30
0.0
  0
VERTEX
  5
E863D
  8
0
 10
1657.31402588075
 20
1671.986645339304
 30
0.0
  0
SEQEND
  5
E889D
  8
0
  0
POLYLINE
  5
E61B3
  8
0
 66
     1
 10
0.0
 20
0.0
 30
0.0
 70
     1
  0
VERTEX
  5
E863E
  8
0
 10
2037.314025880751
 20
1521.986645339304
 30
0.0
  0
VERTEX
  5
E863F
  8
0
 10
2037.314025880751
 20
1671.986645339304
 30
0.0
  0
VERTEX
  5
E8640
  8
0
 10
1657.31402588075
 20
1671.986645339304
 30
0.0
  0
VERTEX
  5
E8641
  8
0
 10
1657.31402588075
 20
1521.986645339304
 30
0.0
  0
SEQEND
  5
E889E
  8
0
  0
POLYLINE
  5
E61B4
  8
0
 66
     1
 10
0.0
 20
0.0
 30
0.0
 70
     1
  0
VERTEX
  5
E8642
  8
0
 10
2047.314025880751
 20
1982.036642058069
 30
0.0
  0
VERTEX
  5
E8643
  8
0
 10
2047.314025880751
 20
1508.986645339304
 30
0.0
  0
VERTEX
  5
E8644
  8
0
 10
1647.314025880751
 20
1508.986645339304
 30
0.0
  0
VERTEX
  5
E8645
  8
0
 10
1647.314025880751
 20
1982.036642058069
 30
0.0
  0
SEQEND
  5
E889F
  8
0
  0
CIRCLE
  5
E61B5
  8
0
 10
6003.314025880751
 20
1957.036642281688
 30
0.0
 40
12.0
  0
POLYLINE
  5
E61B6
  8
0
 66
     1
 10
0.0
 20
0.0
 30
0.0
 70
     1
  0
VERTEX
  5
E8646
  8
0
 10
6002.564025880751
 20
1951.036642281688
 30
0.0
  0
VERTEX
  5
E8647
  8
0
 10
6002.564025880751
 20
1963.036642281688
 30
0.0
  0
VERTEX
  5
E8648
  8
0
 10
6004.064025880751
 20
1963.036642281688
 30
0.0
  0
VERTEX
  5
E8649
  8
0
 10
6004.064025880751
 20
1951.036642281688
 30
0.0
  0
SEQEND
  5
E88A0
  8
0
  0
POLYLINE
  5
E61B7
  8
0
 66
     1
 10
0.0
 20
0.0
 30
0.0
 70
     1
  0
VERTEX
  5
E864A
  8
0
 10
5637.314025880751
 20
1819.03664205817
 30
0.0
  0
VERTEX
  5
E864B
  8
0
 10
5637.314025880751
 20
1969.03664205817
 30
0.0
  0
VERTEX
  5
E864C
  8
0
 10
6017.31402588075
 20
1969.03664205817
 30
0.0
  0
VERTEX
  5
E864D
  8
0
 10
6017.31402588075
 20
1819.03664205817
 30
0.0
  0
SEQEND
  5
E88A1
  8
0
  0
POLYLINE
  5
E61B8
  8
0
 66
     1
 10
0.0
 20
0.0
 30
0.0
 70
     1
  0
VERTEX
  5
E864E
  8
0
 10
5627.314025880751
 20
1982.036642058169
 30
0.0
  0
VERTEX
  5
E864F
  8
0
 10
5627.314025880751
 20
1806.036642058169
 30
0.0
  0
VERTEX
  5
E8650
  8
0
 10
6027.314025880751
 20
1806.036642058169
 30
0.0
  0
VERTEX
  5
E8651
  8
0
 10
6027.314025880751
 20
1982.036642058169
 30
0.0
  0
SEQEND
  5
E88A2
  8
0
  0
POLYLINE
  5
E61C0
  8
0
 66
     1
 10
0.0
 20
0.0
 30
0.0
 70
     1
  0
VERTEX
  5
E8652
  8
0
 10
-912.6859741192495
 20
1982.036642058345
 30
0.0
  0
VERTEX
  5
E8653
  8
0
 10
-912.6859741192495
 20
2040.036642058345
 30
0.0
  0
VERTEX
  5
E8654
  8
0
 10
1087.31402588075
 20
2040.036642058257
 30
0.0
  0
VERTEX
  5
E8655
  8
0
 10
1087.31402588075
 20
1982.036642058258
 30
0.0
  0
SEQEND
  5
E88A3
  8
0
  0
POLYLINE
  5
E61C1
  8
0
 66
     1
 10
0.0
 20
0.0
 30
0.0
 70
     1
  0
VERTEX
  5
E8656
  8
0
 10
1027.31402588075
 20
1180.036642058345
 30
0.0
  0
VERTEX
  5
E8657
  8
0
 10
1027.31402588075
 20
1982.036642058169
 30
0.0
  0
VERTEX
  5
E8658
  8
0
 10
1087.31402588075
 20
1982.036642058169
 30
0.0
  0
VERTEX
  5
E8659
  8
0
 10
1087.31402588075
 20
1180.036642058345
 30
0.0
  0
SEQEND
  5
E88A4
  8
0
  0
POLYLINE
  5
E61C2
  8
0
 66
     1
 10
0.0
 20
0.0
 30
0.0
 70
     1
  0
VERTEX
  5
E865A
  8
0
 10
-852.6859741192492
 20
1180.036642058345
 30
0.0
  0
VERTEX
  5
E865B
  8
0
 10
-852.6859741192492
 20
1982.036642058169
 30
0.0
  0
VERTEX
  5
E865C
  8
0
 10
-912.6859741192495
 20
1982.036642058169
 30
0.0
  0
VERTEX
  5
E865D
  8
0
 10
-912.6859741192495
 20
1180.036642058345
 30
0.0
  0
SEQEND
  5
E88A5
  8
0
  0
POLYLINE
  5
E61C3
  8
0
 66
     1
 10
0.0
 20
0.0
 30
0.0
 70
     1
  0
VERTEX
  5
E865E
  8
0
 10
-852.6859741192492
 20
1335.036642058345
 30
0.0
  0
VERTEX
  5
E865F
  8
0
 10
-852.6859741192492
 20
1375.036642058345
 30
0.0
  0
VERTEX
  5
E8660
  8
0
 10
1027.31402588075
 20
1375.036642058258
 30
0.0
  0
VERTEX
  5
E8661
  8
0
 10
1027.31402588075
 20
1335.036642058345
 30
0.0
  0
SEQEND
  5
E88A6
  8
0
  0
POLYLINE
  5
E61C4
  8
0
 66
     1
 10
0.0
 20
0.0
 30
0.0
 70
     1
  0
VERTEX
  5
E8662
  8
0
 10
-912.6859741192495
 20
2040.036642058345
 30
0.0
  0
VERTEX
  5
E8663
  8
0
 10
-912.6859741192495
 20
2070.036642058345
 30
0.0
 42
-0.4142135623731081
  0
VERTEX
  5
E8664
  8
0
 10
-892.6859741192492
 20
2090.036642058345
 30
0.0
  0
VERTEX
  5
E8665
  8
0
 10
1067.31402588075
 20
2090.036642058258
 30
0.0
 42
-0.4142135623730824
  0
VERTEX
  5
E8666
  8
0
 10
1087.31402588075
 20
2070.036642058258
 30
0.0
  0
VERTEX
  5
E8667
  8
0
 10
1087.31402588075
 20
2040.036642058257
 30
0.0
  0
SEQEND
  5
E88A7
  8
0
  0
CIRCLE
  5
E61C5
  8
0
 10
1069.31402588075
 20
2011.036642058257
 30
0.0
 40
9.0
  0
CIRCLE
  5
E61C6
  8
0
 10
1069.31402588075
 20
2011.036642058257
 30
0.0
 40
3.611593896290287
  0
CIRCLE
  5
E61C7
  8
0
 10
1036.31402588075
 20
2011.036642058257
 30
0.0
 40
9.0
  0
CIRCLE
  5
E61C8
  8
0
 10
1036.31402588075
 20
2011.036642058257
 30
0.0
 40
3.611593896290287
  0
CIRCLE
  5
E61C9
  8
0
 10
-894.6859741192495
 20
2011.036642058257
 30
0.0
 40
9.0
  0
CIRCLE
  5
E61CA
  8
0
 10
-894.6859741192495
 20
2011.036642058257
 30
0.0
 40
3.611593896290287
  0
CIRCLE
  5
E61CB
  8
0
 10
-861.6859741192495
 20
2011.036642058257
 30
0.0
 40
3.611593896290287
  0
CIRCLE
  5
E61CC
  8
0
 10
-861.6859741192495
 20
2011.036642058257
 30
0.0
 40
9.0
  0
POLYLINE
  5
E61CD
  8
0
 66
     1
 10
0.0
 20
0.0
 30
0.0
 70
     1
  0
VERTEX
  5
E8668
  8
0
 10
-852.6859741192492
 20
1982.036642058169
 30
0.0
  0
VERTEX
  5
E8669
  8
0
 10
-852.6859741192492
 20
1375.036642058258
 30
0.0
  0
VERTEX
  5
E866A
  8
0
 10
1027.31402588075
 20
1375.036642058258
 30
0.0
  0
VERTEX
  5
E866B
  8
0
 10
1027.31402588075
 20
1982.036642058169
 30
0.0
  0
SEQEND
  5
E88A8
  8
0
  0
POLYLINE
  5
E61CE
  8
0
 66
     1
 10
0.0
 20
0.0
 30
0.0
 70
     1
  0
VERTEX
  5
E866C
  8
0
 10
1647.314025880751
 20
1982.036642058169
 30
0.0
  0
VERTEX
  5
E866D
  8
0
 10
1647.314025880751
 20
1375.036642058258
 30
0.0
  0
VERTEX
  5
E866E
  8
0
 10
4027.314025880751
 20
1375.036642058258
 30
0.0
  0
VERTEX
  5
E866F
  8
0
 10
4027.314025880751
 20
1982.036642058169
 30
0.0
  0
SEQEND
  5
E88A9
  8
0
  0
CIRCLE
  5
E61CF
  8
0
 10
1638.314025880751
 20
2011.036642058257
 30
0.0
 40
9.0
  0
CIRCLE
  5
E61D0
  8
0
 10
1638.314025880751
 20
2011.036642058257
 30
0.0
 40
3.611593896290287
  0
CIRCLE
  5
E61D1
  8
0
 10
1605.31402588075
 20
2011.036642058257
 30
0.0
 40
3.611593896290287
  0
CIRCLE
  5
E61D2
  8
0
 10
1605.31402588075
 20
2011.036642058257
 30
0.0
 40
9.0
  0
CIRCLE
  5
E61D3
  8
0
 10
4036.314025880749
 20
2011.036642058257
 30
0.0
 40
3.611593896290287
  0
CIRCLE
  5
E61D4
  8
0
 10
4036.314025880749
 20
2011.036642058257
 30
0.0
 40
9.0
  0
CIRCLE
  5
E61D5
  8
0
 10
4069.314025880751
 20
2011.036642058257
 30
0.0
 40
3.611593896290287
  0
CIRCLE
  5
E61D6
  8
0
 10
4069.314025880751
 20
2011.036642058257
 30
0.0
 40
9.0
  0
POLYLINE
  5
E61D7
  8
0
 66
     1
 10
0.0
 20
0.0
 30
0.0
 70
     1
  0
VERTEX
  5
E8670
  8
0
 10
1647.314025880751
 20
1335.036642058345
 30
0.0
  0
VERTEX
  5
E8671
  8
0
 10
1647.314025880751
 20
1375.036642058345
 30
0.0
  0
VERTEX
  5
E8672
  8
0
 10
4027.314025880751
 20
1375.036642058258
 30
0.0
  0
VERTEX
  5
E8673
  8
0
 10
4027.314025880751
 20
1335.036642058345
 30
0.0
  0
SEQEND
  5
E88AA
  8
0
  0
POLYLINE
  5
E61D8
  8
0
 66
     1
 10
0.0
 20
0.0
 30
0.0
 70
     1
  0
VERTEX
  5
E8674
  8
0
 10
1647.314025880751
 20
1180.036642058345
 30
0.0
  0
VERTEX
  5
E8675
  8
0
 10
1647.314025880751
 20
1982.036642058169
 30
0.0
  0
VERTEX
  5
E8676
  8
0
 10
1587.314025880751
 20
1982.036642058169
 30
0.0
  0
VERTEX
  5
E8677
  8
0
 10
1587.314025880751
 20
1180.036642058345
 30
0.0
  0
SEQEND
  5
E88AB
  8
0
  0
POLYLINE
  5
E61D9
  8
0
 66
     1
 10
0.0
 20
0.0
 30
0.0
 70
     1
  0
VERTEX
  5
E8678
  8
0
 10
4027.314025880751
 20
1180.036642058345
 30
0.0
  0
VERTEX
  5
E8679
  8
0
 10
4027.314025880751
 20
1982.036642058169
 30
0.0
  0
VERTEX
  5
E867A
  8
0
 10
4087.31402588075
 20
1982.036642058169
 30
0.0
  0
VERTEX
  5
E867B
  8
0
 10
4087.31402588075
 20
1180.036642058345
 30
0.0
  0
SEQEND
  5
E88AC
  8
0
  0
POLYLINE
  5
E61DA
  8
0
 66
     1
 10
0.0
 20
0.0
 30
0.0
 70
     1
  0
VERTEX
  5
E867C
  8
0
 10
1587.314025880751
 20
1982.036642058345
 30
0.0
  0
VERTEX
  5
E867D
  8
0
 10
1587.314025880751
 20
2040.036642058345
 30
0.0
  0
VERTEX
  5
E867E
  8
0
 10
4087.31402588075
 20
2040.036642058257
 30
0.0
  0
VERTEX
  5
E867F
  8
0
 10
4087.31402588075
 20
1982.036642058258
 30
0.0
  0
SEQEND
  5
E88AD
  8
0
  0
POLYLINE
  5
E61DB
  8
0
 66
     1
 10
0.0
 20
0.0
 30
0.0
 70
     1
  0
VERTEX
  5
E8680
  8
0
 10
4587.31402588075
 20
1982.036642058345
 30
0.0
  0
VERTEX
  5
E8681
  8
0
 10
4587.31402588075
 20
2040.036642058345
 30
0.0
  0
VERTEX
  5
E8682
  8
0
 10
6087.31402588075
 20
2040.036642058257
 30
0.0
  0
VERTEX
  5
E8683
  8
0
 10
6087.31402588075
 20
1982.036642058258
 30
0.0
  0
SEQEND
  5
E88AE
  8
0
  0
POLYLINE
  5
E61DC
  8
0
 66
     1
 10
0.0
 20
0.0
 30
0.0
 70
     1
  0
VERTEX
  5
E8684
  8
0
 10
6027.314025880751
 20
1180.036642058345
 30
0.0
  0
VERTEX
  5
E8685
  8
0
 10
6027.314025880751
 20
1982.036642058169
 30
0.0
  0
VERTEX
  5
E8686
  8
0
 10
6087.31402588075
 20
1982.036642058169
 30
0.0
  0
VERTEX
  5
E8687
  8
0
 10
6087.31402588075
 20
1180.036642058345
 30
0.0
  0
SEQEND
  5
E88AF
  8
0
  0
POLYLINE
  5
E61DD
  8
0
 66
     1
 10
0.0
 20
0.0
 30
0.0
 70
     1
  0
VERTEX
  5
E8688
  8
0
 10
4647.314025880751
 20
1180.036642058345
 30
0.0
  0
VERTEX
  5
E8689
  8
0
 10
4647.314025880751
 20
1982.036642058169
 30
0.0
  0
VERTEX
  5
E868A
  8
0
 10
4587.31402588075
 20
1982.036642058169
 30
0.0
  0
VERTEX
  5
E868B
  8
0
 10
4587.31402588075
 20
1180.036642058345
 30
0.0
  0
SEQEND
  5
E88B0
  8
0
  0
POLYLINE
  5
E61DE
  8
0
 66
     1
 10
0.0
 20
0.0
 30
0.0
 70
     1
  0
VERTEX
  5
E868C
  8
0
 10
4647.314025880751
 20
1335.036642058345
 30
0.0
  0
VERTEX
  5
E868D
  8
0
 10
4647.314025880751
 20
1375.036642058345
 30
0.0
  0
VERTEX
  5
E868E
  8
0
 10
6027.314025880751
 20
1375.036642058258
 30
0.0
  0
VERTEX
  5
E868F
  8
0
 10
6027.314025880751
 20
1335.036642058345
 30
0.0
  0
SEQEND
  5
E88B1
  8
0
  0
CIRCLE
  5
E61DF
  8
0
 10
6069.314025880751
 20
2011.036642058257
 30
0.0
 40
9.0
  0
CIRCLE
  5
E61E0
  8
0
 10
6069.314025880751
 20
2011.036642058257
 30
0.0
 40
3.611593896290287
  0
CIRCLE
  5
E61E1
  8
0
 10
6036.314025880749
 20
2011.036642058257
 30
0.0
 40
9.0
  0
CIRCLE
  5
E61E2
  8
0
 10
6036.314025880749
 20
2011.036642058257
 30
0.0
 40
3.611593896290287
  0
CIRCLE
  5
E61E3
  8
0
 10
4605.314025880749
 20
2011.036642058257
 30
0.0
 40
9.0
  0
CIRCLE
  5
E61E4
  8
0
 10
4605.314025880749
 20
2011.036642058257
 30
0.0
 40
3.611593896290287
  0
CIRCLE
  5
E61E5
  8
0
 10
4638.314025880751
 20
2011.036642058257
 30
0.0
 40
3.611593896290287
  0
CIRCLE
  5
E61E6
  8
0
 10
4638.314025880751
 20
2011.036642058257
 30
0.0
 40
9.0
  0
POLYLINE
  5
E61E7
  8
0
 66
     1
 10
0.0
 20
0.0
 30
0.0
 70
     1
  0
VERTEX
  5
E8690
  8
0
 10
4647.314025880751
 20
1982.036642058169
 30
0.0
  0
VERTEX
  5
E8691
  8
0
 10
4647.314025880751
 20
1375.036642058258
 30
0.0
  0
VERTEX
  5
E8692
  8
0
 10
6027.314025880751
 20
1375.036642058258
 30
0.0
  0
VERTEX
  5
E8693
  8
0
 10
6027.314025880751
 20
1982.036642058169
 30
0.0
  0
SEQEND
  5
E88B2
  8
0
  0
POLYLINE
  5
E61E8
  8
0
 66
     1
 10
0.0
 20
0.0
 30
0.0
 70
     1
  0
VERTEX
  5
E8694
  8
0
 10
-3352.685974119246
 20
1982.036642058169
 30
0.0
  0
VERTEX
  5
E8695
  8
0
 10
-3352.685974119246
 20
1375.036642058258
 30
0.0
  0
VERTEX
  5
E8696
  8
0
 10
-1472.685974119249
 20
1375.036642058258
 30
0.0
  0
VERTEX
  5
E8697
  8
0
 10
-1472.685974119249
 20
1982.036642058169
 30
0.0
  0
SEQEND
  5
E88B3
  8
0
  0
CIRCLE
  5
E61E9
  8
0
 10
-3361.685974119244
 20
2011.036642058257
 30
0.0
 40
9.0
  0
CIRCLE
  5
E61EA
  8
0
 10
-3361.685974119244
 20
2011.036642058257
 30
0.0
 40
3.611593896290287
  0
CIRCLE
  5
E61EB
  8
0
 10
-3394.685974119246
 20
2011.036642058257
 30
0.0
 40
3.611593896290287
  0
CIRCLE
  5
E61EC
  8
0
 10
-3394.685974119246
 20
2011.036642058257
 30
0.0
 40
9.0
  0
CIRCLE
  5
E61ED
  8
0
 10
-1463.685974119249
 20
2011.036642058257
 30
0.0
 40
3.611593896290287
  0
CIRCLE
  5
E61EE
  8
0
 10
-1463.685974119249
 20
2011.036642058257
 30
0.0
 40
9.0
  0
CIRCLE
  5
E61EF
  8
0
 10
-1430.685974119249
 20
2011.036642058257
 30
0.0
 40
3.611593896290287
  0
CIRCLE
  5
E61F0
  8
0
 10
-1430.685974119249
 20
2011.036642058257
 30
0.0
 40
9.0
  0
POLYLINE
  5
E61F1
  8
0
 66
     1
 10
0.0
 20
0.0
 30
0.0
 70
     1
  0
VERTEX
  5
E8698
  8
0
 10
-3352.685974119246
 20
1335.036642058345
 30
0.0
  0
VERTEX
  5
E8699
  8
0
 10
-3352.685974119246
 20
1375.036642058345
 30
0.0
  0
VERTEX
  5
E869A
  8
0
 10
-1472.685974119249
 20
1375.036642058258
 30
0.0
  0
VERTEX
  5
E869B
  8
0
 10
-1472.685974119249
 20
1335.036642058345
 30
0.0
  0
SEQEND
  5
E88B4
  8
0
  0
POLYLINE
  5
E61F2
  8
0
 66
     1
 10
0.0
 20
0.0
 30
0.0
 70
     1
  0
VERTEX
  5
E869C
  8
0
 10
-3352.685974119246
 20
1180.036642058345
 30
0.0
  0
VERTEX
  5
E869D
  8
0
 10
-3352.685974119246
 20
1982.036642058169
 30
0.0
  0
VERTEX
  5
E869E
  8
0
 10
-3412.685974119249
 20
1982.036642058169
 30
0.0
  0
VERTEX
  5
E869F
  8
0
 10
-3412.685974119249
 20
1180.036642058345
 30
0.0
  0
SEQEND
  5
E88B5
  8
0
  0
POLYLINE
  5
E61F3
  8
0
 66
     1
 10
0.0
 20
0.0
 30
0.0
 70
     1
  0
VERTEX
  5
E86A0
  8
0
 10
-1472.685974119249
 20
1180.036642058345
 30
0.0
  0
VERTEX
  5
E86A1
  8
0
 10
-1472.685974119249
 20
1982.036642058169
 30
0.0
  0
VERTEX
  5
E86A2
  8
0
 10
-1412.685974119249
 20
1982.036642058169
 30
0.0
  0
VERTEX
  5
E86A3
  8
0
 10
-1412.685974119249
 20
1180.036642058345
 30
0.0
  0
SEQEND
  5
E88B6
  8
0
  0
POLYLINE
  5
E61F4
  8
0
 66
     1
 10
0.0
 20
0.0
 30
0.0
 70
     1
  0
VERTEX
  5
E86A4
  8
0
 10
-3412.685974119249
 20
1982.036642058345
 30
0.0
  0
VERTEX
  5
E86A5
  8
0
 10
-3412.685974119249
 20
2040.036642058345
 30
0.0
  0
VERTEX
  5
E86A6
  8
0
 10
-1412.685974119249
 20
2040.036642058257
 30
0.0
  0
VERTEX
  5
E86A7
  8
0
 10
-1412.685974119249
 20
1982.036642058258
 30
0.0
  0
SEQEND
  5
E88B7
  8
0
  0
CIRCLE
  5
E61F5
  8
0
 10
-2976.685974119249
 20
1957.036642281688
 30
0.0
 40
12.0
  0
POLYLINE
  5
E61F6
  8
0
 66
     1
 10
0.0
 20
0.0
 30
0.0
 70
     1
  0
VERTEX
  5
E86A8
  8
0
 10
-2977.435974119249
 20
1951.036642281688
 30
0.0
  0
VERTEX
  5
E86A9
  8
0
 10
-2977.435974119249
 20
1963.036642281688
 30
0.0
  0
VERTEX
  5
E86AA
  8
0
 10
-2975.935974119249
 20
1963.036642281688
 30
0.0
  0
VERTEX
  5
E86AB
  8
0
 10
-2975.935974119249
 20
1951.036642281688
 30
0.0
  0
SEQEND
  5
E88B8
  8
0
  0
POLYLINE
  5
E61F7
  8
0
 66
     1
 10
0.0
 20
0.0
 30
0.0
 70
     1
  0
VERTEX
  5
E86AC
  8
0
 10
-3342.685974119244
 20
1822.289780057559
 30
0.0
  0
VERTEX
  5
E86AD
  8
0
 10
-3342.685974119244
 20
1972.036642281688
 30
0.0
  0
VERTEX
  5
E86AE
  8
0
 10
-2962.685974119251
 20
1972.036642281688
 30
0.0
  0
VERTEX
  5
E86AF
  8
0
 10
-2962.685974119251
 20
1822.289780057559
 30
0.0
  0
SEQEND
  5
E88B9
  8
0
  0
POLYLINE
  5
E61F8
  8
0
 66
     1
 10
0.0
 20
0.0
 30
0.0
 70
     1
  0
VERTEX
  5
E86B0
  8
0
 10
-3342.685974119244
 20
1671.986645339406
 30
0.0
  0
VERTEX
  5
E86B1
  8
0
 10
-3342.685974119244
 20
1822.289780057559
 30
0.0
  0
VERTEX
  5
E86B2
  8
0
 10
-2962.685974119251
 20
1822.289780057559
 30
0.0
  0
VERTEX
  5
E86B3
  8
0
 10
-2962.685974119251
 20
1671.986645339406
 30
0.0
  0
SEQEND
  5
E88BA
  8
0
  0
POLYLINE
  5
E61F9
  8
0
 66
     1
 10
0.0
 20
0.0
 30
0.0
 70
     1
  0
VERTEX
  5
E86B4
  8
0
 10
-3342.685974119244
 20
1521.986645339406
 30
0.0
  0
VERTEX
  5
E86B5
  8
0
 10
-3342.685974119244
 20
1671.986645339406
 30
0.0
  0
VERTEX
  5
E86B6
  8
0
 10
-2962.685974119251
 20
1671.986645339406
 30
0.0
  0
VERTEX
  5
E86B7
  8
0
 10
-2962.685974119251
 20
1521.986645339406
 30
0.0
  0
SEQEND
  5
E88BB
  8
0
  0
POLYLINE
  5
E61FA
  8
0
 66
     1
 10
0.0
 20
0.0
 30
0.0
 70
     1
  0
VERTEX
  5
E86B8
  8
0
 10
-3352.685974119246
 20
1982.036642058169
 30
0.0
  0
VERTEX
  5
E86B9
  8
0
 10
-3352.685974119246
 20
1508.986645339406
 30
0.0
  0
VERTEX
  5
E86BA
  8
0
 10
-2952.685974119249
 20
1508.986645339406
 30
0.0
  0
VERTEX
  5
E86BB
  8
0
 10
-2952.685974119249
 20
1982.036642058169
 30
0.0
  0
SEQEND
  5
E88BC
  8
0
  0
CIRCLE
  5
E61FB
  8
0
 10
-476.68597411926
 20
1957.036642281688
 30
0.0
 40
12.0
  0
POLYLINE
  5
E61FC
  8
0
 66
     1
 10
0.0
 20
0.0
 30
0.0
 70
     1
  0
VERTEX
  5
E86BC
  8
0
 10
-477.435974119249
 20
1951.036642281688
 30
0.0
  0
VERTEX
  5
E86BD
  8
0
 10
-477.435974119249
 20
1963.036642281688
 30
0.0
  0
VERTEX
  5
E86BE
  8
0
 10
-475.9359741192493
 20
1963.036642281688
 30
0.0
  0
VERTEX
  5
E86BF
  8
0
 10
-475.9359741192493
 20
1951.036642281688
 30
0.0
  0
SEQEND
  5
E88BD
  8
0
  0
POLYLINE
  5
E61FD
  8
0
 66
     1
 10
0.0
 20
0.0
 30
0.0
 70
     1
  0
VERTEX
  5
E86C0
  8
0
 10
-842.6859741192492
 20
1822.289780057559
 30
0.0
  0
VERTEX
  5
E86C1
  8
0
 10
-842.6859741192492
 20
1972.036642281688
 30
0.0
  0
VERTEX
  5
E86C2
  8
0
 10
-462.685974119249
 20
1972.036642281688
 30
0.0
  0
VERTEX
  5
E86C3
  8
0
 10
-462.685974119249
 20
1822.289780057559
 30
0.0
  0
SEQEND
  5
E88BE
  8
0
  0
POLYLINE
  5
E61FE
  8
0
 66
     1
 10
0.0
 20
0.0
 30
0.0
 70
     1
  0
VERTEX
  5
E86C4
  8
0
 10
-842.6859741192492
 20
1671.986645339406
 30
0.0
  0
VERTEX
  5
E86C5
  8
0
 10
-842.6859741192492
 20
1822.289780057559
 30
0.0
  0
VERTEX
  5
E86C6
  8
0
 10
-462.685974119249
 20
1822.289780057559
 30
0.0
  0
VERTEX
  5
E86C7
  8
0
 10
-462.685974119249
 20
1671.986645339406
 30
0.0
  0
SEQEND
  5
E88BF
  8
0
  0
POLYLINE
  5
E61FF
  8
0
 66
     1
 10
0.0
 20
0.0
 30
0.0
 70
     1
  0
VERTEX
  5
E86C8
  8
0
 10
-842.6859741192492
 20
1521.986645339406
 30
0.0
  0
VERTEX
  5
E86C9
  8
0
 10
-842.6859741192492
 20
1671.986645339406
 30
0.0
  0
VERTEX
  5
E86CA
  8
0
 10
-462.685974119249
 20
1671.986645339406
 30
0.0
  0
VERTEX
  5
E86CB
  8
0
 10
-462.685974119249
 20
1521.986645339406
 30
0.0
  0
SEQEND
  5
E88C0
  8
0
  0
POLYLINE
  5
E6200
  8
0
 66
     1
 10
0.0
 20
0.0
 30
0.0
 70
     1
  0
VERTEX
  5
E86CC
  8
0
 10
-852.6859741192492
 20
1982.036642058169
 30
0.0
  0
VERTEX
  5
E86CD
  8
0
 10
-852.6859741192492
 20
1508.986645339406
 30
0.0
  0
VERTEX
  5
E86CE
  8
0
 10
-452.6859741192493
 20
1508.986645339406
 30
0.0
  0
VERTEX
  5
E86CF
  8
0
 10
-452.6859741192493
 20
1982.036642058169
 30
0.0
  0
SEQEND
  5
E88C1
  8
0
  0
POLYLINE
  5
E6201
  8
0
 66
     1
 10
0.0
 20
0.0
 30
0.0
 70
     1
  0
VERTEX
  5
E86D0
  8
0
 10
3627.314025880751
 20
1982.036642058169
 30
0.0
  0
VERTEX
  5
E86D1
  8
0
 10
3627.314025880751
 20
1508.986645339406
 30
0.0
  0
VERTEX
  5
E86D2
  8
0
 10
4027.314025880751
 20
1508.986645339406
 30
0.0
  0
VERTEX
  5
E86D3
  8
0
 10
4027.314025880751
 20
1982.036642058169
 30
0.0
  0
SEQEND
  5
E88C2
  8
0
  0
POLYLINE
  5
E6202
  8
0
 66
     1
 10
0.0
 20
0.0
 30
0.0
 70
     1
  0
VERTEX
  5
E86D4
  8
0
 10
3637.314025880751
 20
1521.986645339406
 30
0.0
  0
VERTEX
  5
E86D5
  8
0
 10
3637.314025880751
 20
1671.986645339406
 30
0.0
  0
VERTEX
  5
E86D6
  8
0
 10
4017.31402588074
 20
1671.986645339406
 30
0.0
  0
VERTEX
  5
E86D7
  8
0
 10
4017.31402588074
 20
1521.986645339406
 30
0.0
  0
SEQEND
  5
E88C3
  8
0
  0
POLYLINE
  5
E6203
  8
0
 66
     1
 10
0.0
 20
0.0
 30
0.0
 70
     1
  0
VERTEX
  5
E86D8
  8
0
 10
3637.314025880751
 20
1671.986645339406
 30
0.0
  0
VERTEX
  5
E86D9
  8
0
 10
3637.314025880751
 20
1822.289780057559
 30
0.0
  0
VERTEX
  5
E86DA
  8
0
 10
4017.31402588074
 20
1822.289780057559
 30
0.0
  0
VERTEX
  5
E86DB
  8
0
 10
4017.31402588074
 20
1671.986645339406
 30
0.0
  0
SEQEND
  5
E88C4
  8
0
  0
POLYLINE
  5
E6204
  8
0
 66
     1
 10
0.0
 20
0.0
 30
0.0
 70
     1
  0
VERTEX
  5
E86DC
  8
0
 10
3637.314025880751
 20
1822.289780057559
 30
0.0
  0
VERTEX
  5
E86DD
  8
0
 10
3637.314025880751
 20
1972.036642281688
 30
0.0
  0
VERTEX
  5
E86DE
  8
0
 10
4017.31402588074
 20
1972.036642281688
 30
0.0
  0
VERTEX
  5
E86DF
  8
0
 10
4017.31402588074
 20
1822.289780057559
 30
0.0
  0
SEQEND
  5
E88C5
  8
0
  0
POLYLINE
  5
E6205
  8
0
 66
     1
 10
0.0
 20
0.0
 30
0.0
 70
     1
  0
VERTEX
  5
E86E0
  8
0
 10
4002.564025880749
 20
1951.036642281688
 30
0.0
  0
VERTEX
  5
E86E1
  8
0
 10
4002.564025880749
 20
1963.036642281688
 30
0.0
  0
VERTEX
  5
E86E2
  8
0
 10
4004.064025880749
 20
1963.036642281688
 30
0.0
  0
VERTEX
  5
E86E3
  8
0
 10
4004.064025880749
 20
1951.036642281688
 30
0.0
  0
SEQEND
  5
E88C6
  8
0
  0
CIRCLE
  5
E6206
  8
0
 10
4003.314025880749
 20
1957.036642281688
 30
0.0
 40
12.0
  0
POLYLINE
  5
E6209
  8
0
 66
     1
 10
0.0
 20
0.0
 30
0.0
 70
     1
  0
VERTEX
  5
E86E4
  8
0
 10
2037.314025880751
 20
1822.289780057457
 30
0.0
  0
VERTEX
  5
E86E5
  8
0
 10
2037.314025880751
 20
1972.036642281586
 30
0.0
  0
VERTEX
  5
E86E6
  8
0
 10
1657.31402588075
 20
1972.036642281586
 30
0.0
  0
VERTEX
  5
E86E7
  8
0
 10
1657.31402588075
 20
1822.289780057457
 30
0.0
  0
SEQEND
  5
E88C7
  8
0
  0
POLYLINE
  5
E620A
  8
0
 66
     1
 10
0.0
 20
0.0
 30
0.0
 70
     1
  0
VERTEX
  5
E86E8
  8
0
 10
2037.314025880751
 20
1671.986645339304
 30
0.0
  0
VERTEX
  5
E86E9
  8
0
 10
2037.314025880751
 20
1822.289780057457
 30
0.0
  0
VERTEX
  5
E86EA
  8
0
 10
1657.31402588075
 20
1822.289780057457
 30
0.0
  0
VERTEX
  5
E86EB
  8
0
 10
1657.31402588075
 20
1671.986645339304
 30
0.0
  0
SEQEND
  5
E88C8
  8
0
  0
POLYLINE
  5
E620B
  8
0
 66
     1
 10
0.0
 20
0.0
 30
0.0
 70
     1
  0
VERTEX
  5
E86EC
  8
0
 10
2037.314025880751
 20
1521.986645339304
 30
0.0
  0
VERTEX
  5
E86ED
  8
0
 10
2037.314025880751
 20
1671.986645339304
 30
0.0
  0
VERTEX
  5
E86EE
  8
0
 10
1657.31402588075
 20
1671.986645339304
 30
0.0
  0
VERTEX
  5
E86EF
  8
0
 10
1657.31402588075
 20
1521.986645339304
 30
0.0
  0
SEQEND
  5
E88C9
  8
0
  0
POLYLINE
  5
E620C
  8
0
 66
     1
 10
0.0
 20
0.0
 30
0.0
 70
     1
  0
VERTEX
  5
E86F0
  8
0
 10
2047.314025880751
 20
1982.036642058069
 30
0.0
  0
VERTEX
  5
E86F1
  8
0
 10
2047.314025880751
 20
1508.986645339304
 30
0.0
  0
VERTEX
  5
E86F2
  8
0
 10
1647.314025880751
 20
1508.986645339304
 30
0.0
  0
VERTEX
  5
E86F3
  8
0
 10
1647.314025880751
 20
1982.036642058069
 30
0.0
  0
SEQEND
  5
E88CA
  8
0
  0
CIRCLE
  5
E620D
  8
0
 10
6003.314025880751
 20
1957.036642281688
 30
0.0
 40
12.0
  0
POLYLINE
  5
E620E
  8
0
 66
     1
 10
0.0
 20
0.0
 30
0.0
 70
     1
  0
VERTEX
  5
E86F4
  8
0
 10
6002.564025880751
 20
1951.036642281688
 30
0.0
  0
VERTEX
  5
E86F5
  8
0
 10
6002.564025880751
 20
1963.036642281688
 30
0.0
  0
VERTEX
  5
E86F6
  8
0
 10
6004.064025880751
 20
1963.036642281688
 30
0.0
  0
VERTEX
  5
E86F7
  8
0
 10
6004.064025880751
 20
1951.036642281688
 30
0.0
  0
SEQEND
  5
E88CB
  8
0
  0
POLYLINE
  5
E620F
  8
0
 66
     1
 10
0.0
 20
0.0
 30
0.0
 70
     1
  0
VERTEX
  5
E86F8
  8
0
 10
5637.314025880751
 20
1819.03664205817
 30
0.0
  0
VERTEX
  5
E86F9
  8
0
 10
5637.314025880751
 20
1969.03664205817
 30
0.0
  0
VERTEX
  5
E86FA
  8
0
 10
6017.31402588075
 20
1969.03664205817
 30
0.0
  0
VERTEX
  5
E86FB
  8
0
 10
6017.31402588075
 20
1819.03664205817
 30
0.0
  0
SEQEND
  5
E88CC
  8
0
  0
POLYLINE
  5
E6210
  8
0
 66
     1
 10
0.0
 20
0.0
 30
0.0
 70
     1
  0
VERTEX
  5
E86FC
  8
0
 10
5627.314025880751
 20
1982.036642058169
 30
0.0
  0
VERTEX
  5
E86FD
  8
0
 10
5627.314025880751
 20
1806.036642058169
 30
0.0
  0
VERTEX
  5
E86FE
  8
0
 10
6027.314025880751
 20
1806.036642058169
 30
0.0
  0
VERTEX
  5
E86FF
  8
0
 10
6027.314025880751
 20
1982.036642058169
 30
0.0
  0
SEQEND
  5
E88CD
  8
0
  0
POLYLINE
  5
E6218
  8
0
 66
     1
 10
0.0
 20
0.0
 30
0.0
 70
     1
  0
VERTEX
  5
E8700
  8
0
 10
-912.6859741192495
 20
1982.036642058345
 30
0.0
  0
VERTEX
  5
E8701
  8
0
 10
-912.6859741192495
 20
2040.036642058345
 30
0.0
  0
VERTEX
  5
E8702
  8
0
 10
1087.31402588075
 20
2040.036642058257
 30
0.0
  0
VERTEX
  5
E8703
  8
0
 10
1087.31402588075
 20
1982.036642058258
 30
0.0
  0
SEQEND
  5
E88CE
  8
0
  0
POLYLINE
  5
E6219
  8
0
 66
     1
 10
0.0
 20
0.0
 30
0.0
 70
     1
  0
VERTEX
  5
E8704
  8
0
 10
1027.31402588075
 20
1180.036642058345
 30
0.0
  0
VERTEX
  5
E8705
  8
0
 10
1027.31402588075
 20
1982.036642058169
 30
0.0
  0
VERTEX
  5
E8706
  8
0
 10
1087.31402588075
 20
1982.036642058169
 30
0.0
  0
VERTEX
  5
E8707
  8
0
 10
1087.31402588075
 20
1180.036642058345
 30
0.0
  0
SEQEND
  5
E88CF
  8
0
  0
POLYLINE
  5
E621A
  8
0
 66
     1
 10
0.0
 20
0.0
 30
0.0
 70
     1
  0
VERTEX
  5
E8708
  8
0
 10
-852.6859741192492
 20
1180.036642058345
 30
0.0
  0
VERTEX
  5
E8709
  8
0
 10
-852.6859741192492
 20
1982.036642058169
 30
0.0
  0
VERTEX
  5
E870A
  8
0
 10
-912.6859741192495
 20
1982.036642058169
 30
0.0
  0
VERTEX
  5
E870B
  8
0
 10
-912.6859741192495
 20
1180.036642058345
 30
0.0
  0
SEQEND
  5
E88D0
  8
0
  0
POLYLINE
  5
E621B
  8
0
 66
     1
 10
0.0
 20
0.0
 30
0.0
 70
     1
  0
VERTEX
  5
E870C
  8
0
 10
-852.6859741192492
 20
1335.036642058345
 30
0.0
  0
VERTEX
  5
E870D
  8
0
 10
-852.6859741192492
 20
1375.036642058345
 30
0.0
  0
VERTEX
  5
E870E
  8
0
 10
1027.31402588075
 20
1375.036642058258
 30
0.0
  0
VERTEX
  5
E870F
  8
0
 10
1027.31402588075
 20
1335.036642058345
 30
0.0
  0
SEQEND
  5
E88D1
  8
0
  0
POLYLINE
  5
E621C
  8
0
 66
     1
 10
0.0
 20
0.0
 30
0.0
 70
     1
  0
VERTEX
  5
E8710
  8
0
 10
-912.6859741192495
 20
2040.036642058345
 30
0.0
  0
VERTEX
  5
E8711
  8
0
 10
-912.6859741192495
 20
2070.036642058345
 30
0.0
 42
-0.4142135623731081
  0
VERTEX
  5
E8712
  8
0
 10
-892.6859741192492
 20
2090.036642058345
 30
0.0
  0
VERTEX
  5
E8713
  8
0
 10
1067.31402588075
 20
2090.036642058258
 30
0.0
 42
-0.4142135623730824
  0
VERTEX
  5
E8714
  8
0
 10
1087.31402588075
 20
2070.036642058258
 30
0.0
  0
VERTEX
  5
E8715
  8
0
 10
1087.31402588075
 20
2040.036642058257
 30
0.0
  0
SEQEND
  5
E88D2
  8
0
  0
CIRCLE
  5
E621D
  8
0
 10
1069.31402588075
 20
2011.036642058257
 30
0.0
 40
9.0
  0
CIRCLE
  5
E621E
  8
0
 10
1069.31402588075
 20
2011.036642058257
 30
0.0
 40
3.611593896290287
  0
CIRCLE
  5
E621F
  8
0
 10
1036.31402588075
 20
2011.036642058257
 30
0.0
 40
9.0
  0
CIRCLE
  5
E6220
  8
0
 10
1036.31402588075
 20
2011.036642058257
 30
0.0
 40
3.611593896290287
  0
CIRCLE
  5
E6221
  8
0
 10
-894.6859741192495
 20
2011.036642058257
 30
0.0
 40
9.0
  0
CIRCLE
  5
E6222
  8
0
 10
-894.6859741192495
 20
2011.036642058257
 30
0.0
 40
3.611593896290287
  0
CIRCLE
  5
E6223
  8
0
 10
-861.6859741192495
 20
2011.036642058257
 30
0.0
 40
3.611593896290287
  0
CIRCLE
  5
E6224
  8
0
 10
-861.6859741192495
 20
2011.036642058257
 30
0.0
 40
9.0
  0
POLYLINE
  5
E6225
  8
0
 66
     1
 10
0.0
 20
0.0
 30
0.0
 70
     1
  0
VERTEX
  5
E8716
  8
0
 10
-852.6859741192492
 20
1982.036642058169
 30
0.0
  0
VERTEX
  5
E8717
  8
0
 10
-852.6859741192492
 20
1375.036642058258
 30
0.0
  0
VERTEX
  5
E8718
  8
0
 10
1027.31402588075
 20
1375.036642058258
 30
0.0
  0
VERTEX
  5
E8719
  8
0
 10
1027.31402588075
 20
1982.036642058169
 30
0.0
  0
SEQEND
  5
E88D3
  8
0
  0
POLYLINE
  5
E6226
  8
0
 66
     1
 10
0.0
 20
0.0
 30
0.0
 70
     1
  0
VERTEX
  5
E871A
  8
0
 10
1647.314025880751
 20
1982.036642058169
 30
0.0
  0
VERTEX
  5
E871B
  8
0
 10
1647.314025880751
 20
1375.036642058258
 30
0.0
  0
VERTEX
  5
E871C
  8
0
 10
4027.314025880751
 20
1375.036642058258
 30
0.0
  0
VERTEX
  5
E871D
  8
0
 10
4027.314025880751
 20
1982.036642058169
 30
0.0
  0
SEQEND
  5
E88D4
  8
0
  0
CIRCLE
  5
E6227
  8
0
 10
1638.314025880751
 20
2011.036642058257
 30
0.0
 40
9.0
  0
CIRCLE
  5
E6228
  8
0
 10
1638.314025880751
 20
2011.036642058257
 30
0.0
 40
3.611593896290287
  0
CIRCLE
  5
E6229
  8
0
 10
1605.31402588075
 20
2011.036642058257
 30
0.0
 40
3.611593896290287
  0
CIRCLE
  5
E622A
  8
0
 10
1605.31402588075
 20
2011.036642058257
 30
0.0
 40
9.0
  0
CIRCLE
  5
E622B
  8
0
 10
4036.314025880749
 20
2011.036642058257
 30
0.0
 40
3.611593896290287
  0
CIRCLE
  5
E622C
  8
0
 10
4036.314025880749
 20
2011.036642058257
 30
0.0
 40
9.0
  0
CIRCLE
  5
E622D
  8
0
 10
4069.314025880751
 20
2011.036642058257
 30
0.0
 40
3.611593896290287
  0
CIRCLE
  5
E622E
  8
0
 10
4069.314025880751
 20
2011.036642058257
 30
0.0
 40
9.0
  0
POLYLINE
  5
E622F
  8
0
 66
     1
 10
0.0
 20
0.0
 30
0.0
 70
     1
  0
VERTEX
  5
E871E
  8
0
 10
1647.314025880751
 20
1335.036642058345
 30
0.0
  0
VERTEX
  5
E871F
  8
0
 10
1647.314025880751
 20
1375.036642058345
 30
0.0
  0
VERTEX
  5
E8720
  8
0
 10
4027.314025880751
 20
1375.036642058258
 30
0.0
  0
VERTEX
  5
E8721
  8
0
 10
4027.314025880751
 20
1335.036642058345
 30
0.0
  0
SEQEND
  5
E88D5
  8
0
  0
POLYLINE
  5
E6230
  8
0
 66
     1
 10
0.0
 20
0.0
 30
0.0
 70
     1
  0
VERTEX
  5
E8722
  8
0
 10
1647.314025880751
 20
1180.036642058345
 30
0.0
  0
VERTEX
  5
E8723
  8
0
 10
1647.314025880751
 20
1982.036642058169
 30
0.0
  0
VERTEX
  5
E8724
  8
0
 10
1587.314025880751
 20
1982.036642058169
 30
0.0
  0
VERTEX
  5
E8725
  8
0
 10
1587.314025880751
 20
1180.036642058345
 30
0.0
  0
SEQEND
  5
E88D6
  8
0
  0
POLYLINE
  5
E6231
  8
0
 66
     1
 10
0.0
 20
0.0
 30
0.0
 70
     1
  0
VERTEX
  5
E8726
  8
0
 10
4027.314025880751
 20
1180.036642058345
 30
0.0
  0
VERTEX
  5
E8727
  8
0
 10
4027.314025880751
 20
1982.036642058169
 30
0.0
  0
VERTEX
  5
E8728
  8
0
 10
4087.31402588075
 20
1982.036642058169
 30
0.0
  0
VERTEX
  5
E8729
  8
0
 10
4087.31402588075
 20
1180.036642058345
 30
0.0
  0
SEQEND
  5
E88D7
  8
0
  0
POLYLINE
  5
E6232
  8
0
 66
     1
 10
0.0
 20
0.0
 30
0.0
 70
     1
  0
VERTEX
  5
E872A
  8
0
 10
1587.314025880751
 20
1982.036642058345
 30
0.0
  0
VERTEX
  5
E872B
  8
0
 10
1587.314025880751
 20
2040.036642058345
 30
0.0
  0
VERTEX
  5
E872C
  8
0
 10
4087.31402588075
 20
2040.036642058257
 30
0.0
  0
VERTEX
  5
E872D
  8
0
 10
4087.31402588075
 20
1982.036642058258
 30
0.0
  0
SEQEND
  5
E88D8
  8
0
  0
POLYLINE
  5
E6233
  8
0
 66
     1
 10
0.0
 20
0.0
 30
0.0
 70
     1
  0
VERTEX
  5
E872E
  8
0
 10
4587.31402588075
 20
1982.036642058345
 30
0.0
  0
VERTEX
  5
E872F
  8
0
 10
4587.31402588075
 20
2040.036642058345
 30
0.0
  0
VERTEX
  5
E8730
  8
0
 10
6087.31402588075
 20
2040.036642058257
 30
0.0
  0
VERTEX
  5
E8731
  8
0
 10
6087.31402588075
 20
1982.036642058258
 30
0.0
  0
SEQEND
  5
E88D9
  8
0
  0
POLYLINE
  5
E6234
  8
0
 66
     1
 10
0.0
 20
0.0
 30
0.0
 70
     1
  0
VERTEX
  5
E8732
  8
0
 10
6027.314025880751
 20
1180.036642058345
 30
0.0
  0
VERTEX
  5
E8733
  8
0
 10
6027.314025880751
 20
1982.036642058169
 30
0.0
  0
VERTEX
  5
E8734
  8
0
 10
6087.31402588075
 20
1982.036642058169
 30
0.0
  0
VERTEX
  5
E8735
  8
0
 10
6087.31402588075
 20
1180.036642058345
 30
0.0
  0
SEQEND
  5
E88DA
  8
0
  0
POLYLINE
  5
E6235
  8
0
 66
     1
 10
0.0
 20
0.0
 30
0.0
 70
     1
  0
VERTEX
  5
E8736
  8
0
 10
4647.314025880751
 20
1180.036642058345
 30
0.0
  0
VERTEX
  5
E8737
  8
0
 10
4647.314025880751
 20
1982.036642058169
 30
0.0
  0
VERTEX
  5
E8738
  8
0
 10
4587.31402588075
 20
1982.036642058169
 30
0.0
  0
VERTEX
  5
E8739
  8
0
 10
4587.31402588075
 20
1180.036642058345
 30
0.0
  0
SEQEND
  5
E88DB
  8
0
  0
POLYLINE
  5
E6236
  8
0
 66
     1
 10
0.0
 20
0.0
 30
0.0
 70
     1
  0
VERTEX
  5
E873A
  8
0
 10
4647.314025880751
 20
1335.036642058345
 30
0.0
  0
VERTEX
  5
E873B
  8
0
 10
4647.314025880751
 20
1375.036642058345
 30
0.0
  0
VERTEX
  5
E873C
  8
0
 10
6027.314025880751
 20
1375.036642058258
 30
0.0
  0
VERTEX
  5
E873D
  8
0
 10
6027.314025880751
 20
1335.036642058345
 30
0.0
  0
SEQEND
  5
E88DC
  8
0
  0
CIRCLE
  5
E6237
  8
0
 10
6069.314025880751
 20
2011.036642058257
 30
0.0
 40
9.0
  0
CIRCLE
  5
E6238
  8
0
 10
6069.314025880751
 20
2011.036642058257
 30
0.0
 40
3.611593896290287
  0
CIRCLE
  5
E6239
  8
0
 10
6036.314025880749
 20
2011.036642058257
 30
0.0
 40
9.0
  0
CIRCLE
  5
E623A
  8
0
 10
6036.314025880749
 20
2011.036642058257
 30
0.0
 40
3.611593896290287
  0
CIRCLE
  5
E623B
  8
0
 10
4605.314025880749
 20
2011.036642058257
 30
0.0
 40
9.0
  0
CIRCLE
  5
E623C
  8
0
 10
4605.314025880749
 20
2011.036642058257
 30
0.0
 40
3.611593896290287
  0
CIRCLE
  5
E623D
  8
0
 10
4638.314025880751
 20
2011.036642058257
 30
0.0
 40
3.611593896290287
  0
CIRCLE
  5
E623E
  8
0
 10
4638.314025880751
 20
2011.036642058257
 30
0.0
 40
9.0
  0
POLYLINE
  5
E623F
  8
0
 66
     1
 10
0.0
 20
0.0
 30
0.0
 70
     1
  0
VERTEX
  5
E873E
  8
0
 10
4647.314025880751
 20
1982.036642058169
 30
0.0
  0
VERTEX
  5
E873F
  8
0
 10
4647.314025880751
 20
1375.036642058258
 30
0.0
  0
VERTEX
  5
E8740
  8
0
 10
6027.314025880751
 20
1375.036642058258
 30
0.0
  0
VERTEX
  5
E8741
  8
0
 10
6027.314025880751
 20
1982.036642058169
 30
0.0
  0
SEQEND
  5
E88DD
  8
0
  0
POLYLINE
  5
E6240
  8
0
 66
     1
 10
0.0
 20
0.0
 30
0.0
 70
     1
  0
VERTEX
  5
E8742
  8
0
 10
-3352.685974119246
 20
1982.036642058169
 30
0.0
  0
VERTEX
  5
E8743
  8
0
 10
-3352.685974119246
 20
1375.036642058258
 30
0.0
  0
VERTEX
  5
E8744
  8
0
 10
-1472.685974119249
 20
1375.036642058258
 30
0.0
  0
VERTEX
  5
E8745
  8
0
 10
-1472.685974119249
 20
1982.036642058169
 30
0.0
  0
SEQEND
  5
E88DE
  8
0
  0
CIRCLE
  5
E6241
  8
0
 10
-3361.685974119244
 20
2011.036642058257
 30
0.0
 40
9.0
  0
CIRCLE
  5
E6242
  8
0
 10
-3361.685974119244
 20
2011.036642058257
 30
0.0
 40
3.611593896290287
  0
CIRCLE
  5
E6243
  8
0
 10
-3394.685974119246
 20
2011.036642058257
 30
0.0
 40
3.611593896290287
  0
CIRCLE
  5
E6244
  8
0
 10
-3394.685974119246
 20
2011.036642058257
 30
0.0
 40
9.0
  0
CIRCLE
  5
E6245
  8
0
 10
-1463.685974119249
 20
2011.036642058257
 30
0.0
 40
3.611593896290287
  0
CIRCLE
  5
E6246
  8
0
 10
-1463.685974119249
 20
2011.036642058257
 30
0.0
 40
9.0
  0
CIRCLE
  5
E6247
  8
0
 10
-1430.685974119249
 20
2011.036642058257
 30
0.0
 40
3.611593896290287
  0
CIRCLE
  5
E6248
  8
0
 10
-1430.685974119249
 20
2011.036642058257
 30
0.0
 40
9.0
  0
POLYLINE
  5
E6249
  8
0
 66
     1
 10
0.0
 20
0.0
 30
0.0
 70
     1
  0
VERTEX
  5
E8746
  8
0
 10
-3352.685974119246
 20
1335.036642058345
 30
0.0
  0
VERTEX
  5
E8747
  8
0
 10
-3352.685974119246
 20
1375.036642058345
 30
0.0
  0
VERTEX
  5
E8748
  8
0
 10
-1472.685974119249
 20
1375.036642058258
 30
0.0
  0
VERTEX
  5
E8749
  8
0
 10
-1472.685974119249
 20
1335.036642058345
 30
0.0
  0
SEQEND
  5
E88DF
  8
0
  0
POLYLINE
  5
E624A
  8
0
 66
     1
 10
0.0
 20
0.0
 30
0.0
 70
     1
  0
VERTEX
  5
E874A
  8
0
 10
-3352.685974119246
 20
1180.036642058345
 30
0.0
  0
VERTEX
  5
E874B
  8
0
 10
-3352.685974119246
 20
1982.036642058169
 30
0.0
  0
VERTEX
  5
E874C
  8
0
 10
-3412.685974119249
 20
1982.036642058169
 30
0.0
  0
VERTEX
  5
E874D
  8
0
 10
-3412.685974119249
 20
1180.036642058345
 30
0.0
  0
SEQEND
  5
E88E0
  8
0
  0
POLYLINE
  5
E624B
  8
0
 66
     1
 10
0.0
 20
0.0
 30
0.0
 70
     1
  0
VERTEX
  5
E874E
  8
0
 10
-1472.685974119249
 20
1180.036642058345
 30
0.0
  0
VERTEX
  5
E874F
  8
0
 10
-1472.685974119249
 20
1982.036642058169
 30
0.0
  0
VERTEX
  5
E8750
  8
0
 10
-1412.685974119249
 20
1982.036642058169
 30
0.0
  0
VERTEX
  5
E8751
  8
0
 10
-1412.685974119249
 20
1180.036642058345
 30
0.0
  0
SEQEND
  5
E88E1
  8
0
  0
POLYLINE
  5
E624C
  8
0
 66
     1
 10
0.0
 20
0.0
 30
0.0
 70
     1
  0
VERTEX
  5
E8752
  8
0
 10
-3412.685974119249
 20
1982.036642058345
 30
0.0
  0
VERTEX
  5
E8753
  8
0
 10
-3412.685974119249
 20
2040.036642058345
 30
0.0
  0
VERTEX
  5
E8754
  8
0
 10
-1412.685974119249
 20
2040.036642058257
 30
0.0
  0
VERTEX
  5
E8755
  8
0
 10
-1412.685974119249
 20
1982.036642058258
 30
0.0
  0
SEQEND
  5
E88E2
  8
0
  0
CIRCLE
  5
E624D
  8
0
 10
-2976.685974119249
 20
1957.036642281688
 30
0.0
 40
12.0
  0
POLYLINE
  5
E624E
  8
0
 66
     1
 10
0.0
 20
0.0
 30
0.0
 70
     1
  0
VERTEX
  5
E8756
  8
0
 10
-2977.435974119249
 20
1951.036642281688
 30
0.0
  0
VERTEX
  5
E8757
  8
0
 10
-2977.435974119249
 20
1963.036642281688
 30
0.0
  0
VERTEX
  5
E8758
  8
0
 10
-2975.935974119249
 20
1963.036642281688
 30
0.0
  0
VERTEX
  5
E8759
  8
0
 10
-2975.935974119249
 20
1951.036642281688
 30
0.0
  0
SEQEND
  5
E88E3
  8
0
  0
POLYLINE
  5
E624F
  8
0
 66
     1
 10
0.0
 20
0.0
 30
0.0
 70
     1
  0
VERTEX
  5
E875A
  8
0
 10
-3342.685974119244
 20
1822.289780057559
 30
0.0
  0
VERTEX
  5
E875B
  8
0
 10
-3342.685974119244
 20
1972.036642281688
 30
0.0
  0
VERTEX
  5
E875C
  8
0
 10
-2962.685974119251
 20
1972.036642281688
 30
0.0
  0
VERTEX
  5
E875D
  8
0
 10
-2962.685974119251
 20
1822.289780057559
 30
0.0
  0
SEQEND
  5
E88E4
  8
0
  0
POLYLINE
  5
E6250
  8
0
 66
     1
 10
0.0
 20
0.0
 30
0.0
 70
     1
  0
VERTEX
  5
E875E
  8
0
 10
-3342.685974119244
 20
1671.986645339406
 30
0.0
  0
VERTEX
  5
E875F
  8
0
 10
-3342.685974119244
 20
1822.289780057559
 30
0.0
  0
VERTEX
  5
E8760
  8
0
 10
-2962.685974119251
 20
1822.289780057559
 30
0.0
  0
VERTEX
  5
E8761
  8
0
 10
-2962.685974119251
 20
1671.986645339406
 30
0.0
  0
SEQEND
  5
E88E5
  8
0
  0
POLYLINE
  5
E6251
  8
0
 66
     1
 10
0.0
 20
0.0
 30
0.0
 70
     1
  0
VERTEX
  5
E8762
  8
0
 10
-3342.685974119244
 20
1521.986645339406
 30
0.0
  0
VERTEX
  5
E8763
  8
0
 10
-3342.685974119244
 20
1671.986645339406
 30
0.0
  0
VERTEX
  5
E8764
  8
0
 10
-2962.685974119251
 20
1671.986645339406
 30
0.0
  0
VERTEX
  5
E8765
  8
0
 10
-2962.685974119251
 20
1521.986645339406
 30
0.0
  0
SEQEND
  5
E88E6
  8
0
  0
POLYLINE
  5
E6252
  8
0
 66
     1
 10
0.0
 20
0.0
 30
0.0
 70
     1
  0
VERTEX
  5
E8766
  8
0
 10
-3352.685974119246
 20
1982.036642058169
 30
0.0
  0
VERTEX
  5
E8767
  8
0
 10
-3352.685974119246
 20
1508.986645339406
 30
0.0
  0
VERTEX
  5
E8768
  8
0
 10
-2952.685974119249
 20
1508.986645339406
 30
0.0
  0
VERTEX
  5
E8769
  8
0
 10
-2952.685974119249
 20
1982.036642058169
 30
0.0
  0
SEQEND
  5
E88E7
  8
0
  0
CIRCLE
  5
E6253
  8
0
 10
-476.68597411926
 20
1957.036642281688
 30
0.0
 40
12.0
  0
POLYLINE
  5
E6254
  8
0
 66
     1
 10
0.0
 20
0.0
 30
0.0
 70
     1
  0
VERTEX
  5
E876A
  8
0
 10
-477.435974119249
 20
1951.036642281688
 30
0.0
  0
VERTEX
  5
E876B
  8
0
 10
-477.435974119249
 20
1963.036642281688
 30
0.0
  0
VERTEX
  5
E876C
  8
0
 10
-475.9359741192493
 20
1963.036642281688
 30
0.0
  0
VERTEX
  5
E876D
  8
0
 10
-475.9359741192493
 20
1951.036642281688
 30
0.0
  0
SEQEND
  5
E88E8
  8
0
  0
POLYLINE
  5
E6255
  8
0
 66
     1
 10
0.0
 20
0.0
 30
0.0
 70
     1
  0
VERTEX
  5
E876E
  8
0
 10
-842.6859741192492
 20
1822.289780057559
 30
0.0
  0
VERTEX
  5
E876F
  8
0
 10
-842.6859741192492
 20
1972.036642281688
 30
0.0
  0
VERTEX
  5
E8770
  8
0
 10
-462.685974119249
 20
1972.036642281688
 30
0.0
  0
VERTEX
  5
E8771
  8
0
 10
-462.685974119249
 20
1822.289780057559
 30
0.0
  0
SEQEND
  5
E88E9
  8
0
  0
POLYLINE
  5
E6256
  8
0
 66
     1
 10
0.0
 20
0.0
 30
0.0
 70
     1
  0
VERTEX
  5
E8772
  8
0
 10
-842.6859741192492
 20
1671.986645339406
 30
0.0
  0
VERTEX
  5
E8773
  8
0
 10
-842.6859741192492
 20
1822.289780057559
 30
0.0
  0
VERTEX
  5
E8774
  8
0
 10
-462.685974119249
 20
1822.289780057559
 30
0.0
  0
VERTEX
  5
E8775
  8
0
 10
-462.685974119249
 20
1671.986645339406
 30
0.0
  0
SEQEND
  5
E88EA
  8
0
  0
POLYLINE
  5
E6257
  8
0
 66
     1
 10
0.0
 20
0.0
 30
0.0
 70
     1
  0
VERTEX
  5
E8776
  8
0
 10
-842.6859741192492
 20
1521.986645339406
 30
0.0
  0
VERTEX
  5
E8777
  8
0
 10
-842.6859741192492
 20
1671.986645339406
 30
0.0
  0
VERTEX
  5
E8778
  8
0
 10
-462.685974119249
 20
1671.986645339406
 30
0.0
  0
VERTEX
  5
E8779
  8
0
 10
-462.685974119249
 20
1521.986645339406
 30
0.0
  0
SEQEND
  5
E88EB
  8
0
  0
POLYLINE
  5
E6258
  8
0
 66
     1
 10
0.0
 20
0.0
 30
0.0
 70
     1
  0
VERTEX
  5
E877A
  8
0
 10
-852.6859741192492
 20
1982.036642058169
 30
0.0
  0
VERTEX
  5
E877B
  8
0
 10
-852.6859741192492
 20
1508.986645339406
 30
0.0
  0
VERTEX
  5
E877C
  8
0
 10
-452.6859741192493
 20
1508.986645339406
 30
0.0
  0
VERTEX
  5
E877D
  8
0
 10
-452.6859741192493
 20
1982.036642058169
 30
0.0
  0
SEQEND
  5
E88EC
  8
0
  0
POLYLINE
  5
E6259
  8
0
 66
     1
 10
0.0
 20
0.0
 30
0.0
 70
     1
  0
VERTEX
  5
E877E
  8
0
 10
3627.314025880751
 20
1982.036642058169
 30
0.0
  0
VERTEX
  5
E877F
  8
0
 10
3627.314025880751
 20
1508.986645339406
 30
0.0
  0
VERTEX
  5
E8780
  8
0
 10
4027.314025880751
 20
1508.986645339406
 30
0.0
  0
VERTEX
  5
E8781
  8
0
 10
4027.314025880751
 20
1982.036642058169
 30
0.0
  0
SEQEND
  5
E88ED
  8
0
  0
POLYLINE
  5
E625A
  8
0
 66
     1
 10
0.0
 20
0.0
 30
0.0
 70
     1
  0
VERTEX
  5
E8782
  8
0
 10
3637.314025880751
 20
1521.986645339406
 30
0.0
  0
VERTEX
  5
E8783
  8
0
 10
3637.314025880751
 20
1671.986645339406
 30
0.0
  0
VERTEX
  5
E8784
  8
0
 10
4017.31402588074
 20
1671.986645339406
 30
0.0
  0
VERTEX
  5
E8785
  8
0
 10
4017.31402588074
 20
1521.986645339406
 30
0.0
  0
SEQEND
  5
E88EE
  8
0
  0
POLYLINE
  5
E625B
  8
0
 66
     1
 10
0.0
 20
0.0
 30
0.0
 70
     1
  0
VERTEX
  5
E8786
  8
0
 10
3637.314025880751
 20
1671.986645339406
 30
0.0
  0
VERTEX
  5
E8787
  8
0
 10
3637.314025880751
 20
1822.289780057559
 30
0.0
  0
VERTEX
  5
E8788
  8
0
 10
4017.31402588074
 20
1822.289780057559
 30
0.0
  0
VERTEX
  5
E8789
  8
0
 10
4017.31402588074
 20
1671.986645339406
 30
0.0
  0
SEQEND
  5
E88EF
  8
0
  0
POLYLINE
  5
E625C
  8
0
 66
     1
 10
0.0
 20
0.0
 30
0.0
 70
     1
  0
VERTEX
  5
E878A
  8
0
 10
3637.314025880751
 20
1822.289780057559
 30
0.0
  0
VERTEX
  5
E878B
  8
0
 10
3637.314025880751
 20
1972.036642281688
 30
0.0
  0
VERTEX
  5
E878C
  8
0
 10
4017.31402588074
 20
1972.036642281688
 30
0.0
  0
VERTEX
  5
E878D
  8
0
 10
4017.31402588074
 20
1822.289780057559
 30
0.0
  0
SEQEND
  5
E88F0
  8
0
  0
POLYLINE
  5
E625D
  8
0
 66
     1
 10
0.0
 20
0.0
 30
0.0
 70
     1
  0
VERTEX
  5
E878E
  8
0
 10
4002.564025880749
 20
1951.036642281688
 30
0.0
  0
VERTEX
  5
E878F
  8
0
 10
4002.564025880749
 20
1963.036642281688
 30
0.0
  0
VERTEX
  5
E8790
  8
0
 10
4004.064025880749
 20
1963.036642281688
 30
0.0
  0
VERTEX
  5
E8791
  8
0
 10
4004.064025880749
 20
1951.036642281688
 30
0.0
  0
SEQEND
  5
E88F1
  8
0
  0
CIRCLE
  5
E625E
  8
0
 10
4003.314025880749
 20
1957.036642281688
 30
0.0
 40
12.0
  0
POLYLINE
  5
E6261
  8
0
 66
     1
 10
0.0
 20
0.0
 30
0.0
 70
     1
  0
VERTEX
  5
E8792
  8
0
 10
2037.314025880751
 20
1822.289780057457
 30
0.0
  0
VERTEX
  5
E8793
  8
0
 10
2037.314025880751
 20
1972.036642281586
 30
0.0
  0
VERTEX
  5
E8794
  8
0
 10
1657.31402588075
 20
1972.036642281586
 30
0.0
  0
VERTEX
  5
E8795
  8
0
 10
1657.31402588075
 20
1822.289780057457
 30
0.0
  0
SEQEND
  5
E88F2
  8
0
  0
POLYLINE
  5
E6262
  8
0
 66
     1
 10
0.0
 20
0.0
 30
0.0
 70
     1
  0
VERTEX
  5
E8796
  8
0
 10
2037.314025880751
 20
1671.986645339304
 30
0.0
  0
VERTEX
  5
E8797
  8
0
 10
2037.314025880751
 20
1822.289780057457
 30
0.0
  0
VERTEX
  5
E8798
  8
0
 10
1657.31402588075
 20
1822.289780057457
 30
0.0
  0
VERTEX
  5
E8799
  8
0
 10
1657.31402588075
 20
1671.986645339304
 30
0.0
  0
SEQEND
  5
E88F3
  8
0
  0
POLYLINE
  5
E6263
  8
0
 66
     1
 10
0.0
 20
0.0
 30
0.0
 70
     1
  0
VERTEX
  5
E879A
  8
0
 10
2037.314025880751
 20
1521.986645339304
 30
0.0
  0
VERTEX
  5
E879B
  8
0
 10
2037.314025880751
 20
1671.986645339304
 30
0.0
  0
VERTEX
  5
E879C
  8
0
 10
1657.31402588075
 20
1671.986645339304
 30
0.0
  0
VERTEX
  5
E879D
  8
0
 10
1657.31402588075
 20
1521.986645339304
 30
0.0
  0
SEQEND
  5
E88F4
  8
0
  0
POLYLINE
  5
E6264
  8
0
 66
     1
 10
0.0
 20
0.0
 30
0.0
 70
     1
  0
VERTEX
  5
E879E
  8
0
 10
2047.314025880751
 20
1982.036642058069
 30
0.0
  0
VERTEX
  5
E879F
  8
0
 10
2047.314025880751
 20
1508.986645339304
 30
0.0
  0
VERTEX
  5
E87A0
  8
0
 10
1647.314025880751
 20
1508.986645339304
 30
0.0
  0
VERTEX
  5
E87A1
  8
0
 10
1647.314025880751
 20
1982.036642058069
 30
0.0
  0
SEQEND
  5
E88F5
  8
0
  0
CIRCLE
  5
E6265
  8
0
 10
6003.314025880751
 20
1957.036642281688
 30
0.0
 40
12.0
  0
POLYLINE
  5
E6266
  8
0
 66
     1
 10
0.0
 20
0.0
 30
0.0
 70
     1
  0
VERTEX
  5
E87A2
  8
0
 10
6002.564025880751
 20
1951.036642281688
 30
0.0
  0
VERTEX
  5
E87A3
  8
0
 10
6002.564025880751
 20
1963.036642281688
 30
0.0
  0
VERTEX
  5
E87A4
  8
0
 10
6004.064025880751
 20
1963.036642281688
 30
0.0
  0
VERTEX
  5
E87A5
  8
0
 10
6004.064025880751
 20
1951.036642281688
 30
0.0
  0
SEQEND
  5
E88F6
  8
0
  0
POLYLINE
  5
E6267
  8
0
 66
     1
 10
0.0
 20
0.0
 30
0.0
 70
     1
  0
VERTEX
  5
E87A6
  8
0
 10
5637.314025880751
 20
1819.03664205817
 30
0.0
  0
VERTEX
  5
E87A7
  8
0
 10
5637.314025880751
 20
1969.03664205817
 30
0.0
  0
VERTEX
  5
E87A8
  8
0
 10
6017.31402588075
 20
1969.03664205817
 30
0.0
  0
VERTEX
  5
E87A9
  8
0
 10
6017.31402588075
 20
1819.03664205817
 30
0.0
  0
SEQEND
  5
E88F7
  8
0
  0
POLYLINE
  5
E6268
  8
0
 66
     1
 10
0.0
 20
0.0
 30
0.0
 70
     1
  0
VERTEX
  5
E87AA
  8
0
 10
5627.314025880751
 20
1982.036642058169
 30
0.0
  0
VERTEX
  5
E87AB
  8
0
 10
5627.314025880751
 20
1806.036642058169
 30
0.0
  0
VERTEX
  5
E87AC
  8
0
 10
6027.314025880751
 20
1806.036642058169
 30
0.0
  0
VERTEX
  5
E87AD
  8
0
 10
6027.314025880751
 20
1982.036642058169
 30
0.0
  0
SEQEND
  5
E88F8
  8
0
  0
POLYLINE
  5
E689C
  8
0
 66
     1
 10
0.0
 20
0.0
 30
0.0
 70
     1
  0
VERTEX
  5
E87AE
  8
0
 10
-4012.685974119231
 20
7893.606950959693
 30
0.0
  0
VERTEX
  5
E87AF
  8
0
 10
8437.314025880763
 20
7893.606950959693
 30
0.0
  0
VERTEX
  5
E87B0
  8
0
 10
8437.314025880763
 20
15259.68023507602
 30
0.0
  0
VERTEX
  5
E87B1
  8
0
 10
-4012.685974119228
 20
15259.68023507602
 30
0.0
  0
SEQEND
  5
E88F9
  8
0
  0
POLYLINE
  5
E6930
  8
0
 66
     1
 10
0.0
 20
0.0
 30
0.0
 70
     1
  0
VERTEX
  5
E87B2
  8
0
 10
3087.314025880838
 20
13936.18321029114
 30
0.0
  0
VERTEX
  5
E87B3
  8
0
 10
5587.314025880837
 20
13936.18321029114
 30
0.0
  0
VERTEX
  5
E87B4
  8
0
 10
5587.314025880837
 20
14686.18321029105
 30
0.0
  0
VERTEX
  5
E87B5
  8
0
 10
3087.314025880838
 20
14686.18321029105
 30
0.0
  0
SEQEND
  5
E88FA
  8
0
  0
POLYLINE
  5
E6931
  8
0
 66
     1
 10
0.0
 20
0.0
 30
0.0
 70
     1
  0
VERTEX
  5
E87B6
  8
0
 10
-412.6859741192265
 20
13936.18321029114
 30
0.0
  0
VERTEX
  5
E87B7
  8
0
 10
1587.314025880773
 20
13936.18321029114
 30
0.0
  0
VERTEX
  5
E87B8
  8
0
 10
1587.314025880773
 20
14686.18321029105
 30
0.0
  0
VERTEX
  5
E87B9
  8
0
 10
-412.6859741192265
 20
14686.18321029105
 30
0.0
  0
SEQEND
  5
E88FB
  8
0
  0
POLYLINE
  5
E6932
  8
0
 66
     1
 10
0.0
 20
0.0
 30
0.0
 70
     1
  0
VERTEX
  5
E87BA
  8
0
 10
-3412.685974119226
 20
13936.18321029114
 30
0.0
  0
VERTEX
  5
E87BB
  8
0
 10
-1912.685974119226
 20
13936.18321029114
 30
0.0
  0
VERTEX
  5
E87BC
  8
0
 10
-1912.685974119226
 20
14686.18321029105
 30
0.0
  0
VERTEX
  5
E87BD
  8
0
 10
-3412.685974119226
 20
14686.18321029105
 30
0.0
  0
SEQEND
  5
E88FC
  8
0
  0
POLYLINE
  5
E6934
  8
0
 66
     1
 10
0.0
 20
0.0
 30
0.0
 70
     1
  0
VERTEX
  5
E87BE
  8
0
 10
-4012.685974119231
 20
3194.073284116702
 30
0.0
  0
VERTEX
  5
E87BF
  8
0
 10
8437.314025880763
 20
3194.073284116702
 30
0.0
  0
VERTEX
  5
E87C0
  8
0
 10
8437.314025880763
 20
7366.073284116325
 30
0.0
  0
VERTEX
  5
E87C1
  8
0
 10
-4012.685974119231
 20
7366.073284116325
 30
0.0
  0
SEQEND
  5
E88FD
  8
0
  0
POLYLINE
  5
E6935
  8
0
 66
     1
 10
0.0
 20
0.0
 30
0.0
 70
     1
  0
VERTEX
  5
E87C2
  8
0
 10
-3412.685974119226
 20
6042.576259331453
 30
0.0
  0
VERTEX
  5
E87C3
  8
0
 10
-2412.685974119305
 20
6042.576259331453
 30
0.0
  0
VERTEX
  5
E87C4
  8
0
 10
-2412.685974119305
 20
6792.576259331363
 30
0.0
  0
VERTEX
  5
E87C5
  8
0
 10
-3412.685974119226
 20
6792.576259331363
 30
0.0
  0
SEQEND
  5
E88FE
  8
0
  0
POLYLINE
  5
E6938
  8
0
 66
     1
 10
0.0
 20
0.0
 30
0.0
 70
     1
  0
VERTEX
  5
E87C6
  8
0
 10
-3407.685974119227
 20
6042.576259331453
 30
0.0
  0
VERTEX
  5
E87C7
  8
0
 10
-2417.685974119305
 20
6042.576259331453
 30
0.0
  0
VERTEX
  5
E87C8
  8
0
 10
-2417.685974119305
 20
6787.576259331363
 30
0.0
  0
VERTEX
  5
E87C9
  8
0
 10
-3407.685974119227
 20
6787.576259331363
 30
0.0
  0
SEQEND
  5
E88FF
  8
0
  0
POLYLINE
  5
E6939
  8
0
 66
     1
 10
0.0
 20
0.0
 30
0.0
 70
     1
  0
VERTEX
  5
E87CA
  8
0
 10
-3412.685974119226
 20
6042.576259331453
 30
0.0
  0
VERTEX
  5
E87CB
  8
0
 10
-2412.685974119305
 20
6042.576259331453
 30
0.0
  0
VERTEX
  5
E87CC
  8
0
 10
-2412.685974119305
 20
6792.576259331363
 30
0.0
  0
VERTEX
  5
E87CD
  8
0
 10
-3412.685974119226
 20
6792.576259331363
 30
0.0
  0
SEQEND
  5
E8900
  8
0
  0
POLYLINE
  5
E693A
  8
0
 66
     1
 10
0.0
 20
0.0
 30
0.0
 70
     1
  0
VERTEX
  5
E87CE
  8
0
 10
-3408.872859240823
 20
13936.18321029114
 30
0.0
  0
VERTEX
  5
E87CF
  8
0
 10
-1917.685974119225
 20
13936.18321029114
 30
0.0
  0
VERTEX
  5
E87D0
  8
0
 10
-1917.685974119226
 20
14681.18321029105
 30
0.0
  0
VERTEX
  5
E87D1
  8
0
 10
-3407.685974119227
 20
14681.18321029105
 30
0.0
  0
SEQEND
  5
E8901
  8
0
  0
POLYLINE
  5
E693B
  8
0
 66
     1
 10
0.0
 20
0.0
 30
0.0
 70
     1
  0
VERTEX
  5
E87D2
  8
0
 10
-407.6859741192265
 20
13936.18321029114
 30
0.0
  0
VERTEX
  5
E87D3
  8
0
 10
1582.314025880773
 20
13936.18321029114
 30
0.0
  0
VERTEX
  5
E87D4
  8
0
 10
1582.314025880773
 20
14681.18321029105
 30
0.0
  0
VERTEX
  5
E87D5
  8
0
 10
-407.6859741192265
 20
14681.18321029105
 30
0.0
  0
SEQEND
  5
E8902
  8
0
  0
POLYLINE
  5
E693C
  8
0
 66
     1
 10
0.0
 20
0.0
 30
0.0
 70
     1
  0
VERTEX
  5
E87D6
  8
0
 10
3092.314025880838
 20
13936.18321029114
 30
0.0
  0
VERTEX
  5
E87D7
  8
0
 10
5582.314025880837
 20
13936.18321029114
 30
0.0
  0
VERTEX
  5
E87D8
  8
0
 10
5582.314025880837
 20
14681.18321029105
 30
0.0
  0
VERTEX
  5
E87D9
  8
0
 10
3092.314025880838
 20
14681.18321029105
 30
0.0
  0
SEQEND
  5
E8903
  8
0
  0
POLYLINE
  5
E693D
  8
0
 66
     1
 10
0.0
 20
0.0
 30
0.0
 70
     1
  0
VERTEX
  5
E87DA
  8
0
 10
3087.314025880838
 20
13936.18321029114
 30
0.0
  0
VERTEX
  5
E87DB
  8
0
 10
5587.314025880837
 20
13936.18321029114
 30
0.0
  0
VERTEX
  5
E87DC
  8
0
 10
5587.314025880837
 20
14686.18321029105
 30
0.0
  0
VERTEX
  5
E87DD
  8
0
 10
3087.314025880838
 20
14686.18321029105
 30
0.0
  0
SEQEND
  5
E8904
  8
0
  0
CIRCLE
  5
E693E
  8
0
 10
5827.29703379967
 20
1894.816679098018
 30
0.0
 40
20.0
  0
CIRCLE
  5
E693F
  8
0
 10
3827.29703379967
 20
1898.069817097406
 30
0.0
 40
20.0
  0
CIRCLE
  5
E6940
  8
0
 10
3827.29703379967
 20
1747.766682379253
 30
0.0
 40
20.0
  0
CIRCLE
  5
E6941
  8
0
 10
3827.29703379967
 20
1597.766682379253
 30
0.0
 40
20.0
  0
CIRCLE
  5
E6942
  8
0
 10
1847.331017961831
 20
1597.766682379253
 30
0.0
 40
20.0
  0
CIRCLE
  5
E6943
  8
0
 10
1847.331017961831
 20
1747.766682379253
 30
0.0
 40
20.0
  0
CIRCLE
  5
E6944
  8
0
 10
1847.331017961831
 20
1898.069817097406
 30
0.0
 40
20.0
  0
CIRCLE
  5
E6945
  8
0
 10
-652.6689820381685
 20
1898.069817097406
 30
0.0
 40
20.0
  0
CIRCLE
  5
E6946
  8
0
 10
-652.6689820381685
 20
1747.766682379253
 30
0.0
 40
20.0
  0
CIRCLE
  5
E6947
  8
0
 10
-652.6689820381685
 20
1597.766682379253
 30
0.0
 40
20.0
  0
CIRCLE
  5
E6948
  8
0
 10
-3152.668982038165
 20
1597.766682379253
 30
0.0
 40
20.0
  0
CIRCLE
  5
E6949
  8
0
 10
-3152.668982038165
 20
1747.766682379253
 30
0.0
 40
20.0
  0
CIRCLE
  5
E694A
  8
0
 10
-3152.668982038165
 20
1898.069817097406
 30
0.0
 40
20.0
  0
CIRCLE
  5
E762B
  8
0
 10
2023.31402588074
 20
1957.036642281586
 30
0.0
 40
12.0
  0
POLYLINE
  5
E762C
  8
0
 66
     1
 10
0.0
 20
0.0
 30
0.0
 70
     1
  0
VERTEX
  5
E87DE
  8
0
 10
2022.564025880751
 20
1951.036642281586
 30
0.0
  0
VERTEX
  5
E87DF
  8
0
 10
2022.564025880751
 20
1963.036642281586
 30
0.0
  0
VERTEX
  5
E87E0
  8
0
 10
2024.064025880751
 20
1963.036642281586
 30
0.0
  0
VERTEX
  5
E87E1
  8
0
 10
2024.064025880751
 20
1951.036642281586
 30
0.0
  0
SEQEND
  5
E8905
  8
0
  0
CIRCLE
  5
E762D
  8
0
 10
2023.31402588074
 20
1957.036642281586
 30
0.0
 40
12.0
  0
POLYLINE
  5
E762E
  8
0
 66
     1
 10
0.0
 20
0.0
 30
0.0
 70
     1
  0
VERTEX
  5
E87E2
  8
0
 10
2022.564025880751
 20
1951.036642281586
 30
0.0
  0
VERTEX
  5
E87E3
  8
0
 10
2022.564025880751
 20
1963.036642281586
 30
0.0
  0
VERTEX
  5
E87E4
  8
0
 10
2024.064025880751
 20
1963.036642281586
 30
0.0
  0
VERTEX
  5
E87E5
  8
0
 10
2024.064025880751
 20
1951.036642281586
 30
0.0
  0
SEQEND
  5
E8906
  8
0
  0
CIRCLE
  5
E762F
  8
0
 10
2023.31402588074
 20
1957.036642281586
 30
0.0
 40
12.0
  0
POLYLINE
  5
E7630
  8
0
 66
     1
 10
0.0
 20
0.0
 30
0.0
 70
     1
  0
VERTEX
  5
E87E6
  8
0
 10
2022.564025880751
 20
1951.036642281586
 30
0.0
  0
VERTEX
  5
E87E7
  8
0
 10
2022.564025880751
 20
1963.036642281586
 30
0.0
  0
VERTEX
  5
E87E8
  8
0
 10
2024.064025880751
 20
1963.036642281586
 30
0.0
  0
VERTEX
  5
E87E9
  8
0
 10
2024.064025880751
 20
1951.036642281586
 30
0.0
  0
SEQEND
  5
E8907
  8
0
  0
VIEWPORT
  5
DAB74
 67
     1
  8
0
 10
0.0
 20
0.0
 30
0.0
 40
10.87270777479893
 41
8.16
 68
     1
 69
     1
1001
ACAD
1000
MVIEW
1002
{
1070
    16
1010
0.0
1020
0.0
1030
0.0
1010
0.0
1020
0.0
1030
1.0
1040
0.0
1040
8.16
1040
6.065999999999998
1040
3.851238605898123
1040
50.0
1040
0.0
1040
0.0
1070
    16
1070
   100
1070
     1
1070
     3
1070
     0
1070
     0
1070
     0
1070
     0
1040
0.0
1040
0.0
1040
0.0
1040
0.5
1040
0.5
1040
0.0
1040
0.0
1070
     0
1002
{
1002
}
1002
}
  0
VIEWPORT
  5
DAB75
 67
     1
  8
0
 10
5.25
 20
4.0
 30
0.0
 40
8.4
 41
6.4
 68
     2
 69
     2
1001
ACAD
1000
MVIEW
1002
{
1070
    16
1010
0.0
1020
0.0
1030
0.0
1010
0.0
1020
0.0
1030
1.0
1040
0.0
1040
12730.99251508979
1040
-238.8342129778575
1040
5240.682605436173
1040
50.0
1040
0.0
1040
0.0
1070
     0
1070
   100
1070
     1
1070
     3
1070
     0
1070
     0
1070
     0
1070
     0
1040
0.0
1040
0.0
1040
0.0
1040
0.5
1040
0.5
1040
0.0
1040
0.0
1070
     0
1002
{
1002
}
1002
}
  0
ENDSEC
  0
EOF
