  0
SECTION
  2
HEADER
  9
$ACADVER
  1
AC1032
  9
$ACADMAINTVER
 90
       55
  9
$DWGCODEPAGE
  3
ANSI_1252
  9
$LASTSAVEDBY
  1
ucom07
  9
$REQUIREDVERSIONS
160
                 0
  9
$INSBASE
 10
0.0
 20
0.0
 30
0.0
  9
$EXTMIN
 10
0.0
 20
0.0
 30
0.0
  9
$EXTMAX
 10
40337.62332585
 20
27795.4243780351
 30
0.0
  9
$LIMMIN
 10
0.0
 20
0.0
  9
$LIMMAX
 10
12.0
 20
9.0
  9
$ORTHOMODE
 70
     1
  9
$REGENMODE
 70
     1
  9
$FILLMODE
 70
     1
  9
$QTEXTMODE
 70
     0
  9
$MIRRTEXT
 70
     0
  9
$LTSCALE
 40
1.0
  9
$ATTMODE
 70
     1
  9
$TEXTSIZE
 40
0.2
  9
$TRACEWID
 40
0.05
  9
$TEXTSTYLE
  7
STANDARD
  9
$CLAYER
  8
0
  9
$CELTYPE
  6
ByLayer
  9
$CECOLOR
 62
   256
  9
$CELTSCALE
 40
1.0
  9
$DISPSILH
 70
     0
  9
$DIMSCALE
 40
50.0
  9
$DIMASZ
 40
0.18
  9
$DIMEXO
 40
0.0625
  9
$DIMDLI
 40
0.38
  9
$DIMRND
 40
0.0
  9
$DIMDLE
 40
0.0
  9
$DIMEXE
 40
0.18
  9
$DIMTP
 40
0.0
  9
$DIMTM
 40
0.0
  9
$DIMTXT
 40
0.18
  9
$DIMCEN
 40
0.09
  9
$DIMTSZ
 40
0.0
  9
$DIMTOL
 70
     0
  9
$DIMLIM
 70
     0
  9
$DIMTIH
 70
     1
  9
$DIMTOH
 70
     1
  9
$DIMSE1
 70
     0
  9
$DIMSE2
 70
     0
  9
$DIMTAD
 70
     0
  9
$DIMZIN
 70
     0
  9
$DIMBLK
  1

  9
$DIMASO
 70
     1
  9
$DIMSHO
 70
     1
  9
$DIMPOST
  1

  9
$DIMAPOST
  1

  9
$DIMALT
 70
     0
  9
$DIMALTD
 70
     2
  9
$DIMALTF
 40
25.4
  9
$DIMLFAC
 40
1.0
  9
$DIMTOFL
 70
     0
  9
$DIMTVP
 40
0.0
  9
$DIMTIX
 70
     0
  9
$DIMSOXD
 70
     0
  9
$DIMSAH
 70
     0
  9
$DIMBLK1
  1

  9
$DIMBLK2
  1

  9
$DIMSTYLE
  2
STANDARD
  9
$DIMCLRD
 70
     0
  9
$DIMCLRE
 70
     0
  9
$DIMCLRT
 70
     0
  9
$DIMTFAC
 40
1.0
  9
$DIMGAP
 40
0.09
  9
$DIMJUST
 70
     0
  9
$DIMSD1
 70
     0
  9
$DIMSD2
 70
     0
  9
$DIMTOLJ
 70
     1
  9
$DIMTZIN
 70
     0
  9
$DIMALTZ
 70
     0
  9
$DIMALTTZ
 70
     0
  9
$DIMUPT
 70
     0
  9
$DIMDEC
 70
     4
  9
$DIMTDEC
 70
     4
  9
$DIMALTU
 70
     2
  9
$DIMALTTD
 70
     2
  9
$DIMTXSTY
  7
STANDARD
  9
$DIMAUNIT
 70
     0
  9
$DIMADEC
 70
     0
  9
$DIMALTRND
 40
0.0
  9
$DIMAZIN
 70
     0
  9
$DIMDSEP
 70
    46
  9
$DIMATFIT
 70
     3
  9
$DIMFRAC
 70
     0
  9
$DIMLDRBLK
  1

  9
$DIMLUNIT
 70
     2
  9
$DIMLWD
 70
    -2
  9
$DIMLWE
 70
    -2
  9
$DIMTMOVE
 70
     2
  9
$DIMFXL
 40
1.0
  9
$DIMFXLON
 70
     0
  9
$DIMJOGANG
 40
0.7853981633974483
  9
$DIMTFILL
 70
     0
  9
$DIMTFILLCLR
 70
     0
  9
$DIMARCSYM
 70
     0
  9
$DIMLTYPE
  6

  9
$DIMLTEX1
  6

  9
$DIMLTEX2
  6

  9
$DIMTXTDIRECTION
 70
     0
  9
$LUNITS
 70
     2
  9
$LUPREC
 70
     4
  9
$SKETCHINC
 40
0.1
  9
$FILLETRAD
 40
0.0
  9
$AUNITS
 70
     0
  9
$AUPREC
 70
     0
  9
$MENU
  1
.
  9
$ELEVATION
 40
0.0
  9
$PELEVATION
 40
0.0
  9
$THICKNESS
 40
0.0
  9
$LIMCHECK
 70
     0
  9
$CHAMFERA
 40
0.0
  9
$CHAMFERB
 40
0.0
  9
$CHAMFERC
 40
0.0
  9
$CHAMFERD
 40
0.0
  9
$SKPOLY
 70
     0
  9
$TDCREATE
 40
2456549.818553588
  9
$TDUCREATE
 40
2456549.735220254
  9
$TDUPDATE
 40
2460453.689203935
  9
$TDUUPDATE
 40
2460453.605870602
  9
$TDINDWG
 40
0.2590795949
  9
$TDUSRTIMER
 40
0.0003752894
  9
$USRTIMER
 70
     1
  9
$ANGBASE
 50
0.0
  9
$ANGDIR
 70
     0
  9
$PDMODE
 70
     0
  9
$PDSIZE
 40
0.0
  9
$PLINEWID
 40
0.0
  9
$SPLFRAME
 70
     0
  9
$SPLINETYPE
 70
     6
  9
$SPLINESEGS
 70
     8
  9
$HANDSEED
  5
4687
  9
$SURFTAB1
 70
     6
  9
$SURFTAB2
 70
     6
  9
$SURFTYPE
 70
     6
  9
$SURFU
 70
     6
  9
$SURFV
 70
     6
  9
$UCSBASE
  2

  9
$UCSNAME
  2

  9
$UCSORG
 10
0.0
 20
0.0
 30
0.0
  9
$UCSXDIR
 10
1.0
 20
0.0
 30
0.0
  9
$UCSYDIR
 10
0.0
 20
1.0
 30
0.0
  9
$UCSORTHOREF
  2

  9
$UCSORTHOVIEW
 70
     0
  9
$UCSORGTOP
 10
0.0
 20
0.0
 30
0.0
  9
$UCSORGBOTTOM
 10
0.0
 20
0.0
 30
0.0
  9
$UCSORGLEFT
 10
0.0
 20
0.0
 30
0.0
  9
$UCSORGRIGHT
 10
0.0
 20
0.0
 30
0.0
  9
$UCSORGFRONT
 10
0.0
 20
0.0
 30
0.0
  9
$UCSORGBACK
 10
0.0
 20
0.0
 30
0.0
  9
$PUCSBASE
  2

  9
$PUCSNAME
  2

  9
$PUCSORG
 10
0.0
 20
0.0
 30
0.0
  9
$PUCSXDIR
 10
1.0
 20
0.0
 30
0.0
  9
$PUCSYDIR
 10
0.0
 20
1.0
 30
0.0
  9
$PUCSORTHOREF
  2

  9
$PUCSORTHOVIEW
 70
     0
  9
$PUCSORGTOP
 10
0.0
 20
0.0
 30
0.0
  9
$PUCSORGBOTTOM
 10
0.0
 20
0.0
 30
0.0
  9
$PUCSORGLEFT
 10
0.0
 20
0.0
 30
0.0
  9
$PUCSORGRIGHT
 10
0.0
 20
0.0
 30
0.0
  9
$PUCSORGFRONT
 10
0.0
 20
0.0
 30
0.0
  9
$PUCSORGBACK
 10
0.0
 20
0.0
 30
0.0
  9
$USERI1
 70
     0
  9
$USERI2
 70
     0
  9
$USERI3
 70
     0
  9
$USERI4
 70
     0
  9
$USERI5
 70
     0
  9
$USERR1
 40
0.0
  9
$USERR2
 40
0.0
  9
$USERR3
 40
0.0
  9
$USERR4
 40
0.0
  9
$USERR5
 40
0.0
  9
$WORLDVIEW
 70
     1
  9
$SHADEDGE
 70
     3
  9
$SHADEDIF
 70
    70
  9
$TILEMODE
 70
     1
  9
$MAXACTVP
 70
    64
  9
$PINSBASE
 10
0.0
 20
0.0
 30
0.0
  9
$PLIMCHECK
 70
     0
  9
$PEXTMIN
 10
0.0
 20
0.0
 30
0.0
  9
$PEXTMAX
 10
0.0
 20
0.0
 30
0.0
  9
$PLIMMIN
 10
0.0
 20
0.0
  9
$PLIMMAX
 10
0.0
 20
0.0
  9
$UNITMODE
 70
     0
  9
$VISRETAIN
 70
     1
  9
$PLINEGEN
 70
     0
  9
$PSLTSCALE
 70
     1
  9
$TREEDEPTH
 70
  3020
  9
$CMLSTYLE
  2
Standard
  9
$CMLJUST
 70
     0
  9
$CMLSCALE
 40
1.0
  9
$PROXYGRAPHICS
 70
     1
  9
$MEASUREMENT
 70
     0
  9
$CELWEIGHT
370
    -1
  9
$ENDCAPS
280
     0
  9
$JOINSTYLE
280
     0
  9
$LWDISPLAY
290
     0
  9
$INSUNITS
 70
     0
  9
$HYPERLINKBASE
  1

  9
$STYLESHEET
  1

  9
$XEDIT
290
     1
  9
$CEPSNTYPE
380
     0
  9
$PSTYLEMODE
290
     1
  9
$FINGERPRINTGUID
  2
{2442c7b6-581e-4990-931a-e7b7c1e6b570}
  9
$VERSIONGUID
  2
{FAEB1C32-E019-11D5-929B-00C0DF256EC4}
  9
$EXTNAMES
290
     1
  9
$PSVPSCALE
 40
0.0
  9
$OLESTARTUP
290
     0
  9
$SORTENTS
280
   127
  9
$INDEXCTL
280
     0
  9
$HIDETEXT
280
     1
  9
$XCLIPFRAME
280
     2
  9
$HALOGAP
280
     0
  9
$OBSCOLOR
 70
   257
  9
$OBSLTYPE
280
     0
  9
$INTERSECTIONDISPLAY
280
     0
  9
$INTERSECTIONCOLOR
 70
   257
  9
$DIMASSOC
280
     2
  9
$PROJECTNAME
  1

  9
$CAMERADISPLAY
290
     0
  9
$LENSLENGTH
 40
50.0
  9
$CAMERAHEIGHT
 40
0.0
  9
$STEPSPERSEC
 40
2.0
  9
$STEPSIZE
 40
6.0
  9
$3DDWFPREC
 40
2.0
  9
$PSOLWIDTH
 40
0.25
  9
$PSOLHEIGHT
 40
4.0
  9
$LOFTANG1
 40
1.570796326794897
  9
$LOFTANG2
 40
1.570796326794897
  9
$LOFTMAG1
 40
0.0
  9
$LOFTMAG2
 40
0.0
  9
$LOFTPARAM
 70
     7
  9
$LOFTNORMALS
280
     1
  9
$LATITUDE
 40
37.795
  9
$LONGITUDE
 40
-122.394
  9
$NORTHDIRECTION
 40
0.0
  9
$TIMEZONE
 70
 -8000
  9
$LIGHTGLYPHDISPLAY
280
     1
  9
$TILEMODELIGHTSYNCH
280
     1
  9
$SOLIDHIST
280
     0
  9
$SHOWHIST
280
     1
  9
$DWFFRAME
280
     2
  9
$DGNFRAME
280
     2
  9
$REALWORLDSCALE
290
     1
  9
$INTERFERECOLOR
 62
   256
  9
$CSHADOW
280
     0
  9
$SHADOWPLANELOCATION
 40
0.0
  0
ENDSEC
  0
SECTION
  2
CLASSES
  0
CLASS
  1
ACDBDICTIONARYWDFLT
  2
AcDbDictionaryWithDefault
  3
ObjectDBX Classes
 90
        0
 91
        3
280
     0
281
     0
  0
CLASS
  1
MATERIAL
  2
AcDbMaterial
  3
ObjectDBX Classes
 90
     1153
 91
        3
280
     0
281
     0
  0
CLASS
  1
SCALE
  2
AcDbScale
  3
ObjectDBX Classes
 90
     1153
 91
        3
280
     0
281
     0
  0
CLASS
  1
VISUALSTYLE
  2
AcDbVisualStyle
  3
ObjectDBX Classes
 90
     4095
 91
        3
280
     0
281
     0
  0
CLASS
  1
TABLESTYLE
  2
AcDbTableStyle
  3
ObjectDBX Classes
 90
     4095
 91
        3
280
     0
281
     0
  0
CLASS
  1
MLEADERSTYLE
  2
AcDbMLeaderStyle
  3
ACDB_MLEADERSTYLE_CLASS
 90
     4095
 91
        3
280
     0
281
     0
  0
CLASS
  1
DICTIONARYVAR
  2
AcDbDictionaryVar
  3
ObjectDBX Classes
 90
        0
 91
        3
280
     0
281
     0
  0
CLASS
  1
DIMASSOC
  2
AcDbDimAssoc
  3
"AcDbDimAssoc|Product Desc:     AcDim ARX App For Dimension|Company:          Autodesk, Inc.|WEB Address:      www.autodesk.com"
 90
        0
 91
        3
280
     0
281
     0
  0
CLASS
  1
BREAKDATA
  2
AcDbBreakData
  3
ObjectDBX Classes
 90
     1024
 91
        3
280
     0
281
     0
  0
CLASS
  1
SUN
  2
AcDbSun
  3
SCENEOE
 90
     1153
 91
        3
280
     0
281
     0
  0
CLASS
  1
SORTENTSTABLE
  2
AcDbSortentsTable
  3
ObjectDBX Classes
 90
        0
 91
        3
280
     0
281
     0
  0
CLASS
  1
CELLSTYLEMAP
  2
AcDbCellStyleMap
  3
ObjectDBX Classes
 90
     1152
 91
        3
280
     0
281
     0
  0
ENDSEC
  0
SECTION
  2
TABLES
  0
TABLE
  2
VPORT
  5
3D51
330
0
100
AcDbSymbolTable
 70
     1
  0
VPORT
  5
3D68
330
3D51
100
AcDbSymbolTableRecord
100
AcDbViewportTableRecord
  2
*ACTIVE
 70
     0
 10
0.0
 20
0.0
 11
1.0
 21
1.0
 12
20168.811662925
 22
13897.71218901755
 13
0.0
 23
0.0
 14
0.5
 24
0.5
 15
0.5
 25
0.5
 16
0.0
 26
0.0
 36
1.0
 17
0.0
 27
0.0
 37
0.0
 40
28351.33286559581
 41
1.944065484311051
 42
50.0
 43
0.0
 44
0.0
 50
0.0
 51
0.0
 71
    16
 72
  1000
 73
     1
 74
     3
 75
     1
 76
     0
 77
     0
 78
     0
281
     0
 65
     0
110
0.0
120
0.0
130
0.0
111
1.0
121
0.0
131
0.0
112
0.0
122
1.0
132
0.0
 79
     0
146
0.0
348
3D9D
 60
     3
 61
     5
292
     1
282
     1
141
0.0
142
0.0
 63
   256
361
3EC9
  0
ENDTAB
  0
TABLE
  2
LTYPE
  5
3D4E
330
0
100
AcDbSymbolTable
 70
     1
  0
LTYPE
  5
3D5C
330
3D4E
100
AcDbSymbolTableRecord
100
AcDbLinetypeTableRecord
  2
ByBlock
 70
     0
  3

 72
    65
 73
     0
 40
0.0
  0
LTYPE
  5
3D5D
330
3D4E
100
AcDbSymbolTableRecord
100
AcDbLinetypeTableRecord
  2
ByLayer
 70
     0
  3

 72
    65
 73
     0
 40
0.0
  0
LTYPE
  5
3D5E
330
3D4E
100
AcDbSymbolTableRecord
100
AcDbLinetypeTableRecord
  2
CONTINUOUS
 70
     0
  3
Solid line
 72
    65
 73
     0
 40
0.0
  0
ENDTAB
  0
TABLE
  2
LAYER
  5
3D4C
102
{ACAD_XDICTIONARY
360
3F92
102
}
330
0
100
AcDbSymbolTable
 70
     1
  0
LAYER
  5
3D59
330
3D4C
100
AcDbSymbolTableRecord
100
AcDbLayerTableRecord
  2
0
 70
     0
 62
     7
  6
CONTINUOUS
370
    -3
390
3D58
347
3D6E
348
0
  0
ENDTAB
  0
TABLE
  2
STYLE
  5
3D4D
330
0
100
AcDbSymbolTable
 70
     2
  0
STYLE
  5
3D5A
330
3D4D
100
AcDbSymbolTableRecord
100
AcDbTextStyleTableRecord
  2
STANDARD
 70
     0
 40
0.0
 41
1.0
 50
0.0
 71
     0
 42
0.2
  3
txt
  4

  0
STYLE
  5
3D70
330
3D4D
100
AcDbSymbolTableRecord
100
AcDbTextStyleTableRecord
  2
STILE1
 70
     0
 40
0.0
 41
1.0
 50
0.0
 71
     0
 42
19.0
  3
ROMANS.SHX
  4

  0
ENDTAB
  0
TABLE
  2
VIEW
  5
3D4F
330
0
100
AcDbSymbolTable
 70
     0
  0
ENDTAB
  0
TABLE
  2
UCS
  5
3D50
330
0
100
AcDbSymbolTable
 70
     0
  0
ENDTAB
  0
TABLE
  2
APPID
  5
3D52
330
0
100
AcDbSymbolTable
 70
    11
  0
APPID
  5
3D5B
330
3D52
100
AcDbSymbolTableRecord
100
AcDbRegAppTableRecord
  2
ACAD
 70
     0
  0
APPID
  5
3D72
330
3D52
100
AcDbSymbolTableRecord
100
AcDbRegAppTableRecord
  2
PE_URL
 70
     0
  0
APPID
  5
3DC9
330
3D52
100
AcDbSymbolTableRecord
100
AcDbRegAppTableRecord
  2
ENABLE_CUSTOM_SPLIT
 70
     0
  0
APPID
  5
3EBF
330
3D52
100
AcDbSymbolTableRecord
100
AcDbRegAppTableRecord
  2
FX_DIMP_FAV_VERSION
 70
     0
  0
APPID
  5
3EF6
330
3D52
100
AcDbSymbolTableRecord
100
AcDbRegAppTableRecord
  2
AcAecLayerStandard
 70
     0
  0
APPID
  5
3EFF
330
3D52
100
AcDbSymbolTableRecord
100
AcDbRegAppTableRecord
  2
AcadAnnotative
 70
     0
  0
APPID
  5
3F01
330
3D52
100
AcDbSymbolTableRecord
100
AcDbRegAppTableRecord
  2
AcLayerTools
 70
     0
  0
APPID
  5
4460
330
3D52
100
AcDbSymbolTableRecord
100
AcDbRegAppTableRecord
  2
ACAD_DSTYLE_DIMBREAK
 70
     0
  0
APPID
  5
4461
330
3D52
100
AcDbSymbolTableRecord
100
AcDbRegAppTableRecord
  2
ACAD_DSTYLE_DIMJAG
 70
     0
  0
APPID
  5
4462
330
3D52
100
AcDbSymbolTableRecord
100
AcDbRegAppTableRecord
  2
ACAD_DSTYLE_DIMTALN
 70
     0
  0
APPID
  5
446E
330
3D52
100
AcDbSymbolTableRecord
100
AcDbRegAppTableRecord
  2
ACAD_NAV_VCDISPLAY
 70
     0
  0
ENDTAB
  0
TABLE
  2
DIMSTYLE
  5
3D53
330
0
100
AcDbSymbolTable
 70
     1
100
AcDbDimStyleTable
  0
DIMSTYLE
105
3D73
330
3D53
100
AcDbSymbolTableRecord
100
AcDbDimStyleTableRecord
  2
STANDARD
 70
     0
178
     0
340
3D5A
  0
ENDTAB
  0
TABLE
  2
BLOCK_RECORD
  5
3D4B
330
0
100
AcDbSymbolTable
 70
     0
  0
BLOCK_RECORD
  5
3D65
102
{ACAD_XDICTIONARY
360
3EC7
102
}
330
3D4B
100
AcDbSymbolTableRecord
100
AcDbBlockTableRecord
  2
*Model_Space
340
3D66
 70
     0
280
     1
281
     0
  0
BLOCK_RECORD
  5
3D63
330
3D4B
100
AcDbSymbolTableRecord
100
AcDbBlockTableRecord
  2
*Paper_Space
340
3D64
 70
     0
280
     1
281
     0
  0
ENDTAB
  0
ENDSEC
  0
SECTION
  2
BLOCKS
  0
BLOCK
  5
3D74
330
3D65
100
AcDbEntity
  8
0
100
AcDbBlockBegin
  2
*Model_Space
 70
     0
 10
0.0
 20
0.0
 30
0.0
  3
*Model_Space
  1

  0
ENDBLK
  5
23B2
330
3D65
100
AcDbEntity
  8
0
100
AcDbBlockEnd
  0
BLOCK
  5
3D75
330
3D63
100
AcDbEntity
 67
     1
  8
0
100
AcDbBlockBegin
  2
*Paper_Space
 70
     0
 10
0.0
 20
0.0
 30
0.0
  3
*Paper_Space
  1

  0
ENDBLK
  5
23AE
330
3D63
100
AcDbEntity
 67
     1
  8
0
100
AcDbBlockEnd
  0
ENDSEC
  0
SECTION
  2
ENTITIES
  0
LINE
  5
EE
330
3D65
100
AcDbEntity
  8
0
100
AcDbLine
 10
8025.371948238463
 20
987.6576470269353
 30
0.0
 11
8025.371948238463
 21
0.0
 31
0.0
  0
TEXT
  5
EF
330
3D65
100
AcDbEntity
  8
0
100
AcDbText
 10
6252.7084966879
 20
778.7322304035334
 30
0.0
 40
125.0
  1
2024-06
  7
STILE1
 72
     1
 11
6687.604330021233
 21
778.7322304035334
 31
0.0
100
AcDbText
  0
LINE
  5
F0
330
3D65
100
AcDbEntity
  8
0
100
AcDbLine
 10
5613.247965492308
 20
687.6610921230163
 30
0.0
 11
5613.247965492308
 21
987.6576470269355
 31
0.0
  0
LINE
  5
F1
330
3D65
100
AcDbEntity
  8
0
100
AcDbLine
 10
2675.123982746154
 20
987.6576470269353
 30
0.0
 11
2675.123982746154
 21
0.0
 31
0.0
  0
LWPOLYLINE
  5
F2
330
3D65
100
AcDbEntity
  8
0
100
AcDbPolyline
 90
        4
 70
     1
 43
0.0
 10
0.0
 20
987.6576470269353
 10
8025.371948238463
 20
987.6576470269353
 10
8025.371948238463
 20
0.0
 10
0.0
 20
0.0
  0
LWPOLYLINE
  5
F3
330
3D65
100
AcDbEntity
  8
0
100
AcDbPolyline
 90
        2
 70
     0
 43
0.0
 10
2675.123982746154
 20
687.661092123016
 10
8025.371948238463
 20
687.6610921230168
  0
TEXT
  5
F4
330
3D65
100
AcDbEntity
  8
0
100
AcDbText
 10
3484.840736835664
 20
170.1637904425171
 30
0.0
 40
125.0
  1
This drawing is property of Fantin S.r.l. 
  7
STILE1
 72
     1
 11
5499.721689216617
 21
170.1637904425171
 31
0.0
100
AcDbText
  0
LWPOLYLINE
  5
F5
330
3D65
100
AcDbEntity
  8
0
100
AcDbPolyline
 90
       16
 70
     1
 43
0.0
 10
847.7226611692438
 20
383.6228027346076
 10
847.7226611692438
 20
383.6228027346076
 10
872.0839436817907
 20
299.9999999999997
 10
997.8006456140432
 20
299.9999999999997
 10
880.3917914489284
 20
652.7743326826017
 42
0.1089385125692126
 10
867.6499316329131
 20
680.4454704024826
 42
0.1589313772246072
 10
855.6541064428161
 20
687.7303423592817
 42
0.058673645385263
 10
839.4089355459447
 20
689.3216281465718
 10
839.4089355459447
 20
689.3216281465718
 10
744.1606580931694
 20
689.3216281465718
 42
0.058673645385263
 10
727.9154871962947
 20
687.7303423592817
 42
0.1589313772246072
 10
715.9196620061985
 20
680.4454704024826
 42
0.1089385125692126
 10
703.1778021901849
 20
652.7743326826017
 10
585.768948029726
 20
299.9999999999997
 10
704.8348931223154
 20
299.9999999999997
 10
728.6473931185901
 20
383.6228027346076
  0
LWPOLYLINE
  5
F6
330
3D65
100
AcDbEntity
  8
0
100
AcDbPolyline
 90
        5
 70
     0
 43
0.0
 10
791.2309977225952
 20
580.7787272136192
 10
824.458943684584
 20
466.6909450956151
 10
751.9104003906241
 20
466.6909450956151
 10
785.13834635727
 20
580.7787272136192
 10
791.2309977225952
 20
580.7787272136192
  0
LWPOLYLINE
  5
F7
330
3D65
100
AcDbEntity
  8
0
100
AcDbPolyline
 90
       11
 70
     0
 43
0.0
 10
605.1458875834936
 20
687.6576470269353
 10
605.1458875834936
 20
598.4968532994384
 10
419.0693901898336
 20
598.4968532994384
 10
419.0693901898336
 20
521.52136230492
 10
549.2130398191512
 20
521.52136230492
 10
549.2130398191512
 20
438.4480523003727
 10
419.0693901898336
 20
438.4480523003727
 10
419.0693901898336
 20
299.9999999999997
 10
300.0
 20
299.9999999999997
 10
300.0
 20
687.6576470269353
 10
605.1458875834936
 20
687.6576470269353
  0
LWPOLYLINE
  5
F8
330
3D65
100
AcDbEntity
  8
0
100
AcDbPolyline
 90
        4
 70
     1
 43
0.0
 10
1820.206949869171
 20
687.6593695743937
 10
1939.276340059005
 20
687.6593695743937
 10
1939.276340059005
 20
299.9999999999997
 10
1820.206949869171
 20
299.9999999999997
  0
LWPOLYLINE
  5
F9
330
3D65
100
AcDbEntity
  8
0
100
AcDbPolyline
 90
        9
 70
     0
 43
0.0
 10
1783.103271485306
 20
687.6593695743937
 10
1783.103271485306
 20
596.8363172747192
 10
1666.80718316231
 20
596.8363172747192
 10
1666.80718316231
 20
299.9999999999997
 10
1547.737792972475
 20
299.9999999999997
 10
1547.737792972475
 20
596.8363172747192
 10
1434.204671224579
 20
596.8363172747192
 10
1434.204671224579
 20
687.6593695743937
 10
1783.103271485306
 20
687.6593695743937
  0
LWPOLYLINE
  5
FA
330
3D65
100
AcDbEntity
  8
0
100
AcDbPolyline
 90
       15
 70
     0
 43
0.0
 10
1030.479098847136
 20
299.9999999999997
 10
1030.479098847136
 20
687.661092123016
 10
1131.828640410675
 20
687.661092123016
 42
-0.316444976687396
 10
1182.776435003616
 20
659.4164767791514
 10
1283.569593643768
 20
489.3975694442633
 10
1286.337727867066
 20
489.3975694442633
 10
1286.337727867066
 20
687.661092123016
 10
1398.761528860777
 20
687.661092123016
 10
1398.761528860777
 20
299.9999999999997
 10
1316.239434136078
 20
299.9999999999997
 42
-0.312959769389874
 10
1265.29163953848
 20
328.2428927952421
 10
1145.671034073457
 20
521.5196397574612
 10
1142.906344942748
 20
521.5196397574612
 10
1142.906344942748
 20
299.9999999999997
 10
1030.479098847136
 20
299.9999999999997
  0
LWPOLYLINE
  5
FB
330
3D65
100
AcDbEntity
  8
0
100
AcDbPolyline
 90
       15
 70
     0
 43
0.0
 10
2006.841552732512
 20
299.9999999999997
 10
2006.841552732512
 20
687.661092123016
 10
2108.191094296053
 20
687.661092123016
 42
-0.316444976687396
 10
2159.138888884337
 20
659.4164767791514
 10
2259.932047529146
 20
489.3975694442633
 10
2262.700181747787
 20
489.3975694442633
 10
2262.700181747787
 20
687.661092123016
 10
2375.123982746154
 20
687.661092123016
 10
2375.123982746154
 20
299.9999999999997
 10
2292.601888021454
 20
299.9999999999997
 42
-0.312959769389874
 10
2241.654093428515
 20
328.2428927952421
 10
2122.033487958833
 20
521.5196397574612
 10
2119.268798828125
 20
521.5196397574612
 10
2119.268798828125
 20
299.9999999999997
 10
2006.841552732512
 20
299.9999999999997
  0
TEXT
  5
FC
330
3D65
100
AcDbEntity
  8
0
100
AcDbText
 10
4244.895478529158
 20
778.732230403533
 30
0.0
 40
125.0
  1
Still 
  7
STILE1
 72
     1
 11
4474.062145195825
 21
778.732230403533
 31
0.0
100
AcDbText
  0
TEXT
  5
FD
330
3D65
100
AcDbEntity
  8
0
100
AcDbText
 10
3173.906836621409
 20
432.2479967307316
 30
0.0
 40
125.0
  1
Questo disegno è di proprietà di Fantin S.r.l.   
  7
STILE1
 72
     1
 11
5596.525884240456
 21
432.2479967307316
 31
0.0
100
AcDbText
  0
LWPOLYLINE
  5
457E
330
3D65
100
AcDbEntity
  8
0
100
AcDbPolyline
 90
        4
 70
     1
 43
0.0
 10
3691.430712643687
 20
15647.52448987819
 10
5291.430712643687
 20
15647.5244898782
 10
5291.430712643687
 20
16547.5244898782
 10
3691.430712643687
 20
16547.5244898782
  0
LWPOLYLINE
  5
457F
330
3D65
100
AcDbEntity
  8
0
100
AcDbPolyline
 90
        4
 70
     1
 43
0.0
 10
3691.430712643683
 20
17147.5244898782
 10
5291.430712643683
 20
17147.5244898782
 10
5291.430712643683
 20
17947.5244898782
 10
3691.430712643683
 20
17947.52448987819
  0
LWPOLYLINE
  5
4580
330
3D65
100
AcDbEntity
  8
0
100
AcDbPolyline
 90
        4
 70
     1
 43
0.0
 10
3691.430712643683
 20
18547.52448987819
 10
5291.430712643683
 20
18547.5244898782
 10
5291.43071264368
 20
19247.5244898782
 10
3691.43071264368
 20
19247.5244898782
  0
LWPOLYLINE
  5
4581
330
3D65
100
AcDbEntity
  8
0
100
AcDbPolyline
 90
        4
 70
     1
 43
0.0
 10
5791.430712643683
 20
18547.5244898782
 10
7591.430712643683
 20
18547.5244898782
 10
7591.43071264368
 20
19247.5244898782
 10
5791.43071264368
 20
19247.5244898782
  0
LWPOLYLINE
  5
4582
330
3D65
100
AcDbEntity
  8
0
100
AcDbPolyline
 90
        4
 70
     1
 43
0.0
 10
5791.430712643683
 20
17147.5244898782
 10
7591.430712643683
 20
17147.5244898782
 10
7591.430712643683
 20
17947.5244898782
 10
5791.430712643683
 20
17947.5244898782
  0
LWPOLYLINE
  5
4583
330
3D65
100
AcDbEntity
  8
0
100
AcDbPolyline
 90
        4
 70
     1
 43
0.0
 10
5791.430712643687
 20
15647.5244898782
 10
7591.430712643687
 20
15647.5244898782
 10
7591.430712643687
 20
16547.5244898782
 10
5791.430712643687
 20
16547.5244898782
  0
LWPOLYLINE
  5
4584
330
3D65
100
AcDbEntity
  8
0
100
AcDbPolyline
 90
        4
 70
     1
 43
0.0
 10
8091.430712643687
 20
15647.52448987821
 10
10091.43071264368
 20
15647.52448987821
 10
10091.43071264368
 20
16547.52448987821
 10
8091.430712643687
 20
16547.5244898782
  0
LWPOLYLINE
  5
4585
330
3D65
100
AcDbEntity
  8
0
100
AcDbPolyline
 90
        4
 70
     1
 43
0.0
 10
8091.430712643683
 20
17147.5244898782
 10
10091.43071264367
 20
17147.52448987821
 10
10091.43071264367
 20
17947.5244898782
 10
8091.430712643683
 20
17947.5244898782
  0
LWPOLYLINE
  5
4586
330
3D65
100
AcDbEntity
  8
0
100
AcDbPolyline
 90
        4
 70
     1
 43
0.0
 10
8091.430712643683
 20
18547.5244898782
 10
10091.43071264367
 20
18547.5244898782
 10
10091.43071264367
 20
19247.52448987821
 10
8091.43071264368
 20
19247.5244898782
  0
LWPOLYLINE
  5
4587
330
3D65
100
AcDbEntity
  8
0
100
AcDbPolyline
 90
        4
 70
     1
 43
0.0
 10
11687.19300282061
 20
20175.53765117845
 10
0.0
 20
20175.53765117845
 10
0.0
 20
11858.95346583694
 10
11687.19300282061
 20
11858.95346583694
  0
LWPOLYLINE
  5
4588
330
3D65
100
AcDbEntity
  8
0
100
AcDbPolyline
 90
        9
 70
     1
 43
0.0
 10
8091.430712643691
 20
13395.95346583694
 10
10091.43071264368
 20
13395.95346583694
 10
10091.43071264368
 20
12670.95346583694
 10
10051.43071264369
 20
12670.95346583694
 10
10051.43071264369
 20
13355.95346583694
 10
8131.430712643691
 20
13355.95346583694
 10
8131.430712643691
 20
12670.95346583694
 10
8091.430712643691
 20
12670.95346583694
 10
8091.430712643691
 20
13395.95346583694
  0
LWPOLYLINE
  5
4589
330
3D65
100
AcDbEntity
  8
0
100
AcDbPolyline
 90
        4
 70
     1
 43
0.0
 10
8091.430712643691
 20
13395.95346583694
 10
8091.430712643691
 20
13416.95346583694
 10
10091.43071264368
 20
13416.95346583694
 10
10091.43071264368
 20
13395.95346583694
  0
LWPOLYLINE
  5
458A
330
3D65
100
AcDbEntity
  8
0
100
AcDbPolyline
 90
        4
 70
     1
 43
0.0
 10
5791.430712643691
 20
13395.95346583694
 10
5791.430712643691
 20
13416.95346583694
 10
7591.430712643691
 20
13416.95346583694
 10
7591.430712643691
 20
13395.95346583694
  0
LWPOLYLINE
  5
458B
330
3D65
100
AcDbEntity
  8
0
100
AcDbPolyline
 90
        9
 70
     1
 43
0.0
 10
5791.430712643691
 20
13395.95346583694
 10
7591.430712643691
 20
13395.95346583694
 10
7591.430712643691
 20
12670.95346583694
 10
7551.430712643691
 20
12670.95346583694
 10
7551.430712643691
 20
13355.95346583694
 10
5831.430712643687
 20
13355.95346583694
 10
5831.430712643687
 20
12670.95346583694
 10
5791.430712643691
 20
12670.95346583694
 10
5791.430712643691
 20
13395.95346583694
  0
LWPOLYLINE
  5
458C
330
3D65
100
AcDbEntity
  8
0
100
AcDbPolyline
 90
        9
 70
     1
 43
0.0
 10
3691.430712643691
 20
13395.95346583694
 10
5291.430712643691
 20
13395.95346583694
 10
5291.430712643691
 20
12670.95346583694
 10
5251.430712643691
 20
12670.95346583694
 10
5251.430712643691
 20
13355.95346583694
 10
3731.430712643691
 20
13355.95346583694
 10
3731.430712643691
 20
12670.95346583694
 10
3691.430712643691
 20
12670.95346583694
 10
3691.430712643691
 20
13395.95346583694
  0
LWPOLYLINE
  5
458D
330
3D65
100
AcDbEntity
  8
0
100
AcDbPolyline
 90
        4
 70
     1
 43
0.0
 10
3691.430712643691
 20
13395.95346583694
 10
3691.430712643691
 20
13416.95346583694
 10
5291.430712643691
 20
13416.95346583694
 10
5291.430712643691
 20
13395.95346583694
  0
LWPOLYLINE
  5
458E
330
3D65
100
AcDbEntity
  8
0
100
AcDbPolyline
 90
        4
 70
     1
 43
0.0
 10
26206.84778237931
 20
20175.53765117843
 10
13306.10388590239
 20
20175.53765117845
 10
13306.1038859024
 20
11858.95346583695
 10
26206.84778237931
 20
11858.95346583695
  0
LWPOLYLINE
  5
458F
330
3D65
100
AcDbEntity
  8
0
100
AcDbPolyline
 90
        4
 70
     1
 43
0.0
 10
19323.78986002162
 20
19008.00075408683
 10
21123.78986002162
 20
19008.00075408683
 10
21123.78986002162
 20
18208.00075408685
 10
19323.78986002162
 20
18208.00075408685
  0
LWPOLYLINE
  5
4590
330
3D65
100
AcDbEntity
  8
0
100
AcDbPolyline
 90
        4
 70
     1
 43
0.0
 10
17223.78986002162
 20
19008.00075408683
 10
18823.78986002162
 20
19008.00075408683
 10
18823.78986002162
 20
18208.00075408685
 10
17223.78986002162
 20
18208.00075408685
  0
LWPOLYLINE
  5
4591
330
3D65
100
AcDbEntity
  8
0
100
AcDbPolyline
 90
        4
 70
     1
 43
0.0
 10
17223.78986002162
 20
17308.00075408685
 10
18823.78986002162
 20
17308.00075408685
 10
18823.78986002162
 20
18108.00075408685
 10
17223.78986002162
 20
18108.00075408685
  0
LWPOLYLINE
  5
4592
330
3D65
100
AcDbEntity
  8
0
100
AcDbPolyline
 90
        4
 70
     1
 43
0.0
 10
19323.78986002162
 20
17308.00075408685
 10
21123.78986002162
 20
17308.00075408685
 10
21123.78986002162
 20
18108.00075408685
 10
19323.78986002162
 20
18108.00075408685
  0
LWPOLYLINE
  5
4593
330
3D65
100
AcDbEntity
  8
0
100
AcDbPolyline
 90
        4
 70
     1
 43
0.0
 10
17223.78986002162
 20
18108.00075408685
 10
18823.78986002162
 20
18108.00075408685
 10
18823.78986002162
 20
18208.00075408685
 10
17223.78986002162
 20
18208.00075408685
  0
LWPOLYLINE
  5
4594
330
3D65
100
AcDbEntity
  8
0
100
AcDbPolyline
 90
        4
 70
     1
 43
0.0
 10
19323.78986002162
 20
18108.00075408685
 10
21123.78986002162
 20
18108.00075408685
 10
21123.78986002162
 20
18208.00075408685
 10
19323.78986002162
 20
18208.00075408685
  0
LWPOLYLINE
  5
4595
330
3D65
100
AcDbEntity
  8
0
100
AcDbPolyline
 90
        4
 70
     1
 43
0.0
 10
17223.78986002162
 20
13395.95346583693
 10
17223.78986002162
 20
13416.95346583693
 10
18823.78986002162
 20
13416.95346583693
 10
18823.78986002162
 20
13395.95346583693
  0
LWPOLYLINE
  5
4596
330
3D65
100
AcDbEntity
  8
0
100
AcDbPolyline
 90
        9
 70
     1
 43
0.0
 10
17223.78986002162
 20
13395.95346583693
 10
18823.78986002162
 20
13395.95346583693
 10
18823.78986002162
 20
12670.95346583694
 10
18783.78986002162
 20
12670.95346583694
 10
18783.78986002162
 20
13355.95346583693
 10
17263.78986002162
 20
13355.95346583693
 10
17263.78986002162
 20
12670.95346583694
 10
17223.78986002162
 20
12670.95346583694
 10
17223.78986002162
 20
13395.95346583693
  0
LWPOLYLINE
  5
4597
330
3D65
100
AcDbEntity
  8
0
100
AcDbPolyline
 90
        9
 70
     1
 43
0.0
 10
19323.78986002162
 20
13395.95346583693
 10
21123.78986002162
 20
13395.95346583693
 10
21123.78986002162
 20
12670.95346583694
 10
21083.78986002162
 20
12670.95346583694
 10
21083.78986002162
 20
13355.95346583693
 10
19363.78986002162
 20
13355.95346583693
 10
19363.78986002162
 20
12670.95346583694
 10
19323.78986002162
 20
12670.95346583694
 10
19323.78986002162
 20
13395.95346583693
  0
LWPOLYLINE
  5
4598
330
3D65
100
AcDbEntity
  8
0
100
AcDbPolyline
 90
        4
 70
     1
 43
0.0
 10
19323.78986002162
 20
13395.95346583693
 10
19323.78986002162
 20
13416.95346583693
 10
21123.78986002162
 20
13416.95346583693
 10
21123.78986002162
 20
13395.95346583693
  0
LWPOLYLINE
  5
4599
330
3D65
100
AcDbEntity
  8
0
100
AcDbPolyline
 90
        9
 70
     1
 43
0.0
 10
22123.78986002162
 20
13395.95346583693
 10
23823.78986002161
 20
13395.95346583693
 10
23823.78986002161
 20
12670.95346583694
 10
23783.78986002161
 20
12670.95346583694
 10
23783.78986002161
 20
13355.95346583693
 10
22163.78986002161
 20
13355.95346583693
 10
22163.78986002161
 20
12670.95346583694
 10
22123.78986002162
 20
12670.95346583694
 10
22123.78986002162
 20
13402.95346583693
  0
LWPOLYLINE
  5
459A
330
3D65
100
AcDbEntity
  8
0
100
AcDbPolyline
 90
        4
 70
     1
 43
0.0
 10
22123.78986002162
 20
13395.95346583693
 10
22123.78986002162
 20
13416.95346583693
 10
22923.78986002161
 20
13416.95346583693
 10
22923.78986002161
 20
13395.95346583693
  0
LWPOLYLINE
  5
459B
330
3D65
100
AcDbEntity
  8
0
100
AcDbPolyline
 90
        4
 70
     1
 43
0.0
 10
23823.78986002161
 20
13395.95346583693
 10
23823.78986002161
 20
13416.95346583693
 10
23023.78986002161
 20
13416.95346583693
 10
23023.78986002161
 20
13395.95346583693
  0
LWPOLYLINE
  5
459C
330
3D65
100
AcDbEntity
  8
0
100
AcDbPolyline
 90
        4
 70
     1
 43
0.0
 10
1791.430712643691
 20
13395.95346583694
 10
1791.430712643691
 20
13416.95346583694
 10
3191.430712643687
 20
13416.95346583694
 10
3191.430712643687
 20
13395.95346583694
  0
LWPOLYLINE
  5
459D
330
3D65
100
AcDbEntity
  8
0
100
AcDbPolyline
 90
        9
 70
     1
 43
0.0
 10
1791.430712643691
 20
13395.95346583694
 10
3191.430712643687
 20
13395.95346583694
 10
3191.430712643687
 20
12670.95346583694
 10
3151.430712643691
 20
12670.95346583694
 10
3151.430712643691
 20
13355.95346583694
 10
1831.430712643691
 20
13355.95346583694
 10
1831.430712643691
 20
12670.95346583694
 10
1791.430712643691
 20
12670.95346583694
 10
1791.430712643691
 20
13395.95346583694
  0
LWPOLYLINE
  5
459E
330
3D65
100
AcDbEntity
  8
0
100
AcDbPolyline
 90
        4
 70
     1
 43
0.0
 10
1791.430712643676
 20
18547.52448987819
 10
3191.43071264368
 20
18547.52448987819
 10
3191.430712643676
 20
19247.5244898782
 10
1791.430712643676
 20
19247.52448987819
  0
LWPOLYLINE
  5
459F
330
3D65
100
AcDbEntity
  8
0
100
AcDbPolyline
 90
        4
 70
     1
 43
0.0
 10
1791.430712643691
 20
17147.52448987819
 10
3191.43071264368
 20
17147.5244898782
 10
3191.43071264368
 20
17947.52448987819
 10
1791.430712643676
 20
17947.52448987819
  0
LWPOLYLINE
  5
45A0
330
3D65
100
AcDbEntity
  8
0
100
AcDbPolyline
 90
        4
 70
     1
 43
0.0
 10
1791.430712643691
 20
15647.52448987819
 10
3191.430712643683
 20
15647.52448987819
 10
3191.430712643683
 20
16547.5244898782
 10
1791.430712643691
 20
16547.52448987819
  0
LWPOLYLINE
  5
45A1
330
3D65
100
AcDbEntity
  8
0
100
AcDbPolyline
 90
        9
 70
     1
 43
0.0
 10
15323.78986002162
 20
13395.95346583693
 10
16723.78986002162
 20
13395.95346583693
 10
16723.78986002162
 20
12670.95346583694
 10
16683.78986002162
 20
12670.95346583694
 10
16683.78986002162
 20
13355.95346583693
 10
15363.78986002162
 20
13355.95346583693
 10
15363.78986002162
 20
12670.95346583694
 10
15323.78986002162
 20
12670.95346583694
 10
15323.78986002162
 20
13395.95346583693
  0
LWPOLYLINE
  5
45A2
330
3D65
100
AcDbEntity
  8
0
100
AcDbPolyline
 90
        4
 70
     1
 43
0.0
 10
15323.78986002162
 20
13395.95346583693
 10
15323.78986002162
 20
13416.95346583693
 10
16723.78986002162
 20
13416.95346583693
 10
16723.78986002162
 20
13395.95346583693
  0
LWPOLYLINE
  5
45A3
330
3D65
100
AcDbEntity
  8
0
100
AcDbPolyline
 90
        4
 70
     1
 43
0.0
 10
15323.78986002162
 20
18108.00075408685
 10
16723.78986002162
 20
18108.00075408685
 10
16723.78986002162
 20
18208.00075408685
 10
15323.78986002162
 20
18208.00075408685
  0
LWPOLYLINE
  5
45A4
330
3D65
100
AcDbEntity
  8
0
100
AcDbPolyline
 90
        4
 70
     1
 43
0.0
 10
15323.78986002162
 20
17308.00075408685
 10
16723.78986002162
 20
17308.00075408685
 10
16723.78986002162
 20
18108.00075408685
 10
15323.78986002162
 20
18108.00075408685
  0
LWPOLYLINE
  5
45A5
330
3D65
100
AcDbEntity
  8
0
100
AcDbPolyline
 90
        4
 70
     1
 43
0.0
 10
15323.78986002162
 20
19008.00075408683
 10
16723.78986002162
 20
19008.00075408683
 10
16723.78986002162
 20
18208.00075408685
 10
15323.78986002162
 20
18208.00075408685
  0
LWPOLYLINE
  5
45A6
330
3D65
100
AcDbEntity
  8
0
100
AcDbPolyline
 90
        4
 70
     1
 43
0.0
 10
40337.62332585
 20
17715.47435719093
 10
27436.87942937307
 20
17715.47435719093
 10
27436.87942937306
 20
14395.07913354806
 10
40337.62332584999
 20
14395.07913354806
  0
LWPOLYLINE
  5
45A7
330
3D65
100
AcDbEntity
  8
0
100
AcDbPolyline
 90
        4
 70
     1
 43
0.0
 10
1794.555712643691
 20
6925.811059118976
 10
3994.55571264368
 20
6925.811059118976
 10
3994.55571264368
 20
5925.811059118976
 10
1794.555712643691
 20
5925.811059118976
  0
LWPOLYLINE
  5
45A8
330
3D65
100
AcDbEntity
  8
0
100
AcDbPolyline
 90
        9
 70
     1
 43
0.0
 10
1791.430712643691
 20
4571.476009503291
 10
3991.43071264368
 20
4571.476009503291
 10
3991.43071264368
 20
3846.476009503291
 10
3951.430712643691
 20
3846.476009503291
 10
3951.430712643691
 20
4531.476009503291
 10
1831.430712643691
 20
4531.476009503291
 10
1831.430712643691
 20
3846.476009503291
 10
1791.430712643691
 20
3846.476009503291
 10
1791.430712643691
 20
4571.476009503291
  0
LWPOLYLINE
  5
45A9
330
3D65
100
AcDbEntity
  8
0
100
AcDbPolyline
 90
        4
 70
     1
 43
0.0
 10
1791.430712643691
 20
4571.476009503291
 10
1791.430712643691
 20
4592.476009503291
 10
3991.43071264368
 20
4592.476009503291
 10
3991.43071264368
 20
4571.476009503291
  0
LWPOLYLINE
  5
45AA
330
3D65
100
AcDbEntity
  8
0
100
AcDbPolyline
 90
        4
 70
     1
 43
0.0
 10
27436.87942937306
 20
9018.514440761503
 10
40337.62332584999
 20
9018.514440761503
 10
40337.62332584999
 20
2643.500000000002
 10
27436.87942937306
 20
2643.500000000002
  0
TEXT
  5
45AB
330
3D65
100
AcDbEntity
  8
0
100
AcDbText
 10
27754.13360792384
 20
8494.431116230926
 30
0.0
 40
100.0
  1
Wheel kit with color-matching discs / Kit ruote con dischi in tinta / Radsatz mit farblich abgestimmten Scheiben
  7
STILE1
100
AcDbText
  0
LWPOLYLINE
  5
45AC
330
3D65
100
AcDbEntity
  8
0
100
AcDbPolyline
 90
        4
 70
     1
 43
0.0
 10
28530.81111739692
 20
4675.4760095033
 10
28530.81111739692
 20
4696.4760095033
 10
30330.8111173969
 20
4696.4760095033
 10
30330.8111173969
 20
4675.4760095033
  0
LWPOLYLINE
  5
45AD
330
3D65
100
AcDbEntity
  8
0
100
AcDbPolyline
 90
        9
 70
     1
 43
0.0
 10
28530.81111739692
 20
4675.4760095033
 10
30330.8111173969
 20
4675.4760095033
 10
30330.8111173969
 20
3950.4760095033
 10
30290.8111173969
 20
3950.4760095033
 10
30290.8111173969
 20
4635.4760095033
 10
28570.81111739692
 20
4635.4760095033
 10
28570.81111739692
 20
3950.4760095033
 10
28530.81111739692
 20
3950.4760095033
 10
28530.81111739692
 20
4675.4760095033
  0
LWPOLYLINE
  5
45AE
330
3D65
100
AcDbEntity
  8
0
100
AcDbPolyline
 90
        4
 70
     1
 43
0.0
 10
31030.8111173969
 20
4582.4760095033
 10
31030.8111173969
 20
4603.4760095033
 10
32830.81111739691
 20
4603.4760095033
 10
32830.81111739691
 20
4582.4760095033
  0
LWPOLYLINE
  5
45AF
330
3D65
100
AcDbEntity
  8
0
100
AcDbPolyline
 90
        9
 70
     1
 43
0.0
 10
31030.8111173969
 20
4582.4760095033
 10
32830.81111739691
 20
4582.4760095033
 10
32830.81111739691
 20
3950.4760095033
 10
32790.81111739691
 20
3950.4760095033
 10
32790.81111739691
 20
4542.4760095033
 10
31070.8111173969
 20
4542.4760095033
 10
31070.8111173969
 20
3950.4760095033
 10
31030.8111173969
 20
3950.4760095033
 10
31030.8111173969
 20
4582.4760095033
  0
LWPOLYLINE
  5
45B0
330
3D65
100
AcDbEntity
  8
0
100
AcDbPolyline
 90
        4
 70
     1
 43
0.0
 10
33530.81111739691
 20
4582.4760095033
 10
33530.81111739691
 20
4603.4760095033
 10
35330.81111739691
 20
4603.4760095033
 10
35330.81111739691
 20
4582.4760095033
  0
LWPOLYLINE
  5
45B1
330
3D65
100
AcDbEntity
  8
0
100
AcDbPolyline
 90
        9
 70
     1
 43
0.0
 10
33530.81111739691
 20
4582.4760095033
 10
35330.81111739691
 20
4582.4760095033
 10
35330.81111739691
 20
3850.4760095033
 10
35290.81111739691
 20
3850.4760095033
 10
35290.81111739691
 20
4542.4760095033
 10
33570.81111739691
 20
4542.4760095033
 10
33570.81111739691
 20
3850.4760095033
 10
33530.81111739691
 20
3850.4760095033
 10
33530.81111739691
 20
4582.4760095033
  0
LWPOLYLINE
  5
45B2
330
3D65
100
AcDbEntity
  8
0
100
AcDbPolyline
 90
        4
 70
     0
 43
0.0
 10
28539.81111739692
 20
3927.09220259523
 10
28539.81111739692
 20
3950.4760095033
 10
28561.81111739692
 20
3950.4760095033
 10
28561.81111739692
 20
3899.673228536691
1001
PE_URL
1000

  0
CIRCLE
  5
45B3
330
3D65
100
AcDbEntity
  8
0
100
AcDbCircle
 10
28522.56111739692
 20
3890.726009503289
 30
0.0
 40
38.00000000000004
1001
PE_URL
1000

  0
LINE
  5
45B4
330
3D65
100
AcDbEntity
  8
0
100
AcDbLine
 10
28537.16432895562
 20
3928.25325751769
 30
0.0
 11
28537.16574300102
 21
3928.252761837188
 31
0.0
1001
PE_URL
1000

  0
CIRCLE
  5
45B5
330
3D65
100
AcDbEntity
  8
0
100
AcDbCircle
 10
28522.56111739692
 20
3890.726009503289
 30
0.0
 40
40.25
1001
PE_URL
1000

  0
LWPOLYLINE
  5
45B6
330
3D65
100
AcDbEntity
  8
0
100
AcDbPolyline
 90
        7
 70
     0
 43
0.0
 10
28494.11212215908
 20
3919.199105049031
 10
28494.11212215908
 20
3920.726009503289
 10
28472.31111739692
 20
3920.726009503289
 10
28472.31111739692
 20
3915.726009503289
 10
28482.31111739692
 20
3915.726009503289
 10
28482.31111739692
 20
3900.726009503289
 10
28483.49865149635
 20
3900.430969975479
  0
LWPOLYLINE
  5
45B7
330
3D65
100
AcDbEntity
  8
0
100
AcDbPolyline
 90
        4
 70
     0
 43
0.0
 10
30299.8111173969
 20
3927.09220259523
 10
30299.8111173969
 20
3950.4760095033
 10
30321.8111173969
 20
3950.4760095033
 10
30321.8111173969
 20
3899.673228536691
1001
PE_URL
1000

  0
CIRCLE
  5
45B8
330
3D65
100
AcDbEntity
  8
0
100
AcDbCircle
 10
30282.5611173969
 20
3890.726009503289
 30
0.0
 40
38.00000000000004
1001
PE_URL
1000

  0
LINE
  5
45B9
330
3D65
100
AcDbEntity
  8
0
100
AcDbLine
 10
30297.16432895561
 20
3928.25325751769
 30
0.0
 11
30297.16574300101
 21
3928.252761837188
 31
0.0
1001
PE_URL
1000

  0
CIRCLE
  5
45BA
330
3D65
100
AcDbEntity
  8
0
100
AcDbCircle
 10
30282.5611173969
 20
3890.726009503289
 30
0.0
 40
40.25
1001
PE_URL
1000

  0
LWPOLYLINE
  5
45BB
330
3D65
100
AcDbEntity
  8
0
100
AcDbPolyline
 90
        7
 70
     0
 43
0.0
 10
30254.11212215908
 20
3919.199105049031
 10
30254.11212215908
 20
3920.726009503289
 10
30232.3111173969
 20
3920.726009503289
 10
30232.3111173969
 20
3915.726009503289
 10
30242.3111173969
 20
3915.726009503289
 10
30242.3111173969
 20
3900.726009503289
 10
30243.49865149633
 20
3900.430969975479
  0
LWPOLYLINE
  5
45BC
330
3D65
100
AcDbEntity
  8
0
100
AcDbPolyline
 90
        4
 70
     0
 43
0.0
 10
31039.8111173969
 20
3927.09220259523
 10
31039.8111173969
 20
3950.4760095033
 10
31061.8111173969
 20
3950.4760095033
 10
31061.8111173969
 20
3899.673228536691
1001
PE_URL
1000

  0
CIRCLE
  5
45BD
330
3D65
100
AcDbEntity
  8
0
100
AcDbCircle
 10
31022.5611173969
 20
3890.726009503289
 30
0.0
 40
38.00000000000004
1001
PE_URL
1000

  0
LINE
  5
45BE
330
3D65
100
AcDbEntity
  8
0
100
AcDbLine
 10
31037.16432895561
 20
3928.25325751769
 30
0.0
 11
31037.16574300101
 21
3928.252761837188
 31
0.0
1001
PE_URL
1000

  0
CIRCLE
  5
45BF
330
3D65
100
AcDbEntity
  8
0
100
AcDbCircle
 10
31022.5611173969
 20
3890.726009503289
 30
0.0
 40
40.25
1001
PE_URL
1000

  0
LWPOLYLINE
  5
45C0
330
3D65
100
AcDbEntity
  8
0
100
AcDbPolyline
 90
        7
 70
     0
 43
0.0
 10
30994.11212215908
 20
3919.199105049031
 10
30994.11212215908
 20
3920.726009503289
 10
30972.3111173969
 20
3920.726009503289
 10
30972.3111173969
 20
3915.726009503289
 10
30982.3111173969
 20
3915.726009503289
 10
30982.3111173969
 20
3900.726009503289
 10
30983.49865149633
 20
3900.430969975479
  0
LWPOLYLINE
  5
45C1
330
3D65
100
AcDbEntity
  8
0
100
AcDbPolyline
 90
        4
 70
     0
 43
0.0
 10
32799.81111739691
 20
3927.09220259523
 10
32799.81111739691
 20
3950.4760095033
 10
32821.81111739691
 20
3950.4760095033
 10
32821.81111739691
 20
3899.673228536691
1001
PE_URL
1000

  0
CIRCLE
  5
45C2
330
3D65
100
AcDbEntity
  8
0
100
AcDbCircle
 10
32782.56111739691
 20
3890.726009503289
 30
0.0
 40
38.00000000000004
1001
PE_URL
1000

  0
LINE
  5
45C3
330
3D65
100
AcDbEntity
  8
0
100
AcDbLine
 10
32797.16432895561
 20
3928.25325751769
 30
0.0
 11
32797.16574300101
 21
3928.252761837188
 31
0.0
1001
PE_URL
1000

  0
CIRCLE
  5
45C4
330
3D65
100
AcDbEntity
  8
0
100
AcDbCircle
 10
32782.56111739691
 20
3890.726009503289
 30
0.0
 40
40.25
1001
PE_URL
1000

  0
LWPOLYLINE
  5
45C5
330
3D65
100
AcDbEntity
  8
0
100
AcDbPolyline
 90
        7
 70
     0
 43
0.0
 10
32754.11212215907
 20
3919.199105049031
 10
32754.11212215907
 20
3920.726009503289
 10
32732.31111739691
 20
3920.726009503289
 10
32732.31111739691
 20
3915.726009503289
 10
32742.31111739691
 20
3915.726009503289
 10
32742.31111739691
 20
3900.726009503289
 10
32743.49865149634
 20
3900.430969975479
  0
LWPOLYLINE
  5
45C6
330
3D65
100
AcDbEntity
  8
0
100
AcDbPolyline
 90
        4
 70
     1
 43
0.0
 10
4840.229840603573
 20
4571.476009503294
 10
4840.229840603573
 20
4595.476009503294
 10
7240.229840603577
 20
4595.476009503294
 10
7240.229840603577
 20
4571.476009503294
  0
LWPOLYLINE
  5
45C7
330
3D65
100
AcDbEntity
  8
0
100
AcDbPolyline
 90
        8
 70
     1
 43
0.0
 10
4880.229840603515
 20
3846.476009503294
 10
4840.229840603515
 20
3846.476009503294
 10
4840.229840603573
 20
4571.476009503294
 10
7240.229840603577
 20
4571.476009503294
 10
7240.229840603515
 20
3846.476009503294
 10
7200.229840603515
 20
3846.476009503294
 10
7200.229840603577
 20
4531.476009503294
 10
4880.229840603573
 20
4531.476009503294
  0
LWPOLYLINE
  5
45C8
330
3D65
100
AcDbEntity
  8
0
100
AcDbPolyline
 90
        4
 70
     1
 43
0.0
 10
4840.229840603573
 20
5925.81105911898
 10
4840.229840603573
 20
6925.81105911898
 10
7240.229840603573
 20
6925.81105911898
 10
7240.229840603573
 20
5925.81105911898
1001
PE_URL
1000

  0
LWPOLYLINE
  5
45C9
330
3D65
100
AcDbEntity
  8
0
100
AcDbPolyline
 90
        4
 70
     1
 43
0.0
 10
26236.41191587953
 20
9018.514440761503
 10
13306.10388590239
 20
9018.514440761503
 10
13306.10388590239
 20
2643.500000000002
 10
26236.41191587953
 20
2643.500000000002
  0
LWPOLYLINE
  5
45CA
330
3D65
100
AcDbEntity
  8
0
100
AcDbPolyline
 90
        4
 70
     1
 43
0.0
 10
13875.36632605324
 20
6453.362920615475
 10
15075.36632605324
 20
6453.362920615475
 10
15075.36632605324
 20
6803.362920615475
 10
13875.36632605324
 20
6803.362920615475
1001
PE_URL
1000

  0
LWPOLYLINE
  5
45CB
330
3D65
100
AcDbEntity
  8
0
100
AcDbPolyline
 90
        4
 70
     1
 43
0.0
 10
15575.36632605324
 20
6453.362920615475
 10
17175.36632605324
 20
6453.362920615475
 10
17175.36632605324
 20
6803.362920615475
 10
15575.36632605324
 20
6803.362920615475
  0
LWPOLYLINE
  5
45CC
330
3D65
100
AcDbEntity
  8
0
100
AcDbPolyline
 90
        4
 70
     1
 43
0.0
 10
17675.36632605324
 20
6453.362920615475
 10
19475.36632605324
 20
6453.362920615475
 10
19475.36632605324
 20
6803.362920615475
 10
17675.36632605324
 20
6803.362920615475
  0
LWPOLYLINE
  5
45CD
330
3D65
100
AcDbEntity
  8
0
100
AcDbPolyline
 90
        4
 70
     1
 43
0.0
 10
19975.36632605324
 20
6453.362920615475
 10
21975.36632605324
 20
6453.362920615478
 10
21975.36632605324
 20
6803.362920615478
 10
19975.36632605324
 20
6803.362920615475
1001
PE_URL
1000

  0
LWPOLYLINE
  5
45CE
330
3D65
100
AcDbEntity
  8
0
100
AcDbPolyline
 90
        4
 70
     1
 43
0.0
 10
22475.36632605324
 20
6453.362920615478
 10
24675.36632605324
 20
6453.362920615478
 10
24675.36632605324
 20
6803.362920615478
 10
22475.36632605324
 20
6803.362920615478
1001
PE_URL
1000

  0
LWPOLYLINE
  5
45CF
330
3D65
100
AcDbEntity
  8
0
100
AcDbPolyline
 90
        4
 70
     1
 43
0.0
 10
13875.36632605327
 20
4275.476009503296
 10
13875.36632605327
 20
4296.476009503296
 10
15075.36632605324
 20
4296.476009503296
 10
15075.36632605324
 20
4275.476009503296
  0
LWPOLYLINE
  5
45D0
330
3D65
100
AcDbEntity
  8
0
100
AcDbPolyline
 90
        8
 70
     1
 43
0.0
 10
13915.36632605321
 20
3850.476009503296
 10
13875.36632605321
 20
3850.476009503296
 10
13875.36632605327
 20
4275.476009503296
 10
15075.36632605327
 20
4275.476009503296
 10
15075.36632605321
 20
3850.476009503296
 10
15035.36632605321
 20
3850.476009503296
 10
15035.36632605327
 20
4235.476009503296
 10
13915.36632605327
 20
4235.476009503296
  0
LWPOLYLINE
  5
45D1
330
3D65
100
AcDbEntity
  8
0
100
AcDbPolyline
 90
        4
 70
     1
 43
0.0
 10
13882.86632605321
 20
3850.476009503296
 10
13882.86632605321
 20
3846.476009503296
 10
13907.86632605321
 20
3846.476009503296
 10
13907.86632605321
 20
3850.476009503296
  0
LWPOLYLINE
  5
45D2
330
3D65
100
AcDbEntity
  8
0
100
AcDbPolyline
 90
        4
 70
     1
 43
0.0
 10
15042.86632605321
 20
3850.476009503296
 10
15042.86632605321
 20
3846.476009503296
 10
15067.86632605321
 20
3846.476009503296
 10
15067.86632605321
 20
3850.476009503296
  0
LWPOLYLINE
  5
45D3
330
3D65
100
AcDbEntity
  8
0
100
AcDbPolyline
 90
        4
 70
     1
 43
0.0
 10
15575.36632605327
 20
4275.476009503296
 10
15575.36632605327
 20
4296.476009503296
 10
17175.36632605324
 20
4296.476009503293
 10
17175.36632605324
 20
4275.476009503293
  0
LWPOLYLINE
  5
45D4
330
3D65
100
AcDbEntity
  8
0
100
AcDbPolyline
 90
        8
 70
     1
 43
0.0
 10
15615.36632605321
 20
3850.476009503296
 10
15575.36632605321
 20
3850.476009503296
 10
15575.36632605327
 20
4275.476009503296
 10
17175.36632605327
 20
4275.476009503296
 10
17175.36632605322
 20
3850.476009503296
 10
17135.36632605322
 20
3850.476009503296
 10
17135.36632605327
 20
4235.476009503296
 10
15615.36632605327
 20
4235.476009503296
  0
LWPOLYLINE
  5
45D5
330
3D65
100
AcDbEntity
  8
0
100
AcDbPolyline
 90
        4
 70
     1
 43
0.0
 10
15582.86632605321
 20
3850.476009503296
 10
15582.86632605321
 20
3846.476009503296
 10
15607.86632605321
 20
3846.476009503296
 10
15607.86632605321
 20
3850.476009503296
  0
LWPOLYLINE
  5
45D6
330
3D65
100
AcDbEntity
  8
0
100
AcDbPolyline
 90
        4
 70
     1
 43
0.0
 10
17142.86632605322
 20
3850.476009503296
 10
17142.86632605322
 20
3846.476009503296
 10
17167.86632605322
 20
3846.476009503296
 10
17167.86632605322
 20
3850.476009503296
  0
LWPOLYLINE
  5
45D7
330
3D65
100
AcDbEntity
  8
0
100
AcDbPolyline
 90
        4
 70
     1
 43
0.0
 10
17675.36632605327
 20
4275.476009503296
 10
17675.36632605327
 20
4296.476009503296
 10
19475.36632605324
 20
4296.476009503293
 10
19475.36632605324
 20
4275.476009503293
  0
LWPOLYLINE
  5
45D8
330
3D65
100
AcDbEntity
  8
0
100
AcDbPolyline
 90
        8
 70
     1
 43
0.0
 10
17715.36632605322
 20
3850.476009503296
 10
17675.36632605322
 20
3850.476009503296
 10
17675.36632605327
 20
4275.476009503296
 10
19475.36632605327
 20
4275.4760095033
 10
19475.36632605322
 20
3850.4760095033
 10
19435.36632605322
 20
3850.476009503296
 10
19435.36632605327
 20
4235.476009503296
 10
17715.36632605327
 20
4235.476009503296
  0
LWPOLYLINE
  5
45D9
330
3D65
100
AcDbEntity
  8
0
100
AcDbPolyline
 90
        4
 70
     1
 43
0.0
 10
17682.86632605322
 20
3850.476009503296
 10
17682.86632605322
 20
3846.476009503296
 10
17707.86632605322
 20
3846.476009503296
 10
17707.86632605322
 20
3850.476009503296
  0
LWPOLYLINE
  5
45DA
330
3D65
100
AcDbEntity
  8
0
100
AcDbPolyline
 90
        4
 70
     1
 43
0.0
 10
19442.86632605322
 20
3850.4760095033
 10
19442.86632605322
 20
3846.4760095033
 10
19467.86632605322
 20
3846.4760095033
 10
19467.86632605322
 20
3850.4760095033
  0
LWPOLYLINE
  5
45DB
330
3D65
100
AcDbEntity
  8
0
100
AcDbPolyline
 90
        4
 70
     1
 43
0.0
 10
19975.36632605327
 20
4275.476009503296
 10
19975.36632605327
 20
4296.476009503296
 10
21975.36632605324
 20
4296.476009503293
 10
21975.36632605324
 20
4275.476009503293
  0
LWPOLYLINE
  5
45DC
330
3D65
100
AcDbEntity
  8
0
100
AcDbPolyline
 90
        8
 70
     1
 43
0.0
 10
20015.36632605322
 20
3850.476009503296
 10
19975.36632605322
 20
3850.476009503296
 10
19975.36632605327
 20
4275.476009503296
 10
21975.36632605327
 20
4275.476009503296
 10
21975.36632605322
 20
3850.476009503296
 10
21935.36632605322
 20
3850.476009503296
 10
21935.36632605327
 20
4235.476009503296
 10
20015.36632605327
 20
4235.476009503296
  0
LWPOLYLINE
  5
45DD
330
3D65
100
AcDbEntity
  8
0
100
AcDbPolyline
 90
        4
 70
     1
 43
0.0
 10
19982.86632605322
 20
3850.476009503296
 10
19982.86632605322
 20
3846.476009503296
 10
20007.86632605322
 20
3846.476009503296
 10
20007.86632605322
 20
3850.476009503296
  0
LWPOLYLINE
  5
45DE
330
3D65
100
AcDbEntity
  8
0
100
AcDbPolyline
 90
        4
 70
     1
 43
0.0
 10
21942.86632605322
 20
3850.476009503296
 10
21942.86632605322
 20
3846.476009503296
 10
21967.86632605322
 20
3846.476009503296
 10
21967.86632605322
 20
3850.476009503296
  0
LWPOLYLINE
  5
45DF
330
3D65
100
AcDbEntity
  8
0
100
AcDbPolyline
 90
        4
 70
     1
 43
0.0
 10
22475.36632605327
 20
4275.476009503296
 10
22475.36632605327
 20
4296.476009503296
 10
24675.36632605324
 20
4296.476009503293
 10
24675.36632605324
 20
4275.476009503293
  0
LWPOLYLINE
  5
45E0
330
3D65
100
AcDbEntity
  8
0
100
AcDbPolyline
 90
        8
 70
     1
 43
0.0
 10
22515.36632605322
 20
3850.476009503296
 10
22475.36632605322
 20
3850.476009503296
 10
22475.36632605327
 20
4275.476009503296
 10
24675.36632605327
 20
4275.476009503296
 10
24675.36632605322
 20
3850.476009503296
 10
24635.36632605322
 20
3850.476009503296
 10
24635.36632605327
 20
4235.476009503296
 10
22515.36632605327
 20
4235.476009503296
  0
LWPOLYLINE
  5
45E1
330
3D65
100
AcDbEntity
  8
0
100
AcDbPolyline
 90
        4
 70
     1
 43
0.0
 10
22482.86632605322
 20
3850.476009503296
 10
22482.86632605322
 20
3846.476009503296
 10
22507.86632605322
 20
3846.476009503296
 10
22507.86632605322
 20
3850.476009503296
  0
LWPOLYLINE
  5
45E2
330
3D65
100
AcDbEntity
  8
0
100
AcDbPolyline
 90
        4
 70
     1
 43
0.0
 10
24642.86632605322
 20
3850.476009503296
 10
24642.86632605322
 20
3846.476009503296
 10
24667.86632605322
 20
3846.476009503296
 10
24667.86632605322
 20
3850.476009503296
  0
LWPOLYLINE
  5
45E3
330
3D65
100
AcDbEntity
  8
0
100
AcDbPolyline
 90
        4
 70
     1
 43
0.0
 10
25365.32265675565
 20
4275.4760095033
 10
25365.32265675565
 20
4296.4760095033
 10
25715.32265675565
 20
4296.476009503296
 10
25715.32265675565
 20
4275.476009503296
  0
LWPOLYLINE
  5
45E4
330
3D65
100
AcDbEntity
  8
0
100
AcDbPolyline
 90
        8
 70
     1
 43
0.0
 10
25405.32265675559
 20
3850.4760095033
 10
25365.32265675559
 20
3850.4760095033
 10
25365.32265675565
 20
4275.4760095033
 10
25715.32265675568
 20
4275.4760095033
 10
25715.32265675562
 20
3850.4760095033
 10
25675.32265675562
 20
3850.4760095033
 10
25675.32265675568
 20
4235.4760095033
 10
25405.32265675565
 20
4235.4760095033
  0
LWPOLYLINE
  5
45E5
330
3D65
100
AcDbEntity
  8
0
100
AcDbPolyline
 90
        4
 70
     1
 43
0.0
 10
25372.82265675559
 20
3850.4760095033
 10
25372.82265675559
 20
3846.4760095033
 10
25397.82265675559
 20
3846.4760095033
 10
25397.82265675559
 20
3850.4760095033
  0
LWPOLYLINE
  5
45E6
330
3D65
100
AcDbEntity
  8
0
100
AcDbPolyline
 90
        4
 70
     1
 43
0.0
 10
25682.82265675562
 20
3850.4760095033
 10
25682.82265675562
 20
3846.4760095033
 10
25707.82265675562
 20
3846.4760095033
 10
25707.82265675562
 20
3850.4760095033
  0
LINE
  5
45E7
330
3D65
100
AcDbEntity
  8
0
100
AcDbLine
 10
25365.32265675565
 20
4296.4760095033
 30
0.0
 11
25365.32265675565
 21
4296.4760095033
 31
0.0
  0
LINE
  5
45E8
330
3D65
100
AcDbEntity
  8
0
100
AcDbLine
 10
25365.32265675565
 20
4296.4760095033
 30
0.0
 11
25715.32265675565
 21
4296.4760095033
 31
0.0
  0
LWPOLYLINE
  5
45E9
330
3D65
100
AcDbEntity
  8
0
100
AcDbPolyline
 90
        4
 70
     1
 43
0.0
 10
8091.430712643691
 20
14181.10569007576
 10
10091.43071264368
 20
14181.10569007577
 10
10091.43071264368
 20
15181.10569007577
 10
8091.430712643691
 20
15181.10569007576
  0
LWPOLYLINE
  5
45EA
330
3D65
100
AcDbEntity
  8
0
100
AcDbPolyline
 90
        4
 70
     1
 43
0.0
 10
1794.555712643691
 20
9692.229858921413
 10
3994.55571264368
 20
9692.229858921413
 10
3994.55571264368
 20
8892.229858921417
 10
1794.555712643691
 20
8892.229858921417
  0
LWPOLYLINE
  5
45EB
330
3D65
100
AcDbEntity
  8
0
100
AcDbPolyline
 90
        4
 70
     1
 43
0.0
 10
1794.555712643691
 20
8362.230273609926
 10
3994.55571264368
 20
8362.230273609926
 10
3994.55571264368
 20
7462.230273609926
 10
1794.555712643691
 20
7462.230273609926
  0
LWPOLYLINE
  5
45EC
330
3D65
100
AcDbEntity
  8
0
100
AcDbPolyline
 90
        4
 70
     1
 43
0.0
 10
4840.229840603573
 20
7462.23027360993
 10
4840.229840603573
 20
8362.23027360993
 10
7240.229840603573
 20
8362.23027360993
 10
7240.229840603573
 20
7462.23027360993
1001
PE_URL
1000

  0
LWPOLYLINE
  5
45ED
330
3D65
100
AcDbEntity
  8
0
100
AcDbPolyline
 90
        4
 70
     1
 43
0.0
 10
4840.229840603573
 20
8892.22985892142
 10
4840.229840603573
 20
9692.22985892142
 10
7240.229840603573
 20
9692.22985892142
 10
7240.229840603573
 20
8892.22985892142
1001
PE_URL
1000

  0
LWPOLYLINE
  5
45EE
330
3D65
100
AcDbEntity
  8
0
100
AcDbPolyline
 90
        9
 70
     1
 43
0.0
 10
8091.430712643691
 20
23197.26896086663
 10
9691.43071264369
 20
23197.26896086663
 10
9691.43071264369
 20
22472.26896086663
 10
9651.43071264369
 20
22472.26896086663
 10
9651.43071264369
 20
23157.26896086663
 10
8131.430712643691
 20
23157.26896086663
 10
8131.430712643691
 20
22472.26896086663
 10
8091.430712643691
 20
22472.26896086663
 10
8091.430712643691
 20
23197.26896086663
  0
LWPOLYLINE
  5
45EF
330
3D65
100
AcDbEntity
  8
0
100
AcDbPolyline
 90
        4
 70
     1
 43
0.0
 10
8091.430712643691
 20
23197.26896086663
 10
8091.430712643691
 20
23218.26896086663
 10
9691.43071264369
 20
23218.26896086663
 10
9691.43071264369
 20
23197.26896086663
  0
LWPOLYLINE
  5
45F0
330
3D65
100
AcDbEntity
  8
0
100
AcDbPolyline
 90
        4
 70
     1
 43
0.0
 10
5791.430712643691
 20
23197.26896086663
 10
5791.430712643691
 20
23218.26896086663
 10
7191.430712643687
 20
23218.26896086663
 10
7191.430712643687
 20
23197.26896086663
  0
LWPOLYLINE
  5
45F1
330
3D65
100
AcDbEntity
  8
0
100
AcDbPolyline
 90
        9
 70
     1
 43
0.0
 10
5791.430712643691
 20
23197.26896086663
 10
7191.430712643687
 20
23197.26896086663
 10
7191.430712643687
 20
22472.26896086663
 10
7151.430712643691
 20
22472.26896086663
 10
7151.430712643691
 20
23157.26896086663
 10
5831.430712643691
 20
23157.26896086663
 10
5831.430712643691
 20
22472.26896086663
 10
5791.430712643691
 20
22472.26896086663
 10
5791.430712643691
 20
23197.26896086663
  0
LWPOLYLINE
  5
45F2
330
3D65
100
AcDbEntity
  8
0
100
AcDbPolyline
 90
        4
 70
     1
 43
0.0
 10
5791.430712643691
 20
25841.80827897239
 10
7191.430712643683
 20
25841.80827897239
 10
7191.430712643683
 20
24441.80827897238
 10
5791.430712643691
 20
24441.80827897238
  0
LWPOLYLINE
  5
45F3
330
3D65
100
AcDbEntity
  8
0
100
AcDbPolyline
 90
        4
 70
     1
 43
0.0
 10
3691.430712643702
 20
24641.80827897238
 10
4891.430712643709
 20
24641.80827897238
 10
4891.430712643709
 20
25841.80827897239
 10
3691.430712643702
 20
25841.80827897239
  0
LWPOLYLINE
  5
45F4
330
3D65
100
AcDbEntity
  8
0
100
AcDbPolyline
 90
        4
 70
     1
 43
0.0
 10
8091.430712643687
 20
25841.80827897239
 10
9691.430712643687
 20
25841.80827897239
 10
9691.430712643687
 20
24241.80827897239
 10
8091.430712643687
 20
24241.80827897239
  0
LWPOLYLINE
  5
45F5
330
3D65
100
AcDbEntity
  8
0
100
AcDbPolyline
 90
        4
 70
     1
 43
0.0
 10
1791.430712643705
 20
25041.80827897238
 10
2591.430712643702
 20
25041.80827897238
 10
2591.430712643702
 20
25841.80827897239
 10
1791.430712643691
 20
25841.80827897239
  0
LWPOLYLINE
  5
45F6
330
3D65
100
AcDbEntity
  8
0
100
AcDbPolyline
 90
        9
 70
     1
 43
0.0
 10
3691.430712643702
 20
23197.26896086663
 10
4891.430712643709
 20
23197.26896086663
 10
4891.430712643709
 20
22472.26896086663
 10
4851.430712643702
 20
22472.26896086663
 10
4851.430712643702
 20
23157.26896086663
 10
3731.430712643702
 20
23157.26896086663
 10
3731.430712643702
 20
22472.26896086663
 10
3691.430712643702
 20
22472.26896086663
 10
3691.430712643702
 20
23204.26896086663
  0
LWPOLYLINE
  5
45F7
330
3D65
100
AcDbEntity
  8
0
100
AcDbPolyline
 90
        4
 70
     1
 43
0.0
 10
3691.430712643702
 20
23197.26896086663
 10
3691.430712643702
 20
23218.26896086663
 10
4891.430712643709
 20
23218.26896086663
 10
4891.430712643709
 20
23197.26896086663
  0
LWPOLYLINE
  5
45F8
330
3D65
100
AcDbEntity
  8
0
100
AcDbPolyline
 90
        9
 70
     1
 43
0.0
 10
1791.430712643691
 20
23197.26896086663
 10
2591.430712643702
 20
23197.26896086663
 10
2591.430712643702
 20
22472.26896086663
 10
2551.430712643702
 20
22472.26896086663
 10
2551.430712643702
 20
23157.26896086663
 10
1831.430712643705
 20
23157.26896086663
 10
1831.430712643705
 20
22472.26896086663
 10
1791.430712643691
 20
22472.26896086663
 10
1791.430712643691
 20
23204.26896086663
  0
LWPOLYLINE
  5
45F9
330
3D65
100
AcDbEntity
  8
0
100
AcDbPolyline
 90
        4
 70
     1
 43
0.0
 10
1791.430712643691
 20
23197.26896086663
 10
1791.430712643691
 20
23218.26896086663
 10
2591.430712643702
 20
23218.26896086663
 10
2591.430712643702
 20
23197.26896086663
  0
LWPOLYLINE
  5
45FA
330
3D65
100
AcDbEntity
  8
0
100
AcDbPolyline
 90
        4
 70
     1
 43
0.0
 10
11687.19300282062
 20
27795.42437803509
 10
0.000000000007276
 20
27795.42437803509
 10
0.0
 20
20932.48020317461
 10
11687.19300282061
 20
20932.48020317461
  0
LWPOLYLINE
  5
45FB
330
3D65
100
AcDbEntity
  8
0
100
AcDbPolyline
 90
        4
 70
     1
 43
0.0
 10
11687.19300282062
 20
10960.08418534151
 10
0.0
 20
10960.08418534151
 10
0.0
 20
2643.500000000004
 10
11687.19300282061
 20
2643.500000000004
  0
LWPOLYLINE
  5
45FC
330
3D65
100
AcDbEntity
  8
0
100
AcDbPolyline
 90
        4
 70
     1
 43
0.0
 10
13306.10388590239
 20
27795.42437803509
 10
26206.84778237931
 20
27795.42437803509
 10
26206.84778237931
 20
20932.48020317461
 10
13306.10388590239
 20
20932.48020317461
  0
LWPOLYLINE
  5
45FD
330
3D65
100
AcDbEntity
  8
0
100
AcDbPolyline
 90
        4
 70
     1
 43
0.0
 10
17219.53440816722
 20
24216.43930814225
 10
19019.53440816722
 20
24216.43930814225
 10
19019.53440816722
 20
25016.43930814225
 10
17219.53440816722
 20
25016.43930814225
  0
LWPOLYLINE
  5
45FE
330
3D65
100
AcDbEntity
  8
0
100
AcDbPolyline
 90
        4
 70
     1
 43
0.0
 10
17219.53440816722
 20
24256.43930814225
 10
17219.53440816722
 20
24216.43930814225
 10
17259.53440816722
 20
24216.43930814225
 10
17259.53440816722
 20
24256.43930814225
  0
LWPOLYLINE
  5
45FF
330
3D65
100
AcDbEntity
  8
0
100
AcDbPolyline
 90
        4
 70
     1
 43
0.0
 10
18979.53440816722
 20
24256.43930814225
 10
18979.53440816722
 20
24216.43930814225
 10
19019.53440816722
 20
24216.43930814225
 10
19019.53440816722
 20
24256.43930814225
  0
LWPOLYLINE
  5
4600
330
3D65
100
AcDbEntity
  8
0
100
AcDbPolyline
 90
        4
 70
     1
 43
0.0
 10
17219.53440816722
 20
25016.43930814225
 10
17219.53440816722
 20
24976.43930814225
 10
17259.53440816722
 20
24976.43930814225
 10
17259.53440816722
 20
25016.43930814225
  0
LWPOLYLINE
  5
4601
330
3D65
100
AcDbEntity
  8
0
100
AcDbPolyline
 90
        4
 70
     1
 43
0.0
 10
18979.53440816722
 20
25016.43930814225
 10
18979.53440816722
 20
24976.43930814225
 10
19019.53440816722
 20
24976.43930814225
 10
19019.53440816722
 20
25016.43930814225
  0
LWPOLYLINE
  5
4602
330
3D65
100
AcDbEntity
  8
0
100
AcDbPolyline
 90
        4
 70
     1
 43
0.0
 10
17219.53440816722
 20
23216.43930814225
 10
17219.53440816722
 20
24216.43930814225
 10
17819.53440816722
 20
24216.43930814225
 10
17819.53440816722
 20
23216.43930814225
  0
LWPOLYLINE
  5
4603
330
3D65
100
AcDbEntity
  8
0
100
AcDbPolyline
 90
        4
 70
     1
 43
0.0
 10
17219.53440816722
 20
23256.43930814225
 10
17219.53440816722
 20
23216.43930814225
 10
17259.53440816722
 20
23216.43930814225
 10
17259.53440816722
 20
23256.43930814225
  0
LWPOLYLINE
  5
4604
330
3D65
100
AcDbEntity
  8
0
100
AcDbPolyline
 90
        4
 70
     1
 43
0.0
 10
17779.53440816722
 20
23256.43930814225
 10
17779.53440816722
 20
23216.43930814225
 10
17819.53440816722
 20
23216.43930814225
 10
17819.53440816722
 20
23256.43930814225
  0
LWPOLYLINE
  5
4605
330
3D65
100
AcDbEntity
  8
0
100
AcDbPolyline
 90
        4
 70
     1
 43
0.0
 10
22267.79258340572
 20
24216.43930814225
 10
20467.79258340572
 20
24216.43930814225
 10
20467.79258340572
 20
25016.43930814225
 10
22267.79258340572
 20
25016.43930814225
  0
LWPOLYLINE
  5
4606
330
3D65
100
AcDbEntity
  8
0
100
AcDbPolyline
 90
        4
 70
     1
 43
0.0
 10
22267.79258340572
 20
24256.43930814225
 10
22267.79258340572
 20
24216.43930814225
 10
22227.79258340572
 20
24216.43930814225
 10
22227.79258340572
 20
24256.43930814225
  0
LWPOLYLINE
  5
4607
330
3D65
100
AcDbEntity
  8
0
100
AcDbPolyline
 90
        4
 70
     1
 43
0.0
 10
20507.79258340572
 20
24256.43930814225
 10
20507.79258340572
 20
24216.43930814225
 10
20467.79258340572
 20
24216.43930814225
 10
20467.79258340572
 20
24256.43930814225
  0
LWPOLYLINE
  5
4608
330
3D65
100
AcDbEntity
  8
0
100
AcDbPolyline
 90
        4
 70
     1
 43
0.0
 10
22267.79258340572
 20
25016.43930814225
 10
22267.79258340572
 20
24976.43930814225
 10
22227.79258340572
 20
24976.43930814225
 10
22227.79258340572
 20
25016.43930814225
  0
LWPOLYLINE
  5
4609
330
3D65
100
AcDbEntity
  8
0
100
AcDbPolyline
 90
        4
 70
     1
 43
0.0
 10
20507.79258340572
 20
25016.43930814225
 10
20507.79258340572
 20
24976.43930814225
 10
20467.79258340572
 20
24976.43930814225
 10
20467.79258340572
 20
25016.43930814225
  0
LWPOLYLINE
  5
460A
330
3D65
100
AcDbEntity
  8
0
100
AcDbPolyline
 90
        4
 70
     1
 43
0.0
 10
22267.79258340572
 20
23216.43930814225
 10
22267.79258340572
 20
24216.43930814225
 10
21667.79258340572
 20
24216.43930814225
 10
21667.79258340572
 20
23216.43930814225
  0
LWPOLYLINE
  5
460B
330
3D65
100
AcDbEntity
  8
0
100
AcDbPolyline
 90
        4
 70
     1
 43
0.0
 10
22267.79258340572
 20
23256.43930814225
 10
22267.79258340572
 20
23216.43930814225
 10
22227.79258340572
 20
23216.43930814225
 10
22227.79258340572
 20
23256.43930814225
  0
LWPOLYLINE
  5
460C
330
3D65
100
AcDbEntity
  8
0
100
AcDbPolyline
 90
        4
 70
     1
 43
0.0
 10
21707.79258340572
 20
23256.43930814225
 10
21707.79258340572
 20
23216.43930814225
 10
21667.79258340572
 20
23216.43930814225
 10
21667.79258340572
 20
23256.43930814225
  0
LINE
  5
460D
330
3D65
100
AcDbEntity
  8
0
  6
Continuous
 62
     7
370
    25
100
AcDbLine
 10
16178.96274509598
 20
18178.00075408685
 30
0.0
 11
16218.96274509598
 21
18178.00075408685
 31
0.0
  0
LINE
  5
460E
330
3D65
100
AcDbEntity
  8
0
  6
Continuous
 62
     7
370
    25
100
AcDbLine
 10
16218.96274509598
 20
18138.00075408685
 30
0.0
 11
16178.96274509598
 21
18138.00075408685
 31
0.0
  0
LINE
  5
460F
330
3D65
100
AcDbEntity
  8
0
  6
Continuous
 62
     7
370
    25
100
AcDbLine
 10
15828.96274509598
 20
18178.00075408685
 30
0.0
 11
15868.96274509598
 21
18178.00075408685
 31
0.0
  0
LINE
  5
4610
330
3D65
100
AcDbEntity
  8
0
  6
Continuous
 62
     7
370
    25
100
AcDbLine
 10
15868.96274509598
 20
18138.00075408685
 30
0.0
 11
15828.96274509598
 21
18138.00075408685
 31
0.0
  0
LINE
  5
4611
330
3D65
100
AcDbEntity
  8
0
  6
Continuous
 62
     7
370
    25
100
AcDbLine
 10
15478.96274509598
 20
18178.00075408685
 30
0.0
 11
15518.96274509598
 21
18178.00075408685
 31
0.0
  0
LINE
  5
4612
330
3D65
100
AcDbEntity
  8
0
  6
Continuous
 62
     7
370
    25
100
AcDbLine
 10
15518.96274509598
 20
18138.00075408685
 30
0.0
 11
15478.96274509598
 21
18138.00075408685
 31
0.0
  0
LINE
  5
4613
330
3D65
100
AcDbEntity
  8
0
  6
Continuous
 62
     7
370
    25
100
AcDbLine
 10
16528.96274509598
 20
18178.00075408685
 30
0.0
 11
16568.96274509598
 21
18178.00075408685
 31
0.0
  0
LINE
  5
4614
330
3D65
100
AcDbEntity
  8
0
  6
Continuous
 62
     7
370
    25
100
AcDbLine
 10
16568.96274509598
 20
18138.00075408685
 30
0.0
 11
16528.96274509598
 21
18138.00075408685
 31
0.0
  0
ARC
  5
4615
330
3D65
100
AcDbEntity
  8
0
  6
Continuous
 62
     7
370
    25
100
AcDbCircle
 10
16178.96274509598
 20
18158.00075408685
 30
0.0
 40
19.99999999999999
100
AcDbArc
 50
90.0
 51
270.0
  0
ARC
  5
4616
330
3D65
100
AcDbEntity
  8
0
  6
Continuous
 62
     7
370
    25
100
AcDbCircle
 10
16218.96274509598
 20
18158.00075408685
 30
0.0
 40
19.99999999999999
100
AcDbArc
 50
270.0
 51
90.0
  0
ARC
  5
4617
330
3D65
100
AcDbEntity
  8
0
  6
Continuous
 62
     7
370
    25
100
AcDbCircle
 10
15828.96274509598
 20
18158.00075408685
 30
0.0
 40
19.99999999999999
100
AcDbArc
 50
90.0
 51
270.0
  0
ARC
  5
4618
330
3D65
100
AcDbEntity
  8
0
  6
Continuous
 62
     7
370
    25
100
AcDbCircle
 10
15868.96274509598
 20
18158.00075408685
 30
0.0
 40
19.99999999999999
100
AcDbArc
 50
270.0
 51
90.0
  0
ARC
  5
4619
330
3D65
100
AcDbEntity
  8
0
  6
Continuous
 62
     7
370
    25
100
AcDbCircle
 10
15478.96274509598
 20
18158.00075408685
 30
0.0
 40
19.99999999999999
100
AcDbArc
 50
90.0
 51
270.0
  0
ARC
  5
461A
330
3D65
100
AcDbEntity
  8
0
  6
Continuous
 62
     7
370
    25
100
AcDbCircle
 10
15518.96274509598
 20
18158.00075408685
 30
0.0
 40
19.99999999999999
100
AcDbArc
 50
270.0
 51
90.0
  0
ARC
  5
461B
330
3D65
100
AcDbEntity
  8
0
  6
Continuous
 62
     7
370
    25
100
AcDbCircle
 10
16528.96274509598
 20
18158.00075408685
 30
0.0
 40
20.0
100
AcDbArc
 50
90.0
 51
270.0
  0
ARC
  5
461C
330
3D65
100
AcDbEntity
  8
0
  6
Continuous
 62
     7
370
    25
100
AcDbCircle
 10
16568.96274509598
 20
18158.00075408685
 30
0.0
 40
20.0
100
AcDbArc
 50
270.0
 51
90.0
  0
LINE
  5
461D
330
3D65
100
AcDbEntity
  8
0
100
AcDbLine
 10
15368.78986002162
 20
18208.00075408685
 30
0.0
 11
15368.78986002162
 21
18108.00075408685
 31
0.0
  0
LINE
  5
461E
330
3D65
100
AcDbEntity
  8
0
100
AcDbLine
 10
16678.78986002162
 20
18208.00075408685
 30
0.0
 11
16678.78986002162
 21
18108.00075408685
 31
0.0
  0
LINE
  5
461F
330
3D65
100
AcDbEntity
  8
0
  6
Continuous
 62
     7
370
    25
100
AcDbLine
 10
18303.78986002162
 20
18178.00075408685
 30
0.0
 11
18343.78986002162
 21
18178.00075408685
 31
0.0
  0
LINE
  5
4620
330
3D65
100
AcDbEntity
  8
0
  6
Continuous
 62
     7
370
    25
100
AcDbLine
 10
18343.78986002162
 20
18138.00075408685
 30
0.0
 11
18303.78986002162
 21
18138.00075408685
 31
0.0
  0
LINE
  5
4621
330
3D65
100
AcDbEntity
  8
0
  6
Continuous
 62
     7
370
    25
100
AcDbLine
 10
18603.78986002162
 20
18178.00075408685
 30
0.0
 11
18643.78986002162
 21
18178.00075408685
 31
0.0
  0
LINE
  5
4622
330
3D65
100
AcDbEntity
  8
0
  6
Continuous
 62
     7
370
    25
100
AcDbLine
 10
18643.78986002162
 20
18138.00075408685
 30
0.0
 11
18603.78986002162
 21
18138.00075408685
 31
0.0
  0
LINE
  5
4623
330
3D65
100
AcDbEntity
  8
0
  6
Continuous
 62
     7
370
    25
100
AcDbLine
 10
17403.78986002162
 20
18178.00075408685
 30
0.0
 11
17443.78986002162
 21
18178.00075408685
 31
0.0
  0
LINE
  5
4624
330
3D65
100
AcDbEntity
  8
0
  6
Continuous
 62
     7
370
    25
100
AcDbLine
 10
17443.78986002162
 20
18138.00075408685
 30
0.0
 11
17403.78986002162
 21
18138.00075408685
 31
0.0
  0
LINE
  5
4625
330
3D65
100
AcDbEntity
  8
0
  6
Continuous
 62
     7
370
    25
100
AcDbLine
 10
17703.78986002162
 20
18178.00075408685
 30
0.0
 11
17743.78986002162
 21
18178.00075408685
 31
0.0
  0
LINE
  5
4626
330
3D65
100
AcDbEntity
  8
0
  6
Continuous
 62
     7
370
    25
100
AcDbLine
 10
17743.78986002162
 20
18138.00075408685
 30
0.0
 11
17703.78986002162
 21
18138.00075408685
 31
0.0
  0
LINE
  5
4627
330
3D65
100
AcDbEntity
  8
0
  6
Continuous
 62
     7
370
    25
100
AcDbLine
 10
18003.78986002162
 20
18178.00075408685
 30
0.0
 11
18043.78986002162
 21
18178.00075408685
 31
0.0
  0
LINE
  5
4628
330
3D65
100
AcDbEntity
  8
0
  6
Continuous
 62
     7
370
    25
100
AcDbLine
 10
18043.78986002162
 20
18138.00075408685
 30
0.0
 11
18003.78986002162
 21
18138.00075408685
 31
0.0
  0
ARC
  5
4629
330
3D65
100
AcDbEntity
  8
0
  6
Continuous
 62
     7
370
    25
100
AcDbCircle
 10
18303.78986002162
 20
18158.00075408685
 30
0.0
 40
20.0
100
AcDbArc
 50
90.0
 51
270.0
  0
ARC
  5
462A
330
3D65
100
AcDbEntity
  8
0
  6
Continuous
 62
     7
370
    25
100
AcDbCircle
 10
18343.78986002162
 20
18158.00075408685
 30
0.0
 40
20.0
100
AcDbArc
 50
270.0
 51
90.0
  0
ARC
  5
462B
330
3D65
100
AcDbEntity
  8
0
  6
Continuous
 62
     7
370
    25
100
AcDbCircle
 10
18603.78986002162
 20
18158.00075408685
 30
0.0
 40
20.0
100
AcDbArc
 50
90.0
 51
270.0
  0
ARC
  5
462C
330
3D65
100
AcDbEntity
  8
0
  6
Continuous
 62
     7
370
    25
100
AcDbCircle
 10
18643.78986002162
 20
18158.00075408685
 30
0.0
 40
20.0
100
AcDbArc
 50
270.0
 51
90.0
  0
ARC
  5
462D
330
3D65
100
AcDbEntity
  8
0
  6
Continuous
 62
     7
370
    25
100
AcDbCircle
 10
17403.78986002162
 20
18158.00075408685
 30
0.0
 40
20.0
100
AcDbArc
 50
90.0
 51
270.0
  0
ARC
  5
462E
330
3D65
100
AcDbEntity
  8
0
  6
Continuous
 62
     7
370
    25
100
AcDbCircle
 10
17443.78986002162
 20
18158.00075408685
 30
0.0
 40
20.0
100
AcDbArc
 50
270.0
 51
90.0
  0
ARC
  5
462F
330
3D65
100
AcDbEntity
  8
0
  6
Continuous
 62
     7
370
    25
100
AcDbCircle
 10
17703.78986002162
 20
18158.00075408685
 30
0.0
 40
20.0
100
AcDbArc
 50
90.0
 51
270.0
  0
ARC
  5
4630
330
3D65
100
AcDbEntity
  8
0
  6
Continuous
 62
     7
370
    25
100
AcDbCircle
 10
17743.78986002162
 20
18158.00075408685
 30
0.0
 40
20.0
100
AcDbArc
 50
270.0
 51
90.0
  0
ARC
  5
4631
330
3D65
100
AcDbEntity
  8
0
  6
Continuous
 62
     7
370
    25
100
AcDbCircle
 10
18003.78986002162
 20
18158.00075408685
 30
0.0
 40
20.0
100
AcDbArc
 50
90.0
 51
270.0
  0
ARC
  5
4632
330
3D65
100
AcDbEntity
  8
0
  6
Continuous
 62
     7
370
    25
100
AcDbCircle
 10
18043.78986002162
 20
18158.00075408685
 30
0.0
 40
20.0
100
AcDbArc
 50
270.0
 51
90.0
  0
LINE
  5
4633
330
3D65
100
AcDbEntity
  8
0
100
AcDbLine
 10
17268.78986002162
 20
18208.00075408685
 30
0.0
 11
17268.78986002162
 21
18108.00075408685
 31
0.0
  0
LINE
  5
4634
330
3D65
100
AcDbEntity
  8
0
100
AcDbLine
 10
18778.78986002162
 20
18208.00075408685
 30
0.0
 11
18778.78986002162
 21
18108.00075408685
 31
0.0
  0
LINE
  5
4635
330
3D65
100
AcDbEntity
  8
0
  6
Continuous
 62
     7
370
    25
100
AcDbLine
 10
20553.78986002162
 20
18178.00075408685
 30
0.0
 11
20593.78986002162
 21
18178.00075408685
 31
0.0
  0
LINE
  5
4636
330
3D65
100
AcDbEntity
  8
0
  6
Continuous
 62
     7
370
    25
100
AcDbLine
 10
20593.78986002162
 20
18138.00075408685
 30
0.0
 11
20553.78986002162
 21
18138.00075408685
 31
0.0
  0
LINE
  5
4637
330
3D65
100
AcDbEntity
  8
0
  6
Continuous
 62
     7
370
    25
100
AcDbLine
 10
20903.78986002162
 20
18178.00075408685
 30
0.0
 11
20943.78986002162
 21
18178.00075408685
 31
0.0
  0
LINE
  5
4638
330
3D65
100
AcDbEntity
  8
0
  6
Continuous
 62
     7
370
    25
100
AcDbLine
 10
20943.78986002162
 20
18138.00075408685
 30
0.0
 11
20903.78986002162
 21
18138.00075408685
 31
0.0
  0
LINE
  5
4639
330
3D65
100
AcDbEntity
  8
0
  6
Continuous
 62
     7
370
    25
100
AcDbLine
 10
19503.78986002162
 20
18178.00075408685
 30
0.0
 11
19543.78986002162
 21
18178.00075408685
 31
0.0
  0
LINE
  5
463A
330
3D65
100
AcDbEntity
  8
0
  6
Continuous
 62
     7
370
    25
100
AcDbLine
 10
19543.78986002162
 20
18138.00075408685
 30
0.0
 11
19503.78986002162
 21
18138.00075408685
 31
0.0
  0
LINE
  5
463B
330
3D65
100
AcDbEntity
  8
0
  6
Continuous
 62
     7
370
    25
100
AcDbLine
 10
19853.78986002162
 20
18178.00075408685
 30
0.0
 11
19893.78986002162
 21
18178.00075408685
 31
0.0
  0
LINE
  5
463C
330
3D65
100
AcDbEntity
  8
0
  6
Continuous
 62
     7
370
    25
100
AcDbLine
 10
19893.78986002162
 20
18138.00075408685
 30
0.0
 11
19853.78986002162
 21
18138.00075408685
 31
0.0
  0
LINE
  5
463D
330
3D65
100
AcDbEntity
  8
0
  6
Continuous
 62
     7
370
    25
100
AcDbLine
 10
20203.78986002162
 20
18178.00075408685
 30
0.0
 11
20243.78986002162
 21
18178.00075408685
 31
0.0
  0
LINE
  5
463E
330
3D65
100
AcDbEntity
  8
0
  6
Continuous
 62
     7
370
    25
100
AcDbLine
 10
20243.78986002162
 20
18138.00075408685
 30
0.0
 11
20203.78986002162
 21
18138.00075408685
 31
0.0
  0
ARC
  5
463F
330
3D65
100
AcDbEntity
  8
0
  6
Continuous
 62
     7
370
    25
100
AcDbCircle
 10
20553.78986002162
 20
18158.00075408685
 30
0.0
 40
20.0
100
AcDbArc
 50
90.0
 51
270.0
  0
ARC
  5
4640
330
3D65
100
AcDbEntity
  8
0
  6
Continuous
 62
     7
370
    25
100
AcDbCircle
 10
20593.78986002162
 20
18158.00075408685
 30
0.0
 40
20.0
100
AcDbArc
 50
270.0
 51
90.0
  0
ARC
  5
4641
330
3D65
100
AcDbEntity
  8
0
  6
Continuous
 62
     7
370
    25
100
AcDbCircle
 10
20903.78986002162
 20
18158.00075408685
 30
0.0
 40
20.0
100
AcDbArc
 50
90.0
 51
270.0
  0
ARC
  5
4642
330
3D65
100
AcDbEntity
  8
0
  6
Continuous
 62
     7
370
    25
100
AcDbCircle
 10
20943.78986002162
 20
18158.00075408685
 30
0.0
 40
20.0
100
AcDbArc
 50
270.0
 51
90.0
  0
ARC
  5
4643
330
3D65
100
AcDbEntity
  8
0
  6
Continuous
 62
     7
370
    25
100
AcDbCircle
 10
19503.78986002162
 20
18158.00075408685
 30
0.0
 40
20.0
100
AcDbArc
 50
90.0
 51
270.0
  0
ARC
  5
4644
330
3D65
100
AcDbEntity
  8
0
  6
Continuous
 62
     7
370
    25
100
AcDbCircle
 10
19543.78986002162
 20
18158.00075408685
 30
0.0
 40
20.0
100
AcDbArc
 50
270.0
 51
90.0
  0
ARC
  5
4645
330
3D65
100
AcDbEntity
  8
0
  6
Continuous
 62
     7
370
    25
100
AcDbCircle
 10
19853.78986002162
 20
18158.00075408685
 30
0.0
 40
20.0
100
AcDbArc
 50
90.0
 51
270.0
  0
ARC
  5
4646
330
3D65
100
AcDbEntity
  8
0
  6
Continuous
 62
     7
370
    25
100
AcDbCircle
 10
19893.78986002162
 20
18158.00075408685
 30
0.0
 40
20.0
100
AcDbArc
 50
270.0
 51
90.0
  0
ARC
  5
4647
330
3D65
100
AcDbEntity
  8
0
  6
Continuous
 62
     7
370
    25
100
AcDbCircle
 10
20203.78986002162
 20
18158.00075408685
 30
0.0
 40
20.0
100
AcDbArc
 50
90.0
 51
270.0
  0
ARC
  5
4648
330
3D65
100
AcDbEntity
  8
0
  6
Continuous
 62
     7
370
    25
100
AcDbCircle
 10
20243.78986002162
 20
18158.00075408685
 30
0.0
 40
20.0
100
AcDbArc
 50
270.0
 51
90.0
  0
LINE
  5
4649
330
3D65
100
AcDbEntity
  8
0
100
AcDbLine
 10
19368.78986002162
 20
18208.00075408685
 30
0.0
 11
19368.78986002162
 21
18108.00075408685
 31
0.0
  0
LINE
  5
464A
330
3D65
100
AcDbEntity
  8
0
100
AcDbLine
 10
21078.78986002162
 20
18208.00075408685
 30
0.0
 11
21078.78986002162
 21
18108.00075408685
 31
0.0
  0
TEXT
  5
464B
330
3D65
100
AcDbEntity
  8
0
100
AcDbText
 10
13663.51279653498
 20
27368.35600958775
 30
0.0
 40
100.0
  1
Peninsula / Penisola / Halbinsel
  7
STILE1
100
AcDbText
  0
TEXT
  5
464C
330
3D65
100
AcDbEntity
  8
0
100
AcDbText
 10
13663.51279653498
 20
8470.608030617523
 30
0.0
 40
100.0
  1
Benches / Panche / Bänke
  7
STILE1
100
AcDbText
  0
LWPOLYLINE
  5
464D
330
3D65
100
AcDbEntity
  8
0
100
AcDbPolyline
 90
        4
 70
     1
 43
0.0
 10
40337.62332584999
 20
27795.42437803508
 10
27436.87942937306
 20
27795.4243780351
 10
27436.87942937306
 20
20932.48020317461
 10
40337.62332584999
 20
20932.48020317461
  0
LWPOLYLINE
  5
464E
330
3D65
100
AcDbEntity
  8
0
100
AcDbPolyline
 90
        4
 70
     1
 43
0.0
 10
30646.0671748239
 20
26275.1094793271
 10
30646.0671748239
 20
26296.1094793271
 10
32246.06717482389
 20
26296.1094793271
 10
32246.06717482389
 20
26275.1094793271
  0
LWPOLYLINE
  5
464F
330
3D65
100
AcDbEntity
  8
0
100
AcDbPolyline
 90
        9
 70
     1
 43
0.0
 10
30646.0671748239
 20
26275.1094793271
 10
32246.06717482389
 20
26275.1094793271
 10
32246.06717482389
 20
25550.1094793271
 10
32206.0671748239
 20
25550.1094793271
 10
32206.0671748239
 20
26235.1094793271
 10
30686.0671748239
 20
26235.1094793271
 10
30686.0671748239
 20
25550.1094793271
 10
30646.0671748239
 20
25550.1094793271
 10
30646.0671748239
 20
26275.1094793271
  0
LWPOLYLINE
  5
4650
330
3D65
100
AcDbEntity
  8
0
100
AcDbPolyline
 90
        9
 70
     1
 43
0.0
 10
32746.06717482389
 20
26275.1094793271
 10
34546.0671748239
 20
26275.1094793271
 10
34546.0671748239
 20
25550.1094793271
 10
34506.06717482389
 20
25550.1094793271
 10
34506.06717482389
 20
26235.1094793271
 10
32786.06717482389
 20
26235.1094793271
 10
32786.06717482389
 20
25550.1094793271
 10
32746.06717482389
 20
25550.1094793271
 10
32746.06717482389
 20
26275.1094793271
  0
LWPOLYLINE
  5
4651
330
3D65
100
AcDbEntity
  8
0
100
AcDbPolyline
 90
        4
 70
     1
 43
0.0
 10
32746.06717482389
 20
26275.1094793271
 10
32746.06717482389
 20
26296.1094793271
 10
34546.0671748239
 20
26296.1094793271
 10
34546.0671748239
 20
26275.1094793271
  0
LWPOLYLINE
  5
4652
330
3D65
100
AcDbEntity
  8
0
100
AcDbPolyline
 90
        4
 70
     1
 43
0.0
 10
30651.06717482389
 20
26296.1094793271
 10
30651.06717482389
 20
26736.1094793271
 10
32241.06717482389
 20
26736.1094793271
 10
32241.06717482389
 20
26296.1094793271
  0
LWPOLYLINE
  5
4653
330
3D65
100
AcDbEntity
  8
0
100
AcDbPolyline
 90
        4
 70
     1
 43
0.0
 10
32751.0671748239
 20
26296.1094793271
 10
32751.0671748239
 20
26736.1094793271
 10
34541.0671748239
 20
26736.1094793271
 10
34541.0671748239
 20
26296.1094793271
  0
LWPOLYLINE
  5
4654
330
3D65
100
AcDbEntity
  8
0
100
AcDbPolyline
 90
        9
 70
     1
 43
0.0
 10
37162.26636974423
 20
26275.1094793271
 10
38862.26636974422
 20
26275.1094793271
 10
38862.26636974422
 20
25550.1094793271
 10
38822.26636974422
 20
25550.1094793271
 10
38822.26636974422
 20
26235.1094793271
 10
37202.26636974422
 20
26235.1094793271
 10
37202.26636974422
 20
25550.1094793271
 10
37162.26636974423
 20
25550.1094793271
 10
37162.26636974423
 20
26282.1094793271
  0
LWPOLYLINE
  5
4655
330
3D65
100
AcDbEntity
  8
0
100
AcDbPolyline
 90
        4
 70
     1
 43
0.0
 10
37162.26636974423
 20
26275.1094793271
 10
37162.26636974423
 20
26296.1094793271
 10
37962.26636974422
 20
26296.1094793271
 10
37962.26636974422
 20
26275.1094793271
  0
LWPOLYLINE
  5
4656
330
3D65
100
AcDbEntity
  8
0
100
AcDbPolyline
 90
        4
 70
     1
 43
0.0
 10
38862.26636974422
 20
26275.1094793271
 10
38862.26636974422
 20
26296.1094793271
 10
38062.26636974422
 20
26296.1094793271
 10
38062.26636974422
 20
26275.1094793271
  0
LWPOLYLINE
  5
4657
330
3D65
100
AcDbEntity
  8
0
100
AcDbPolyline
 90
        5
 70
     0
 43
0.0
 10
38017.26636974422
 20
26275.1094793271
 10
38017.26636974422
 20
26733.1094793271
 10
38007.26636974422
 20
26733.1094793271
 10
38007.26636974422
 20
26275.1094793271
 10
38017.26636974422
 20
26275.1094793271
  0
LWPOLYLINE
  5
4658
330
3D65
100
AcDbEntity
  8
0
100
AcDbPolyline
 90
        4
 70
     1
 43
0.0
 10
37917.26636974422
 20
26230.1094793271
 10
38107.26636974422
 20
26230.1094793271
 10
38107.26636974422
 20
26235.1094793271
 10
37917.26636974422
 20
26235.1094793271
  0
LWPOLYLINE
  5
4659
330
3D65
100
AcDbEntity
  8
0
100
AcDbPolyline
 90
        4
 70
     1
 43
0.0
 10
28751.06717482389
 20
26296.1094793271
 10
28751.06717482389
 20
26736.1094793271
 10
30141.0671748239
 20
26736.1094793271
 10
30141.0671748239
 20
26296.1094793271
  0
LWPOLYLINE
  5
465A
330
3D65
100
AcDbEntity
  8
0
100
AcDbPolyline
 90
        9
 70
     1
 43
0.0
 10
28746.06717482389
 20
26275.1094793271
 10
30146.06717482389
 20
26275.1094793271
 10
30146.06717482389
 20
25550.1094793271
 10
30106.0671748239
 20
25550.1094793271
 10
30106.0671748239
 20
26235.1094793271
 10
28786.06717482389
 20
26235.1094793271
 10
28786.06717482389
 20
25550.1094793271
 10
28746.06717482389
 20
25550.1094793271
 10
28746.06717482389
 20
26275.1094793271
  0
LWPOLYLINE
  5
465B
330
3D65
100
AcDbEntity
  8
0
100
AcDbPolyline
 90
        4
 70
     1
 43
0.0
 10
28746.06717482389
 20
26275.1094793271
 10
28746.06717482389
 20
26296.1094793271
 10
30146.06717482389
 20
26296.1094793271
 10
30146.06717482389
 20
26275.1094793271
  0
LWPOLYLINE
  5
465C
330
3D65
100
AcDbEntity
  8
0
100
AcDbPolyline
 90
        4
 70
     1
 43
0.0
 10
28746.06717482389
 20
23195.19303368579
 10
28746.06717482389
 20
23216.19303368579
 10
30146.06717482388
 20
23216.19303368579
 10
30146.06717482388
 20
23195.19303368579
  0
LWPOLYLINE
  5
465D
330
3D65
100
AcDbEntity
  8
0
100
AcDbPolyline
 90
        9
 70
     1
 43
0.0
 10
28746.06717482389
 20
23195.19303368579
 10
30146.06717482388
 20
23195.19303368579
 10
30146.06717482388
 20
22470.1930336858
 10
30106.06717482388
 20
22470.1930336858
 10
30106.06717482388
 20
23155.19303368579
 10
28786.06717482389
 20
23155.19303368579
 10
28786.06717482389
 20
22470.1930336858
 10
28746.06717482389
 20
22470.1930336858
 10
28746.06717482389
 20
23202.19303368579
  0
LWPOLYLINE
  5
465E
330
3D65
100
AcDbEntity
  8
0
100
AcDbPolyline
 90
        4
 70
     1
 43
0.0
 10
28751.06717482388
 20
23216.19303368579
 10
28751.06717482388
 20
23656.19303368579
 10
30141.06717482389
 20
23656.19303368579
 10
30141.06717482389
 20
23216.19303368579
  0
LWPOLYLINE
  5
465F
330
3D65
100
AcDbEntity
  8
0
100
AcDbPolyline
 90
        4
 70
     1
 43
0.0
 10
32751.06717482389
 20
23216.19303368579
 10
32751.06717482389
 20
23656.19303368579
 10
34541.06717482389
 20
23656.19303368579
 10
34541.06717482389
 20
23216.19303368579
  0
LWPOLYLINE
  5
4660
330
3D65
100
AcDbEntity
  8
0
100
AcDbPolyline
 90
        4
 70
     1
 43
0.0
 10
30651.06717482388
 20
23216.19303368579
 10
30651.06717482388
 20
23656.19303368579
 10
32241.06717482389
 20
23656.19303368579
 10
32241.06717482389
 20
23216.19303368579
  0
LWPOLYLINE
  5
4661
330
3D65
100
AcDbEntity
  8
0
100
AcDbPolyline
 90
        4
 70
     1
 43
0.0
 10
32746.06717482389
 20
23195.19303368579
 10
32746.06717482389
 20
23216.19303368579
 10
34546.06717482389
 20
23216.19303368579
 10
34546.06717482389
 20
23195.19303368579
  0
LWPOLYLINE
  5
4662
330
3D65
100
AcDbEntity
  8
0
100
AcDbPolyline
 90
        9
 70
     1
 43
0.0
 10
32746.06717482389
 20
23195.19303368579
 10
34546.06717482389
 20
23195.19303368579
 10
34546.06717482389
 20
22470.1930336858
 10
34506.06717482389
 20
22470.1930336858
 10
34506.06717482389
 20
23155.19303368579
 10
32786.06717482389
 20
23155.19303368579
 10
32786.06717482389
 20
22470.1930336858
 10
32746.06717482389
 20
22470.1930336858
 10
32746.06717482389
 20
23195.19303368579
  0
LWPOLYLINE
  5
4663
330
3D65
100
AcDbEntity
  8
0
100
AcDbPolyline
 90
        9
 70
     1
 43
0.0
 10
30646.06717482388
 20
23195.19303368579
 10
32246.06717482389
 20
23195.19303368579
 10
32246.06717482389
 20
22470.1930336858
 10
32206.06717482389
 20
22470.1930336858
 10
32206.06717482389
 20
23155.19303368579
 10
30686.06717482388
 20
23155.19303368579
 10
30686.06717482388
 20
22470.1930336858
 10
30646.06717482388
 20
22470.1930336858
 10
30646.06717482388
 20
23195.19303368579
  0
LWPOLYLINE
  5
4664
330
3D65
100
AcDbEntity
  8
0
100
AcDbPolyline
 90
        4
 70
     1
 43
0.0
 10
30646.06717482388
 20
23195.19303368579
 10
30646.06717482388
 20
23216.19303368579
 10
32246.06717482389
 20
23216.19303368579
 10
32246.06717482389
 20
23195.19303368579
  0
LWPOLYLINE
  5
4665
330
3D65
100
AcDbEntity
  8
0
100
AcDbPolyline
 90
        9
 70
     1
 43
0.0
 10
35046.0671748239
 20
23195.19303368579
 10
37046.0671748239
 20
23195.19303368579
 10
37046.0671748239
 20
22470.1930336858
 10
37006.0671748239
 20
22470.1930336858
 10
37006.0671748239
 20
23155.19303368579
 10
35086.0671748239
 20
23155.19303368579
 10
35086.0671748239
 20
22470.1930336858
 10
35046.0671748239
 20
22470.1930336858
 10
35046.0671748239
 20
23195.19303368579
  0
LWPOLYLINE
  5
4666
330
3D65
100
AcDbEntity
  8
0
100
AcDbPolyline
 90
        4
 70
     1
 43
0.0
 10
35046.0671748239
 20
23195.19303368579
 10
35046.0671748239
 20
23216.19303368579
 10
37046.0671748239
 20
23216.19303368579
 10
37046.0671748239
 20
23195.19303368579
  0
LWPOLYLINE
  5
4667
330
3D65
100
AcDbEntity
  8
0
100
AcDbPolyline
 90
        4
 70
     1
 43
0.0
 10
35151.0671748239
 20
23216.19303368579
 10
35151.0671748239
 20
23656.19303368579
 10
36941.0671748239
 20
23656.19303368579
 10
36941.0671748239
 20
23216.19303368579
  0
LWPOLYLINE
  5
4668
330
3D65
100
AcDbEntity
  8
0
100
AcDbPolyline
 90
        9
 70
     1
 43
0.0
 10
38062.26636974422
 20
23195.1930336858
 10
38862.26636974422
 20
23195.1930336858
 10
38862.26636974422
 20
22470.1930336858
 10
38822.26636974422
 20
22470.1930336858
 10
38822.26636974422
 20
23155.1930336858
 10
38102.26636974422
 20
23155.1930336858
 10
38102.26636974422
 20
22470.1930336858
 10
38062.26636974422
 20
22470.1930336858
 10
38062.26636974422
 20
23202.1930336858
  0
LWPOLYLINE
  5
4669
330
3D65
100
AcDbEntity
  8
0
100
AcDbPolyline
 90
        4
 70
     1
 43
0.0
 10
38062.26636974422
 20
23195.1930336858
 10
38062.26636974422
 20
23216.1930336858
 10
38862.26636974422
 20
23216.1930336858
 10
38862.26636974422
 20
23195.1930336858
  0
LWPOLYLINE
  5
466A
330
3D65
100
AcDbEntity
  8
0
100
AcDbPolyline
 90
        5
 70
     0
 43
0.0
 10
38072.2663697442
 20
23216.1930336858
 10
38072.2663697442
 20
23656.19303368579
 10
38062.26636974422
 20
23656.19303368579
 10
38062.26636974422
 20
23216.1930336858
 10
38072.2663697442
 20
23216.1930336858
  0
LWPOLYLINE
  5
466B
330
3D65
100
AcDbEntity
  8
0
100
AcDbPolyline
 90
        4
 70
     1
 43
0.0
 10
28786.06717482389
 20
23155.19303368579
 10
30106.06717482389
 20
23155.19303368579
 10
30106.06717482389
 20
22855.1930336858
 10
28786.06717482389
 20
22855.1930336858
  0
LWPOLYLINE
  5
466C
330
3D65
100
AcDbEntity
  8
0
100
AcDbPolyline
 90
        4
 70
     1
 43
0.0
 10
30686.06717482388
 20
23155.19303368579
 10
32206.06717482389
 20
23155.19303368579
 10
32206.06717482389
 20
22855.1930336858
 10
30686.06717482388
 20
22855.1930336858
  0
LWPOLYLINE
  5
466D
330
3D65
100
AcDbEntity
  8
0
100
AcDbPolyline
 90
        4
 70
     1
 43
0.0
 10
32786.06717482389
 20
23155.19303368579
 10
34506.06717482389
 20
23155.19303368579
 10
34506.06717482389
 20
22855.1930336858
 10
32786.06717482389
 20
22855.1930336858
  0
LWPOLYLINE
  5
466E
330
3D65
100
AcDbEntity
  8
0
100
AcDbPolyline
 90
        4
 70
     1
 43
0.0
 10
35086.0671748239
 20
23155.19303368579
 10
37006.0671748239
 20
23155.19303368579
 10
37006.0671748239
 20
22855.1930336858
 10
35086.0671748239
 20
22855.1930336858
  0
LWPOLYLINE
  5
466F
330
3D65
100
AcDbEntity
  8
0
100
AcDbPolyline
 90
        2
 70
     0
 43
0.0
 10
28746.06717482389
 20
22470.1930336858
 10
28746.06717482389
 20
22470.1930336858
  0
LINE
  5
4670
330
3D65
100
AcDbEntity
  8
0
100
AcDbLine
 10
28766.06717482389
 20
22470.1930336858
 30
0.0
 11
28766.0671748239
 21
23195.1930336858
 31
0.0
  0
LWPOLYLINE
  5
4671
330
3D65
100
AcDbEntity
  8
0
100
AcDbPolyline
 90
        4
 70
     1
 43
0.0
 10
28354.56540349228
 20
16199.06658684554
 10
29754.56540349228
 20
16199.06658684554
 10
29754.56540349228
 20
15399.06658684554
 10
28354.56540349228
 20
15399.06658684554
  0
CIRCLE
  5
4672
330
3D65
100
AcDbEntity
  8
0
100
AcDbCircle
 10
29634.56540349228
 20
16079.06658684554
 30
0.0
 40
40.0
  0
CIRCLE
  5
4673
330
3D65
100
AcDbEntity
  8
0
100
AcDbCircle
 10
28474.56540349228
 20
16079.06658684554
 30
0.0
 40
40.0
  0
LWPOLYLINE
  5
4674
330
3D65
100
AcDbEntity
  8
0
100
AcDbPolyline
 90
        4
 70
     1
 43
0.0
 10
30233.95225399695
 20
16199.06658684554
 10
31633.95225399695
 20
16199.06658684554
 10
31633.95225399695
 20
15399.06658684554
 10
30233.95225399695
 20
15399.06658684554
  0
CIRCLE
  5
4675
330
3D65
100
AcDbEntity
  8
0
100
AcDbCircle
 10
31513.95225399695
 20
16079.06658684554
 30
0.0
 40
30.0
  0
CIRCLE
  5
4676
330
3D65
100
AcDbEntity
  8
0
100
AcDbCircle
 10
30353.95225399695
 20
16079.06658684554
 30
0.0
 40
30.0
  0
LWPOLYLINE
  5
4677
330
3D65
100
AcDbEntity
  8
0
100
AcDbPolyline
 90
        4
 70
     1
 43
0.0
 10
32051.06159199663
 20
16199.06658684554
 10
33451.06159199663
 20
16199.06658684554
 10
33451.06159199663
 20
15399.06658684555
 10
32051.06159199663
 20
15399.06658684555
  0
LWPOLYLINE
  5
4678
330
3D65
100
AcDbEntity
  8
0
100
AcDbPolyline
 90
        4
 70
     1
 43
0.0
 10
33914.79609687851
 20
16199.06658684555
 10
35314.79609687851
 20
16199.06658684555
 10
35314.79609687851
 20
15399.06658684555
 10
33914.79609687851
 20
15399.06658684555
  0
LWPOLYLINE
  5
4679
330
3D65
100
AcDbEntity
  8
0
100
AcDbPolyline
 90
        4
 70
     1
 43
0.0
 10
34746.79609687851
 20
16017.06658684555
 10
34482.79609687851
 20
16017.06658684555
 10
34482.79609687851
 20
16141.06658684555
 10
34746.79609687851
 20
16141.06658684555
  0
LWPOLYLINE
  5
467A
330
3D65
100
AcDbEntity
  8
0
100
AcDbPolyline
 90
        4
 70
     1
 43
0.0
 10
35858.99956409021
 20
16199.06658684554
 10
37258.99956409021
 20
16199.06658684554
 10
37258.99956409021
 20
15399.06658684554
 10
35858.99956409021
 20
15399.06658684554
  0
LWPOLYLINE
  5
467B
330
3D65
100
AcDbEntity
  8
0
100
AcDbPolyline
 90
        4
 70
     1
 43
0.0
 10
36331.99956409021
 20
16141.06658684555
 10
36785.99956409021
 20
16141.06658684555
 10
36785.99956409021
 20
16017.06658684555
 10
36331.99956409021
 20
16017.06658684555
  0
LWPOLYLINE
  5
467C
330
3D65
100
AcDbEntity
  8
0
100
AcDbPolyline
 90
        4
 70
     1
 43
0.0
 10
37843.56829993073
 20
16799.06658684554
 10
39243.56829993072
 20
16799.06658684554
 10
39243.56829993072
 20
15399.06658684554
 10
37843.56829993073
 20
15399.06658684554
  0
LWPOLYLINE
  5
467D
330
3D65
100
AcDbEntity
  8
0
100
AcDbPolyline
 90
        4
 70
     1
 43
0.0
 10
38675.56829993072
 20
16037.06658684554
 10
38411.56829993072
 20
16037.06658684554
 10
38411.56829993072
 20
16161.06658684554
 10
38675.56829993072
 20
16161.06658684554
  0
CIRCLE
  5
467E
330
3D65
100
AcDbEntity
  8
0
100
AcDbCircle
 10
33331.06159199663
 20
16079.06658684554
 30
0.0
 40
40.0
  0
CIRCLE
  5
467F
330
3D65
100
AcDbEntity
  8
0
100
AcDbCircle
 10
32171.06159199663
 20
16079.06658684554
 30
0.0
 40
40.0
  0
ENDSEC
  0
SECTION
  2
OBJECTS
  0
DICTIONARY
  5
3D55
330
0
100
AcDbDictionary
281
     1
  3
ACAD_COLOR
350
3F04
  3
ACAD_DETAILVIEWSTYLE
350
3E26
  3
ACAD_GROUP
350
3D56
  3
ACAD_LAYOUT
350
3D62
  3
ACAD_MATERIAL
350
3D6B
  3
ACAD_MLEADERSTYLE
350
3DB3
  3
ACAD_MLINESTYLE
350
3D5F
  3
ACAD_PLOTSETTINGS
350
3D61
  3
ACAD_PLOTSTYLENAME
350
3D57
  3
ACAD_SCALELIST
350
3D76
  3
ACAD_SECTIONVIEWSTYLE
350
3E27
  3
ACAD_TABLESTYLE
350
3DB1
  3
ACAD_VISUALSTYLE
350
3D98
  3
ACDB_RECOMPOSE_DATA
350
4686
  3
AcDbVariableDictionary
350
3E21
  3
APPDATA
350
3DB5
  3
FX_DICT_DIMENSION_PALETTE
350
3EBE
  3
PRINTCONFIG
350
4683
  0
SUN
  5
3EC9
330
3D68
100
AcDbSun
 90
        1
290
     0
 63
     7
421
 16777215
 40
1.0
291
     1
 91
  2455826
 92
 54000000
292
     0
 70
     2
 71
   256
280
     1
  0
DICTIONARY
  5
3F92
330
3D4C
100
AcDbDictionary
280
     1
281
     1
  3
ACAD_LAYERSTATES
360
3F93
  0
DICTIONARY
  5
3EC7
330
3D65
100
AcDbDictionary
280
     1
281
     1
  3
DIM_BOUNDING_BOXES_V1
360
3EC8
  0
DICTIONARY
  5
3F04
102
{ACAD_REACTORS
330
3D55
102
}
330
3D55
100
AcDbDictionary
281
     1
  0
DICTIONARY
  5
3E26
102
{ACAD_REACTORS
330
3D55
102
}
330
3D55
100
AcDbDictionary
281
     1
  0
DICTIONARY
  5
3D56
102
{ACAD_REACTORS
330
3D55
102
}
330
3D55
100
AcDbDictionary
281
     1
  0
DICTIONARY
  5
3D62
102
{ACAD_REACTORS
330
3D55
102
}
330
3D55
100
AcDbDictionary
281
     1
  3
Foglio1
350
3D64
  3
Model
350
3D66
  0
DICTIONARY
  5
3D6B
102
{ACAD_REACTORS
330
3D55
102
}
330
3D55
100
AcDbDictionary
281
     1
  3
ByBlock
350
3D6D
  3
ByLayer
350
3D6C
  3
Global
350
3D6E
  0
DICTIONARY
  5
3DB3
102
{ACAD_REACTORS
330
3D55
102
}
330
3D55
100
AcDbDictionary
281
     1
  3
Standard
350
3DB4
  0
DICTIONARY
  5
3D5F
102
{ACAD_REACTORS
330
3D55
102
}
330
3D55
100
AcDbDictionary
281
     1
  3
Standard
350
3D60
  0
DICTIONARY
  5
3D61
102
{ACAD_REACTORS
330
3D55
102
}
330
3D55
100
AcDbDictionary
281
     1
  0
ACDBDICTIONARYWDFLT
  5
3D57
102
{ACAD_REACTORS
330
3D55
102
}
330
3D55
100
AcDbDictionary
281
     1
  3
Normal
350
3D58
100
AcDbDictionaryWithDefault
340
3D58
  0
DICTIONARY
  5
3D76
102
{ACAD_REACTORS
330
3D55
102
}
330
3D55
100
AcDbDictionary
281
     1
  3
A0
350
3D77
  3
A1
350
3D78
  3
A2
350
3D79
  3
A3
350
3D7A
  3
A4
350
3D7B
  3
A5
350
3D7C
  3
A6
350
3D7D
  3
A7
350
3D7E
  3
A8
350
3D7F
  3
A9
350
3D80
  3
B0
350
3D81
  3
B1
350
3D82
  3
B2
350
3D83
  3
B3
350
3D84
  3
B4
350
3D85
  3
B5
350
3D86
  3
B6
350
3D87
  3
B7
350
3D88
  3
B8
350
3D89
  3
B9
350
3D8A
  3
C0
350
3D8B
  3
C1
350
3D8C
  3
C2
350
3D8D
  3
C3
350
3D8E
  3
C4
350
3D8F
  3
C5
350
3D90
  3
C6
350
3D91
  3
C7
350
3D92
  3
C8
350
3D93
  3
C9
350
3D94
  3
D0
350
3D95
  3
D1
350
3D96
  3
D2
350
3D97
  0
DICTIONARY
  5
3E27
102
{ACAD_REACTORS
330
3D55
102
}
330
3D55
100
AcDbDictionary
281
     1
  0
DICTIONARY
  5
3DB1
102
{ACAD_REACTORS
330
3D55
102
}
330
3D55
100
AcDbDictionary
281
     1
  3
Standard
350
3DB2
  0
DICTIONARY
  5
3D98
102
{ACAD_REACTORS
330
3D55
102
}
330
3D55
100
AcDbDictionary
281
     1
  3
2dWireframe
350
3D9D
  3
Basic
350
3DA0
  3
Brighten
350
3DA4
  3
ColorChange
350
3DA8
  3
Conceptual
350
3DA2
  3
Dim
350
3DA3
  3
EdgeColorOff
350
3DAB
  3
Facepattern
350
3DA7
  3
Flat
350
3D99
  3
FlatWithEdges
350
3D9A
  3
Gouraud
350
3D9B
  3
GouraudWithEdges
350
3D9C
  3
Hidden
350
3D9F
  3
JitterOff
350
3DA9
  3
Linepattern
350
3DA6
  3
OverhangOff
350
3DAA
  3
Realistic
350
3DA1
  3
Shaded
350
3DB0
  3
Shaded with edges
350
3DAF
  3
Shades of Gray
350
3DAC
  3
Sketchy
350
3DAD
  3
Thicken
350
3DA5
  3
Wireframe
350
3D9E
  3
X-Ray
350
3DAE
  0
XRECORD
  5
4686
102
{ACAD_REACTORS
330
3D55
102
}
330
3D55
100
AcDbXrecord
280
     1
 90
        1
330
3DB2
  0
DICTIONARY
  5
3E21
102
{ACAD_REACTORS
330
3D55
102
}
330
3D55
100
AcDbDictionary
281
     1
  3
CANNOSCALE
350
3E22
  3
CMLEADERSTYLE
350
3E24
  3
CTABLESTYLE
350
3E23
  3
MSLTSCALE
350
3E25
  0
DICTIONARY
  5
3DB5
102
{ACAD_REACTORS
330
3D55
102
}
330
3D55
100
AcDbDictionary
281
     1
  0
DICTIONARY
  5
3EBE
102
{ACAD_REACTORS
330
3D55
102
}
330
3D55
100
AcDbDictionary
281
     1
1001
FX_DIMP_FAV_VERSION
1071
        1
  0
DICTIONARYVAR
  5
4683
102
{ACAD_REACTORS
330
3D55
102
}
330
3D55
100
DictionaryVariables
280
     0
  1
0
  0
DICTIONARY
  5
3F93
102
{ACAD_REACTORS
330
3F92
102
}
330
3F92
100
AcDbDictionary
281
     1
  0
DICTIONARY
  5
3EC8
102
{ACAD_REACTORS
330
3EC7
102
}
330
3EC7
100
AcDbDictionary
281
     1
  0
LAYOUT
  5
3D64
102
{ACAD_REACTORS
330
3D62
102
}
330
3D62
100
AcDbPlotSettings
  1

  2
none_device
  4

  6

 40
0.0
 41
0.0
 42
0.0
 43
0.0
 44
0.0
 45
0.0
 46
0.0
 47
0.0
 48
0.0
 49
0.0
140
0.0
141
0.0
142
1.0
143
1.0
 70
   688
 72
     0
 73
     0
 74
     5
  7

 75
    16
 76
     0
 77
     2
 78
   300
147
1.0
148
0.0
149
0.0
100
AcDbLayout
  1
Foglio1
 70
     1
 71
     1
 10
0.0
 20
0.0
 11
0.0
 21
0.0
 12
0.0
 22
0.0
 32
0.0
 14
0.0
 24
0.0
 34
0.0
 15
0.0
 25
0.0
 35
0.0
146
0.0
 13
0.0
 23
0.0
 33
0.0
 16
1.0
 26
0.0
 36
0.0
 17
0.0
 27
1.0
 37
0.0
 76
     0
330
3D63
  0
LAYOUT
  5
3D66
102
{ACAD_REACTORS
330
3D62
102
}
330
3D62
100
AcDbPlotSettings
  1

  2
none_device
  4
Letter_(8.50_x_11.00_Inches)
  6

 40
6.35
 41
6.35
 42
6.35
 43
6.35
 44
215.9
 45
279.4
 46
0.0
 47
0.0
 48
0.0
 49
0.0
140
0.0
141
0.0
142
1.0
143
1.0
 70
  1712
 72
     0
 73
     0
 74
     0
  7

 75
     0
 76
     0
 77
     2
 78
   300
147
1.0
148
0.0
149
0.0
100
AcDbLayout
  1
Model
 70
     1
 71
     0
 10
0.0
 20
0.0
 11
12.0
 21
9.0
 12
0.0
 22
0.0
 32
0.0
 14
0.0
 24
0.0
 34
0.0
 15
40337.62332585
 25
27795.4243780351
 35
0.0
146
0.0
 13
0.0
 23
0.0
 33
0.0
 16
1.0
 26
0.0
 36
0.0
 17
0.0
 27
1.0
 37
0.0
 76
     0
330
3D65
331
3D68
  0
MATERIAL
  5
3D6D
102
{ACAD_REACTORS
330
3D6B
102
}
330
3D6B
100
AcDbMaterial
  1
ByBlock
 72
     1
 94
      127
  0
MATERIAL
  5
3D6C
102
{ACAD_REACTORS
330
3D6B
102
}
330
3D6B
100
AcDbMaterial
  1
ByLayer
 72
     1
 94
      127
  0
MATERIAL
  5
3D6E
102
{ACAD_REACTORS
330
3D6B
102
}
330
3D6B
100
AcDbMaterial
  1
Global
 72
     1
 94
      127
  0
MLEADERSTYLE
  5
3DB4
102
{ACAD_REACTORS
330
3DB3
102
}
330
3DB3
100
AcDbMLeaderStyle
179
     2
170
     2
171
     1
172
     0
 90
        2
 40
0.0
 41
0.0
173
     1
 91
-1056964608
340
3D5C
 92
       -2
290
     1
 42
0.09
291
     1
 43
0.36
  3
Standard
341
0
 44
0.18
300

342
3D5A
174
     1
178
     1
175
     1
176
     0
 93
-1056964608
 45
0.18
292
     0
297
     0
 46
0.18
343
0
 94
-1056964608
 47
1.0
 49
1.0
140
1.0
293
     1
141
0.0
294
     1
177
     0
142
1.0
295
     0
296
     0
143
0.125
271
     0
272
     9
273
     9
298
     0
  0
MLINESTYLE
  5
3D60
102
{ACAD_REACTORS
330
3D5F
102
}
330
3D5F
100
AcDbMlineStyle
  2
Standard
 70
     0
  3

 62
   256
 51
90.0
 52
90.0
 71
     2
 49
0.5
 62
   256
  6
BYLAYER
 49
-0.5
 62
   256
  6
BYLAYER
  0
ACDBPLACEHOLDER
  5
3D58
102
{ACAD_REACTORS
330
3D57
102
}
330
3D57
  0
SCALE
  5
3D77
102
{ACAD_REACTORS
330
3D76
102
}
330
3D76
100
AcDbScale
 70
     0
300
1:1
140
1.0
141
1.0
290
     1
  0
SCALE
  5
3D78
102
{ACAD_REACTORS
330
3D76
102
}
330
3D76
100
AcDbScale
 70
     0
300
1:2
140
1.0
141
2.0
290
     0
  0
SCALE
  5
3D79
102
{ACAD_REACTORS
330
3D76
102
}
330
3D76
100
AcDbScale
 70
     0
300
1:4
140
1.0
141
4.0
290
     0
  0
SCALE
  5
3D7A
102
{ACAD_REACTORS
330
3D76
102
}
330
3D76
100
AcDbScale
 70
     0
300
1:5
140
1.0
141
5.0
290
     0
  0
SCALE
  5
3D7B
102
{ACAD_REACTORS
330
3D76
102
}
330
3D76
100
AcDbScale
 70
     0
300
1:8
140
1.0
141
8.0
290
     0
  0
SCALE
  5
3D7C
102
{ACAD_REACTORS
330
3D76
102
}
330
3D76
100
AcDbScale
 70
     0
300
1:10
140
1.0
141
10.0
290
     0
  0
SCALE
  5
3D7D
102
{ACAD_REACTORS
330
3D76
102
}
330
3D76
100
AcDbScale
 70
     0
300
1:16
140
1.0
141
16.0
290
     0
  0
SCALE
  5
3D7E
102
{ACAD_REACTORS
330
3D76
102
}
330
3D76
100
AcDbScale
 70
     0
300
1:20
140
1.0
141
20.0
290
     0
  0
SCALE
  5
3D7F
102
{ACAD_REACTORS
330
3D76
102
}
330
3D76
100
AcDbScale
 70
     0
300
1:30
140
1.0
141
30.0
290
     0
  0
SCALE
  5
3D80
102
{ACAD_REACTORS
330
3D76
102
}
330
3D76
100
AcDbScale
 70
     0
300
1:40
140
1.0
141
40.0
290
     0
  0
SCALE
  5
3D81
102
{ACAD_REACTORS
330
3D76
102
}
330
3D76
100
AcDbScale
 70
     0
300
1:50
140
1.0
141
50.0
290
     0
  0
SCALE
  5
3D82
102
{ACAD_REACTORS
330
3D76
102
}
330
3D76
100
AcDbScale
 70
     0
300
1:100
140
1.0
141
100.0
290
     0
  0
SCALE
  5
3D83
102
{ACAD_REACTORS
330
3D76
102
}
330
3D76
100
AcDbScale
 70
     0
300
2:1
140
2.0
141
1.0
290
     0
  0
SCALE
  5
3D84
102
{ACAD_REACTORS
330
3D76
102
}
330
3D76
100
AcDbScale
 70
     0
300
4:1
140
4.0
141
1.0
290
     0
  0
SCALE
  5
3D85
102
{ACAD_REACTORS
330
3D76
102
}
330
3D76
100
AcDbScale
 70
     0
300
8:1
140
8.0
141
1.0
290
     0
  0
SCALE
  5
3D86
102
{ACAD_REACTORS
330
3D76
102
}
330
3D76
100
AcDbScale
 70
     0
300
10:1
140
10.0
141
1.0
290
     0
  0
SCALE
  5
3D87
102
{ACAD_REACTORS
330
3D76
102
}
330
3D76
100
AcDbScale
 70
     0
300
100:1
140
100.0
141
1.0
290
     0
  0
SCALE
  5
3D88
102
{ACAD_REACTORS
330
3D76
102
}
330
3D76
100
AcDbScale
 70
     0
300
1/128" = 1'-0"
140
0.0078125
141
12.0
290
     0
  0
SCALE
  5
3D89
102
{ACAD_REACTORS
330
3D76
102
}
330
3D76
100
AcDbScale
 70
     0
300
1/64" = 1'-0"
140
0.015625
141
12.0
290
     0
  0
SCALE
  5
3D8A
102
{ACAD_REACTORS
330
3D76
102
}
330
3D76
100
AcDbScale
 70
     0
300
1/32" = 1'-0"
140
0.03125
141
12.0
290
     0
  0
SCALE
  5
3D8B
102
{ACAD_REACTORS
330
3D76
102
}
330
3D76
100
AcDbScale
 70
     0
300
1/16" = 1'-0"
140
0.0625
141
12.0
290
     0
  0
SCALE
  5
3D8C
102
{ACAD_REACTORS
330
3D76
102
}
330
3D76
100
AcDbScale
 70
     0
300
3/32" = 1'-0"
140
0.09375
141
12.0
290
     0
  0
SCALE
  5
3D8D
102
{ACAD_REACTORS
330
3D76
102
}
330
3D76
100
AcDbScale
 70
     0
300
1/8" = 1'-0"
140
0.125
141
12.0
290
     0
  0
SCALE
  5
3D8E
102
{ACAD_REACTORS
330
3D76
102
}
330
3D76
100
AcDbScale
 70
     0
300
3/16" = 1'-0"
140
0.1875
141
12.0
290
     0
  0
SCALE
  5
3D8F
102
{ACAD_REACTORS
330
3D76
102
}
330
3D76
100
AcDbScale
 70
     0
300
1/4" = 1'-0"
140
0.25
141
12.0
290
     0
  0
SCALE
  5
3D90
102
{ACAD_REACTORS
330
3D76
102
}
330
3D76
100
AcDbScale
 70
     0
300
3/8" = 1'-0"
140
0.375
141
12.0
290
     0
  0
SCALE
  5
3D91
102
{ACAD_REACTORS
330
3D76
102
}
330
3D76
100
AcDbScale
 70
     0
300
1/2" = 1'-0"
140
0.5
141
12.0
290
     0
  0
SCALE
  5
3D92
102
{ACAD_REACTORS
330
3D76
102
}
330
3D76
100
AcDbScale
 70
     0
300
3/4" = 1'-0"
140
0.75
141
12.0
290
     0
  0
SCALE
  5
3D93
102
{ACAD_REACTORS
330
3D76
102
}
330
3D76
100
AcDbScale
 70
     0
300
1" = 1'-0"
140
1.0
141
12.0
290
     0
  0
SCALE
  5
3D94
102
{ACAD_REACTORS
330
3D76
102
}
330
3D76
100
AcDbScale
 70
     0
300
1-1/2" = 1'-0"
140
1.5
141
12.0
290
     0
  0
SCALE
  5
3D95
102
{ACAD_REACTORS
330
3D76
102
}
330
3D76
100
AcDbScale
 70
     0
300
3" = 1'-0"
140
3.0
141
12.0
290
     0
  0
SCALE
  5
3D96
102
{ACAD_REACTORS
330
3D76
102
}
330
3D76
100
AcDbScale
 70
     0
300
6" = 1'-0"
140
6.0
141
12.0
290
     0
  0
SCALE
  5
3D97
102
{ACAD_REACTORS
330
3D76
102
}
330
3D76
100
AcDbScale
 70
     0
300
1'-0" = 1'-0"
140
12.0
141
12.0
290
     0
  0
TABLESTYLE
  5
3DB2
102
{ACAD_REACTORS
330
3DB1
102
}
102
{ACAD_XDICTIONARY
360
4684
102
}
330
3DB1
100
AcDbTableStyle
  3
Standard
 70
     0
 71
     0
 40
0.06
 41
0.06
280
     0
281
     0
  7
STANDARD
140
0.18
170
     2
 62
     0
 63
   257
283
     0
 90
        4
 91
        0
  1

274
    -2
284
     1
 64
     0
275
    -2
285
     1
 65
     0
276
    -2
286
     1
 66
     0
277
    -2
287
     1
 67
     0
278
    -2
288
     1
 68
     0
279
    -2
289
     1
 69
     0
  7
STANDARD
140
0.25
170
     5
 62
     0
 63
   257
283
     0
 90
        4
 91
        0
  1

274
    -2
284
     1
 64
     0
275
    -2
285
     1
 65
     0
276
    -2
286
     1
 66
     0
277
    -2
287
     1
 67
     0
278
    -2
288
     1
 68
     0
279
    -2
289
     1
 69
     0
  7
STANDARD
140
0.18
170
     5
 62
     0
 63
   257
283
     0
 90
        4
 91
        0
  1

274
    -2
284
     1
 64
     0
275
    -2
285
     1
 65
     0
276
    -2
286
     1
 66
     0
277
    -2
287
     1
 67
     0
278
    -2
288
     1
 68
     0
279
    -2
289
     1
 69
     0
  0
VISUALSTYLE
  5
3D9D
102
{ACAD_REACTORS
330
3D98
102
}
330
3D98
100
AcDbVisualStyle
  2
2dWireframe
 70
     4
177
     3
291
     0
 70
    58
 90
        0
176
     1
 90
        2
176
     1
 90
        0
176
     1
 90
        0
176
     1
 40
0.6
176
     1
 40
30.0
176
     1
 62
     7
420
 16777215
176
     1
 90
        1
176
     1
 90
        4
176
     1
 62
     7
176
     1
 62
   257
176
     1
 90
        1
176
     1
 90
        1
176
     1
 40
1.0
176
     1
 90
        0
176
     1
 62
   257
176
     1
 40
1.0
176
     1
 90
        1
176
     1
 90
        6
176
     1
 90
        2
176
     1
 62
     7
176
     1
 90
        5
176
     1
 90
        0
176
     1
 90
        0
176
     1
290
     0
176
     1
 90
        1
176
     1
 40
0.0
176
     1
 90
        0
176
     1
290
     1
176
     1
290
     1
176
     1
290
     0
176
     1
290
     0
176
     1
290
     0
176
     1
290
     0
176
     1
290
     0
176
     1
290
     0
176
     1
290
     0
176
     1
 90
       50
176
     1
 40
0.0
176
     1
 40
1.0
176
     1
 90
        0
176
     1
 62
    18
420
        0
176
     1
 90
       50
176
     1
 90
        3
176
     1
 62
     5
420
      255
176
     1
290
     0
176
     1
 90
       50
176
     1
 90
       50
176
     1
 90
       50
176
     1
290
     0
176
     1
 90
       50
176
     1
 62
   256
176
     0
 40
1.0
176
     0
 90
        2
176
     1
  1
strokes_ogs.tif
176
     1
290
     0
176
     1
 40
1.0
176
     1
 40
1.0
176
     1
  0
VISUALSTYLE
  5
3DA0
102
{ACAD_REACTORS
330
3D98
102
}
330
3D98
100
AcDbVisualStyle
  2
Basic
 70
     7
177
     3
291
     1
 70
    58
 90
        1
176
     1
 90
        0
176
     1
 90
        1
176
     1
 90
        0
176
     1
 40
0.6
176
     1
 40
30.0
176
     1
 62
     7
420
 16777215
176
     1
 90
        0
176
     1
 90
        4
176
     1
 62
     7
176
     1
 62
   257
176
     1
 90
        1
176
     1
 90
        1
176
     1
 40
1.0
176
     1
 90
        8
176
     1
 62
     7
176
     1
 40
1.0
176
     1
 90
        1
176
     1
 90
        6
176
     1
 90
        2
176
     1
 62
     7
176
     1
 90
        5
176
     1
 90
        0
176
     1
 90
        0
176
     1
290
     0
176
     1
 90
        1
176
     1
 40
0.0
176
     1
 90
        0
176
     1
290
     0
176
     1
290
     1
176
     1
290
     1
176
     1
290
     0
176
     1
290
     0
176
     1
290
     0
176
     1
290
     0
176
     1
290
     0
176
     1
290
     0
176
     1
 90
       50
176
     1
 40
0.0
176
     1
 40
1.0
176
     1
 90
        0
176
     1
 62
    18
420
        0
176
     1
 90
       50
176
     1
 90
        3
176
     1
 62
     5
420
      255
176
     1
290
     0
176
     1
 90
       50
176
     1
 90
       50
176
     1
 90
       50
176
     1
290
     0
176
     1
 90
       50
176
     1
 62
   256
176
     0
 40
1.0
176
     0
 90
        2
176
     1
  1
strokes_ogs.tif
176
     1
290
     0
176
     1
 40
1.0
176
     1
 40
1.0
176
     1
  0
VISUALSTYLE
  5
3DA4
102
{ACAD_REACTORS
330
3D98
102
}
330
3D98
100
AcDbVisualStyle
  2
Brighten
 70
    12
177
     3
291
     1
 70
    58
 90
        2
176
     1
 90
        2
176
     1
 90
        0
176
     1
 90
        0
176
     1
 40
0.6
176
     1
 40
30.0
176
     1
 62
     7
420
 16777215
176
     1
 90
        1
176
     1
 90
        4
176
     1
 62
     7
176
     1
 62
   257
176
     1
 90
        1
176
     1
 90
        1
176
     1
 40
1.0
176
     1
 90
        8
176
     1
 62
     7
176
     1
 40
1.0
176
     1
 90
        1
176
     1
 90
        6
176
     1
 90
        2
176
     1
 62
     7
176
     1
 90
        5
176
     1
 90
        0
176
     1
 90
        0
176
     1
290
     0
176
     1
 90
        1
176
     1
 40
50.0
176
     1
 90
        0
176
     1
290
     0
176
     1
290
     1
176
     1
290
     1
176
     1
290
     0
176
     1
290
     0
176
     1
290
     0
176
     1
290
     0
176
     1
290
     0
176
     1
290
     0
176
     1
 90
       50
176
     1
 40
0.0
176
     1
 40
1.0
176
     1
 90
        0
176
     1
 62
    18
420
        0
176
     1
 90
       50
176
     1
 90
        3
176
     1
 62
     5
420
      255
176
     1
290
     0
176
     1
 90
       50
176
     1
 90
       50
176
     1
 90
       50
176
     1
290
     0
176
     1
 90
       50
176
     1
 62
   256
176
     0
 40
1.0
176
     0
 90
        2
176
     1
  1
strokes_ogs.tif
176
     1
290
     0
176
     1
 40
1.0
176
     1
 40
1.0
176
     1
  0
VISUALSTYLE
  5
3DA8
102
{ACAD_REACTORS
330
3D98
102
}
330
3D98
100
AcDbVisualStyle
  2
ColorChange
 70
    16
177
     3
291
     1
 70
    58
 90
        2
176
     1
 90
        2
176
     1
 90
        3
176
     1
 90
        0
176
     1
 40
0.6
176
     1
 40
30.0
176
     1
 62
     8
420
  8421504
176
     1
 90
        1
176
     1
 90
        4
176
     1
 62
     7
176
     1
 62
   257
176
     1
 90
        1
176
     1
 90
        1
176
     1
 40
1.0
176
     1
 90
        8
176
     1
 62
     8
420
  8421504
176
     1
 40
1.0
176
     1
 90
        1
176
     1
 90
        6
176
     1
 90
        2
176
     1
 62
     7
176
     1
 90
        5
176
     1
 90
        0
176
     1
 90
        0
176
     1
290
     0
176
     1
 90
        1
176
     1
 40
0.0
176
     1
 90
        0
176
     1
290
     0
176
     1
290
     1
176
     1
290
     1
176
     1
290
     0
176
     1
290
     0
176
     1
290
     0
176
     1
290
     0
176
     1
290
     0
176
     1
290
     0
176
     1
 90
       50
176
     1
 40
0.0
176
     1
 40
1.0
176
     1
 90
        0
176
     1
 62
    18
420
        0
176
     1
 90
       50
176
     1
 90
        3
176
     1
 62
     5
420
      255
176
     1
290
     0
176
     1
 90
       50
176
     1
 90
       50
176
     1
 90
       50
176
     1
290
     0
176
     1
 90
       50
176
     1
 62
   256
176
     0
 40
1.0
176
     0
 90
        2
176
     1
  1
strokes_ogs.tif
176
     1
290
     0
176
     1
 40
1.0
176
     1
 40
1.0
176
     1
  0
VISUALSTYLE
  5
3DA2
102
{ACAD_REACTORS
330
3D98
102
}
330
3D98
100
AcDbVisualStyle
  2
Conceptual
 70
     9
177
     3
291
     0
 70
    58
 90
        3
176
     1
 90
        2
176
     1
 90
        0
176
     1
 90
        0
176
     1
 40
0.6
176
     1
 40
30.0
176
     1
 62
     7
420
 16777215
176
     1
 90
        2
176
     1
 90
        2
176
     1
 62
     7
176
     1
 62
   257
176
     1
 90
        1
176
     1
 90
        1
176
     1
 40
179.0
176
     1
 90
        8
176
     1
 62
     7
176
     1
 40
1.0
176
     1
 90
        1
176
     1
 90
        6
176
     1
 90
        2
176
     1
 62
     7
176
     1
 90
        3
176
     1
 90
        0
176
     1
 90
        0
176
     1
290
     0
176
     1
 90
        1
176
     1
 40
0.0
176
     1
 90
        0
176
     1
290
     0
176
     1
290
     1
176
     1
290
     1
176
     1
290
     0
176
     1
290
     0
176
     1
290
     0
176
     1
290
     0
176
     1
290
     0
176
     1
290
     0
176
     1
 90
       50
176
     1
 40
0.0
176
     1
 40
1.0
176
     1
 90
        0
176
     1
 62
    18
420
        0
176
     1
 90
       50
176
     1
 90
        3
176
     1
 62
     5
420
      255
176
     1
290
     0
176
     1
 90
       50
176
     1
 90
       50
176
     1
 90
       50
176
     1
290
     0
176
     1
 90
       50
176
     1
 62
   256
176
     0
 40
1.0
176
     0
 90
        2
176
     1
  1
strokes_ogs.tif
176
     1
290
     0
176
     1
 40
1.0
176
     1
 40
1.0
176
     1
  0
VISUALSTYLE
  5
3DA3
102
{ACAD_REACTORS
330
3D98
102
}
330
3D98
100
AcDbVisualStyle
  2
Dim
 70
    11
177
     3
291
     1
 70
    58
 90
        2
176
     1
 90
        2
176
     1
 90
        0
176
     1
 90
        0
176
     1
 40
0.6
176
     1
 40
30.0
176
     1
 62
     7
420
 16777215
176
     1
 90
        1
176
     1
 90
        4
176
     1
 62
     7
176
     1
 62
   257
176
     1
 90
        1
176
     1
 90
        1
176
     1
 40
1.0
176
     1
 90
        8
176
     1
 62
     7
176
     1
 40
1.0
176
     1
 90
        1
176
     1
 90
        6
176
     1
 90
        2
176
     1
 62
     7
176
     1
 90
        5
176
     1
 90
        0
176
     1
 90
        0
176
     1
290
     0
176
     1
 90
        1
176
     1
 40
-50.0
176
     1
 90
        0
176
     1
290
     0
176
     1
290
     1
176
     1
290
     1
176
     1
290
     0
176
     1
290
     0
176
     1
290
     0
176
     1
290
     0
176
     1
290
     0
176
     1
290
     0
176
     1
 90
       50
176
     1
 40
0.0
176
     1
 40
1.0
176
     1
 90
        0
176
     1
 62
    18
420
        0
176
     1
 90
       50
176
     1
 90
        3
176
     1
 62
     5
420
      255
176
     1
290
     0
176
     1
 90
       50
176
     1
 90
       50
176
     1
 90
       50
176
     1
290
     0
176
     1
 90
       50
176
     1
 62
   256
176
     0
 40
1.0
176
     0
 90
        2
176
     1
  1
strokes_ogs.tif
176
     1
290
     0
176
     1
 40
1.0
176
     1
 40
1.0
176
     1
  0
VISUALSTYLE
  5
3DAB
102
{ACAD_REACTORS
330
3D98
102
}
330
3D98
100
AcDbVisualStyle
  2
EdgeColorOff
 70
    22
177
     3
291
     1
 70
    58
 90
        2
176
     0
 90
        2
176
     0
 90
        0
176
     0
 90
        0
176
     0
 40
0.6
176
     0
 40
30.0
176
     0
 62
     7
420
 16777215
176
     0
 90
        1
176
     0
 90
        4
176
     0
 62
     7
176
     0
 62
   257
176
     0
 90
        1
176
     0
 90
        1
176
     0
 40
1.0
176
     0
 90
        8
176
     2
 62
     7
176
     0
 40
1.0
176
     0
 90
        1
176
     0
 90
        6
176
     0
 90
        2
176
     0
 62
     7
176
     0
 90
        5
176
     0
 90
        0
176
     0
 90
        0
176
     0
290
     0
176
     0
 90
        1
176
     0
 40
0.0
176
     0
 90
        0
176
     0
290
     0
176
     0
290
     1
176
     0
290
     1
176
     0
290
     0
176
     0
290
     0
176
     0
290
     0
176
     0
290
     0
176
     0
290
     0
176
     0
290
     0
176
     0
 90
       50
176
     0
 40
0.0
176
     0
 40
1.0
176
     0
 90
        0
176
     0
 62
    18
420
        0
176
     0
 90
       50
176
     0
 90
        3
176
     0
 62
     5
420
      255
176
     0
290
     0
176
     0
 90
       50
176
     0
 90
       50
176
     0
 90
       50
176
     0
290
     0
176
     0
 90
       50
176
     0
 62
   256
176
     0
 40
1.0
176
     0
 90
        2
176
     0
  1
strokes_ogs.tif
176
     0
290
     0
176
     0
 40
1.0
176
     0
 40
1.0
176
     0
  0
VISUALSTYLE
  5
3DA7
102
{ACAD_REACTORS
330
3D98
102
}
330
3D98
100
AcDbVisualStyle
  2
Facepattern
 70
    15
177
     3
291
     1
 70
    58
 90
        2
176
     1
 90
        2
176
     1
 90
        0
176
     1
 90
        0
176
     1
 40
0.6
176
     1
 40
30.0
176
     1
 62
     7
420
 16777215
176
     1
 90
        1
176
     1
 90
        4
176
     1
 62
     7
176
     1
 62
   257
176
     1
 90
        1
176
     1
 90
        1
176
     1
 40
1.0
176
     1
 90
        8
176
     1
 62
     7
176
     1
 40
1.0
176
     1
 90
        1
176
     1
 90
        6
176
     1
 90
        2
176
     1
 62
     7
176
     1
 90
        5
176
     1
 90
        0
176
     1
 90
        0
176
     1
290
     0
176
     1
 90
        1
176
     1
 40
0.0
176
     1
 90
        0
176
     1
290
     0
176
     1
290
     1
176
     1
290
     1
176
     1
290
     0
176
     1
290
     0
176
     1
290
     0
176
     1
290
     0
176
     1
290
     0
176
     1
290
     0
176
     1
 90
       50
176
     1
 40
0.0
176
     1
 40
1.0
176
     1
 90
        0
176
     1
 62
    18
420
        0
176
     1
 90
       50
176
     1
 90
        3
176
     1
 62
     5
420
      255
176
     1
290
     0
176
     1
 90
       50
176
     1
 90
       50
176
     1
 90
       50
176
     1
290
     0
176
     1
 90
       50
176
     1
 62
   256
176
     0
 40
1.0
176
     0
 90
        2
176
     1
  1
strokes_ogs.tif
176
     1
290
     0
176
     1
 40
1.0
176
     1
 40
1.0
176
     1
  0
VISUALSTYLE
  5
3D99
102
{ACAD_REACTORS
330
3D98
102
}
330
3D98
100
AcDbVisualStyle
  2
Flat
 70
     0
177
     3
291
     1
 70
    58
 90
        2
176
     1
 90
        1
176
     1
 90
        1
176
     1
 90
        2
176
     1
 40
0.6
176
     1
 40
30.0
176
     1
 62
     7
420
 16777215
176
     1
 90
        0
176
     1
 90
        0
176
     1
 62
     7
176
     1
 62
   257
176
     1
 90
        1
176
     1
 90
        1
176
     1
 40
1.0
176
     1
 90
        8
176
     1
 62
     7
176
     1
 40
1.0
176
     1
 90
        1
176
     1
 90
        6
176
     1
 90
        2
176
     1
 62
     7
176
     1
 90
        5
176
     1
 90
        0
176
     1
 90
        0
176
     1
290
     0
176
     1
 90
       13
176
     1
 40
0.0
176
     1
 90
        0
176
     1
290
     0
176
     1
290
     1
176
     1
290
     1
176
     1
290
     0
176
     1
290
     0
176
     1
290
     0
176
     1
290
     0
176
     1
290
     0
176
     1
290
     0
176
     1
 90
       50
176
     1
 40
0.0
176
     1
 40
1.0
176
     1
 90
        0
176
     1
 62
    18
420
        0
176
     1
 90
       50
176
     1
 90
        3
176
     1
 62
     5
420
      255
176
     1
290
     0
176
     1
 90
       50
176
     1
 90
       50
176
     1
 90
       50
176
     1
290
     0
176
     1
 90
       50
176
     1
 62
   256
176
     0
 40
1.0
176
     0
 90
        2
176
     1
  1
strokes_ogs.tif
176
     1
290
     0
176
     1
 40
1.0
176
     1
 40
1.0
176
     1
  0
VISUALSTYLE
  5
3D9A
102
{ACAD_REACTORS
330
3D98
102
}
330
3D98
100
AcDbVisualStyle
  2
FlatWithEdges
 70
     1
177
     3
291
     1
 70
    58
 90
        2
176
     1
 90
        1
176
     1
 90
        1
176
     1
 90
        2
176
     1
 40
0.6
176
     1
 40
30.0
176
     1
 62
     7
420
 16777215
176
     1
 90
        1
176
     1
 90
        0
176
     1
 62
     7
176
     1
 62
   257
176
     1
 90
        1
176
     1
 90
        1
176
     1
 40
1.0
176
     1
 90
        0
176
     1
 62
   257
176
     1
 40
1.0
176
     1
 90
        1
176
     1
 90
        6
176
     1
 90
        2
176
     1
 62
     7
176
     1
 90
        5
176
     1
 90
        0
176
     1
 90
        0
176
     1
290
     0
176
     1
 90
       13
176
     1
 40
0.0
176
     1
 90
        0
176
     1
290
     0
176
     1
290
     1
176
     1
290
     1
176
     1
290
     0
176
     1
290
     0
176
     1
290
     0
176
     1
290
     0
176
     1
290
     0
176
     1
290
     0
176
     1
 90
       50
176
     1
 40
0.0
176
     1
 40
1.0
176
     1
 90
        0
176
     1
 62
    18
420
        0
176
     1
 90
       50
176
     1
 90
        3
176
     1
 62
     5
420
      255
176
     1
290
     0
176
     1
 90
       50
176
     1
 90
       50
176
     1
 90
       50
176
     1
290
     0
176
     1
 90
       50
176
     1
 62
   256
176
     0
 40
1.0
176
     0
 90
        2
176
     1
  1
strokes_ogs.tif
176
     1
290
     0
176
     1
 40
1.0
176
     1
 40
1.0
176
     1
  0
VISUALSTYLE
  5
3D9B
102
{ACAD_REACTORS
330
3D98
102
}
330
3D98
100
AcDbVisualStyle
  2
Gouraud
 70
     2
177
     3
291
     1
 70
    58
 90
        2
176
     1
 90
        2
176
     1
 90
        1
176
     1
 90
        2
176
     1
 40
0.6
176
     1
 40
30.0
176
     1
 62
     7
420
 16777215
176
     1
 90
        0
176
     1
 90
        0
176
     1
 62
     7
176
     1
 62
   257
176
     1
 90
        1
176
     1
 90
        1
176
     1
 40
1.0
176
     1
 90
        0
176
     1
 62
     7
176
     1
 40
1.0
176
     1
 90
        1
176
     1
 90
        6
176
     1
 90
        2
176
     1
 62
     7
176
     1
 90
        5
176
     1
 90
        0
176
     1
 90
        0
176
     1
290
     0
176
     1
 90
       13
176
     1
 40
0.0
176
     1
 90
        0
176
     1
290
     0
176
     1
290
     1
176
     1
290
     1
176
     1
290
     0
176
     1
290
     0
176
     1
290
     0
176
     1
290
     0
176
     1
290
     0
176
     1
290
     0
176
     1
 90
       50
176
     1
 40
0.0
176
     1
 40
1.0
176
     1
 90
        0
176
     1
 62
    18
420
        0
176
     1
 90
       50
176
     1
 90
        3
176
     1
 62
     5
420
      255
176
     1
290
     0
176
     1
 90
       50
176
     1
 90
       50
176
     1
 90
       50
176
     1
290
     0
176
     1
 90
       50
176
     1
 62
   256
176
     0
 40
1.0
176
     0
 90
        2
176
     1
  1
strokes_ogs.tif
176
     1
290
     0
176
     1
 40
1.0
176
     1
 40
1.0
176
     1
  0
VISUALSTYLE
  5
3D9C
102
{ACAD_REACTORS
330
3D98
102
}
330
3D98
100
AcDbVisualStyle
  2
GouraudWithEdges
 70
     3
177
     3
291
     1
 70
    58
 90
        2
176
     1
 90
        2
176
     1
 90
        1
176
     1
 90
        2
176
     1
 40
0.6
176
     1
 40
30.0
176
     1
 62
     7
420
 16777215
176
     1
 90
        1
176
     1
 90
        0
176
     1
 62
     7
176
     1
 62
   257
176
     1
 90
        1
176
     1
 90
        1
176
     1
 40
1.0
176
     1
 90
        0
176
     1
 62
   257
176
     1
 40
1.0
176
     1
 90
        1
176
     1
 90
        6
176
     1
 90
        2
176
     1
 62
     7
176
     1
 90
        5
176
     1
 90
        0
176
     1
 90
        0
176
     1
290
     0
176
     1
 90
       13
176
     1
 40
0.0
176
     1
 90
        0
176
     1
290
     0
176
     1
290
     1
176
     1
290
     1
176
     1
290
     0
176
     1
290
     0
176
     1
290
     0
176
     1
290
     0
176
     1
290
     0
176
     1
290
     0
176
     1
 90
       50
176
     1
 40
0.0
176
     1
 40
1.0
176
     1
 90
        0
176
     1
 62
    18
420
        0
176
     1
 90
       50
176
     1
 90
        3
176
     1
 62
     5
420
      255
176
     1
290
     0
176
     1
 90
       50
176
     1
 90
       50
176
     1
 90
       50
176
     1
290
     0
176
     1
 90
       50
176
     1
 62
   256
176
     0
 40
1.0
176
     0
 90
        2
176
     1
  1
strokes_ogs.tif
176
     1
290
     0
176
     1
 40
1.0
176
     1
 40
1.0
176
     1
  0
VISUALSTYLE
  5
3D9F
102
{ACAD_REACTORS
330
3D98
102
}
330
3D98
100
AcDbVisualStyle
  2
Hidden
 70
     6
177
     3
291
     0
 70
    58
 90
        1
176
     1
 90
        2
176
     1
 90
        2
176
     1
 90
        0
176
     1
 40
0.6
176
     1
 40
30.0
176
     1
 62
     7
420
 16777215
176
     1
 90
        2
176
     1
 90
        2
176
     1
 62
     7
176
     1
 62
   257
176
     1
 90
        2
176
     1
 90
        1
176
     1
 40
40.0
176
     1
 90
        0
176
     1
 62
   257
176
     1
 40
1.0
176
     1
 90
        1
176
     1
 90
        6
176
     1
 90
        2
176
     1
 62
     7
176
     1
 90
        3
176
     1
 90
        0
176
     1
 90
        0
176
     1
290
     0
176
     1
 90
        1
176
     1
 40
0.0
176
     1
 90
        0
176
     1
290
     0
176
     1
290
     1
176
     1
290
     1
176
     1
290
     0
176
     1
290
     0
176
     1
290
     0
176
     1
290
     0
176
     1
290
     0
176
     1
290
     0
176
     1
 90
       50
176
     1
 40
0.0
176
     1
 40
1.0
176
     1
 90
        0
176
     1
 62
    18
420
        0
176
     1
 90
       50
176
     1
 90
        3
176
     1
 62
     5
420
      255
176
     1
290
     0
176
     1
 90
       50
176
     1
 90
       50
176
     1
 90
       50
176
     1
290
     0
176
     1
 90
       50
176
     1
 62
   256
176
     0
 40
1.0
176
     0
 90
        2
176
     1
  1
strokes_ogs.tif
176
     1
290
     0
176
     1
 40
1.0
176
     1
 40
1.0
176
     1
  0
VISUALSTYLE
  5
3DA9
102
{ACAD_REACTORS
330
3D98
102
}
330
3D98
100
AcDbVisualStyle
  2
JitterOff
 70
    20
177
     3
291
     1
 70
    58
 90
        2
176
     0
 90
        2
176
     0
 90
        0
176
     0
 90
        0
176
     0
 40
0.6
176
     0
 40
30.0
176
     0
 62
     7
420
 16777215
176
     0
 90
        1
176
     0
 90
        4
176
     0
 62
     7
176
     0
 62
   257
176
     0
 90
        1
176
     0
 90
        1
176
     0
 40
1.0
176
     0
 90
       10
176
     2
 62
     7
176
     0
 40
1.0
176
     0
 90
        1
176
     0
 90
        6
176
     0
 90
        2
176
     0
 62
     7
176
     0
 90
        5
176
     0
 90
        0
176
     0
 90
        0
176
     0
290
     0
176
     0
 90
        1
176
     0
 40
0.0
176
     0
 90
        0
176
     0
290
     0
176
     0
290
     1
176
     0
290
     1
176
     0
290
     0
176
     0
290
     0
176
     0
290
     0
176
     0
290
     0
176
     0
290
     0
176
     0
290
     0
176
     0
 90
       50
176
     0
 40
0.0
176
     0
 40
1.0
176
     0
 90
        0
176
     0
 62
    18
420
        0
176
     0
 90
       50
176
     0
 90
        3
176
     0
 62
     5
420
      255
176
     0
290
     0
176
     0
 90
       50
176
     0
 90
       50
176
     0
 90
       50
176
     0
290
     0
176
     0
 90
       50
176
     0
 62
   256
176
     0
 40
1.0
176
     0
 90
        2
176
     0
  1
strokes_ogs.tif
176
     0
290
     0
176
     0
 40
1.0
176
     0
 40
1.0
176
     0
  0
VISUALSTYLE
  5
3DA6
102
{ACAD_REACTORS
330
3D98
102
}
330
3D98
100
AcDbVisualStyle
  2
Linepattern
 70
    14
177
     3
291
     1
 70
    58
 90
        2
176
     1
 90
        2
176
     1
 90
        0
176
     1
 90
        0
176
     1
 40
0.6
176
     1
 40
30.0
176
     1
 62
     7
420
 16777215
176
     1
 90
        1
176
     1
 90
        4
176
     1
 62
     7
176
     1
 62
   257
176
     1
 90
        7
176
     1
 90
        7
176
     1
 40
1.0
176
     1
 90
        8
176
     1
 62
     7
176
     1
 40
1.0
176
     1
 90
        1
176
     1
 90
        6
176
     1
 90
        2
176
     1
 62
     7
176
     1
 90
        5
176
     1
 90
        0
176
     1
 90
        0
176
     1
290
     0
176
     1
 90
        1
176
     1
 40
0.0
176
     1
 90
        0
176
     1
290
     0
176
     1
290
     1
176
     1
290
     1
176
     1
290
     0
176
     1
290
     0
176
     1
290
     0
176
     1
290
     0
176
     1
290
     0
176
     1
290
     0
176
     1
 90
       50
176
     1
 40
0.0
176
     1
 40
1.0
176
     1
 90
        0
176
     1
 62
    18
420
        0
176
     1
 90
       50
176
     1
 90
        3
176
     1
 62
     5
420
      255
176
     1
290
     0
176
     1
 90
       50
176
     1
 90
       50
176
     1
 90
       50
176
     1
290
     0
176
     1
 90
       50
176
     1
 62
   256
176
     0
 40
1.0
176
     0
 90
        2
176
     1
  1
strokes_ogs.tif
176
     1
290
     0
176
     1
 40
1.0
176
     1
 40
1.0
176
     1
  0
VISUALSTYLE
  5
3DAA
102
{ACAD_REACTORS
330
3D98
102
}
330
3D98
100
AcDbVisualStyle
  2
OverhangOff
 70
    21
177
     3
291
     1
 70
    58
 90
        2
176
     0
 90
        2
176
     0
 90
        0
176
     0
 90
        0
176
     0
 40
0.6
176
     0
 40
30.0
176
     0
 62
     7
420
 16777215
176
     0
 90
        1
176
     0
 90
        4
176
     0
 62
     7
176
     0
 62
   257
176
     0
 90
        1
176
     0
 90
        1
176
     0
 40
1.0
176
     0
 90
        9
176
     2
 62
     7
176
     0
 40
1.0
176
     0
 90
        1
176
     0
 90
        6
176
     0
 90
        2
176
     0
 62
     7
176
     0
 90
        5
176
     0
 90
        0
176
     0
 90
        0
176
     0
290
     0
176
     0
 90
        1
176
     0
 40
0.0
176
     0
 90
        0
176
     0
290
     0
176
     0
290
     1
176
     0
290
     1
176
     0
290
     0
176
     0
290
     0
176
     0
290
     0
176
     0
290
     0
176
     0
290
     0
176
     0
290
     0
176
     0
 90
       50
176
     0
 40
0.0
176
     0
 40
1.0
176
     0
 90
        0
176
     0
 62
    18
420
        0
176
     0
 90
       50
176
     0
 90
        3
176
     0
 62
     5
420
      255
176
     0
290
     0
176
     0
 90
       50
176
     0
 90
       50
176
     0
 90
       50
176
     0
290
     0
176
     0
 90
       50
176
     0
 62
   256
176
     0
 40
1.0
176
     0
 90
        2
176
     0
  1
strokes_ogs.tif
176
     0
290
     0
176
     0
 40
1.0
176
     0
 40
1.0
176
     0
  0
VISUALSTYLE
  5
3DA1
102
{ACAD_REACTORS
330
3D98
102
}
330
3D98
100
AcDbVisualStyle
  2
Realistic
 70
     8
177
     3
291
     0
 70
    58
 90
        2
176
     1
 90
        3
176
     1
 90
        0
176
     1
 90
        2
176
     1
 40
0.6
176
     1
 40
30.0
176
     1
 62
     7
420
 16777215
176
     1
 90
        0
176
     1
 90
        0
176
     1
 62
     7
176
     1
 62
   257
176
     1
 90
        1
176
     1
 90
        1
176
     1
 40
1.0
176
     1
 90
        8
176
     1
 62
   257
176
     1
 40
1.0
176
     1
 90
        1
176
     1
 90
        6
176
     1
 90
        2
176
     1
 62
     7
176
     1
 90
        3
176
     1
 90
        0
176
     1
 90
        0
176
     1
290
     0
176
     1
 90
       13
176
     1
 40
0.0
176
     1
 90
        0
176
     1
290
     0
176
     1
290
     1
176
     1
290
     1
176
     1
290
     0
176
     1
290
     0
176
     1
290
     0
176
     1
290
     0
176
     1
290
     0
176
     1
290
     0
176
     1
 90
       50
176
     1
 40
0.0
176
     1
 40
1.0
176
     1
 90
        0
176
     1
 62
    18
420
        0
176
     1
 90
       50
176
     1
 90
        3
176
     1
 62
     5
420
      255
176
     1
290
     0
176
     1
 90
       50
176
     1
 90
       50
176
     1
 90
       50
176
     1
290
     0
176
     1
 90
       50
176
     1
 62
   256
176
     0
 40
1.0
176
     0
 90
        2
176
     1
  1
strokes_ogs.tif
176
     1
290
     0
176
     1
 40
1.0
176
     1
 40
1.0
176
     1
  0
VISUALSTYLE
  5
3DB0
102
{ACAD_REACTORS
330
3D98
102
}
330
3D98
100
AcDbVisualStyle
  2
Shaded
 70
    27
177
     3
291
     0
 70
    58
 90
        2
176
     1
 90
        2
176
     1
 90
        1
176
     1
 90
        2
176
     1
 40
0.6
176
     1
 40
30.0
176
     1
 62
     7
420
 16777215
176
     1
 90
        0
176
     1
 90
        4
176
     1
 62
     7
176
     1
 62
   257
176
     1
 90
        1
176
     1
 90
        1
176
     1
 40
1.0
176
     1
 90
        8
176
     1
 62
   257
176
     1
 40
1.0
176
     1
 90
        1
176
     1
 90
        6
176
     1
 90
        2
176
     1
 62
     8
420
  7895160
176
     1
 90
        3
176
     1
 90
        0
176
     1
 90
        0
176
     1
290
     0
176
     1
 90
        5
176
     1
 40
0.0
176
     1
 90
        0
176
     1
290
     0
176
     1
290
     1
176
     1
290
     1
176
     1
290
     0
176
     1
290
     0
176
     1
290
     0
176
     1
290
     0
176
     1
290
     0
176
     1
290
     0
176
     1
 90
       50
176
     1
 40
0.0
176
     1
 40
1.0
176
     1
 90
        0
176
     1
 62
    18
420
        0
176
     1
 90
       50
176
     1
 90
        3
176
     1
 62
     5
420
      255
176
     1
290
     0
176
     1
 90
       50
176
     1
 90
       50
176
     1
 90
       50
176
     1
290
     0
176
     1
 90
       50
176
     1
 62
   256
176
     0
 40
1.0
176
     0
 90
        2
176
     1
  1
strokes_ogs.tif
176
     1
290
     0
176
     1
 40
1.0
176
     1
 40
1.0
176
     1
  0
VISUALSTYLE
  5
3DAF
102
{ACAD_REACTORS
330
3D98
102
}
330
3D98
100
AcDbVisualStyle
  2
Shaded with edges
 70
    26
177
     3
291
     0
 70
    58
 90
        2
176
     1
 90
        2
176
     1
 90
        1
176
     1
 90
        2
176
     1
 40
0.6
176
     1
 40
30.0
176
     1
 62
     7
420
 16777215
176
     1
 90
        1
176
     1
 90
       10
176
     1
 62
     7
176
     1
 62
   257
176
     1
 90
        2
176
     1
 90
        1
176
     1
 40
1.0
176
     1
 90
        8
176
     1
 62
   257
176
     1
 40
1.0
176
     1
 90
        1
176
     1
 90
        6
176
     1
 90
        2
176
     1
 62
     7
176
     1
 90
        3
176
     1
 90
        0
176
     1
 90
        0
176
     1
290
     0
176
     1
 90
        5
176
     1
 40
0.0
176
     1
 90
        0
176
     1
290
     0
176
     1
290
     1
176
     1
290
     1
176
     1
290
     0
176
     1
290
     0
176
     1
290
     0
176
     1
290
     0
176
     1
290
     0
176
     1
290
     0
176
     1
 90
       50
176
     1
 40
0.0
176
     1
 40
1.0
176
     1
 90
        0
176
     1
 62
    18
420
        0
176
     1
 90
       50
176
     1
 90
        3
176
     1
 62
     5
420
      255
176
     1
290
     0
176
     1
 90
       50
176
     1
 90
       50
176
     1
 90
       50
176
     1
290
     0
176
     1
 90
       50
176
     1
 62
   256
176
     0
 40
1.0
176
     0
 90
        2
176
     1
  1
strokes_ogs.tif
176
     1
290
     0
176
     1
 40
1.0
176
     1
 40
1.0
176
     1
  0
VISUALSTYLE
  5
3DAC
102
{ACAD_REACTORS
330
3D98
102
}
330
3D98
100
AcDbVisualStyle
  2
Shades of Gray
 70
    23
177
     3
291
     0
 70
    58
 90
        2
176
     1
 90
        2
176
     1
 90
        3
176
     1
 90
        0
176
     1
 40
0.6
176
     1
 40
30.0
176
     1
 62
     7
420
 16777215
176
     1
 90
        2
176
     1
 90
        2
176
     1
 62
     7
176
     1
 62
     7
176
     1
 90
        1
176
     1
 90
        1
176
     1
 40
40.0
176
     1
 90
        8
176
     1
 62
     7
176
     1
 40
1.0
176
     1
 90
        1
176
     1
 90
        6
176
     1
 90
        2
176
     1
 62
     7
176
     1
 90
        3
176
     1
 90
        0
176
     1
 90
        0
176
     1
290
     0
176
     1
 90
        1
176
     1
 40
0.0
176
     1
 90
        0
176
     1
290
     0
176
     1
290
     1
176
     1
290
     1
176
     1
290
     0
176
     1
290
     0
176
     1
290
     0
176
     1
290
     0
176
     1
290
     0
176
     1
290
     0
176
     1
 90
       50
176
     1
 40
0.0
176
     1
 40
1.0
176
     1
 90
        0
176
     1
 62
    18
420
        0
176
     1
 90
       50
176
     1
 90
        3
176
     1
 62
     5
420
      255
176
     1
290
     0
176
     1
 90
       50
176
     1
 90
       50
176
     1
 90
       50
176
     1
290
     0
176
     1
 90
       50
176
     1
 62
   256
176
     0
 40
1.0
176
     0
 90
        2
176
     1
  1
strokes_ogs.tif
176
     1
290
     0
176
     1
 40
1.0
176
     1
 40
1.0
176
     1
  0
VISUALSTYLE
  5
3DAD
102
{ACAD_REACTORS
330
3D98
102
}
330
3D98
100
AcDbVisualStyle
  2
Sketchy
 70
    24
177
     3
291
     0
 70
    58
 90
        1
176
     1
 90
        2
176
     1
 90
        2
176
     1
 90
        0
176
     1
 40
0.6
176
     1
 40
30.0
176
     1
 62
     7
420
 16777215
176
     1
 90
        2
176
     1
 90
        2
176
     1
 62
     7
176
     1
 62
     7
176
     1
 90
        1
176
     1
 90
        1
176
     1
 40
40.0
176
     1
 90
       11
176
     1
 62
     7
176
     1
 40
1.0
176
     1
 90
        1
176
     1
 90
        6
176
     1
 90
        2
176
     1
 62
     7
176
     1
 90
        6
176
     1
 90
        0
176
     1
 90
        0
176
     1
290
     0
176
     1
 90
        1
176
     1
 40
0.0
176
     1
 90
        0
176
     1
290
     0
176
     1
290
     1
176
     1
290
     1
176
     1
290
     0
176
     1
290
     0
176
     1
290
     0
176
     1
290
     0
176
     1
290
     0
176
     1
290
     0
176
     1
 90
       50
176
     1
 40
0.0
176
     1
 40
1.0
176
     1
 90
        0
176
     1
 62
    18
420
        0
176
     1
 90
       50
176
     1
 90
        3
176
     1
 62
     5
420
      255
176
     1
290
     0
176
     1
 90
       50
176
     1
 90
       50
176
     1
 90
       50
176
     1
290
     0
176
     1
 90
       50
176
     1
 62
   256
176
     0
 40
1.0
176
     0
 90
        2
176
     1
  1
strokes_ogs.tif
176
     1
290
     0
176
     1
 40
1.0
176
     1
 40
1.0
176
     1
  0
VISUALSTYLE
  5
3DA5
102
{ACAD_REACTORS
330
3D98
102
}
330
3D98
100
AcDbVisualStyle
  2
Thicken
 70
    13
177
     3
291
     1
 70
    58
 90
        2
176
     1
 90
        2
176
     1
 90
        0
176
     1
 90
        0
176
     1
 40
0.6
176
     1
 40
30.0
176
     1
 62
     7
420
 16777215
176
     1
 90
        1
176
     1
 90
        4
176
     1
 62
     7
176
     1
 62
   257
176
     1
 90
        1
176
     1
 90
        1
176
     1
 40
1.0
176
     1
 90
       12
176
     1
 62
     7
176
     1
 40
1.0
176
     1
 90
        1
176
     1
 90
        6
176
     1
 90
        2
176
     1
 62
     7
176
     1
 90
        5
176
     1
 90
        0
176
     1
 90
        0
176
     1
290
     0
176
     1
 90
        1
176
     1
 40
0.0
176
     1
 90
        0
176
     1
290
     0
176
     1
290
     1
176
     1
290
     1
176
     1
290
     0
176
     1
290
     0
176
     1
290
     0
176
     1
290
     0
176
     1
290
     0
176
     1
290
     0
176
     1
 90
       50
176
     1
 40
0.0
176
     1
 40
1.0
176
     1
 90
        0
176
     1
 62
    18
420
        0
176
     1
 90
       50
176
     1
 90
        3
176
     1
 62
     5
420
      255
176
     1
290
     0
176
     1
 90
       50
176
     1
 90
       50
176
     1
 90
       50
176
     1
290
     0
176
     1
 90
       50
176
     1
 62
   256
176
     0
 40
1.0
176
     0
 90
        2
176
     1
  1
strokes_ogs.tif
176
     1
290
     0
176
     1
 40
1.0
176
     1
 40
1.0
176
     1
  0
VISUALSTYLE
  5
3D9E
102
{ACAD_REACTORS
330
3D98
102
}
330
3D98
100
AcDbVisualStyle
  2
Wireframe
 70
     5
177
     3
291
     0
 70
    58
 90
        0
176
     1
 90
        2
176
     1
 90
        0
176
     1
 90
        0
176
     1
 40
0.6
176
     1
 40
30.0
176
     1
 62
     7
420
 16777215
176
     1
 90
        1
176
     1
 90
        4
176
     1
 62
     7
176
     1
 62
   257
176
     1
 90
        1
176
     1
 90
        1
176
     1
 40
1.0
176
     1
 90
        0
176
     1
 62
   257
176
     1
 40
1.0
176
     1
 90
        1
176
     1
 90
        6
176
     1
 90
        2
176
     1
 62
     7
176
     1
 90
        3
176
     1
 90
        0
176
     1
 90
        0
176
     1
290
     0
176
     1
 90
        1
176
     1
 40
0.0
176
     1
 90
        0
176
     1
290
     0
176
     1
290
     1
176
     1
290
     1
176
     1
290
     0
176
     1
290
     0
176
     1
290
     0
176
     1
290
     0
176
     1
290
     0
176
     1
290
     0
176
     1
 90
       50
176
     1
 40
0.0
176
     1
 40
1.0
176
     1
 90
        0
176
     1
 62
    18
420
        0
176
     1
 90
       50
176
     1
 90
        3
176
     1
 62
     5
420
      255
176
     1
290
     0
176
     1
 90
       50
176
     1
 90
       50
176
     1
 90
       50
176
     1
290
     0
176
     1
 90
       50
176
     1
 62
   256
176
     0
 40
1.0
176
     0
 90
        2
176
     1
  1
strokes_ogs.tif
176
     1
290
     0
176
     1
 40
1.0
176
     1
 40
1.0
176
     1
  0
VISUALSTYLE
  5
3DAE
102
{ACAD_REACTORS
330
3D98
102
}
330
3D98
100
AcDbVisualStyle
  2
X-Ray
 70
    25
177
     3
291
     0
 70
    58
 90
        2
176
     1
 90
        2
176
     1
 90
        1
176
     1
 90
        1
176
     1
 40
0.5
176
     1
 40
30.0
176
     1
 62
     7
420
 16777215
176
     1
 90
        1
176
     1
 90
        0
176
     1
 62
     7
176
     1
 62
   257
176
     1
 90
        1
176
     1
 90
        1
176
     1
 40
1.0
176
     1
 90
        8
176
     1
 62
     7
176
     1
 40
1.0
176
     1
 90
        1
176
     1
 90
        6
176
     1
 90
        2
176
     1
 62
     7
176
     1
 90
        3
176
     1
 90
        0
176
     1
 90
        0
176
     1
290
     0
176
     1
 90
       13
176
     1
 40
0.0
176
     1
 90
        0
176
     1
290
     0
176
     1
290
     1
176
     1
290
     1
176
     1
290
     0
176
     1
290
     0
176
     1
290
     0
176
     1
290
     0
176
     1
290
     0
176
     1
290
     0
176
     1
 90
       50
176
     1
 40
0.0
176
     1
 40
1.0
176
     1
 90
        0
176
     1
 62
    18
420
        0
176
     1
 90
       50
176
     1
 90
        3
176
     1
 62
     5
420
      255
176
     1
290
     0
176
     1
 90
       50
176
     1
 90
       50
176
     1
 90
       50
176
     1
290
     0
176
     1
 90
       50
176
     1
 62
   256
176
     0
 40
1.0
176
     0
 90
        2
176
     1
  1
strokes_ogs.tif
176
     1
290
     0
176
     1
 40
1.0
176
     1
 40
1.0
176
     1
  0
DICTIONARYVAR
  5
3E22
102
{ACAD_REACTORS
330
3E21
102
}
330
3E21
100
DictionaryVariables
280
     0
  1
1:1
  0
DICTIONARYVAR
  5
3E24
102
{ACAD_REACTORS
330
3E21
102
}
330
3E21
100
DictionaryVariables
280
     0
  1
Standard
  0
DICTIONARYVAR
  5
3E23
102
{ACAD_REACTORS
330
3E21
102
}
330
3E21
100
DictionaryVariables
280
     0
  1
Standard
  0
DICTIONARYVAR
  5
3E25
102
{ACAD_REACTORS
330
3E21
102
}
330
3E21
100
DictionaryVariables
280
     0
  1
0
  0
DICTIONARY
  5
4684
330
3DB2
100
AcDbDictionary
280
     1
281
     1
  3
ACAD_ROUNDTRIP_2008_TABLESTYLE_CELLSTYLEMAP
360
4685
  0
CELLSTYLEMAP
  5
4685
102
{ACAD_REACTORS
330
4684
102
}
330
4684
100
AcDbCellStyleMap
 90
        3
300
CELLSTYLE
  1
TABLEFORMAT_BEGIN
 90
        5
170
     1
 91
        0
 92
    32768
 62
   257
 93
        1
300
CONTENTFORMAT
  1
CONTENTFORMAT_BEGIN
 90
        0
 91
        0
 92
        4
 93
        0
300

 40
0.0
140
1.0
 94
        5
 62
     0
340
3D5A
144
0.25
309
CONTENTFORMAT_END
171
     1
301
MARGIN
  1
CELLMARGIN_BEGIN
 40
0.06
 40
0.06
 40
0.06
 40
0.06
 40
0.06
 40
0.06
309
CELLMARGIN_END
 94
        6
 95
        1
302
GRIDFORMAT
  1
GRIDFORMAT_BEGIN
 90
        0
 91
        1
 62
     0
 92
       -2
340
3D5C
 93
        0
 40
0.045
309
GRIDFORMAT_END
 95
        2
302
GRIDFORMAT
  1
GRIDFORMAT_BEGIN
 90
        0
 91
        1
 62
     0
 92
       -2
340
3D5C
 93
        0
 40
0.045
309
GRIDFORMAT_END
 95
        4
302
GRIDFORMAT
  1
GRIDFORMAT_BEGIN
 90
        0
 91
        1
 62
     0
 92
       -2
340
3D5C
 93
        0
 40
0.045
309
GRIDFORMAT_END
 95
        8
302
GRIDFORMAT
  1
GRIDFORMAT_BEGIN
 90
        0
 91
        1
 62
     0
 92
       -2
340
3D5C
 93
        0
 40
0.045
309
GRIDFORMAT_END
 95
       16
302
GRIDFORMAT
  1
GRIDFORMAT_BEGIN
 90
        0
 91
        1
 62
     0
 92
       -2
340
3D5C
 93
        0
 40
0.045
309
GRIDFORMAT_END
 95
       32
302
GRIDFORMAT
  1
GRIDFORMAT_BEGIN
 90
        0
 91
        1
 62
     0
 92
       -2
340
3D5C
 93
        0
 40
0.045
309
GRIDFORMAT_END
309
TABLEFORMAT_END
  1
CELLSTYLE_BEGIN
 90
        1
 91
        1
300
_TITLE
309
CELLSTYLE_END
300
CELLSTYLE
  1
TABLEFORMAT_BEGIN
 90
        5
170
     1
 91
        0
 92
        0
 62
   257
 93
        1
300
CONTENTFORMAT
  1
CONTENTFORMAT_BEGIN
 90
        0
 91
        0
 92
        4
 93
        0
300

 40
0.0
140
1.0
 94
        5
 62
     0
340
3D5A
144
0.18
309
CONTENTFORMAT_END
171
     1
301
MARGIN
  1
CELLMARGIN_BEGIN
 40
0.06
 40
0.06
 40
0.06
 40
0.06
 40
0.06
 40
0.06
309
CELLMARGIN_END
 94
        6
 95
        1
302
GRIDFORMAT
  1
GRIDFORMAT_BEGIN
 90
        0
 91
        1
 62
     0
 92
       -2
340
3D5C
 93
        0
 40
0.045
309
GRIDFORMAT_END
 95
        2
302
GRIDFORMAT
  1
GRIDFORMAT_BEGIN
 90
        0
 91
        1
 62
     0
 92
       -2
340
3D5C
 93
        0
 40
0.045
309
GRIDFORMAT_END
 95
        4
302
GRIDFORMAT
  1
GRIDFORMAT_BEGIN
 90
        0
 91
        1
 62
     0
 92
       -2
340
3D5C
 93
        0
 40
0.045
309
GRIDFORMAT_END
 95
        8
302
GRIDFORMAT
  1
GRIDFORMAT_BEGIN
 90
        0
 91
        1
 62
     0
 92
       -2
340
3D5C
 93
        0
 40
0.045
309
GRIDFORMAT_END
 95
       16
302
GRIDFORMAT
  1
GRIDFORMAT_BEGIN
 90
        0
 91
        1
 62
     0
 92
       -2
340
3D5C
 93
        0
 40
0.045
309
GRIDFORMAT_END
 95
       32
302
GRIDFORMAT
  1
GRIDFORMAT_BEGIN
 90
        0
 91
        1
 62
     0
 92
       -2
340
3D5C
 93
        0
 40
0.045
309
GRIDFORMAT_END
309
TABLEFORMAT_END
  1
CELLSTYLE_BEGIN
 90
        2
 91
        1
300
_HEADER
309
CELLSTYLE_END
300
CELLSTYLE
  1
TABLEFORMAT_BEGIN
 90
        5
170
     1
 91
        0
 92
        0
 62
   257
 93
        1
300
CONTENTFORMAT
  1
CONTENTFORMAT_BEGIN
 90
        0
 91
        0
 92
        4
 93
        0
300

 40
0.0
140
1.0
 94
        2
 62
     0
340
3D5A
144
0.18
309
CONTENTFORMAT_END
171
     1
301
MARGIN
  1
CELLMARGIN_BEGIN
 40
0.06
 40
0.06
 40
0.06
 40
0.06
 40
0.06
 40
0.06
309
CELLMARGIN_END
 94
        6
 95
        1
302
GRIDFORMAT
  1
GRIDFORMAT_BEGIN
 90
        0
 91
        1
 62
     0
 92
       -2
340
3D5C
 93
        0
 40
0.045
309
GRIDFORMAT_END
 95
        2
302
GRIDFORMAT
  1
GRIDFORMAT_BEGIN
 90
        0
 91
        1
 62
     0
 92
       -2
340
3D5C
 93
        0
 40
0.045
309
GRIDFORMAT_END
 95
        4
302
GRIDFORMAT
  1
GRIDFORMAT_BEGIN
 90
        0
 91
        1
 62
     0
 92
       -2
340
3D5C
 93
        0
 40
0.045
309
GRIDFORMAT_END
 95
        8
302
GRIDFORMAT
  1
GRIDFORMAT_BEGIN
 90
        0
 91
        1
 62
     0
 92
       -2
340
3D5C
 93
        0
 40
0.045
309
GRIDFORMAT_END
 95
       16
302
GRIDFORMAT
  1
GRIDFORMAT_BEGIN
 90
        0
 91
        1
 62
     0
 92
       -2
340
3D5C
 93
        0
 40
0.045
309
GRIDFORMAT_END
 95
       32
302
GRIDFORMAT
  1
GRIDFORMAT_BEGIN
 90
        0
 91
        1
 62
     0
 92
       -2
340
3D5C
 93
        0
 40
0.045
309
GRIDFORMAT_END
309
TABLEFORMAT_END
  1
CELLSTYLE_BEGIN
 90
        3
 91
        2
300
_DATA
309
CELLSTYLE_END
  0
ENDSEC
  0
EOF
