  0
SECTION
  2
HEADER
  9
$ACADVER
  1
AC1009
  9
$DWGCODEPAGE
  3
ansi_1252
  9
$INSBASE
 10
0.0
 20
0.0
 30
0.0
  9
$EXTMIN
 10
-4012.685974119231
 20
-987.6576470269351
 30
0.0
  9
$EXTMAX
 10
25888.02093639937
 20
7151.965628036109
 30
0.0
  9
$LIMMIN
 10
0.0
 20
0.0
  9
$LIMMAX
 10
12.0
 20
9.0
  9
$ORTHOMODE
 70
     1
  9
$REGENMODE
 70
     1
  9
$FILLMODE
 70
     1
  9
$QTEXTMODE
 70
     0
  9
$MIRRTEXT
 70
     0
  9
$DRAGMODE
 70
     2
  9
$LTSCALE
 40
5.0
  9
$OSMODE
 70
 16383
  9
$ATTMODE
 70
     1
  9
$TEXTSIZE
 40
19.0
  9
$TRACEWID
 40
0.05
  9
$TEXTSTYLE
  7
STILE1
  9
$CLAYER
  8
0
  9
$CELTYPE
  6
BYLAYER
  9
$CECOLOR
 62
   256
  9
$DIMSCALE
 40
50.0
  9
$DIMASZ
 40
2.5
  9
$DIMEXO
 40
1.0
  9
$DIMDLI
 40
0.0
  9
$DIMRND
 40
0.0
  9
$DIMDLE
 40
0.0
  9
$DIMEXE
 40
1.0
  9
$DIMTP
 40
0.0
  9
$DIMTM
 40
0.0
  9
$DIMTXT
 40
2.5
  9
$DIMCEN
 40
1.0
  9
$DIMTSZ
 40
0.0
  9
$DIMTOL
 70
     0
  9
$DIMLIM
 70
     0
  9
$DIMTIH
 70
     0
  9
$DIMTOH
 70
     0
  9
$DIMSE1
 70
     0
  9
$DIMSE2
 70
     0
  9
$DIMTAD
 70
     1
  9
$DIMZIN
 70
     8
  9
$DIMBLK
  1

  9
$DIMASO
 70
     1
  9
$DIMSHO
 70
     0
  9
$DIMPOST
  1

  9
$DIMAPOST
  1

  9
$DIMALT
 70
     0
  9
$DIMALTD
 70
     2
  9
$DIMALTF
 40
25.4
  9
$DIMLFAC
 40
1.0
  9
$DIMTOFL
 70
     1
  9
$DIMTVP
 40
0.0
  9
$DIMTIX
 70
     1
  9
$DIMSOXD
 70
     0
  9
$DIMSAH
 70
     0
  9
$DIMBLK1
  1

  9
$DIMBLK2
  1

  9
$DIMSTYLE
  2
STANDARD
  9
$DIMCLRD
 70
     0
  9
$DIMCLRE
 70
     0
  9
$DIMCLRT
 70
     0
  9
$DIMTFAC
 40
1.0
  9
$DIMGAP
 40
1.5
  9
$LUNITS
 70
     2
  9
$LUPREC
 70
     4
  9
$SKETCHINC
 40
0.1
  9
$FILLETRAD
 40
20.0
  9
$AUNITS
 70
     0
  9
$AUPREC
 70
     0
  9
$MENU
  1
acad
  9
$ELEVATION
 40
0.0
  9
$PELEVATION
 40
0.0
  9
$THICKNESS
 40
0.0
  9
$LIMCHECK
 70
     0
  9
$CHAMFERA
 40
1200.0
  9
$CHAMFERB
 40
1200.0
  9
$SKPOLY
 70
     0
  9
$TDCREATE
 40
2450277.504307755
  9
$TDUPDATE
 40
2459749.65750691
  9
$TDINDWG
 40
26.3249664005
  9
$TDUSRTIMER
 40
0.0001485417
  9
$USRTIMER
 70
     1
  9
$ANGBASE
 50
0.0
  9
$ANGDIR
 70
     0
  9
$PDMODE
 70
     0
  9
$PDSIZE
 40
0.0
  9
$PLINEWID
 40
0.0
  9
$COORDS
 70
     1
  9
$SPLFRAME
 70
     0
  9
$SPLINETYPE
 70
     6
  9
$SPLINESEGS
 70
     8
  9
$ATTDIA
 70
     0
  9
$ATTREQ
 70
     1
  9
$HANDLING
 70
     1
  9
$HANDSEED
  5
EF6C6
  9
$SURFTAB1
 70
     6
  9
$SURFTAB2
 70
     6
  9
$SURFTYPE
 70
     6
  9
$SURFU
 70
     6
  9
$SURFV
 70
     6
  9
$UCSNAME
  2

  9
$UCSORG
 10
0.0
 20
0.0
 30
0.0
  9
$UCSXDIR
 10
1.0
 20
0.0
 30
0.0
  9
$UCSYDIR
 10
0.0
 20
1.0
 30
0.0
  9
$PUCSNAME
  2

  9
$PUCSORG
 10
0.0
 20
0.0
 30
0.0
  9
$PUCSXDIR
 10
1.0
 20
0.0
 30
0.0
  9
$PUCSYDIR
 10
0.0
 20
1.0
 30
0.0
  9
$USERI1
 70
     0
  9
$USERI2
 70
     0
  9
$USERI3
 70
     0
  9
$USERI4
 70
     0
  9
$USERI5
 70
     0
  9
$USERR1
 40
0.0
  9
$USERR2
 40
0.0
  9
$USERR3
 40
0.0
  9
$USERR4
 40
0.0
  9
$USERR5
 40
0.0
  9
$WORLDVIEW
 70
     0
  9
$SHADEDGE
 70
     3
  9
$SHADEDIF
 70
    70
  9
$TILEMODE
 70
     1
  9
$MAXACTVP
 70
    16
  9
$PLIMCHECK
 70
     0
  9
$PEXTMIN
 10
0.0
 20
0.0
 30
0.0
  9
$PEXTMAX
 10
0.0
 20
0.0
 30
0.0
  9
$PLIMMIN
 10
0.0
 20
0.0
  9
$PLIMMAX
 10
0.0
 20
0.0
  9
$UNITMODE
 70
     0
  9
$VISRETAIN
 70
     0
  9
$PLINEGEN
 70
     0
  9
$PSLTSCALE
 70
     1
  0
ENDSEC
  0
SECTION
  2
TABLES
  0
TABLE
  2
VPORT
 70
     1
  0
VPORT
  2
*ACTIVE
 70
     0
 10
0.0
 20
0.0
 11
1.0
 21
1.0
 12
10937.66769000684
 22
3082.154047362665
 13
0.0
 23
0.0
 14
1.0
 24
1.0
 15
0.0
 25
0.0
 16
0.0
 26
0.0
 36
1.0
 17
0.0
 27
0.0
 37
0.0
 40
13524.74420150286
 41
2.221621621621621
 42
50.0
 43
0.0
 44
0.0
 50
0.0
 51
0.0
 71
    16
 72
   100
 73
     1
 74
     1
 75
     0
 76
     1
 77
     0
 78
     0
  0
ENDTAB
  0
TABLE
  2
LTYPE
 70
     1
  0
LTYPE
  2
CONTINUOUS
 70
     0
  3
Solid line
 72
    65
 73
     0
 40
0.0
  0
ENDTAB
  0
TABLE
  2
LAYER
 70
     2
  0
LAYER
  2
0
 70
     0
 62
     7
  6
CONTINUOUS
  0
LAYER
  2
DEFPOINTS
 70
     0
 62
     7
  6
CONTINUOUS
  0
ENDTAB
  0
TABLE
  2
STYLE
 70
     2
  0
STYLE
  2
STANDARD
 70
     0
 40
0.0
 41
1.0
 50
0.0
 71
     0
 42
2.5
  3
txt
  4

  0
STYLE
  2
STILE1
 70
     0
 40
0.0
 41
1.0
 50
0.0
 71
     0
 42
19.0
  3
ROMANS.SHX
  4

  0
ENDTAB
  0
TABLE
  2
VIEW
 70
     0
  0
ENDTAB
  0
TABLE
  2
UCS
 70
     0
  0
ENDTAB
  0
TABLE
  2
APPID
 70
    40
  0
APPID
  2
ACAD
 70
     0
  0
APPID
  2
DCO15
 70
     0
  0
APPID
  2
ACAECLAYERSTANDARD
 70
     0
  0
APPID
  2
ACDBDYNAMICBLOCKGUID
 70
     0
  0
APPID
  2
ACDBBLOCKREPETAG
 70
     0
  0
APPID
  2
ACAD_PSEXT
 70
     0
  0
APPID
  2
ACAD_DSTYLE_DIMJAG
 70
     0
  0
APPID
  2
ACAD_DSTYLE_DIMTALN
 70
     0
  0
APPID
  2
ACAD_DSTYLE_DIMRADIAL_EXTE
 70
     0
  0
APPID
  2
RAK
 70
     0
  0
APPID
  2
ACLAYERTOOLS
 70
     0
  0
APPID
  2
REVIT
 70
     0
  0
APPID
  2
ACAD_MLEADERVER
 70
     0
  0
APPID
  2
ACAD_DSTYLE_DIMBREAK
 70
     0
  0
APPID
  2
ACCMTRANSPARENCY
 70
     0
  0
APPID
  2
ACAD_NAV_VCDISPLAY
 70
     0
  0
APPID
  2
GRADIENTCOLOR1ACI
 70
     0
  0
APPID
  2
GRADIENTCOLOR2ACI
 70
     0
  0
APPID
  2
PROGE_PRINT_SETTINGS
 70
     0
  0
APPID
  2
AA_WLPR
 70
     0
  0
APPID
  2
AA_WLENT
 70
     0
  0
APPID
  2
AA_WLTP
 70
     0
  0
APPID
  2
AA_WLBK
 70
     0
  0
APPID
  2
ACAD_DSTYLE_DIMJOGGED_JOGA
 70
     0
  0
APPID
  2
$DDT_AUDIT_GENERATED__2CAF
 70
     0
  0
APPID
  2
ACAD_DSTYLE_DIMEXT_LENGTH
 70
     0
  0
APPID
  2
ACAD_DSTYLE_DIMEXT_ENABLED
 70
     0
  0
APPID
  2
ACAD_DSTYLE_DIMJOGGED_JOG0
 70
     0
  0
APPID
  2
ACAD_DSTYLE_DIMARC_LENGTH_
 70
     0
  0
APPID
  2
C_AND_O
 70
     0
  0
APPID
  2
AVE_FINISH
 70
     0
  0
APPID
  2
AVE_RENDER
 70
     0
  0
APPID
  2
AVE_ENTITY_MATERIAL
 70
     0
  0
APPID
  2
AVE_MATERIAL
 70
     0
  0
APPID
  2
ADDC5$_$SETUP-
 70
     0
  0
APPID
  2
ADDC4$_$SETUP-
 70
     0
  0
APPID
  2
ADDC4$_$ARTSETUP-
 70
     0
  0
APPID
  2
GENIUS_GENODEF_13
 70
     0
  0
APPID
  2
GENIUS_GENOBJ-N-REC_13
 70
     0
  0
APPID
  2
GENIUS_GENREC_14
 70
     0
  0
ENDTAB
  0
TABLE
  2
DIMSTYLE
 70
     1
  0
DIMSTYLE
  2
STANDARD
 70
     0
  3

  4

  5

  6

  7

 40
1.0
 41
0.18
 42
0.0625
 43
0.38
 44
0.18
 45
0.0
 46
0.0
 47
0.0
 48
0.0
140
0.18
141
0.09
142
0.0
143
25.4
144
1.0
145
0.0
146
1.0
147
0.09
 71
     0
 72
     0
 73
     1
 74
     1
 75
     0
 76
     0
 77
     0
 78
     0
170
     0
171
     2
172
     0
173
     0
174
     0
175
     0
176
     0
177
     0
178
     0
  0
ENDTAB
  0
ENDSEC
  0
SECTION
  2
BLOCKS
  0
BLOCK
  8
0
  2
$MODEL_SPACE
 70
     0
 10
0.0
 20
0.0
 30
0.0
  3
$MODEL_SPACE
  1

  0
ENDBLK
  5
EEC63
  8
0
  0
BLOCK
 67
     1
  8
0
  2
$PAPER_SPACE
 70
     0
 10
0.0
 20
0.0
 30
0.0
  3
$PAPER_SPACE
  1

  0
ENDBLK
  5
EEC5F
 67
     1
  8
0
  0
ENDSEC
  0
SECTION
  2
ENTITIES
  0
TEXT
  5
DA6AB
  8
0
 10
-1517.139093598773
 20
2340.920152703191
 30
0.0
 40
100.0
  1
H 102
  7
STILE1
  0
TEXT
  5
DA6AC
  8
0
 10
-687.1390935987728
 20
2851.022131883343
 30
0.0
 40
100.0
  1
H 152
  7
STILE1
  0
TEXT
  5
DA6AD
  8
0
 10
142.8609064012271
 20
3336.436225036458
 30
0.0
 40
100.0
  1
H 202
  7
STILE1
  0
TEXT
  5
DA6AE
  8
0
 10
1802.860906401227
 20
4351.206715163021
 30
0.0
 40
100.0
  1
H 302
  7
STILE1
  0
TEXT
  5
DA6AF
  8
0
 10
972.8609064012273
 20
3834.282308874281
 30
0.0
 40
100.0
  1
H 252
  7
STILE1
  0
CIRCLE
  5
DA6BC
  8
0
 10
-1660.000000000116
 20
1530.659864497589
 30
0.0
 40
7.5
  0
CIRCLE
  5
DA6BF
  8
0
 10
-1660.000000000116
 20
1580.659864497589
 30
0.0
 40
7.5
  0
CIRCLE
  5
DA6C0
  8
0
 10
-1660.000000000116
 20
1630.659864497589
 30
0.0
 40
7.5
  0
LINE
  5
DA718
  8
0
 10
-1675.0
 20
2453.659864497589
 30
0.0
 11
-1645.0
 21
2453.659864497589
 31
0.0
  0
POLYLINE
  5
DA719
  8
0
 66
     1
 10
0.0
 20
0.0
 30
0.0
 70
     1
  0
VERTEX
  5
EF201
  8
0
 10
-1675.0
 20
2453.659864497589
 30
0.0
  0
VERTEX
  5
EF202
  8
0
 10
-1675.0
 20
1453.659864497589
 30
0.0
  0
VERTEX
  5
EF203
  8
0
 10
-1645.0
 20
1453.659864497589
 30
0.0
  0
VERTEX
  5
EF204
  8
0
 10
-1645.0
 20
2453.659864497589
 30
0.0
  0
SEQEND
  5
EF5FC
  8
0
  0
CIRCLE
  5
DA74B
  8
0
 10
-1660.000000000116
 20
1680.659864497589
 30
0.0
 40
7.5
  0
CIRCLE
  5
DA74D
  8
0
 10
-1660.000000000116
 20
1730.659864497589
 30
0.0
 40
7.5
  0
CIRCLE
  5
DA74F
  8
0
 10
-1660.000000000116
 20
1780.659864497589
 30
0.0
 40
7.5
  0
CIRCLE
  5
DA751
  8
0
 10
-1660.000000000116
 20
1830.659864497589
 30
0.0
 40
7.5
  0
CIRCLE
  5
DA753
  8
0
 10
-1660.000000000116
 20
1880.659864497589
 30
0.0
 40
7.5
  0
CIRCLE
  5
DA755
  8
0
 10
-1660.000000000116
 20
1930.659864497589
 30
0.0
 40
7.5
  0
CIRCLE
  5
DA757
  8
0
 10
-1660.000000000116
 20
1980.659864497589
 30
0.0
 40
7.5
  0
CIRCLE
  5
DA759
  8
0
 10
-1660.000000000116
 20
2030.659864497589
 30
0.0
 40
7.5
  0
CIRCLE
  5
DA75B
  8
0
 10
-1660.000000000116
 20
2080.659864497589
 30
0.0
 40
7.5
  0
CIRCLE
  5
DA75D
  8
0
 10
-1660.000000000116
 20
2130.659864497589
 30
0.0
 40
7.5
  0
CIRCLE
  5
DA75F
  8
0
 10
-1660.000000000116
 20
2180.659864497589
 30
0.0
 40
7.5
  0
CIRCLE
  5
DA761
  8
0
 10
-1660.000000000116
 20
2230.659864497589
 30
0.0
 40
7.5
  0
CIRCLE
  5
DA763
  8
0
 10
-1660.000000000116
 20
2280.659864497589
 30
0.0
 40
7.5
  0
CIRCLE
  5
DA765
  8
0
 10
-1660.000000000116
 20
2330.659864497589
 30
0.0
 40
7.5
  0
CIRCLE
  5
DA767
  8
0
 10
-1660.000000000116
 20
2380.659864497589
 30
0.0
 40
7.5
  0
CIRCLE
  5
DA769
  8
0
 10
-1660.000000000116
 20
2430.659864497589
 30
0.0
 40
7.5
  0
CIRCLE
  5
DA789
  8
0
 10
-830.0000000001164
 20
1630.659864497589
 30
0.0
 40
7.5
  0
CIRCLE
  5
DA78A
  8
0
 10
-830.0000000001164
 20
1580.659864497589
 30
0.0
 40
7.5
  0
CIRCLE
  5
DA78B
  8
0
 10
-830.0000000001164
 20
1530.659864497589
 30
0.0
 40
7.5
  0
LINE
  5
DA78D
  8
0
 10
-845.0
 20
2953.659864497589
 30
0.0
 11
-815.0
 21
2953.659864497589
 31
0.0
  0
POLYLINE
  5
DA78E
  8
0
 66
     1
 10
0.0
 20
0.0
 30
0.0
 70
     1
  0
VERTEX
  5
EF205
  8
0
 10
-845.0
 20
2953.659864497589
 30
0.0
  0
VERTEX
  5
EF206
  8
0
 10
-845.0
 20
1453.659864497589
 30
0.0
  0
VERTEX
  5
EF207
  8
0
 10
-815.0
 20
1453.659864497589
 30
0.0
  0
VERTEX
  5
EF208
  8
0
 10
-815.0
 20
2953.659864497589
 30
0.0
  0
SEQEND
  5
EF5FD
  8
0
  0
CIRCLE
  5
DA78F
  8
0
 10
-830.0000000001164
 20
1680.659864497589
 30
0.0
 40
7.5
  0
CIRCLE
  5
DA790
  8
0
 10
-830.0000000001164
 20
1730.659864497589
 30
0.0
 40
7.5
  0
CIRCLE
  5
DA791
  8
0
 10
-830.0000000001164
 20
1780.659864497589
 30
0.0
 40
7.5
  0
CIRCLE
  5
DA792
  8
0
 10
-830.0000000001164
 20
1830.659864497589
 30
0.0
 40
7.5
  0
CIRCLE
  5
DA793
  8
0
 10
-830.0000000001164
 20
1880.659864497589
 30
0.0
 40
7.5
  0
CIRCLE
  5
DA794
  8
0
 10
-830.0000000001164
 20
1930.659864497589
 30
0.0
 40
7.5
  0
CIRCLE
  5
DA795
  8
0
 10
-830.0000000001164
 20
1980.659864497589
 30
0.0
 40
7.5
  0
CIRCLE
  5
DA796
  8
0
 10
-830.0000000001164
 20
2030.659864497589
 30
0.0
 40
7.5
  0
CIRCLE
  5
DA797
  8
0
 10
-830.0000000001164
 20
2080.659864497589
 30
0.0
 40
7.5
  0
CIRCLE
  5
DA798
  8
0
 10
-830.0000000001164
 20
2130.659864497589
 30
0.0
 40
7.5
  0
CIRCLE
  5
DA799
  8
0
 10
-830.0000000001164
 20
2180.659864497589
 30
0.0
 40
7.5
  0
CIRCLE
  5
DA79A
  8
0
 10
-830.0000000001164
 20
2230.659864497589
 30
0.0
 40
7.5
  0
CIRCLE
  5
DA79B
  8
0
 10
-830.0000000001164
 20
2280.659864497589
 30
0.0
 40
7.5
  0
CIRCLE
  5
DA79C
  8
0
 10
-830.0000000001164
 20
2330.659864497589
 30
0.0
 40
7.5
  0
CIRCLE
  5
DA79D
  8
0
 10
-830.0000000001164
 20
2380.659864497589
 30
0.0
 40
7.5
  0
CIRCLE
  5
DA79E
  8
0
 10
-830.0000000001164
 20
2430.659864497589
 30
0.0
 40
7.5
  0
CIRCLE
  5
DA7BE
  8
0
 10
-830.0000000001164
 20
2730.659864497589
 30
0.0
 40
7.5
  0
CIRCLE
  5
DA7BF
  8
0
 10
-830.0000000001164
 20
2680.659864497589
 30
0.0
 40
7.5
  0
CIRCLE
  5
DA7C0
  8
0
 10
-830.0000000001164
 20
2630.659864497591
 30
0.0
 40
7.5
  0
CIRCLE
  5
DA7C1
  8
0
 10
-830.0000000001164
 20
2580.659864497589
 30
0.0
 40
7.5
  0
CIRCLE
  5
DA7C2
  8
0
 10
-830.0000000001164
 20
2530.659864497589
 30
0.0
 40
7.5
  0
CIRCLE
  5
DA7C3
  8
0
 10
-830.0000000001164
 20
2480.659864497589
 30
0.0
 40
7.5
  0
CIRCLE
  5
DA7C7
  8
0
 10
-830.0000000001164
 20
2930.659864497589
 30
0.0
 40
7.5
  0
CIRCLE
  5
DA7C8
  8
0
 10
-830.0000000001164
 20
2880.659864497589
 30
0.0
 40
7.5
  0
CIRCLE
  5
DA7C9
  8
0
 10
-830.0000000001164
 20
2830.659864497589
 30
0.0
 40
7.5
  0
CIRCLE
  5
DA7CA
  8
0
 10
-830.0000000001164
 20
2780.659864497589
 30
0.0
 40
7.5
  0
CIRCLE
  5
DA7CB
  8
0
 10
-830.0000000001164
 20
2730.659864497589
 30
0.0
 40
7.5
  0
CIRCLE
  5
DA7CC
  8
0
 10
-0.0000000001163016
 20
2430.659864497589
 30
0.0
 40
7.5
  0
CIRCLE
  5
DA7CD
  8
0
 10
-0.0000000001163016
 20
2380.659864497589
 30
0.0
 40
7.5
  0
CIRCLE
  5
DA7CE
  8
0
 10
-0.0000000001163016
 20
2330.659864497589
 30
0.0
 40
7.5
  0
CIRCLE
  5
DA7CF
  8
0
 10
-0.0000000001163016
 20
2280.659864497589
 30
0.0
 40
7.5
  0
CIRCLE
  5
DA7D0
  8
0
 10
-0.0000000001163016
 20
2230.659864497589
 30
0.0
 40
7.5
  0
CIRCLE
  5
DA7D1
  8
0
 10
-0.0000000001163016
 20
2180.659864497589
 30
0.0
 40
7.5
  0
CIRCLE
  5
DA7D2
  8
0
 10
-0.0000000001163016
 20
2130.659864497589
 30
0.0
 40
7.5
  0
CIRCLE
  5
DA7D3
  8
0
 10
-0.0000000001163016
 20
2080.659864497589
 30
0.0
 40
7.5
  0
CIRCLE
  5
DA7D4
  8
0
 10
-0.0000000001163016
 20
2030.659864497589
 30
0.0
 40
7.5
  0
CIRCLE
  5
DA7D5
  8
0
 10
-0.0000000001163016
 20
1980.659864497589
 30
0.0
 40
7.5
  0
CIRCLE
  5
DA7D6
  8
0
 10
-0.0000000001163016
 20
1930.659864497589
 30
0.0
 40
7.5
  0
CIRCLE
  5
DA7D7
  8
0
 10
-0.0000000001163016
 20
1880.659864497589
 30
0.0
 40
7.5
  0
CIRCLE
  5
DA7D8
  8
0
 10
-0.0000000001163016
 20
1830.659864497589
 30
0.0
 40
7.5
  0
CIRCLE
  5
DA7D9
  8
0
 10
-0.0000000001163016
 20
1780.659864497589
 30
0.0
 40
7.5
  0
CIRCLE
  5
DA7DA
  8
0
 10
-0.0000000001163016
 20
1730.659864497589
 30
0.0
 40
7.5
  0
CIRCLE
  5
DA7DB
  8
0
 10
-0.0000000001163016
 20
1680.659864497589
 30
0.0
 40
7.5
  0
POLYLINE
  5
DA7DC
  8
0
 66
     1
 10
0.0
 20
0.0
 30
0.0
 70
     1
  0
VERTEX
  5
EF209
  8
0
 10
-15.00000000000011
 20
3453.65986449759
 30
0.0
  0
VERTEX
  5
EF20A
  8
0
 10
-15.00000000000011
 20
1453.659864497589
 30
0.0
  0
VERTEX
  5
EF20B
  8
0
 10
14.99999999999977
 20
1453.659864497589
 30
0.0
  0
VERTEX
  5
EF20C
  8
0
 10
14.99999999999977
 20
3453.65986449759
 30
0.0
  0
SEQEND
  5
EF5FE
  8
0
  0
LINE
  5
DA7DD
  8
0
 10
-15.00000000000011
 20
3453.65986449759
 30
0.0
 11
14.99999999999977
 21
3453.65986449759
 31
0.0
  0
CIRCLE
  5
DA7DE
  8
0
 10
-0.0000000001163016
 20
1530.659864497589
 30
0.0
 40
7.5
  0
CIRCLE
  5
DA7DF
  8
0
 10
-0.0000000001163016
 20
1580.659864497589
 30
0.0
 40
7.5
  0
CIRCLE
  5
DA7E0
  8
0
 10
-0.0000000001163016
 20
1630.659864497589
 30
0.0
 40
7.5
  0
CIRCLE
  5
DA7E2
  8
0
 10
-0.0000000001163016
 20
2480.659864497589
 30
0.0
 40
7.5
  0
CIRCLE
  5
DA7E3
  8
0
 10
-0.0000000001163016
 20
2530.659864497589
 30
0.0
 40
7.5
  0
CIRCLE
  5
DA7E4
  8
0
 10
-0.0000000001163016
 20
2580.659864497589
 30
0.0
 40
7.5
  0
CIRCLE
  5
DA7E5
  8
0
 10
-0.0000000001163016
 20
2630.659864497591
 30
0.0
 40
7.5
  0
CIRCLE
  5
DA7E6
  8
0
 10
-0.0000000001163016
 20
2680.659864497589
 30
0.0
 40
7.5
  0
CIRCLE
  5
DA7E7
  8
0
 10
-0.0000000001163016
 20
2730.659864497589
 30
0.0
 40
7.5
  0
CIRCLE
  5
DA7E8
  8
0
 10
-0.0000000001163016
 20
2730.659864497589
 30
0.0
 40
7.5
  0
CIRCLE
  5
DA7E9
  8
0
 10
-0.0000000001163016
 20
2780.659864497589
 30
0.0
 40
7.5
  0
CIRCLE
  5
DA7EA
  8
0
 10
-0.0000000001163016
 20
2830.659864497589
 30
0.0
 40
7.5
  0
CIRCLE
  5
DA7EB
  8
0
 10
-0.0000000001163016
 20
2880.659864497589
 30
0.0
 40
7.5
  0
CIRCLE
  5
DA7EC
  8
0
 10
-0.0000000001163016
 20
2930.659864497589
 30
0.0
 40
7.5
  0
CIRCLE
  5
DA802
  8
0
 10
-0.0000000001163016
 20
3430.659864497589
 30
0.0
 40
7.5
  0
CIRCLE
  5
DA803
  8
0
 10
-0.0000000001163016
 20
3380.65986449759
 30
0.0
 40
7.5
  0
CIRCLE
  5
DA804
  8
0
 10
-0.0000000001163016
 20
3330.659864497589
 30
0.0
 40
7.5
  0
CIRCLE
  5
DA805
  8
0
 10
-0.0000000001163016
 20
3280.659864497589
 30
0.0
 40
7.5
  0
CIRCLE
  5
DA806
  8
0
 10
-0.0000000001163016
 20
3280.659864497589
 30
0.0
 40
7.5
  0
CIRCLE
  5
DA807
  8
0
 10
-0.0000000001163016
 20
3230.659864497589
 30
0.0
 40
7.5
  0
CIRCLE
  5
DA808
  8
0
 10
-0.0000000001163016
 20
3180.659864497589
 30
0.0
 40
7.5
  0
CIRCLE
  5
DA809
  8
0
 10
-0.0000000001163016
 20
3130.65986449759
 30
0.0
 40
7.5
  0
CIRCLE
  5
DA80A
  8
0
 10
-0.0000000001163016
 20
3080.659864497589
 30
0.0
 40
7.5
  0
CIRCLE
  5
DA80B
  8
0
 10
-0.0000000001163016
 20
3030.659864497589
 30
0.0
 40
7.5
  0
CIRCLE
  5
DA80D
  8
0
 10
-0.0000000001163016
 20
2980.659864497589
 30
0.0
 40
7.5
  0
CIRCLE
  5
DA80E
  8
0
 10
829.9999999998838
 20
2930.659864497589
 30
0.0
 40
7.5
  0
CIRCLE
  5
DA80F
  8
0
 10
829.9999999998838
 20
2880.659864497589
 30
0.0
 40
7.5
  0
CIRCLE
  5
DA810
  8
0
 10
829.9999999998838
 20
2830.659864497589
 30
0.0
 40
7.5
  0
CIRCLE
  5
DA811
  8
0
 10
829.9999999998838
 20
2780.659864497589
 30
0.0
 40
7.5
  0
CIRCLE
  5
DA812
  8
0
 10
829.9999999998838
 20
2730.659864497589
 30
0.0
 40
7.5
  0
CIRCLE
  5
DA813
  8
0
 10
829.9999999998838
 20
2730.659864497589
 30
0.0
 40
7.5
  0
CIRCLE
  5
DA814
  8
0
 10
829.9999999998838
 20
2680.659864497589
 30
0.0
 40
7.5
  0
CIRCLE
  5
DA815
  8
0
 10
829.9999999998838
 20
2630.659864497591
 30
0.0
 40
7.5
  0
CIRCLE
  5
DA816
  8
0
 10
829.9999999998838
 20
2580.659864497589
 30
0.0
 40
7.5
  0
CIRCLE
  5
DA817
  8
0
 10
829.9999999998838
 20
2530.659864497589
 30
0.0
 40
7.5
  0
CIRCLE
  5
DA818
  8
0
 10
829.9999999998838
 20
2480.659864497589
 30
0.0
 40
7.5
  0
CIRCLE
  5
DA81A
  8
0
 10
829.9999999998838
 20
1630.659864497589
 30
0.0
 40
7.5
  0
CIRCLE
  5
DA81B
  8
0
 10
829.9999999998838
 20
1580.659864497589
 30
0.0
 40
7.5
  0
CIRCLE
  5
DA81C
  8
0
 10
829.9999999998838
 20
1530.659864497589
 30
0.0
 40
7.5
  0
LINE
  5
DA81D
  8
0
 10
814.9999999999995
 20
3953.65986449759
 30
0.0
 11
844.9999999999997
 21
3953.65986449759
 31
0.0
  0
POLYLINE
  5
DA81E
  8
0
 66
     1
 10
0.0
 20
0.0
 30
0.0
 70
     1
  0
VERTEX
  5
EF20D
  8
0
 10
814.9999999999995
 20
3953.65986449759
 30
0.0
  0
VERTEX
  5
EF20E
  8
0
 10
814.9999999999995
 20
1453.659864497589
 30
0.0
  0
VERTEX
  5
EF20F
  8
0
 10
844.9999999999997
 20
1453.659864497589
 30
0.0
  0
VERTEX
  5
EF210
  8
0
 10
844.9999999999997
 20
3953.65986449759
 30
0.0
  0
SEQEND
  5
EF5FF
  8
0
  0
CIRCLE
  5
DA81F
  8
0
 10
829.9999999998838
 20
1680.659864497589
 30
0.0
 40
7.5
  0
CIRCLE
  5
DA820
  8
0
 10
829.9999999998838
 20
1730.659864497589
 30
0.0
 40
7.5
  0
CIRCLE
  5
DA821
  8
0
 10
829.9999999998838
 20
1780.659864497589
 30
0.0
 40
7.5
  0
CIRCLE
  5
DA822
  8
0
 10
829.9999999998838
 20
1830.659864497589
 30
0.0
 40
7.5
  0
CIRCLE
  5
DA823
  8
0
 10
829.9999999998838
 20
1880.659864497589
 30
0.0
 40
7.5
  0
CIRCLE
  5
DA824
  8
0
 10
829.9999999998838
 20
1930.659864497589
 30
0.0
 40
7.5
  0
CIRCLE
  5
DA825
  8
0
 10
829.9999999998838
 20
1980.659864497589
 30
0.0
 40
7.5
  0
CIRCLE
  5
DA826
  8
0
 10
829.9999999998838
 20
2030.659864497589
 30
0.0
 40
7.5
  0
CIRCLE
  5
DA827
  8
0
 10
829.9999999998838
 20
2080.659864497589
 30
0.0
 40
7.5
  0
CIRCLE
  5
DA828
  8
0
 10
829.9999999998838
 20
2130.659864497589
 30
0.0
 40
7.5
  0
CIRCLE
  5
DA829
  8
0
 10
829.9999999998838
 20
2180.659864497589
 30
0.0
 40
7.5
  0
CIRCLE
  5
DA82A
  8
0
 10
829.9999999998838
 20
2230.659864497589
 30
0.0
 40
7.5
  0
CIRCLE
  5
DA82B
  8
0
 10
829.9999999998838
 20
2280.659864497589
 30
0.0
 40
7.5
  0
CIRCLE
  5
DA82C
  8
0
 10
829.9999999998838
 20
2330.659864497589
 30
0.0
 40
7.5
  0
CIRCLE
  5
DA82D
  8
0
 10
829.9999999998838
 20
2380.659864497589
 30
0.0
 40
7.5
  0
CIRCLE
  5
DA82E
  8
0
 10
829.9999999998838
 20
2430.659864497589
 30
0.0
 40
7.5
  0
CIRCLE
  5
DA82F
  8
0
 10
829.9999999998838
 20
2980.659864497589
 30
0.0
 40
7.5
  0
CIRCLE
  5
DA830
  8
0
 10
829.9999999998838
 20
3030.659864497589
 30
0.0
 40
7.5
  0
CIRCLE
  5
DA831
  8
0
 10
829.9999999998838
 20
3080.659864497589
 30
0.0
 40
7.5
  0
CIRCLE
  5
DA832
  8
0
 10
829.9999999998838
 20
3130.65986449759
 30
0.0
 40
7.5
  0
CIRCLE
  5
DA833
  8
0
 10
829.9999999998838
 20
3180.659864497589
 30
0.0
 40
7.5
  0
CIRCLE
  5
DA834
  8
0
 10
829.9999999998838
 20
3230.659864497589
 30
0.0
 40
7.5
  0
CIRCLE
  5
DA835
  8
0
 10
829.9999999998838
 20
3280.659864497589
 30
0.0
 40
7.5
  0
CIRCLE
  5
DA836
  8
0
 10
829.9999999998838
 20
3280.659864497589
 30
0.0
 40
7.5
  0
CIRCLE
  5
DA837
  8
0
 10
829.9999999998838
 20
3330.659864497589
 30
0.0
 40
7.5
  0
CIRCLE
  5
DA838
  8
0
 10
829.9999999998838
 20
3380.65986449759
 30
0.0
 40
7.5
  0
CIRCLE
  5
DA839
  8
0
 10
829.9999999998838
 20
3430.659864497589
 30
0.0
 40
7.5
  0
CIRCLE
  5
DA83F
  8
0
 10
829.9999999998838
 20
3930.659864497589
 30
0.0
 40
7.5
  0
CIRCLE
  5
DA840
  8
0
 10
829.9999999998838
 20
3880.659864497589
 30
0.0
 40
7.5
  0
CIRCLE
  5
DA841
  8
0
 10
829.9999999998838
 20
3830.659864497589
 30
0.0
 40
7.5
  0
CIRCLE
  5
DA842
  8
0
 10
829.9999999998838
 20
3780.659864497589
 30
0.0
 40
7.5
  0
CIRCLE
  5
DA843
  8
0
 10
829.9999999998838
 20
3730.659864497589
 30
0.0
 40
7.5
  0
CIRCLE
  5
DA844
  8
0
 10
829.9999999998838
 20
3680.659864497589
 30
0.0
 40
7.5
  0
CIRCLE
  5
DA845
  8
0
 10
829.9999999998838
 20
3480.659864497589
 30
0.0
 40
7.5
  0
CIRCLE
  5
DA846
  8
0
 10
829.9999999998838
 20
3530.659864497589
 30
0.0
 40
7.5
  0
CIRCLE
  5
DA847
  8
0
 10
829.9999999998838
 20
3580.659864497589
 30
0.0
 40
7.5
  0
CIRCLE
  5
DA848
  8
0
 10
829.9999999998838
 20
3630.65986449759
 30
0.0
 40
7.5
  0
CIRCLE
  5
DA849
  8
0
 10
1659.999999999883
 20
3430.659864497589
 30
0.0
 40
7.5
  0
CIRCLE
  5
DA84A
  8
0
 10
1659.999999999883
 20
3380.65986449759
 30
0.0
 40
7.5
  0
CIRCLE
  5
DA84B
  8
0
 10
1659.999999999883
 20
3330.659864497589
 30
0.0
 40
7.5
  0
CIRCLE
  5
DA84C
  8
0
 10
1659.999999999883
 20
3280.659864497589
 30
0.0
 40
7.5
  0
CIRCLE
  5
DA84D
  8
0
 10
1659.999999999883
 20
3280.659864497589
 30
0.0
 40
7.5
  0
CIRCLE
  5
DA84E
  8
0
 10
1659.999999999883
 20
3230.659864497589
 30
0.0
 40
7.5
  0
CIRCLE
  5
DA84F
  8
0
 10
1659.999999999883
 20
3180.659864497589
 30
0.0
 40
7.5
  0
CIRCLE
  5
DA850
  8
0
 10
1659.999999999883
 20
3130.65986449759
 30
0.0
 40
7.5
  0
CIRCLE
  5
DA851
  8
0
 10
1659.999999999883
 20
3080.659864497589
 30
0.0
 40
7.5
  0
CIRCLE
  5
DA852
  8
0
 10
1659.999999999883
 20
3030.659864497589
 30
0.0
 40
7.5
  0
CIRCLE
  5
DA853
  8
0
 10
1659.999999999883
 20
2980.659864497589
 30
0.0
 40
7.5
  0
CIRCLE
  5
DA854
  8
0
 10
1659.999999999883
 20
2430.659864497589
 30
0.0
 40
7.5
  0
CIRCLE
  5
DA855
  8
0
 10
1659.999999999883
 20
2380.659864497589
 30
0.0
 40
7.5
  0
CIRCLE
  5
DA856
  8
0
 10
1659.999999999883
 20
2330.659864497589
 30
0.0
 40
7.5
  0
CIRCLE
  5
DA857
  8
0
 10
1659.999999999883
 20
2280.659864497589
 30
0.0
 40
7.5
  0
CIRCLE
  5
DA858
  8
0
 10
1659.999999999883
 20
2230.659864497589
 30
0.0
 40
7.5
  0
CIRCLE
  5
DA859
  8
0
 10
1659.999999999883
 20
2180.659864497589
 30
0.0
 40
7.5
  0
CIRCLE
  5
DA85A
  8
0
 10
1659.999999999883
 20
2130.659864497589
 30
0.0
 40
7.5
  0
CIRCLE
  5
DA85B
  8
0
 10
1659.999999999883
 20
2080.659864497589
 30
0.0
 40
7.5
  0
CIRCLE
  5
DA85C
  8
0
 10
1659.999999999883
 20
2030.659864497589
 30
0.0
 40
7.5
  0
CIRCLE
  5
DA85D
  8
0
 10
1659.999999999883
 20
1980.659864497589
 30
0.0
 40
7.5
  0
CIRCLE
  5
DA85E
  8
0
 10
1659.999999999883
 20
1930.659864497589
 30
0.0
 40
7.5
  0
CIRCLE
  5
DA85F
  8
0
 10
1659.999999999883
 20
1880.659864497589
 30
0.0
 40
7.5
  0
CIRCLE
  5
DA860
  8
0
 10
1659.999999999883
 20
1830.659864497589
 30
0.0
 40
7.5
  0
CIRCLE
  5
DA861
  8
0
 10
1659.999999999883
 20
1780.659864497589
 30
0.0
 40
7.5
  0
CIRCLE
  5
DA862
  8
0
 10
1659.999999999883
 20
1730.659864497589
 30
0.0
 40
7.5
  0
CIRCLE
  5
DA863
  8
0
 10
1659.999999999883
 20
1680.659864497589
 30
0.0
 40
7.5
  0
POLYLINE
  5
DA864
  8
0
 66
     1
 10
0.0
 20
0.0
 30
0.0
 70
     1
  0
VERTEX
  5
EF211
  8
0
 10
1644.999999999999
 20
4453.659864497589
 30
0.0
  0
VERTEX
  5
EF212
  8
0
 10
1644.999999999999
 20
1453.659864497589
 30
0.0
  0
VERTEX
  5
EF213
  8
0
 10
1675.0
 20
1453.659864497589
 30
0.0
  0
VERTEX
  5
EF214
  8
0
 10
1675.0
 20
4453.659864497589
 30
0.0
  0
SEQEND
  5
EF600
  8
0
  0
LINE
  5
DA865
  8
0
 10
1644.999999999999
 20
4453.659864497589
 30
0.0
 11
1675.0
 21
4453.659864497589
 31
0.0
  0
CIRCLE
  5
DA866
  8
0
 10
1659.999999999883
 20
1530.659864497589
 30
0.0
 40
7.5
  0
CIRCLE
  5
DA867
  8
0
 10
1659.999999999883
 20
1580.659864497589
 30
0.0
 40
7.5
  0
CIRCLE
  5
DA868
  8
0
 10
1659.999999999883
 20
1630.659864497589
 30
0.0
 40
7.5
  0
CIRCLE
  5
DA86A
  8
0
 10
1659.999999999883
 20
2480.659864497589
 30
0.0
 40
7.5
  0
CIRCLE
  5
DA86B
  8
0
 10
1659.999999999883
 20
2530.659864497589
 30
0.0
 40
7.5
  0
CIRCLE
  5
DA86C
  8
0
 10
1659.999999999883
 20
2580.659864497589
 30
0.0
 40
7.5
  0
CIRCLE
  5
DA86D
  8
0
 10
1659.999999999883
 20
2630.659864497591
 30
0.0
 40
7.5
  0
CIRCLE
  5
DA86E
  8
0
 10
1659.999999999883
 20
2680.659864497589
 30
0.0
 40
7.5
  0
CIRCLE
  5
DA86F
  8
0
 10
1659.999999999883
 20
2730.659864497589
 30
0.0
 40
7.5
  0
CIRCLE
  5
DA870
  8
0
 10
1659.999999999883
 20
2730.659864497589
 30
0.0
 40
7.5
  0
CIRCLE
  5
DA871
  8
0
 10
1659.999999999883
 20
2780.659864497589
 30
0.0
 40
7.5
  0
CIRCLE
  5
DA872
  8
0
 10
1659.999999999883
 20
2830.659864497589
 30
0.0
 40
7.5
  0
CIRCLE
  5
DA873
  8
0
 10
1659.999999999883
 20
2880.659864497589
 30
0.0
 40
7.5
  0
CIRCLE
  5
DA874
  8
0
 10
1659.999999999883
 20
2930.659864497589
 30
0.0
 40
7.5
  0
CIRCLE
  5
DA875
  8
0
 10
1659.999999999883
 20
3630.65986449759
 30
0.0
 40
7.5
  0
CIRCLE
  5
DA876
  8
0
 10
1659.999999999883
 20
3580.659864497589
 30
0.0
 40
7.5
  0
CIRCLE
  5
DA877
  8
0
 10
1659.999999999883
 20
3530.659864497589
 30
0.0
 40
7.5
  0
CIRCLE
  5
DA878
  8
0
 10
1659.999999999883
 20
3480.659864497589
 30
0.0
 40
7.5
  0
CIRCLE
  5
DA879
  8
0
 10
1659.999999999883
 20
3680.659864497589
 30
0.0
 40
7.5
  0
CIRCLE
  5
DA87A
  8
0
 10
1659.999999999883
 20
3730.659864497589
 30
0.0
 40
7.5
  0
CIRCLE
  5
DA87B
  8
0
 10
1659.999999999883
 20
3780.659864497589
 30
0.0
 40
7.5
  0
CIRCLE
  5
DA87C
  8
0
 10
1659.999999999883
 20
3830.659864497589
 30
0.0
 40
7.5
  0
CIRCLE
  5
DA87D
  8
0
 10
1659.999999999883
 20
3880.659864497589
 30
0.0
 40
7.5
  0
CIRCLE
  5
DA87E
  8
0
 10
1659.999999999883
 20
3930.659864497589
 30
0.0
 40
7.5
  0
CIRCLE
  5
DA885
  8
0
 10
1659.999999999883
 20
4430.659864497589
 30
0.0
 40
7.5
  0
CIRCLE
  5
DA889
  8
0
 10
1659.999999999883
 20
3980.659864497589
 30
0.0
 40
7.5
  0
CIRCLE
  5
DA88A
  8
0
 10
1659.999999999883
 20
4030.659864497589
 30
0.0
 40
7.5
  0
CIRCLE
  5
DA88B
  8
0
 10
1659.999999999883
 20
4080.659864497589
 30
0.0
 40
7.5
  0
CIRCLE
  5
DA88C
  8
0
 10
1659.999999999883
 20
4130.659864497589
 30
0.0
 40
7.5
  0
CIRCLE
  5
DA88D
  8
0
 10
1659.999999999883
 20
4180.659864497589
 30
0.0
 40
7.5
  0
CIRCLE
  5
DA88E
  8
0
 10
1659.999999999883
 20
4230.659864497589
 30
0.0
 40
7.5
  0
CIRCLE
  5
DA88F
  8
0
 10
1659.999999999883
 20
4230.659864497589
 30
0.0
 40
7.5
  0
CIRCLE
  5
DA890
  8
0
 10
1659.999999999883
 20
4280.659864497589
 30
0.0
 40
7.5
  0
CIRCLE
  5
DA891
  8
0
 10
1659.999999999883
 20
4330.659864497589
 30
0.0
 40
7.5
  0
CIRCLE
  5
DA892
  8
0
 10
1659.999999999883
 20
4380.659864497589
 30
0.0
 40
7.5
  0
POLYLINE
  5
DA897
  8
0
 66
     1
 10
0.0
 20
0.0
 30
0.0
 70
     1
  0
VERTEX
  5
EF215
  8
0
 10
-1675.0
 20
1447.659864497589
 30
0.0
  0
VERTEX
  5
EF216
  8
0
 10
-1675.0
 20
1453.659864497589
 30
0.0
  0
VERTEX
  5
EF217
  8
0
 10
-1645.0
 20
1453.659864497589
 30
0.0
  0
VERTEX
  5
EF218
  8
0
 10
-1645.0
 20
1447.659864497589
 30
0.0
  0
SEQEND
  5
EF601
  8
0
  0
POLYLINE
  5
DA898
  8
0
 66
     1
 10
0.0
 20
0.0
 30
0.0
 70
     1
  0
VERTEX
  5
EF219
  8
0
 10
-845.0
 20
1447.659864497589
 30
0.0
  0
VERTEX
  5
EF21A
  8
0
 10
-845.0
 20
1453.659864497589
 30
0.0
  0
VERTEX
  5
EF21B
  8
0
 10
-815.0
 20
1453.659864497589
 30
0.0
  0
VERTEX
  5
EF21C
  8
0
 10
-815.0
 20
1447.659864497589
 30
0.0
  0
SEQEND
  5
EF602
  8
0
  0
POLYLINE
  5
DA899
  8
0
 66
     1
 10
0.0
 20
0.0
 30
0.0
 70
     1
  0
VERTEX
  5
EF21D
  8
0
 10
-15.00000000000011
 20
1447.659864497589
 30
0.0
  0
VERTEX
  5
EF21E
  8
0
 10
-15.00000000000011
 20
1453.659864497589
 30
0.0
  0
VERTEX
  5
EF21F
  8
0
 10
14.99999999999977
 20
1453.659864497589
 30
0.0
  0
VERTEX
  5
EF220
  8
0
 10
14.99999999999977
 20
1447.659864497589
 30
0.0
  0
SEQEND
  5
EF603
  8
0
  0
POLYLINE
  5
DA89A
  8
0
 66
     1
 10
0.0
 20
0.0
 30
0.0
 70
     1
  0
VERTEX
  5
EF221
  8
0
 10
814.9999999999995
 20
1447.659864497589
 30
0.0
  0
VERTEX
  5
EF222
  8
0
 10
814.9999999999995
 20
1453.659864497589
 30
0.0
  0
VERTEX
  5
EF223
  8
0
 10
844.9999999999997
 20
1453.659864497589
 30
0.0
  0
VERTEX
  5
EF224
  8
0
 10
844.9999999999997
 20
1447.659864497589
 30
0.0
  0
SEQEND
  5
EF604
  8
0
  0
POLYLINE
  5
DA89B
  8
0
 66
     1
 10
0.0
 20
0.0
 30
0.0
 70
     1
  0
VERTEX
  5
EF225
  8
0
 10
1644.999999999999
 20
1447.659864497589
 30
0.0
  0
VERTEX
  5
EF226
  8
0
 10
1644.999999999999
 20
1453.659864497589
 30
0.0
  0
VERTEX
  5
EF227
  8
0
 10
1675.0
 20
1453.659864497589
 30
0.0
  0
VERTEX
  5
EF228
  8
0
 10
1675.0
 20
1447.659864497589
 30
0.0
  0
SEQEND
  5
EF605
  8
0
  0
POLYLINE
  5
DA89E
  8
0
 66
     1
 10
0.0
 20
0.0
 30
0.0
 70
     1
  0
VERTEX
  5
EF229
  8
0
 10
-1675.0
 20
2453.659864497589
 30
0.0
  0
VERTEX
  5
EF22A
  8
0
 10
-1675.0
 20
2459.659864497591
 30
0.0
  0
VERTEX
  5
EF22B
  8
0
 10
-1645.0
 20
2459.659864497591
 30
0.0
  0
VERTEX
  5
EF22C
  8
0
 10
-1645.0
 20
2453.659864497589
 30
0.0
  0
SEQEND
  5
EF606
  8
0
  0
POLYLINE
  5
DA89F
  8
0
 66
     1
 10
0.0
 20
0.0
 30
0.0
 70
     1
  0
VERTEX
  5
EF22D
  8
0
 10
-845.0
 20
2953.659864497589
 30
0.0
  0
VERTEX
  5
EF22E
  8
0
 10
-845.0
 20
2959.65986449759
 30
0.0
  0
VERTEX
  5
EF22F
  8
0
 10
-815.0
 20
2959.65986449759
 30
0.0
  0
VERTEX
  5
EF230
  8
0
 10
-815.0
 20
2953.659864497589
 30
0.0
  0
SEQEND
  5
EF607
  8
0
  0
POLYLINE
  5
DA8A0
  8
0
 66
     1
 10
0.0
 20
0.0
 30
0.0
 70
     1
  0
VERTEX
  5
EF231
  8
0
 10
-15.00000000000011
 20
3453.65986449759
 30
0.0
  0
VERTEX
  5
EF232
  8
0
 10
-15.00000000000011
 20
3459.659864497589
 30
0.0
  0
VERTEX
  5
EF233
  8
0
 10
14.99999999999977
 20
3459.659864497589
 30
0.0
  0
VERTEX
  5
EF234
  8
0
 10
14.99999999999977
 20
3453.65986449759
 30
0.0
  0
SEQEND
  5
EF608
  8
0
  0
POLYLINE
  5
DA8A1
  8
0
 66
     1
 10
0.0
 20
0.0
 30
0.0
 70
     1
  0
VERTEX
  5
EF235
  8
0
 10
814.9999999999995
 20
3953.65986449759
 30
0.0
  0
VERTEX
  5
EF236
  8
0
 10
814.9999999999995
 20
3959.659864497589
 30
0.0
  0
VERTEX
  5
EF237
  8
0
 10
844.9999999999997
 20
3959.659864497589
 30
0.0
  0
VERTEX
  5
EF238
  8
0
 10
844.9999999999997
 20
3953.65986449759
 30
0.0
  0
SEQEND
  5
EF609
  8
0
  0
POLYLINE
  5
DA8A2
  8
0
 66
     1
 10
0.0
 20
0.0
 30
0.0
 70
     1
  0
VERTEX
  5
EF239
  8
0
 10
1644.999999999999
 20
4453.659864497589
 30
0.0
  0
VERTEX
  5
EF23A
  8
0
 10
1644.999999999999
 20
4459.659864497589
 30
0.0
  0
VERTEX
  5
EF23B
  8
0
 10
1675.0
 20
4459.659864497589
 30
0.0
  0
VERTEX
  5
EF23C
  8
0
 10
1675.0
 20
4453.659864497589
 30
0.0
  0
SEQEND
  5
EF60A
  8
0
  0
POLYLINE
  5
DD2BE
  8
0
 66
     1
 10
0.0
 20
0.0
 30
0.0
 70
     1
  0
VERTEX
  5
EF23D
  8
0
 10
-4012.685974119231
 20
554.0366420584437
 30
0.0
  0
VERTEX
  5
EF23E
  8
0
 10
4012.685974119231
 20
554.0366420584437
 30
0.0
  0
VERTEX
  5
EF23F
  8
0
 10
4012.685974119231
 20
5144.036642058443
 30
0.0
  0
VERTEX
  5
EF240
  8
0
 10
-4012.685974119231
 20
5144.036642058443
 30
0.0
  0
SEQEND
  5
EF60B
  8
0
  0
LINE
  5
DD2BF
  8
0
 10
4012.685974119231
 20
0.0000000000002274
 30
0.0
 11
4012.685974119231
 21
-987.6576470269353
 31
0.0
  0
TEXT
  5
DD2C0
  8
0
 10
2240.022522568668
 20
-208.9254166234015
 30
0.0
 40
125.0
  1
2022-06
  7
STILE1
 72
     1
 11
2674.918355902001
 21
-208.9254166234015
 31
0.0
  0
LINE
  5
DD2C1
  8
0
 10
1337.561991373077
 20
-299.9965549039189
 30
0.0
 11
1337.561991373077
 21
0.0
 31
0.0
  0
LINE
  5
DD2C2
  8
0
 10
-1337.561991373077
 20
0.0
 30
0.0
 11
-1337.561991373077
 21
-987.6576470269353
 31
0.0
  0
POLYLINE
  5
DD2C3
  8
0
 66
     1
 10
0.0
 20
0.0
 30
0.0
 70
     1
  0
VERTEX
  5
EF241
  8
0
 10
-4012.685974119231
 20
0.0
 30
0.0
  0
VERTEX
  5
EF242
  8
0
 10
4012.685974119231
 20
0.0
 30
0.0
  0
VERTEX
  5
EF243
  8
0
 10
4012.685974119231
 20
-987.6576470269353
 30
0.0
  0
VERTEX
  5
EF244
  8
0
 10
-4012.685974119231
 20
-987.6576470269353
 30
0.0
  0
SEQEND
  5
EF60C
  8
0
  0
POLYLINE
  5
DD2C4
  8
0
 66
     1
 10
0.0
 20
0.0
 30
0.0
  0
VERTEX
  5
EF245
  8
0
 10
-1337.561991373077
 20
-299.9965549039189
 30
0.0
  0
VERTEX
  5
EF246
  8
0
 10
4012.685974119231
 20
-299.9965549039186
 30
0.0
  0
SEQEND
  5
EF60D
  8
0
  0
TEXT
  5
DD2C5
  8
0
 10
-527.8452372835668
 20
-817.4938565844182
 30
0.0
 40
125.0
  1
This drawing is property of Fantin S.r.l. 
  7
STILE1
 72
     1
 11
1487.035715097386
 21
-817.4938565844182
 31
0.0
  0
POLYLINE
  5
DD2C6
  8
0
  6
CONTINUOUS
 66
     1
 10
0.0
 20
0.0
 30
0.0
 70
     1
  0
VERTEX
  5
EF247
  8
0
  6
CONTINUOUS
 10
-3164.963312949987
 20
-604.0348442923276
 30
0.0
  0
VERTEX
  5
EF248
  8
0
  6
CONTINUOUS
 10
-3164.963312949987
 20
-604.0348442923276
 30
0.0
  0
VERTEX
  5
EF249
  8
0
  6
CONTINUOUS
 10
-3140.60203043744
 20
-687.6576470269355
 30
0.0
  0
VERTEX
  5
EF24A
  8
0
  6
CONTINUOUS
 10
-3014.885328505188
 20
-687.6576470269355
 30
0.0
  0
VERTEX
  5
EF24B
  8
0
  6
CONTINUOUS
 10
-3132.294182670303
 20
-334.8833143443335
 30
0.0
 42
0.1089385125692126
  0
VERTEX
  5
EF24C
  8
0
  6
CONTINUOUS
 10
-3145.036042486318
 20
-307.2121766244527
 30
0.0
 42
0.1589313772246072
  0
VERTEX
  5
EF24D
  8
0
  6
CONTINUOUS
 10
-3157.031867676415
 20
-299.9273046676535
 30
0.0
 42
0.058673645385263
  0
VERTEX
  5
EF24E
  8
0
  6
CONTINUOUS
 10
-3173.277038573287
 20
-298.3360188803636
 30
0.0
  0
VERTEX
  5
EF24F
  8
0
  6
CONTINUOUS
 10
-3173.277038573287
 20
-298.3360188803636
 30
0.0
  0
VERTEX
  5
EF250
  8
0
  6
CONTINUOUS
 10
-3268.525316026062
 20
-298.3360188803636
 30
0.0
 42
0.058673645385263
  0
VERTEX
  5
EF251
  8
0
  6
CONTINUOUS
 10
-3284.770486922936
 20
-299.9273046676535
 30
0.0
 42
0.1589313772246072
  0
VERTEX
  5
EF252
  8
0
  6
CONTINUOUS
 10
-3296.766312113032
 20
-307.2121766244527
 30
0.0
 42
0.1089385125692126
  0
VERTEX
  5
EF253
  8
0
  6
CONTINUOUS
 10
-3309.508171929046
 20
-334.8833143443335
 30
0.0
  0
VERTEX
  5
EF254
  8
0
  6
CONTINUOUS
 10
-3426.917026089505
 20
-687.6576470269355
 30
0.0
  0
VERTEX
  5
EF255
  8
0
  6
CONTINUOUS
 10
-3307.851080996916
 20
-687.6576470269355
 30
0.0
  0
VERTEX
  5
EF256
  8
0
  6
CONTINUOUS
 10
-3284.038581000641
 20
-604.0348442923276
 30
0.0
  0
SEQEND
  5
EF60E
  8
0
  6
CONTINUOUS
  0
POLYLINE
  5
DD2C7
  8
0
  6
CONTINUOUS
 66
     1
 10
0.0
 20
0.0
 30
0.0
  0
VERTEX
  5
EF257
  8
0
  6
CONTINUOUS
 10
-3221.454976396636
 20
-406.8789198133162
 30
0.0
  0
VERTEX
  5
EF258
  8
0
  6
CONTINUOUS
 10
-3188.227030434647
 20
-520.96670193132
 30
0.0
  0
VERTEX
  5
EF259
  8
0
  6
CONTINUOUS
 10
-3260.775573728607
 20
-520.96670193132
 30
0.0
  0
VERTEX
  5
EF25A
  8
0
  6
CONTINUOUS
 10
-3227.547627761961
 20
-406.8789198133162
 30
0.0
  0
VERTEX
  5
EF25B
  8
0
  6
CONTINUOUS
 10
-3221.454976396636
 20
-406.8789198133162
 30
0.0
  0
SEQEND
  5
EF60F
  8
0
  6
CONTINUOUS
  0
POLYLINE
  5
DD2C8
  8
0
  6
CONTINUOUS
 66
     1
 10
0.0
 20
0.0
 30
0.0
  0
VERTEX
  5
EF25C
  8
0
  6
CONTINUOUS
 10
-3407.540086535738
 20
-300.0
 30
0.0
  0
VERTEX
  5
EF25D
  8
0
  6
CONTINUOUS
 10
-3407.540086535738
 20
-389.1607937274967
 30
0.0
  0
VERTEX
  5
EF25E
  8
0
  6
CONTINUOUS
 10
-3593.616583929397
 20
-389.1607937274967
 30
0.0
  0
VERTEX
  5
EF25F
  8
0
  6
CONTINUOUS
 10
-3593.616583929397
 20
-466.1362847220151
 30
0.0
  0
VERTEX
  5
EF260
  8
0
  6
CONTINUOUS
 10
-3463.47293430008
 20
-466.1362847220151
 30
0.0
  0
VERTEX
  5
EF261
  8
0
  6
CONTINUOUS
 10
-3463.47293430008
 20
-549.2095947265625
 30
0.0
  0
VERTEX
  5
EF262
  8
0
  6
CONTINUOUS
 10
-3593.616583929397
 20
-549.2095947265625
 30
0.0
  0
VERTEX
  5
EF263
  8
0
  6
CONTINUOUS
 10
-3593.616583929397
 20
-687.6576470269355
 30
0.0
  0
VERTEX
  5
EF264
  8
0
  6
CONTINUOUS
 10
-3712.685974119231
 20
-687.6576470269355
 30
0.0
  0
VERTEX
  5
EF265
  8
0
  6
CONTINUOUS
 10
-3712.685974119231
 20
-300.0
 30
0.0
  0
VERTEX
  5
EF266
  8
0
  6
CONTINUOUS
 10
-3407.540086535738
 20
-300.0
 30
0.0
  0
SEQEND
  5
EF610
  8
0
  6
CONTINUOUS
  0
POLYLINE
  5
DD2C9
  8
0
  6
CONTINUOUS
 66
     1
 10
0.0
 20
0.0
 30
0.0
 70
     1
  0
VERTEX
  5
EF267
  8
0
  6
CONTINUOUS
 10
-2192.47902425006
 20
-299.9982774525415
 30
0.0
  0
VERTEX
  5
EF268
  8
0
  6
CONTINUOUS
 10
-2073.409634060226
 20
-299.9982774525415
 30
0.0
  0
VERTEX
  5
EF269
  8
0
  6
CONTINUOUS
 10
-2073.409634060226
 20
-687.6576470269355
 30
0.0
  0
VERTEX
  5
EF26A
  8
0
  6
CONTINUOUS
 10
-2192.47902425006
 20
-687.6576470269355
 30
0.0
  0
SEQEND
  5
EF611
  8
0
  6
CONTINUOUS
  0
POLYLINE
  5
DD2CA
  8
0
  6
CONTINUOUS
 66
     1
 10
0.0
 20
0.0
 30
0.0
  0
VERTEX
  5
EF26B
  8
0
  6
CONTINUOUS
 10
-2229.582702633925
 20
-299.9982774525415
 30
0.0
  0
VERTEX
  5
EF26C
  8
0
  6
CONTINUOUS
 10
-2229.582702633925
 20
-390.8213297522161
 30
0.0
  0
VERTEX
  5
EF26D
  8
0
  6
CONTINUOUS
 10
-2345.878790956922
 20
-390.8213297522161
 30
0.0
  0
VERTEX
  5
EF26E
  8
0
  6
CONTINUOUS
 10
-2345.878790956922
 20
-687.6576470269355
 30
0.0
  0
VERTEX
  5
EF26F
  8
0
  6
CONTINUOUS
 10
-2464.948181146756
 20
-687.6576470269355
 30
0.0
  0
VERTEX
  5
EF270
  8
0
  6
CONTINUOUS
 10
-2464.948181146756
 20
-390.8213297522161
 30
0.0
  0
VERTEX
  5
EF271
  8
0
  6
CONTINUOUS
 10
-2578.481302894652
 20
-390.8213297522161
 30
0.0
  0
VERTEX
  5
EF272
  8
0
  6
CONTINUOUS
 10
-2578.481302894652
 20
-299.9982774525415
 30
0.0
  0
VERTEX
  5
EF273
  8
0
  6
CONTINUOUS
 10
-2229.582702633925
 20
-299.9982774525415
 30
0.0
  0
SEQEND
  5
EF612
  8
0
  6
CONTINUOUS
  0
POLYLINE
  5
DD2CB
  8
0
  6
CONTINUOUS
 66
     1
 10
0.0
 20
0.0
 30
0.0
  0
VERTEX
  5
EF274
  8
0
  6
CONTINUOUS
 10
-2982.206875272095
 20
-687.6576470269355
 30
0.0
  0
VERTEX
  5
EF275
  8
0
  6
CONTINUOUS
 10
-2982.206875272095
 20
-299.9965549039189
 30
0.0
  0
VERTEX
  5
EF276
  8
0
  6
CONTINUOUS
 10
-2880.857333708556
 20
-299.9965549039189
 30
0.0
 42
-0.316444976687396
  0
VERTEX
  5
EF277
  8
0
  6
CONTINUOUS
 10
-2829.909539115615
 20
-328.2411702477839
 30
0.0
  0
VERTEX
  5
EF278
  8
0
  6
CONTINUOUS
 10
-2729.116380475462
 20
-498.2600775826719
 30
0.0
  0
VERTEX
  5
EF279
  8
0
  6
CONTINUOUS
 10
-2726.348246252165
 20
-498.2600775826719
 30
0.0
  0
VERTEX
  5
EF27A
  8
0
  6
CONTINUOUS
 10
-2726.348246252165
 20
-299.9965549039189
 30
0.0
  0
VERTEX
  5
EF27B
  8
0
  6
CONTINUOUS
 10
-2613.924445258454
 20
-299.9965549039189
 30
0.0
  0
VERTEX
  5
EF27C
  8
0
  6
CONTINUOUS
 10
-2613.924445258454
 20
-687.6576470269355
 30
0.0
  0
VERTEX
  5
EF27D
  8
0
  6
CONTINUOUS
 10
-2696.446539983154
 20
-687.6576470269355
 30
0.0
 42
-0.312959769389874
  0
VERTEX
  5
EF27E
  8
0
  6
CONTINUOUS
 10
-2747.39433458075
 20
-659.4147542316932
 30
0.0
  0
VERTEX
  5
EF27F
  8
0
  6
CONTINUOUS
 10
-2867.014940045774
 20
-466.1380072694737
 30
0.0
  0
VERTEX
  5
EF280
  8
0
  6
CONTINUOUS
 10
-2869.779629176483
 20
-466.1380072694737
 30
0.0
  0
VERTEX
  5
EF281
  8
0
  6
CONTINUOUS
 10
-2869.779629176483
 20
-687.6576470269355
 30
0.0
  0
VERTEX
  5
EF282
  8
0
  6
CONTINUOUS
 10
-2982.206875272095
 20
-687.6576470269355
 30
0.0
  0
SEQEND
  5
EF613
  8
0
  6
CONTINUOUS
  0
POLYLINE
  5
DD2CC
  8
0
  6
CONTINUOUS
 66
     1
 10
0.0
 20
0.0
 30
0.0
  0
VERTEX
  5
EF283
  8
0
  6
CONTINUOUS
 10
-2005.844421386719
 20
-687.6576470269355
 30
0.0
  0
VERTEX
  5
EF284
  8
0
  6
CONTINUOUS
 10
-2005.844421386719
 20
-299.9965549039189
 30
0.0
  0
VERTEX
  5
EF285
  8
0
  6
CONTINUOUS
 10
-1904.494879823178
 20
-299.9965549039189
 30
0.0
 42
-0.316444976687396
  0
VERTEX
  5
EF286
  8
0
  6
CONTINUOUS
 10
-1853.547085234894
 20
-328.2411702477839
 30
0.0
  0
VERTEX
  5
EF287
  8
0
  6
CONTINUOUS
 10
-1752.753926590085
 20
-498.2600775826719
 30
0.0
  0
VERTEX
  5
EF288
  8
0
  6
CONTINUOUS
 10
-1749.985792371444
 20
-498.2600775826719
 30
0.0
  0
VERTEX
  5
EF289
  8
0
  6
CONTINUOUS
 10
-1749.985792371444
 20
-299.9965549039189
 30
0.0
  0
VERTEX
  5
EF28A
  8
0
  6
CONTINUOUS
 10
-1637.561991373077
 20
-299.9965549039189
 30
0.0
  0
VERTEX
  5
EF28B
  8
0
  6
CONTINUOUS
 10
-1637.561991373077
 20
-687.6576470269355
 30
0.0
  0
VERTEX
  5
EF28C
  8
0
  6
CONTINUOUS
 10
-1720.084086097777
 20
-687.6576470269355
 30
0.0
 42
-0.312959769389874
  0
VERTEX
  5
EF28D
  8
0
  6
CONTINUOUS
 10
-1771.031880690716
 20
-659.4147542316932
 30
0.0
  0
VERTEX
  5
EF28E
  8
0
  6
CONTINUOUS
 10
-1890.652486160398
 20
-466.1380072694737
 30
0.0
  0
VERTEX
  5
EF28F
  8
0
  6
CONTINUOUS
 10
-1893.417175291106
 20
-466.1380072694737
 30
0.0
  0
VERTEX
  5
EF290
  8
0
  6
CONTINUOUS
 10
-1893.417175291106
 20
-687.6576470269355
 30
0.0
  0
VERTEX
  5
EF291
  8
0
  6
CONTINUOUS
 10
-2005.844421386719
 20
-687.6576470269355
 30
0.0
  0
SEQEND
  5
EF614
  8
0
  6
CONTINUOUS
  0
TEXT
  5
DD2CD
  8
0
 10
-492.3511028769727
 20
-208.9254166234014
 30
0.0
 40
125.0
  1
Uno Living
  7
STILE1
 72
     1
 11
7.741903075408115
 21
-208.9254166234014
 31
0.0
  0
TEXT
  5
DD2CE
  8
0
 10
-838.7791374978221
 20
-555.4096502962035
 30
0.0
 40
125.0
  1
Questo disegno è di proprietà di Fantin S.r.l.   
  7
STILE1
 72
     1
 11
1583.839910121225
 21
-555.4096502962035
 31
0.0
  0
POLYLINE
  5
DD2D0
  8
0
 66
     1
 10
0.0
 20
0.0
 30
0.0
 70
     1
  0
VERTEX
  5
EF292
  8
0
 10
4566.722616177674
 20
554.0366420584437
 30
0.0
  0
VERTEX
  5
EF293
  8
0
 10
14950.3534552593
 20
554.0366420584437
 30
0.0
  0
VERTEX
  5
EF294
  8
0
 10
14950.3534552593
 20
5144.036642058443
 30
0.0
  0
VERTEX
  5
EF295
  8
0
 10
4566.722616177674
 20
5144.036642058443
 30
0.0
  0
SEQEND
  5
EF615
  8
0
  0
POLYLINE
  5
E3ABB
  8
0
 66
     1
 10
0.0
 20
0.0
 30
0.0
  0
VERTEX
  5
EF296
  8
0
 10
14034.09611980698
 20
4369.001128036105
 30
0.0
  0
VERTEX
  5
EF297
  8
0
 10
14040.59611980697
 20
4369.001128036105
 30
0.0
  0
VERTEX
  5
EF298
  8
0
 10
14040.59611980697
 20
4368.001128036111
 30
0.0
  0
VERTEX
  5
EF299
  8
0
 10
14035.09611980697
 20
4368.001128036111
 30
0.0
  0
VERTEX
  5
EF29A
  8
0
 10
14035.09611980697
 20
4344.001128036112
 30
0.0
  0
VERTEX
  5
EF29B
  8
0
 10
14063.09611980697
 20
4344.001128036112
 30
0.0
  0
VERTEX
  5
EF29C
  8
0
 10
14063.09611980697
 20
4642.00112803611
 30
0.0
  0
VERTEX
  5
EF29D
  8
0
 10
14035.09611980697
 20
4642.00112803611
 30
0.0
  0
VERTEX
  5
EF29E
  8
0
 10
14035.09611980697
 20
4618.001128036111
 30
0.0
  0
VERTEX
  5
EF29F
  8
0
 10
14040.59611980697
 20
4618.001128036111
 30
0.0
  0
VERTEX
  5
EF2A0
  8
0
 10
14040.59611980697
 20
4617.001128036108
 30
0.0
  0
VERTEX
  5
EF2A1
  8
0
 10
14034.09611980698
 20
4617.001128036108
 30
0.0
  0
VERTEX
  5
EF2A2
  8
0
 10
14034.09611980698
 20
4643.00112803611
 30
0.0
  0
VERTEX
  5
EF2A3
  8
0
 10
14064.09611980697
 20
4643.00112803611
 30
0.0
  0
VERTEX
  5
EF2A4
  8
0
 10
14064.09611980697
 20
4343.001128036108
 30
0.0
  0
VERTEX
  5
EF2A5
  8
0
 10
14034.09611980698
 20
4343.001128036108
 30
0.0
  0
VERTEX
  5
EF2A6
  8
0
 10
14034.09611980698
 20
4369.001128036105
 30
0.0
  0
SEQEND
  5
EF616
  8
0
  0
POLYLINE
  5
E3ABC
  8
0
 66
     1
 10
0.0
 20
0.0
 30
0.0
  0
VERTEX
  5
EF2A7
  8
0
 10
14062.39611980691
 20
4538.801128036157
 30
0.0
  0
VERTEX
  5
EF2A8
  8
0
 10
14063.09611980697
 20
4538.801128036157
 30
0.0
  0
VERTEX
  5
EF2A9
  8
0
 10
14063.09611980697
 20
4514.801128036157
 30
0.0
  0
VERTEX
  5
EF2AA
  8
0
 10
14038.79611980693
 20
4514.801128036157
 30
0.0
  0
VERTEX
  5
EF2AB
  8
0
 10
14038.79611980693
 20
4471.201128036179
 30
0.0
  0
VERTEX
  5
EF2AC
  8
0
 10
14063.09611980697
 20
4471.201128036179
 30
0.0
  0
VERTEX
  5
EF2AD
  8
0
 10
14063.09611980697
 20
4447.201128036179
 30
0.0
  0
VERTEX
  5
EF2AE
  8
0
 10
14062.39611980691
 20
4447.201128036179
 30
0.0
  0
VERTEX
  5
EF2AF
  8
0
 10
14062.39611980691
 20
4470.501128036112
 30
0.0
  0
VERTEX
  5
EF2B0
  8
0
 10
14038.09611980697
 20
4470.501128036112
 30
0.0
  0
VERTEX
  5
EF2B1
  8
0
 10
14038.09611980697
 20
4515.501128036112
 30
0.0
  0
VERTEX
  5
EF2B2
  8
0
 10
14062.39611980691
 20
4515.501128036112
 30
0.0
  0
VERTEX
  5
EF2B3
  8
0
 10
14062.39611980691
 20
4538.801128036157
 30
0.0
  0
SEQEND
  5
EF617
  8
0
  0
LINE
  5
E3ABD
  8
0
 10
14063.09611980697
 20
4589.590618580831
 30
0.0
 11
14063.09611980697
 21
4545.990618580852
 31
0.0
  0
POLYLINE
  5
E3ABE
  8
0
 66
     1
 10
0.0
 20
0.0
 30
0.0
 70
     1
  0
VERTEX
  5
EF2B4
  8
0
 10
13402.11550869248
 20
4643.00112803611
 30
0.0
  0
VERTEX
  5
EF2B5
  8
0
 10
13402.11550869248
 20
4613.00112803611
 30
0.0
  0
VERTEX
  5
EF2B6
  8
0
 10
13417.11550869248
 20
4613.00112803611
 30
0.0
  0
VERTEX
  5
EF2B7
  8
0
 10
13417.11550869248
 20
4373.00112803611
 30
0.0
  0
VERTEX
  5
EF2B8
  8
0
 10
13402.11550869248
 20
4373.00112803611
 30
0.0
  0
VERTEX
  5
EF2B9
  8
0
 10
13402.11550869248
 20
4343.001128036108
 30
0.0
  0
VERTEX
  5
EF2BA
  8
0
 10
12232.11550869248
 20
4343.001128036108
 30
0.0
  0
VERTEX
  5
EF2BB
  8
0
 10
12232.11550869248
 20
4373.00112803611
 30
0.0
  0
VERTEX
  5
EF2BC
  8
0
 10
12217.11550869248
 20
4373.00112803611
 30
0.0
  0
VERTEX
  5
EF2BD
  8
0
 10
12217.11550869248
 20
4613.00112803611
 30
0.0
  0
VERTEX
  5
EF2BE
  8
0
 10
12232.11550869248
 20
4613.00112803611
 30
0.0
  0
VERTEX
  5
EF2BF
  8
0
 10
12232.11550869248
 20
4643.00112803611
 30
0.0
  0
SEQEND
  5
EF618
  8
0
  0
POLYLINE
  5
E3ABF
  8
0
 66
     1
 10
0.0
 20
0.0
 30
0.0
 70
     1
  0
VERTEX
  5
EF2C0
  8
0
 10
11172.11550869249
 20
4643.00112803611
 30
0.0
  0
VERTEX
  5
EF2C1
  8
0
 10
11172.11550869249
 20
4613.00112803611
 30
0.0
  0
VERTEX
  5
EF2C2
  8
0
 10
11187.11550869249
 20
4613.00112803611
 30
0.0
  0
VERTEX
  5
EF2C3
  8
0
 10
11187.11550869249
 20
4373.00112803611
 30
0.0
  0
VERTEX
  5
EF2C4
  8
0
 10
11172.11550869249
 20
4373.00112803611
 30
0.0
  0
VERTEX
  5
EF2C5
  8
0
 10
11172.11550869249
 20
4343.001128036108
 30
0.0
  0
VERTEX
  5
EF2C6
  8
0
 10
10202.11550869248
 20
4343.001128036108
 30
0.0
  0
VERTEX
  5
EF2C7
  8
0
 10
10202.11550869248
 20
4373.00112803611
 30
0.0
  0
VERTEX
  5
EF2C8
  8
0
 10
10187.11550869248
 20
4373.00112803611
 30
0.0
  0
VERTEX
  5
EF2C9
  8
0
 10
10187.11550869248
 20
4613.00112803611
 30
0.0
  0
VERTEX
  5
EF2CA
  8
0
 10
10202.11550869248
 20
4613.00112803611
 30
0.0
  0
VERTEX
  5
EF2CB
  8
0
 10
10202.11550869248
 20
4643.00112803611
 30
0.0
  0
SEQEND
  5
EF619
  8
0
  0
POLYLINE
  5
E3AC0
  8
0
 66
     1
 10
0.0
 20
0.0
 30
0.0
 70
     1
  0
VERTEX
  5
EF2CC
  8
0
 10
8942.115508692494
 20
4643.00112803611
 30
0.0
  0
VERTEX
  5
EF2CD
  8
0
 10
8942.115508692494
 20
4613.00112803611
 30
0.0
  0
VERTEX
  5
EF2CE
  8
0
 10
8957.115508692492
 20
4613.00112803611
 30
0.0
  0
VERTEX
  5
EF2CF
  8
0
 10
8957.115508692492
 20
4373.00112803611
 30
0.0
  0
VERTEX
  5
EF2D0
  8
0
 10
8942.115508692494
 20
4373.00112803611
 30
0.0
  0
VERTEX
  5
EF2D1
  8
0
 10
8942.115508692494
 20
4343.001128036108
 30
0.0
  0
VERTEX
  5
EF2D2
  8
0
 10
8172.11550869249
 20
4343.001128036108
 30
0.0
  0
VERTEX
  5
EF2D3
  8
0
 10
8172.11550869249
 20
4373.00112803611
 30
0.0
  0
VERTEX
  5
EF2D4
  8
0
 10
8157.115508692491
 20
4373.00112803611
 30
0.0
  0
VERTEX
  5
EF2D5
  8
0
 10
8157.115508692491
 20
4613.00112803611
 30
0.0
  0
VERTEX
  5
EF2D6
  8
0
 10
8172.11550869249
 20
4613.00112803611
 30
0.0
  0
VERTEX
  5
EF2D7
  8
0
 10
8172.11550869249
 20
4643.00112803611
 30
0.0
  0
SEQEND
  5
EF61A
  8
0
  0
TEXT
  5
E3AC2
  8
0
 10
12488.4153743113
 20
3861.133822488413
 30
0.0
 40
100.0
  1
L 120
  7
STILE1
  0
TEXT
  5
E3AC3
  8
0
 10
10424.99615162777
 20
3861.133822488413
 30
0.0
 40
100.0
  1
L 100
  7
STILE1
  0
TEXT
  5
E3AC4
  8
0
 10
8316.97410695421
 20
3861.133822488413
 30
0.0
 40
100.0
  1
L 80
  7
STILE1
  0
TEXT
  5
E3AC5
  8
0
 10
5433.624406954081
 20
4378.059346472745
 30
0.0
 40
100.0
  1
P 30
  7
STILE1
  0
POLYLINE
  5
E3AC6
  8
0
 66
     1
 10
0.0
 20
0.0
 30
0.0
 70
     1
  0
VERTEX
  5
EF2D8
  8
0
 10
6912.115508692497
 20
4643.00112803611
 30
0.0
  0
VERTEX
  5
EF2D9
  8
0
 10
6912.115508692497
 20
4613.00112803611
 30
0.0
  0
VERTEX
  5
EF2DA
  8
0
 10
6927.115508692496
 20
4613.00112803611
 30
0.0
  0
VERTEX
  5
EF2DB
  8
0
 10
6927.115508692496
 20
4373.00112803611
 30
0.0
  0
VERTEX
  5
EF2DC
  8
0
 10
6912.115508692497
 20
4373.00112803611
 30
0.0
  0
VERTEX
  5
EF2DD
  8
0
 10
6912.115508692497
 20
4343.001128036108
 30
0.0
  0
VERTEX
  5
EF2DE
  8
0
 10
6342.115508692495
 20
4343.001128036108
 30
0.0
  0
VERTEX
  5
EF2DF
  8
0
 10
6342.115508692495
 20
4373.00112803611
 30
0.0
  0
VERTEX
  5
EF2E0
  8
0
 10
6327.115508692497
 20
4373.00112803611
 30
0.0
  0
VERTEX
  5
EF2E1
  8
0
 10
6327.115508692497
 20
4613.00112803611
 30
0.0
  0
VERTEX
  5
EF2E2
  8
0
 10
6342.115508692495
 20
4613.00112803611
 30
0.0
  0
VERTEX
  5
EF2E3
  8
0
 10
6342.115508692495
 20
4643.00112803611
 30
0.0
  0
SEQEND
  5
EF61B
  8
0
  0
TEXT
  5
E3AE2
  8
0
 10
6386.974106954218
 20
3861.133822488413
 30
0.0
 40
100.0
  1
L 60
  7
STILE1
  0
POLYLINE
  5
E4078
  8
DEFPOINTS
 66
     1
 10
0.0
 20
0.0
 30
0.0
  0
VERTEX
  5
EF2E4
  8
DEFPOINTS
 10
12217.11550869248
 20
2873.00112803611
 30
0.0
  0
VERTEX
  5
EF2E5
  8
DEFPOINTS
 10
12217.11550869248
 20
3113.00112803611
 30
0.0
  0
VERTEX
  5
EF2E6
  8
DEFPOINTS
 10
12217.11550869248
 20
3113.00112803611
 30
0.0
  0
VERTEX
  5
EF2E7
  8
DEFPOINTS
 10
12217.11550869248
 20
3113.00112803611
 30
0.0
  0
VERTEX
  5
EF2E8
  8
DEFPOINTS
 10
12232.11550869248
 20
3113.00112803611
 30
0.0
  0
VERTEX
  5
EF2E9
  8
DEFPOINTS
 10
12232.11550869248
 20
3143.001128036111
 30
0.0
  0
VERTEX
  5
EF2EA
  8
DEFPOINTS
 10
13402.11550869248
 20
3143.001128036111
 30
0.0
  0
VERTEX
  5
EF2EB
  8
DEFPOINTS
 10
13402.11550869248
 20
3113.00112803611
 30
0.0
  0
VERTEX
  5
EF2EC
  8
DEFPOINTS
 10
13432.11550869248
 20
3113.00112803611
 30
0.0
  0
VERTEX
  5
EF2ED
  8
DEFPOINTS
 10
13432.11550869248
 20
3143.001128036111
 30
0.0
  0
VERTEX
  5
EF2EE
  8
DEFPOINTS
 10
13682.11550869248
 20
3143.001128036111
 30
0.0
  0
VERTEX
  5
EF2EF
  8
DEFPOINTS
 10
13682.11550869248
 20
2843.00112803611
 30
0.0
  0
VERTEX
  5
EF2F0
  8
DEFPOINTS
 10
13432.11550869248
 20
2843.00112803611
 30
0.0
  0
VERTEX
  5
EF2F1
  8
DEFPOINTS
 10
13432.11550869248
 20
2873.00112803611
 30
0.0
  0
VERTEX
  5
EF2F2
  8
DEFPOINTS
 10
13402.11550869248
 20
2873.00112803611
 30
0.0
  0
VERTEX
  5
EF2F3
  8
DEFPOINTS
 10
13402.11550869248
 20
2843.00112803611
 30
0.0
  0
VERTEX
  5
EF2F4
  8
DEFPOINTS
 10
12232.11550869248
 20
2843.00112803611
 30
0.0
  0
VERTEX
  5
EF2F5
  8
DEFPOINTS
 10
12232.11550869248
 20
2873.00112803611
 30
0.0
  0
VERTEX
  5
EF2F6
  8
DEFPOINTS
 10
12217.11550869248
 20
2873.00112803611
 30
0.0
  0
VERTEX
  5
EF2F7
  8
DEFPOINTS
 10
12217.11550869248
 20
2873.00112803611
 30
0.0
  0
VERTEX
  5
EF2F8
  8
DEFPOINTS
 10
12217.11550869248
 20
2873.00112803611
 30
0.0
  0
SEQEND
  5
EF61C
  8
DEFPOINTS
  0
POLYLINE
  5
E4079
  8
DEFPOINTS
 66
     1
 10
0.0
 20
0.0
 30
0.0
  0
VERTEX
  5
EF2F9
  8
DEFPOINTS
 10
11952.11550869249
 20
1343.00112803611
 30
0.0
  0
VERTEX
  5
EF2FA
  8
DEFPOINTS
 10
11952.11550869249
 20
1643.001128036111
 30
0.0
  0
VERTEX
  5
EF2FB
  8
DEFPOINTS
 10
12202.11550869249
 20
1643.001128036111
 30
0.0
  0
VERTEX
  5
EF2FC
  8
DEFPOINTS
 10
12202.11550869249
 20
1613.00112803611
 30
0.0
  0
VERTEX
  5
EF2FD
  8
DEFPOINTS
 10
12232.11550869248
 20
1613.00112803611
 30
0.0
  0
VERTEX
  5
EF2FE
  8
DEFPOINTS
 10
12232.11550869248
 20
1643.001128036111
 30
0.0
  0
VERTEX
  5
EF2FF
  8
DEFPOINTS
 10
13402.11550869248
 20
1643.001128036111
 30
0.0
  0
VERTEX
  5
EF300
  8
DEFPOINTS
 10
13402.11550869248
 20
1613.00112803611
 30
0.0
  0
VERTEX
  5
EF301
  8
DEFPOINTS
 10
13432.11550869248
 20
1613.00112803611
 30
0.0
  0
VERTEX
  5
EF302
  8
DEFPOINTS
 10
13432.11550869248
 20
1643.001128036111
 30
0.0
  0
VERTEX
  5
EF303
  8
DEFPOINTS
 10
13682.11550869248
 20
1643.001128036111
 30
0.0
  0
VERTEX
  5
EF304
  8
DEFPOINTS
 10
13682.11550869248
 20
1343.00112803611
 30
0.0
  0
VERTEX
  5
EF305
  8
DEFPOINTS
 10
13432.11550869248
 20
1343.00112803611
 30
0.0
  0
VERTEX
  5
EF306
  8
DEFPOINTS
 10
13432.11550869248
 20
1373.00112803611
 30
0.0
  0
VERTEX
  5
EF307
  8
DEFPOINTS
 10
13402.11550869248
 20
1373.00112803611
 30
0.0
  0
VERTEX
  5
EF308
  8
DEFPOINTS
 10
13402.11550869248
 20
1343.00112803611
 30
0.0
  0
VERTEX
  5
EF309
  8
DEFPOINTS
 10
12232.11550869248
 20
1343.00112803611
 30
0.0
  0
VERTEX
  5
EF30A
  8
DEFPOINTS
 10
12232.11550869248
 20
1373.00112803611
 30
0.0
  0
VERTEX
  5
EF30B
  8
DEFPOINTS
 10
12202.11550869249
 20
1373.00112803611
 30
0.0
  0
VERTEX
  5
EF30C
  8
DEFPOINTS
 10
12202.11550869249
 20
1343.00112803611
 30
0.0
  0
VERTEX
  5
EF30D
  8
DEFPOINTS
 10
11952.11550869249
 20
1343.00112803611
 30
0.0
  0
SEQEND
  5
EF61D
  8
DEFPOINTS
  0
POLYLINE
  5
E407A
  8
DEFPOINTS
 66
     1
 10
0.0
 20
0.0
 30
0.0
  0
VERTEX
  5
EF30E
  8
DEFPOINTS
 10
10187.11550869248
 20
2873.00112803611
 30
0.0
  0
VERTEX
  5
EF30F
  8
DEFPOINTS
 10
10187.11550869248
 20
3113.00112803611
 30
0.0
  0
VERTEX
  5
EF310
  8
DEFPOINTS
 10
10187.11550869248
 20
3113.00112803611
 30
0.0
  0
VERTEX
  5
EF311
  8
DEFPOINTS
 10
10187.11550869248
 20
3113.00112803611
 30
0.0
  0
VERTEX
  5
EF312
  8
DEFPOINTS
 10
10202.11550869248
 20
3113.00112803611
 30
0.0
  0
VERTEX
  5
EF313
  8
DEFPOINTS
 10
10202.11550869248
 20
3143.001128036111
 30
0.0
  0
VERTEX
  5
EF314
  8
DEFPOINTS
 10
11172.11550869249
 20
3143.001128036111
 30
0.0
  0
VERTEX
  5
EF315
  8
DEFPOINTS
 10
11172.11550869249
 20
3113.00112803611
 30
0.0
  0
VERTEX
  5
EF316
  8
DEFPOINTS
 10
11202.11550869249
 20
3113.00112803611
 30
0.0
  0
VERTEX
  5
EF317
  8
DEFPOINTS
 10
11202.11550869249
 20
3143.001128036111
 30
0.0
  0
VERTEX
  5
EF318
  8
DEFPOINTS
 10
11452.11550869249
 20
3143.001128036111
 30
0.0
  0
VERTEX
  5
EF319
  8
DEFPOINTS
 10
11452.11550869249
 20
2843.00112803611
 30
0.0
  0
VERTEX
  5
EF31A
  8
DEFPOINTS
 10
11202.11550869249
 20
2843.00112803611
 30
0.0
  0
VERTEX
  5
EF31B
  8
DEFPOINTS
 10
11202.11550869249
 20
2873.00112803611
 30
0.0
  0
VERTEX
  5
EF31C
  8
DEFPOINTS
 10
11172.11550869249
 20
2873.00112803611
 30
0.0
  0
VERTEX
  5
EF31D
  8
DEFPOINTS
 10
11172.11550869249
 20
2843.00112803611
 30
0.0
  0
VERTEX
  5
EF31E
  8
DEFPOINTS
 10
10202.11550869248
 20
2843.00112803611
 30
0.0
  0
VERTEX
  5
EF31F
  8
DEFPOINTS
 10
10202.11550869248
 20
2873.00112803611
 30
0.0
  0
VERTEX
  5
EF320
  8
DEFPOINTS
 10
10187.11550869248
 20
2873.00112803611
 30
0.0
  0
VERTEX
  5
EF321
  8
DEFPOINTS
 10
10187.11550869248
 20
2873.00112803611
 30
0.0
  0
VERTEX
  5
EF322
  8
DEFPOINTS
 10
10187.11550869248
 20
2873.00112803611
 30
0.0
  0
SEQEND
  5
EF61E
  8
DEFPOINTS
  0
POLYLINE
  5
E407B
  8
DEFPOINTS
 66
     1
 10
0.0
 20
0.0
 30
0.0
  0
VERTEX
  5
EF323
  8
DEFPOINTS
 10
9922.115508692494
 20
1343.00112803611
 30
0.0
  0
VERTEX
  5
EF324
  8
DEFPOINTS
 10
9922.115508692494
 20
1643.001128036111
 30
0.0
  0
VERTEX
  5
EF325
  8
DEFPOINTS
 10
10172.11550869249
 20
1643.001128036111
 30
0.0
  0
VERTEX
  5
EF326
  8
DEFPOINTS
 10
10172.11550869249
 20
1613.00112803611
 30
0.0
  0
VERTEX
  5
EF327
  8
DEFPOINTS
 10
10202.11550869248
 20
1613.00112803611
 30
0.0
  0
VERTEX
  5
EF328
  8
DEFPOINTS
 10
10202.11550869248
 20
1643.001128036111
 30
0.0
  0
VERTEX
  5
EF329
  8
DEFPOINTS
 10
11172.11550869249
 20
1643.001128036111
 30
0.0
  0
VERTEX
  5
EF32A
  8
DEFPOINTS
 10
11172.11550869249
 20
1613.00112803611
 30
0.0
  0
VERTEX
  5
EF32B
  8
DEFPOINTS
 10
11202.11550869249
 20
1613.00112803611
 30
0.0
  0
VERTEX
  5
EF32C
  8
DEFPOINTS
 10
11202.11550869249
 20
1643.001128036111
 30
0.0
  0
VERTEX
  5
EF32D
  8
DEFPOINTS
 10
11452.11550869249
 20
1643.001128036111
 30
0.0
  0
VERTEX
  5
EF32E
  8
DEFPOINTS
 10
11452.11550869249
 20
1343.00112803611
 30
0.0
  0
VERTEX
  5
EF32F
  8
DEFPOINTS
 10
11202.11550869249
 20
1343.00112803611
 30
0.0
  0
VERTEX
  5
EF330
  8
DEFPOINTS
 10
11202.11550869249
 20
1373.00112803611
 30
0.0
  0
VERTEX
  5
EF331
  8
DEFPOINTS
 10
11172.11550869249
 20
1373.00112803611
 30
0.0
  0
VERTEX
  5
EF332
  8
DEFPOINTS
 10
11172.11550869249
 20
1343.00112803611
 30
0.0
  0
VERTEX
  5
EF333
  8
DEFPOINTS
 10
10202.11550869248
 20
1343.00112803611
 30
0.0
  0
VERTEX
  5
EF334
  8
DEFPOINTS
 10
10202.11550869248
 20
1373.00112803611
 30
0.0
  0
VERTEX
  5
EF335
  8
DEFPOINTS
 10
10172.11550869249
 20
1373.00112803611
 30
0.0
  0
VERTEX
  5
EF336
  8
DEFPOINTS
 10
10172.11550869249
 20
1343.00112803611
 30
0.0
  0
VERTEX
  5
EF337
  8
DEFPOINTS
 10
9922.115508692494
 20
1343.00112803611
 30
0.0
  0
SEQEND
  5
EF61F
  8
DEFPOINTS
  0
LINE
  5
E407C
  8
0
 10
14063.09611980697
 20
3089.590618580832
 30
0.0
 11
14063.09611980697
 21
3045.990618580854
 31
0.0
  0
POLYLINE
  5
E407D
  8
0
 66
     1
 10
0.0
 20
0.0
 30
0.0
  0
VERTEX
  5
EF338
  8
0
 10
14062.39611980691
 20
3038.801128036157
 30
0.0
  0
VERTEX
  5
EF339
  8
0
 10
14063.09611980697
 20
3038.801128036157
 30
0.0
  0
VERTEX
  5
EF33A
  8
0
 10
14063.09611980697
 20
3014.801128036157
 30
0.0
  0
VERTEX
  5
EF33B
  8
0
 10
14038.79611980693
 20
3014.801128036157
 30
0.0
  0
VERTEX
  5
EF33C
  8
0
 10
14038.79611980693
 20
2971.201128036181
 30
0.0
  0
VERTEX
  5
EF33D
  8
0
 10
14063.09611980697
 20
2971.201128036181
 30
0.0
  0
VERTEX
  5
EF33E
  8
0
 10
14063.09611980697
 20
2947.201128036181
 30
0.0
  0
VERTEX
  5
EF33F
  8
0
 10
14062.39611980691
 20
2947.201128036181
 30
0.0
  0
VERTEX
  5
EF340
  8
0
 10
14062.39611980691
 20
2970.501128036111
 30
0.0
  0
VERTEX
  5
EF341
  8
0
 10
14038.09611980697
 20
2970.501128036111
 30
0.0
  0
VERTEX
  5
EF342
  8
0
 10
14038.09611980697
 20
3015.501128036111
 30
0.0
  0
VERTEX
  5
EF343
  8
0
 10
14062.39611980691
 20
3015.501128036111
 30
0.0
  0
VERTEX
  5
EF344
  8
0
 10
14062.39611980691
 20
3038.801128036157
 30
0.0
  0
SEQEND
  5
EF620
  8
0
  0
POLYLINE
  5
E407E
  8
0
 66
     1
 10
0.0
 20
0.0
 30
0.0
  0
VERTEX
  5
EF345
  8
0
 10
14034.09611980698
 20
2869.00112803611
 30
0.0
  0
VERTEX
  5
EF346
  8
0
 10
14040.59611980697
 20
2869.00112803611
 30
0.0
  0
VERTEX
  5
EF347
  8
0
 10
14040.59611980697
 20
2868.001128036111
 30
0.0
  0
VERTEX
  5
EF348
  8
0
 10
14035.09611980697
 20
2868.001128036111
 30
0.0
  0
VERTEX
  5
EF349
  8
0
 10
14035.09611980697
 20
2844.001128036111
 30
0.0
  0
VERTEX
  5
EF34A
  8
0
 10
14063.09611980697
 20
2844.001128036111
 30
0.0
  0
VERTEX
  5
EF34B
  8
0
 10
14063.09611980697
 20
3142.001128036111
 30
0.0
  0
VERTEX
  5
EF34C
  8
0
 10
14035.09611980697
 20
3142.001128036111
 30
0.0
  0
VERTEX
  5
EF34D
  8
0
 10
14035.09611980697
 20
3118.001128036111
 30
0.0
  0
VERTEX
  5
EF34E
  8
0
 10
14040.59611980697
 20
3118.001128036111
 30
0.0
  0
VERTEX
  5
EF34F
  8
0
 10
14040.59611980697
 20
3117.00112803611
 30
0.0
  0
VERTEX
  5
EF350
  8
0
 10
14034.09611980698
 20
3117.00112803611
 30
0.0
  0
VERTEX
  5
EF351
  8
0
 10
14034.09611980698
 20
3143.001128036111
 30
0.0
  0
VERTEX
  5
EF352
  8
0
 10
14064.09611980697
 20
3143.001128036111
 30
0.0
  0
VERTEX
  5
EF353
  8
0
 10
14064.09611980697
 20
2843.00112803611
 30
0.0
  0
VERTEX
  5
EF354
  8
0
 10
14034.09611980698
 20
2843.00112803611
 30
0.0
  0
VERTEX
  5
EF355
  8
0
 10
14034.09611980698
 20
2869.00112803611
 30
0.0
  0
SEQEND
  5
EF621
  8
0
  0
POLYLINE
  5
E407F
  8
0
 66
     1
 10
0.0
 20
0.0
 30
0.0
  0
VERTEX
  5
EF356
  8
0
 10
14034.09611980698
 20
1369.00112803611
 30
0.0
  0
VERTEX
  5
EF357
  8
0
 10
14040.59611980697
 20
1369.00112803611
 30
0.0
  0
VERTEX
  5
EF358
  8
0
 10
14040.59611980697
 20
1368.001128036111
 30
0.0
  0
VERTEX
  5
EF359
  8
0
 10
14035.09611980697
 20
1368.001128036111
 30
0.0
  0
VERTEX
  5
EF35A
  8
0
 10
14035.09611980697
 20
1344.001128036111
 30
0.0
  0
VERTEX
  5
EF35B
  8
0
 10
14063.09611980697
 20
1344.001128036111
 30
0.0
  0
VERTEX
  5
EF35C
  8
0
 10
14063.09611980697
 20
1642.001128036111
 30
0.0
  0
VERTEX
  5
EF35D
  8
0
 10
14035.09611980697
 20
1642.001128036111
 30
0.0
  0
VERTEX
  5
EF35E
  8
0
 10
14035.09611980697
 20
1618.001128036111
 30
0.0
  0
VERTEX
  5
EF35F
  8
0
 10
14040.59611980697
 20
1618.001128036111
 30
0.0
  0
VERTEX
  5
EF360
  8
0
 10
14040.59611980697
 20
1617.00112803611
 30
0.0
  0
VERTEX
  5
EF361
  8
0
 10
14034.09611980698
 20
1617.00112803611
 30
0.0
  0
VERTEX
  5
EF362
  8
0
 10
14034.09611980698
 20
1643.001128036111
 30
0.0
  0
VERTEX
  5
EF363
  8
0
 10
14064.09611980697
 20
1643.001128036111
 30
0.0
  0
VERTEX
  5
EF364
  8
0
 10
14064.09611980697
 20
1343.00112803611
 30
0.0
  0
VERTEX
  5
EF365
  8
0
 10
14034.09611980698
 20
1343.00112803611
 30
0.0
  0
VERTEX
  5
EF366
  8
0
 10
14034.09611980698
 20
1369.00112803611
 30
0.0
  0
SEQEND
  5
EF622
  8
0
  0
POLYLINE
  5
E4080
  8
0
 66
     1
 10
0.0
 20
0.0
 30
0.0
  0
VERTEX
  5
EF367
  8
0
 10
14062.39611980691
 20
1538.801128036157
 30
0.0
  0
VERTEX
  5
EF368
  8
0
 10
14063.09611980697
 20
1538.801128036157
 30
0.0
  0
VERTEX
  5
EF369
  8
0
 10
14063.09611980697
 20
1514.801128036157
 30
0.0
  0
VERTEX
  5
EF36A
  8
0
 10
14038.79611980693
 20
1514.801128036157
 30
0.0
  0
VERTEX
  5
EF36B
  8
0
 10
14038.79611980693
 20
1471.20112803618
 30
0.0
  0
VERTEX
  5
EF36C
  8
0
 10
14063.09611980697
 20
1471.20112803618
 30
0.0
  0
VERTEX
  5
EF36D
  8
0
 10
14063.09611980697
 20
1447.201128036181
 30
0.0
  0
VERTEX
  5
EF36E
  8
0
 10
14062.39611980691
 20
1447.201128036181
 30
0.0
  0
VERTEX
  5
EF36F
  8
0
 10
14062.39611980691
 20
1470.501128036111
 30
0.0
  0
VERTEX
  5
EF370
  8
0
 10
14038.09611980697
 20
1470.501128036111
 30
0.0
  0
VERTEX
  5
EF371
  8
0
 10
14038.09611980697
 20
1515.501128036111
 30
0.0
  0
VERTEX
  5
EF372
  8
0
 10
14062.39611980691
 20
1515.501128036111
 30
0.0
  0
VERTEX
  5
EF373
  8
0
 10
14062.39611980691
 20
1538.801128036157
 30
0.0
  0
SEQEND
  5
EF623
  8
0
  0
LINE
  5
E4081
  8
0
 10
14063.09611980697
 20
1589.590618580831
 30
0.0
 11
14063.09611980697
 21
1545.990618580854
 31
0.0
  0
TEXT
  5
E4086
  8
0
 10
10212.73152633627
 20
2361.133822488413
 30
0.0
 40
100.0
  1
L 100 + 25
  7
STILE1
  0
TEXT
  5
E4087
  8
0
 10
12404.16279336776
 20
2361.133822488413
 30
0.0
 40
100.0
  1
L 120 +25
  7
STILE1
  0
TEXT
  5
E4088
  8
0
 10
12046.08927377001
 20
861.1338224884139
 30
0.0
 40
100.0
  1
L 120 + 25 + 25
  7
STILE1
  0
TEXT
  5
E4089
  8
0
 10
9926.50163006566
 20
861.1338224884139
 30
0.0
 40
100.0
  1
L 100 + 25 + 25
  7
STILE1
  0
POLYLINE
  5
E4108
  8
0
 66
     1
 10
0.0
 20
0.0
 30
0.0
 70
     1
  0
VERTEX
  5
EF374
  8
0
 10
17531.56864714381
 20
4933.001128036107
 30
0.0
  0
VERTEX
  5
EF375
  8
0
 10
17531.56864714381
 20
4963.001128036106
 30
0.0
  0
VERTEX
  5
EF376
  8
0
 10
17781.56864714381
 20
4963.001128036106
 30
0.0
  0
VERTEX
  5
EF377
  8
0
 10
17781.56864714381
 20
4933.001128036107
 30
0.0
  0
SEQEND
  5
EF624
  8
0
  0
POLYLINE
  5
E4109
  8
0
 66
     1
 10
0.0
 20
0.0
 30
0.0
 70
     1
  0
VERTEX
  5
EF378
  8
0
 10
17531.56864714381
 20
4483.001128036105
 30
0.0
  0
VERTEX
  5
EF379
  8
0
 10
17531.56864714381
 20
4513.001128036106
 30
0.0
  0
VERTEX
  5
EF37A
  8
0
 10
17781.56864714381
 20
4513.001128036106
 30
0.0
  0
VERTEX
  5
EF37B
  8
0
 10
17781.56864714381
 20
4483.001128036105
 30
0.0
  0
SEQEND
  5
EF625
  8
0
  0
POLYLINE
  5
E410A
  8
0
 66
     1
 10
0.0
 20
0.0
 30
0.0
 70
     1
  0
VERTEX
  5
EF37C
  8
0
 10
17531.56864714381
 20
5833.001128036106
 30
0.0
  0
VERTEX
  5
EF37D
  8
0
 10
17531.56864714381
 20
5863.001128036106
 30
0.0
  0
VERTEX
  5
EF37E
  8
0
 10
17781.56864714381
 20
5863.001128036106
 30
0.0
  0
VERTEX
  5
EF37F
  8
0
 10
17781.56864714381
 20
5833.001128036106
 30
0.0
  0
SEQEND
  5
EF626
  8
0
  0
POLYLINE
  5
E410C
  8
0
 66
     1
 10
0.0
 20
0.0
 30
0.0
 70
     1
  0
VERTEX
  5
EF380
  8
0
 10
17531.56864714381
 20
5383.001128036106
 30
0.0
  0
VERTEX
  5
EF381
  8
0
 10
17531.56864714381
 20
5413.001128036106
 30
0.0
  0
VERTEX
  5
EF382
  8
0
 10
17781.56864714381
 20
5413.001128036106
 30
0.0
  0
VERTEX
  5
EF383
  8
0
 10
17781.56864714381
 20
5383.001128036106
 30
0.0
  0
SEQEND
  5
EF627
  8
0
  0
POLYLINE
  5
E410E
  8
0
 66
     1
 10
0.0
 20
0.0
 30
0.0
 70
     1
  0
VERTEX
  5
EF384
  8
0
 10
17531.56864714381
 20
6333.001128036106
 30
0.0
  0
VERTEX
  5
EF385
  8
0
 10
17531.56864714381
 20
6363.001128036106
 30
0.0
  0
VERTEX
  5
EF386
  8
0
 10
17781.56864714381
 20
6363.001128036106
 30
0.0
  0
VERTEX
  5
EF387
  8
0
 10
17781.56864714381
 20
6333.001128036106
 30
0.0
  0
SEQEND
  5
EF628
  8
0
  0
POLYLINE
  5
E4112
  8
0
 66
     1
 10
0.0
 20
0.0
 30
0.0
 70
     1
  0
VERTEX
  5
EF388
  8
0
 10
16331.56864714383
 20
4343.001128036108
 30
0.0
  0
VERTEX
  5
EF389
  8
0
 10
16331.56864714383
 20
4349.001128036105
 30
0.0
  0
VERTEX
  5
EF38A
  8
0
 10
16301.56864714383
 20
4349.001128036105
 30
0.0
  0
VERTEX
  5
EF38B
  8
0
 10
16301.56864714383
 20
4343.001128036108
 30
0.0
  0
SEQEND
  5
EF629
  8
0
  0
POLYLINE
  5
E4113
  8
0
 66
     1
 10
0.0
 20
0.0
 30
0.0
 70
     1
  0
VERTEX
  5
EF38C
  8
0
 10
16331.56864714383
 20
6357.001128036106
 30
0.0
  0
VERTEX
  5
EF38D
  8
0
 10
16331.56864714383
 20
6363.001128036106
 30
0.0
  0
VERTEX
  5
EF38E
  8
0
 10
16301.56864714383
 20
6363.001128036106
 30
0.0
  0
VERTEX
  5
EF38F
  8
0
 10
16301.56864714383
 20
6357.001128036106
 30
0.0
  0
SEQEND
  5
EF62A
  8
0
  0
POLYLINE
  5
E4114
  8
0
 66
     1
 10
0.0
 20
0.0
 30
0.0
 70
     1
  0
VERTEX
  5
EF390
  8
0
 10
16331.56864714383
 20
6357.001128036106
 30
0.0
  0
VERTEX
  5
EF391
  8
0
 10
16331.56864714383
 20
4349.001128036105
 30
0.0
  0
VERTEX
  5
EF392
  8
0
 10
16301.56864714383
 20
4349.001128036105
 30
0.0
  0
VERTEX
  5
EF393
  8
0
 10
16301.56864714383
 20
6357.001128036106
 30
0.0
  0
SEQEND
  5
EF62B
  8
0
  0
POLYLINE
  5
E4115
  8
0
 66
     1
 10
0.0
 20
0.0
 30
0.0
 70
     1
  0
VERTEX
  5
EF394
  8
0
 10
17501.56864714383
 20
4933.001128036107
 30
0.0
  0
VERTEX
  5
EF395
  8
0
 10
17501.56864714383
 20
4963.001128036106
 30
0.0
  0
VERTEX
  5
EF396
  8
0
 10
16331.56864714383
 20
4963.001128036106
 30
0.0
  0
VERTEX
  5
EF397
  8
0
 10
16331.56864714383
 20
4933.001128036107
 30
0.0
  0
SEQEND
  5
EF62C
  8
0
  0
POLYLINE
  5
E4116
  8
0
 66
     1
 10
0.0
 20
0.0
 30
0.0
 70
     1
  0
VERTEX
  5
EF398
  8
0
 10
17501.56864714383
 20
4483.001128036105
 30
0.0
  0
VERTEX
  5
EF399
  8
0
 10
17501.56864714383
 20
4513.001128036106
 30
0.0
  0
VERTEX
  5
EF39A
  8
0
 10
16331.56864714383
 20
4513.001128036106
 30
0.0
  0
VERTEX
  5
EF39B
  8
0
 10
16331.56864714383
 20
4483.001128036105
 30
0.0
  0
SEQEND
  5
EF62D
  8
0
  0
POLYLINE
  5
E4117
  8
0
 66
     1
 10
0.0
 20
0.0
 30
0.0
 70
     1
  0
VERTEX
  5
EF39C
  8
0
 10
17501.56864714383
 20
5833.001128036106
 30
0.0
  0
VERTEX
  5
EF39D
  8
0
 10
17501.56864714383
 20
5863.001128036106
 30
0.0
  0
VERTEX
  5
EF39E
  8
0
 10
16331.56864714383
 20
5863.001128036106
 30
0.0
  0
VERTEX
  5
EF39F
  8
0
 10
16331.56864714383
 20
5833.001128036106
 30
0.0
  0
SEQEND
  5
EF62E
  8
0
  0
POLYLINE
  5
E4119
  8
0
 66
     1
 10
0.0
 20
0.0
 30
0.0
 70
     1
  0
VERTEX
  5
EF3A0
  8
0
 10
17501.56864714383
 20
5383.001128036106
 30
0.0
  0
VERTEX
  5
EF3A1
  8
0
 10
17501.56864714383
 20
5413.001128036106
 30
0.0
  0
VERTEX
  5
EF3A2
  8
0
 10
16331.56864714383
 20
5413.001128036106
 30
0.0
  0
VERTEX
  5
EF3A3
  8
0
 10
16331.56864714383
 20
5383.001128036106
 30
0.0
  0
SEQEND
  5
EF62F
  8
0
  0
POLYLINE
  5
E411B
  8
0
 66
     1
 10
0.0
 20
0.0
 30
0.0
 70
     1
  0
VERTEX
  5
EF3A4
  8
0
 10
17501.56864714383
 20
6333.001128036106
 30
0.0
  0
VERTEX
  5
EF3A5
  8
0
 10
17501.56864714383
 20
6363.001128036106
 30
0.0
  0
VERTEX
  5
EF3A6
  8
0
 10
16331.56864714383
 20
6363.001128036106
 30
0.0
  0
VERTEX
  5
EF3A7
  8
0
 10
16331.56864714383
 20
6333.001128036106
 30
0.0
  0
SEQEND
  5
EF630
  8
0
  0
POLYLINE
  5
E411C
  8
0
 66
     1
 10
0.0
 20
0.0
 30
0.0
 70
     1
  0
VERTEX
  5
EF3A8
  8
0
 10
17501.56864714383
 20
6357.001128036106
 30
0.0
  0
VERTEX
  5
EF3A9
  8
0
 10
17501.56864714383
 20
4349.001128036105
 30
0.0
  0
VERTEX
  5
EF3AA
  8
0
 10
17531.56864714381
 20
4349.001128036105
 30
0.0
  0
VERTEX
  5
EF3AB
  8
0
 10
17531.56864714381
 20
6357.001128036106
 30
0.0
  0
SEQEND
  5
EF631
  8
0
  0
POLYLINE
  5
E411D
  8
0
 66
     1
 10
0.0
 20
0.0
 30
0.0
 70
     1
  0
VERTEX
  5
EF3AC
  8
0
 10
17501.56864714383
 20
4343.001128036108
 30
0.0
  0
VERTEX
  5
EF3AD
  8
0
 10
17501.56864714383
 20
4349.001128036105
 30
0.0
  0
VERTEX
  5
EF3AE
  8
0
 10
17531.56864714381
 20
4349.001128036105
 30
0.0
  0
VERTEX
  5
EF3AF
  8
0
 10
17531.56864714381
 20
4343.001128036108
 30
0.0
  0
SEQEND
  5
EF632
  8
0
  0
POLYLINE
  5
E411E
  8
0
 66
     1
 10
0.0
 20
0.0
 30
0.0
 70
     1
  0
VERTEX
  5
EF3B0
  8
0
 10
17501.56864714383
 20
6357.001128036106
 30
0.0
  0
VERTEX
  5
EF3B1
  8
0
 10
17501.56864714383
 20
6363.001128036106
 30
0.0
  0
VERTEX
  5
EF3B2
  8
0
 10
17531.56864714381
 20
6363.001128036106
 30
0.0
  0
VERTEX
  5
EF3B3
  8
0
 10
17531.56864714381
 20
6357.001128036106
 30
0.0
  0
SEQEND
  5
EF633
  8
0
  0
POLYLINE
  5
E415D
  8
0
 66
     1
 10
0.0
 20
0.0
 30
0.0
 70
     1
  0
VERTEX
  5
EF3B4
  8
0
 10
17301.56864714381
 20
3357.001142058444
 30
0.0
  0
VERTEX
  5
EF3B5
  8
0
 10
17301.56864714381
 20
3363.001142058445
 30
0.0
  0
VERTEX
  5
EF3B6
  8
0
 10
17331.56864714381
 20
3363.001142058445
 30
0.0
  0
VERTEX
  5
EF3B7
  8
0
 10
17331.56864714381
 20
3357.001142058444
 30
0.0
  0
SEQEND
  5
EF634
  8
0
  0
POLYLINE
  5
E415E
  8
0
 66
     1
 10
0.0
 20
0.0
 30
0.0
 70
     1
  0
VERTEX
  5
EF3B8
  8
0
 10
17301.56864714381
 20
1343.001142058444
 30
0.0
  0
VERTEX
  5
EF3B9
  8
0
 10
17301.56864714381
 20
1349.001142058444
 30
0.0
  0
VERTEX
  5
EF3BA
  8
0
 10
17331.56864714381
 20
1349.001142058444
 30
0.0
  0
VERTEX
  5
EF3BB
  8
0
 10
17331.56864714381
 20
1343.001142058444
 30
0.0
  0
SEQEND
  5
EF635
  8
0
  0
POLYLINE
  5
E415F
  8
0
 66
     1
 10
0.0
 20
0.0
 30
0.0
 70
     1
  0
VERTEX
  5
EF3BC
  8
0
 10
17301.56864714381
 20
3357.001142058444
 30
0.0
  0
VERTEX
  5
EF3BD
  8
0
 10
17301.56864714381
 20
1349.001142058444
 30
0.0
  0
VERTEX
  5
EF3BE
  8
0
 10
17331.56864714381
 20
1349.001142058444
 30
0.0
  0
VERTEX
  5
EF3BF
  8
0
 10
17331.56864714381
 20
3357.001142058444
 30
0.0
  0
SEQEND
  5
EF636
  8
0
  0
POLYLINE
  5
E4160
  8
0
 66
     1
 10
0.0
 20
0.0
 30
0.0
 70
     1
  0
VERTEX
  5
EF3C0
  8
0
 10
17301.56864714381
 20
3333.001142058444
 30
0.0
  0
VERTEX
  5
EF3C1
  8
0
 10
17301.56864714381
 20
3363.001142058445
 30
0.0
  0
VERTEX
  5
EF3C2
  8
0
 10
16331.56864714383
 20
3363.001142058445
 30
0.0
  0
VERTEX
  5
EF3C3
  8
0
 10
16331.56864714383
 20
3333.001142058444
 30
0.0
  0
SEQEND
  5
EF637
  8
0
  0
POLYLINE
  5
E4162
  8
0
 66
     1
 10
0.0
 20
0.0
 30
0.0
 70
     1
  0
VERTEX
  5
EF3C4
  8
0
 10
17301.56864714381
 20
2383.001142058444
 30
0.0
  0
VERTEX
  5
EF3C5
  8
0
 10
17301.56864714381
 20
2413.001142058444
 30
0.0
  0
VERTEX
  5
EF3C6
  8
0
 10
16331.56864714383
 20
2413.001142058444
 30
0.0
  0
VERTEX
  5
EF3C7
  8
0
 10
16331.56864714383
 20
2383.001142058444
 30
0.0
  0
SEQEND
  5
EF638
  8
0
  0
POLYLINE
  5
E4164
  8
0
 66
     1
 10
0.0
 20
0.0
 30
0.0
 70
     1
  0
VERTEX
  5
EF3C8
  8
0
 10
17301.56864714381
 20
2983.001142058444
 30
0.0
  0
VERTEX
  5
EF3C9
  8
0
 10
17301.56864714381
 20
3013.001142058444
 30
0.0
  0
VERTEX
  5
EF3CA
  8
0
 10
16331.56864714383
 20
3013.001142058444
 30
0.0
  0
VERTEX
  5
EF3CB
  8
0
 10
16331.56864714383
 20
2983.001142058444
 30
0.0
  0
SEQEND
  5
EF639
  8
0
  0
POLYLINE
  5
E4165
  8
0
 66
     1
 10
0.0
 20
0.0
 30
0.0
 70
     1
  0
VERTEX
  5
EF3CC
  8
0
 10
17301.56864714381
 20
1483.001142058444
 30
0.0
  0
VERTEX
  5
EF3CD
  8
0
 10
17301.56864714381
 20
1513.001142058444
 30
0.0
  0
VERTEX
  5
EF3CE
  8
0
 10
16331.56864714383
 20
1513.001142058444
 30
0.0
  0
VERTEX
  5
EF3CF
  8
0
 10
16331.56864714383
 20
1483.001142058444
 30
0.0
  0
SEQEND
  5
EF63A
  8
0
  0
POLYLINE
  5
E4166
  8
0
 66
     1
 10
0.0
 20
0.0
 30
0.0
 70
     1
  0
VERTEX
  5
EF3D0
  8
0
 10
17301.56864714381
 20
1783.001142058443
 30
0.0
  0
VERTEX
  5
EF3D1
  8
0
 10
17301.56864714381
 20
1813.001142058444
 30
0.0
  0
VERTEX
  5
EF3D2
  8
0
 10
16331.56864714383
 20
1813.001142058444
 30
0.0
  0
VERTEX
  5
EF3D3
  8
0
 10
16331.56864714383
 20
1783.001142058443
 30
0.0
  0
SEQEND
  5
EF63B
  8
0
  0
POLYLINE
  5
E4167
  8
0
 66
     1
 10
0.0
 20
0.0
 30
0.0
 70
     1
  0
VERTEX
  5
EF3D4
  8
0
 10
16331.56864714383
 20
3357.001142058444
 30
0.0
  0
VERTEX
  5
EF3D5
  8
0
 10
16331.56864714383
 20
1349.001142058444
 30
0.0
  0
VERTEX
  5
EF3D6
  8
0
 10
16301.56864714383
 20
1349.001142058444
 30
0.0
  0
VERTEX
  5
EF3D7
  8
0
 10
16301.56864714383
 20
3357.001142058444
 30
0.0
  0
SEQEND
  5
EF63C
  8
0
  0
POLYLINE
  5
E4168
  8
0
 66
     1
 10
0.0
 20
0.0
 30
0.0
 70
     1
  0
VERTEX
  5
EF3D8
  8
0
 10
16331.56864714383
 20
3357.001142058444
 30
0.0
  0
VERTEX
  5
EF3D9
  8
0
 10
16331.56864714383
 20
3363.001142058445
 30
0.0
  0
VERTEX
  5
EF3DA
  8
0
 10
16301.56864714383
 20
3363.001142058445
 30
0.0
  0
VERTEX
  5
EF3DB
  8
0
 10
16301.56864714383
 20
3357.001142058444
 30
0.0
  0
SEQEND
  5
EF63D
  8
0
  0
POLYLINE
  5
E4169
  8
0
 66
     1
 10
0.0
 20
0.0
 30
0.0
 70
     1
  0
VERTEX
  5
EF3DC
  8
0
 10
16331.56864714383
 20
1343.001142058444
 30
0.0
  0
VERTEX
  5
EF3DD
  8
0
 10
16331.56864714383
 20
1349.001142058444
 30
0.0
  0
VERTEX
  5
EF3DE
  8
0
 10
16301.56864714383
 20
1349.001142058444
 30
0.0
  0
VERTEX
  5
EF3DF
  8
0
 10
16301.56864714383
 20
1343.001142058444
 30
0.0
  0
SEQEND
  5
EF63E
  8
0
  0
POLYLINE
  5
E416A
  8
0
 66
     1
 10
0.0
 20
0.0
 30
0.0
 70
     1
  0
VERTEX
  5
EF3E0
  8
0
 10
18301.56864714383
 20
3357.001142058444
 30
0.0
  0
VERTEX
  5
EF3E1
  8
0
 10
18301.56864714383
 20
1349.001142058444
 30
0.0
  0
VERTEX
  5
EF3E2
  8
0
 10
18331.56864714381
 20
1349.001142058444
 30
0.0
  0
VERTEX
  5
EF3E3
  8
0
 10
18331.56864714381
 20
3357.001142058444
 30
0.0
  0
SEQEND
  5
EF63F
  8
0
  0
POLYLINE
  5
E416B
  8
0
 66
     1
 10
0.0
 20
0.0
 30
0.0
 70
     1
  0
VERTEX
  5
EF3E4
  8
0
 10
18301.56864714383
 20
3357.001142058444
 30
0.0
  0
VERTEX
  5
EF3E5
  8
0
 10
18301.56864714383
 20
3363.001142058445
 30
0.0
  0
VERTEX
  5
EF3E6
  8
0
 10
18331.56864714381
 20
3363.001142058445
 30
0.0
  0
VERTEX
  5
EF3E7
  8
0
 10
18331.56864714381
 20
3357.001142058444
 30
0.0
  0
SEQEND
  5
EF640
  8
0
  0
POLYLINE
  5
E416C
  8
0
 66
     1
 10
0.0
 20
0.0
 30
0.0
 70
     1
  0
VERTEX
  5
EF3E8
  8
0
 10
18301.56864714383
 20
1343.001142058444
 30
0.0
  0
VERTEX
  5
EF3E9
  8
0
 10
18301.56864714383
 20
1349.001142058444
 30
0.0
  0
VERTEX
  5
EF3EA
  8
0
 10
18331.56864714381
 20
1349.001142058444
 30
0.0
  0
VERTEX
  5
EF3EB
  8
0
 10
18331.56864714381
 20
1343.001142058444
 30
0.0
  0
SEQEND
  5
EF641
  8
0
  0
POLYLINE
  5
E416D
  8
0
 66
     1
 10
0.0
 20
0.0
 30
0.0
 70
     1
  0
VERTEX
  5
EF3EC
  8
0
 10
17331.56864714381
 20
3333.001142058444
 30
0.0
  0
VERTEX
  5
EF3ED
  8
0
 10
17331.56864714381
 20
3363.001142058445
 30
0.0
  0
VERTEX
  5
EF3EE
  8
0
 10
18301.56864714383
 20
3363.001142058445
 30
0.0
  0
VERTEX
  5
EF3EF
  8
0
 10
18301.56864714383
 20
3333.001142058444
 30
0.0
  0
SEQEND
  5
EF642
  8
0
  0
POLYLINE
  5
E416E
  8
0
 66
     1
 10
0.0
 20
0.0
 30
0.0
 70
     1
  0
VERTEX
  5
EF3F0
  8
0
 10
17331.56864714381
 20
2083.001142058444
 30
0.0
  0
VERTEX
  5
EF3F1
  8
0
 10
17331.56864714381
 20
2113.001142058444
 30
0.0
  0
VERTEX
  5
EF3F2
  8
0
 10
18301.56864714383
 20
2113.001142058444
 30
0.0
  0
VERTEX
  5
EF3F3
  8
0
 10
18301.56864714383
 20
2083.001142058444
 30
0.0
  0
SEQEND
  5
EF643
  8
0
  0
POLYLINE
  5
E4170
  8
0
 66
     1
 10
0.0
 20
0.0
 30
0.0
 70
     1
  0
VERTEX
  5
EF3F4
  8
0
 10
17331.56864714381
 20
2683.001142058444
 30
0.0
  0
VERTEX
  5
EF3F5
  8
0
 10
17331.56864714381
 20
2713.001142058444
 30
0.0
  0
VERTEX
  5
EF3F6
  8
0
 10
18301.56864714383
 20
2713.001142058444
 30
0.0
  0
VERTEX
  5
EF3F7
  8
0
 10
18301.56864714383
 20
2683.001142058444
 30
0.0
  0
SEQEND
  5
EF644
  8
0
  0
POLYLINE
  5
E4172
  8
0
 66
     1
 10
0.0
 20
0.0
 30
0.0
 70
     1
  0
VERTEX
  5
EF3F8
  8
0
 10
17331.56864714381
 20
1483.001142058444
 30
0.0
  0
VERTEX
  5
EF3F9
  8
0
 10
17331.56864714381
 20
1513.001142058444
 30
0.0
  0
VERTEX
  5
EF3FA
  8
0
 10
18301.56864714383
 20
1513.001142058444
 30
0.0
  0
VERTEX
  5
EF3FB
  8
0
 10
18301.56864714383
 20
1483.001142058444
 30
0.0
  0
SEQEND
  5
EF645
  8
0
  0
POLYLINE
  5
E4174
  8
0
 66
     1
 10
0.0
 20
0.0
 30
0.0
 70
     1
  0
VERTEX
  5
EF3FC
  8
0
 10
19301.56864714382
 20
3333.001142058444
 30
0.0
  0
VERTEX
  5
EF3FD
  8
0
 10
19301.56864714382
 20
3363.001142058445
 30
0.0
  0
VERTEX
  5
EF3FE
  8
0
 10
18331.56864714381
 20
3363.001142058445
 30
0.0
  0
VERTEX
  5
EF3FF
  8
0
 10
18331.56864714381
 20
3333.001142058444
 30
0.0
  0
SEQEND
  5
EF646
  8
0
  0
POLYLINE
  5
E4176
  8
0
 66
     1
 10
0.0
 20
0.0
 30
0.0
 70
     1
  0
VERTEX
  5
EF400
  8
0
 10
19301.56864714382
 20
2383.001142058444
 30
0.0
  0
VERTEX
  5
EF401
  8
0
 10
19301.56864714382
 20
2413.001142058444
 30
0.0
  0
VERTEX
  5
EF402
  8
0
 10
18331.56864714381
 20
2413.001142058444
 30
0.0
  0
VERTEX
  5
EF403
  8
0
 10
18331.56864714381
 20
2383.001142058444
 30
0.0
  0
SEQEND
  5
EF647
  8
0
  0
POLYLINE
  5
E4178
  8
0
 66
     1
 10
0.0
 20
0.0
 30
0.0
 70
     1
  0
VERTEX
  5
EF404
  8
0
 10
19301.56864714382
 20
2983.001142058444
 30
0.0
  0
VERTEX
  5
EF405
  8
0
 10
19301.56864714382
 20
3013.001142058444
 30
0.0
  0
VERTEX
  5
EF406
  8
0
 10
18331.56864714381
 20
3013.001142058444
 30
0.0
  0
VERTEX
  5
EF407
  8
0
 10
18331.56864714381
 20
2983.001142058444
 30
0.0
  0
SEQEND
  5
EF648
  8
0
  0
POLYLINE
  5
E4179
  8
0
 66
     1
 10
0.0
 20
0.0
 30
0.0
 70
     1
  0
VERTEX
  5
EF408
  8
0
 10
19301.56864714382
 20
1483.001142058444
 30
0.0
  0
VERTEX
  5
EF409
  8
0
 10
19301.56864714382
 20
1513.001142058444
 30
0.0
  0
VERTEX
  5
EF40A
  8
0
 10
18331.56864714381
 20
1513.001142058444
 30
0.0
  0
VERTEX
  5
EF40B
  8
0
 10
18331.56864714381
 20
1483.001142058444
 30
0.0
  0
SEQEND
  5
EF649
  8
0
  0
POLYLINE
  5
E417A
  8
0
 66
     1
 10
0.0
 20
0.0
 30
0.0
 70
     1
  0
VERTEX
  5
EF40C
  8
0
 10
19301.56864714382
 20
1783.001142058443
 30
0.0
  0
VERTEX
  5
EF40D
  8
0
 10
19301.56864714382
 20
1813.001142058444
 30
0.0
  0
VERTEX
  5
EF40E
  8
0
 10
18331.56864714381
 20
1813.001142058444
 30
0.0
  0
VERTEX
  5
EF40F
  8
0
 10
18331.56864714381
 20
1783.001142058443
 30
0.0
  0
SEQEND
  5
EF64A
  8
0
  0
POLYLINE
  5
E417B
  8
0
 66
     1
 10
0.0
 20
0.0
 30
0.0
 70
     1
  0
VERTEX
  5
EF410
  8
0
 10
19331.56864714383
 20
3357.001142058444
 30
0.0
  0
VERTEX
  5
EF411
  8
0
 10
19331.56864714383
 20
3363.001142058445
 30
0.0
  0
VERTEX
  5
EF412
  8
0
 10
19301.56864714382
 20
3363.001142058445
 30
0.0
  0
VERTEX
  5
EF413
  8
0
 10
19301.56864714382
 20
3357.001142058444
 30
0.0
  0
SEQEND
  5
EF64B
  8
0
  0
POLYLINE
  5
E417C
  8
0
 66
     1
 10
0.0
 20
0.0
 30
0.0
 70
     1
  0
VERTEX
  5
EF414
  8
0
 10
19331.56864714383
 20
1343.001142058444
 30
0.0
  0
VERTEX
  5
EF415
  8
0
 10
19331.56864714383
 20
1349.001142058444
 30
0.0
  0
VERTEX
  5
EF416
  8
0
 10
19301.56864714382
 20
1349.001142058444
 30
0.0
  0
VERTEX
  5
EF417
  8
0
 10
19301.56864714382
 20
1343.001142058444
 30
0.0
  0
SEQEND
  5
EF64C
  8
0
  0
POLYLINE
  5
E417D
  8
0
 66
     1
 10
0.0
 20
0.0
 30
0.0
 70
     1
  0
VERTEX
  5
EF418
  8
0
 10
19331.56864714383
 20
3357.001142058444
 30
0.0
  0
VERTEX
  5
EF419
  8
0
 10
19331.56864714383
 20
1349.001142058444
 30
0.0
  0
VERTEX
  5
EF41A
  8
0
 10
19301.56864714382
 20
1349.001142058444
 30
0.0
  0
VERTEX
  5
EF41B
  8
0
 10
19301.56864714382
 20
3357.001142058444
 30
0.0
  0
SEQEND
  5
EF64D
  8
0
  0
POLYLINE
  5
E417F
  8
0
 66
     1
 10
0.0
 20
0.0
 30
0.0
 70
     1
  0
VERTEX
  5
EF41C
  8
0
 10
16301.56864714384
 20
6333.001128036106
 30
0.0
  0
VERTEX
  5
EF41D
  8
0
 10
16301.56864714384
 20
6363.001128036106
 30
0.0
  0
VERTEX
  5
EF41E
  8
0
 10
16051.56864714384
 20
6363.001128036106
 30
0.0
  0
VERTEX
  5
EF41F
  8
0
 10
16051.56864714384
 20
6333.001128036106
 30
0.0
  0
SEQEND
  5
EF64E
  8
0
  0
POLYLINE
  5
E4181
  8
0
 66
     1
 10
0.0
 20
0.0
 30
0.0
 70
     1
  0
VERTEX
  5
EF420
  8
0
 10
16301.56864714384
 20
5383.001128036106
 30
0.0
  0
VERTEX
  5
EF421
  8
0
 10
16301.56864714384
 20
5413.001128036106
 30
0.0
  0
VERTEX
  5
EF422
  8
0
 10
16051.56864714384
 20
5413.001128036106
 30
0.0
  0
VERTEX
  5
EF423
  8
0
 10
16051.56864714384
 20
5383.001128036106
 30
0.0
  0
SEQEND
  5
EF64F
  8
0
  0
POLYLINE
  5
E4183
  8
0
 66
     1
 10
0.0
 20
0.0
 30
0.0
 70
     1
  0
VERTEX
  5
EF424
  8
0
 10
16301.56864714384
 20
5833.001128036106
 30
0.0
  0
VERTEX
  5
EF425
  8
0
 10
16301.56864714384
 20
5863.001128036106
 30
0.0
  0
VERTEX
  5
EF426
  8
0
 10
16051.56864714384
 20
5863.001128036106
 30
0.0
  0
VERTEX
  5
EF427
  8
0
 10
16051.56864714384
 20
5833.001128036106
 30
0.0
  0
SEQEND
  5
EF650
  8
0
  0
POLYLINE
  5
E4184
  8
0
 66
     1
 10
0.0
 20
0.0
 30
0.0
 70
     1
  0
VERTEX
  5
EF428
  8
0
 10
16301.56864714384
 20
4483.001128036105
 30
0.0
  0
VERTEX
  5
EF429
  8
0
 10
16301.56864714384
 20
4513.001128036106
 30
0.0
  0
VERTEX
  5
EF42A
  8
0
 10
16051.56864714384
 20
4513.001128036106
 30
0.0
  0
VERTEX
  5
EF42B
  8
0
 10
16051.56864714384
 20
4483.001128036105
 30
0.0
  0
SEQEND
  5
EF651
  8
0
  0
POLYLINE
  5
E4185
  8
0
 66
     1
 10
0.0
 20
0.0
 30
0.0
 70
     1
  0
VERTEX
  5
EF42C
  8
0
 10
16301.56864714384
 20
4933.001128036107
 30
0.0
  0
VERTEX
  5
EF42D
  8
0
 10
16301.56864714384
 20
4963.001128036106
 30
0.0
  0
VERTEX
  5
EF42E
  8
0
 10
16051.56864714384
 20
4963.001128036106
 30
0.0
  0
VERTEX
  5
EF42F
  8
0
 10
16051.56864714384
 20
4933.001128036107
 30
0.0
  0
SEQEND
  5
EF652
  8
0
  0
POLYLINE
  5
E419F
  8
0
 66
     1
 10
0.0
 20
0.0
 30
0.0
 70
     1
  0
VERTEX
  5
EF430
  8
0
 10
19331.56864714383
 20
3333.001142058444
 30
0.0
  0
VERTEX
  5
EF431
  8
0
 10
19331.56864714383
 20
3363.001142058445
 30
0.0
  0
VERTEX
  5
EF432
  8
0
 10
19581.56864714381
 20
3363.001142058445
 30
0.0
  0
VERTEX
  5
EF433
  8
0
 10
19581.56864714381
 20
3333.001142058444
 30
0.0
  0
SEQEND
  5
EF653
  8
0
  0
POLYLINE
  5
E41A2
  8
0
 66
     1
 10
0.0
 20
0.0
 30
0.0
 70
     1
  0
VERTEX
  5
EF434
  8
0
 10
19331.56864714383
 20
1483.001142058444
 30
0.0
  0
VERTEX
  5
EF435
  8
0
 10
19331.56864714383
 20
1513.001142058444
 30
0.0
  0
VERTEX
  5
EF436
  8
0
 10
19581.56864714381
 20
1513.001142058444
 30
0.0
  0
VERTEX
  5
EF437
  8
0
 10
19581.56864714381
 20
1483.001142058444
 30
0.0
  0
SEQEND
  5
EF654
  8
0
  0
POLYLINE
  5
E41A4
  8
0
 66
     1
 10
0.0
 20
0.0
 30
0.0
 70
     1
  0
VERTEX
  5
EF438
  8
0
 10
19331.56864714383
 20
1783.001142058443
 30
0.0
  0
VERTEX
  5
EF439
  8
0
 10
19331.56864714383
 20
1813.001142058444
 30
0.0
  0
VERTEX
  5
EF43A
  8
0
 10
19581.56864714381
 20
1813.001142058444
 30
0.0
  0
VERTEX
  5
EF43B
  8
0
 10
19581.56864714381
 20
1783.001142058443
 30
0.0
  0
SEQEND
  5
EF655
  8
0
  0
POLYLINE
  5
E41A5
  8
0
 66
     1
 10
0.0
 20
0.0
 30
0.0
 70
     1
  0
VERTEX
  5
EF43C
  8
0
 10
19331.56864714383
 20
2383.001142058444
 30
0.0
  0
VERTEX
  5
EF43D
  8
0
 10
19331.56864714383
 20
2413.001142058444
 30
0.0
  0
VERTEX
  5
EF43E
  8
0
 10
19581.56864714381
 20
2413.001142058444
 30
0.0
  0
VERTEX
  5
EF43F
  8
0
 10
19581.56864714381
 20
2383.001142058444
 30
0.0
  0
SEQEND
  5
EF656
  8
0
  0
POLYLINE
  5
E41A8
  8
0
 66
     1
 10
0.0
 20
0.0
 30
0.0
 70
     1
  0
VERTEX
  5
EF440
  8
0
 10
19331.56864714383
 20
2983.001142058444
 30
0.0
  0
VERTEX
  5
EF441
  8
0
 10
19331.56864714383
 20
3013.001142058444
 30
0.0
  0
VERTEX
  5
EF442
  8
0
 10
19581.56864714381
 20
3013.001142058444
 30
0.0
  0
VERTEX
  5
EF443
  8
0
 10
19581.56864714381
 20
2983.001142058444
 30
0.0
  0
SEQEND
  5
EF657
  8
0
  0
POLYLINE
  5
E41B7
  8
0
 66
     1
 10
0.0
 20
0.0
 30
0.0
 70
     1
  0
VERTEX
  5
EF444
  8
0
 10
16301.56864714382
 20
2983.001142058444
 30
0.0
  0
VERTEX
  5
EF445
  8
0
 10
16301.56864714382
 20
3013.001142058444
 30
0.0
  0
VERTEX
  5
EF446
  8
0
 10
16051.56864714382
 20
3013.001142058444
 30
0.0
  0
VERTEX
  5
EF447
  8
0
 10
16051.56864714382
 20
2983.001142058444
 30
0.0
  0
SEQEND
  5
EF658
  8
0
  0
POLYLINE
  5
E41B9
  8
0
 66
     1
 10
0.0
 20
0.0
 30
0.0
 70
     1
  0
VERTEX
  5
EF448
  8
0
 10
17301.5686471438
 20
2083.001142058444
 30
0.0
  0
VERTEX
  5
EF449
  8
0
 10
17301.5686471438
 20
2113.001142058444
 30
0.0
  0
VERTEX
  5
EF44A
  8
0
 10
17051.5686471438
 20
2113.001142058444
 30
0.0
  0
VERTEX
  5
EF44B
  8
0
 10
17051.5686471438
 20
2083.001142058444
 30
0.0
  0
SEQEND
  5
EF659
  8
0
  0
POLYLINE
  5
E41BA
  8
0
 66
     1
 10
0.0
 20
0.0
 30
0.0
 70
     1
  0
VERTEX
  5
EF44C
  8
0
 10
16301.56864714382
 20
2383.001142058444
 30
0.0
  0
VERTEX
  5
EF44D
  8
0
 10
16301.56864714382
 20
2413.001142058444
 30
0.0
  0
VERTEX
  5
EF44E
  8
0
 10
16051.56864714382
 20
2413.001142058444
 30
0.0
  0
VERTEX
  5
EF44F
  8
0
 10
16051.56864714382
 20
2383.001142058444
 30
0.0
  0
SEQEND
  5
EF65A
  8
0
  0
POLYLINE
  5
E41BB
  8
0
 66
     1
 10
0.0
 20
0.0
 30
0.0
 70
     1
  0
VERTEX
  5
EF450
  8
0
 10
16301.56864714382
 20
1783.001142058443
 30
0.0
  0
VERTEX
  5
EF451
  8
0
 10
16301.56864714382
 20
1813.001142058444
 30
0.0
  0
VERTEX
  5
EF452
  8
0
 10
16051.56864714382
 20
1813.001142058444
 30
0.0
  0
VERTEX
  5
EF453
  8
0
 10
16051.56864714382
 20
1783.001142058443
 30
0.0
  0
SEQEND
  5
EF65B
  8
0
  0
POLYLINE
  5
E41BC
  8
0
 66
     1
 10
0.0
 20
0.0
 30
0.0
 70
     1
  0
VERTEX
  5
EF454
  8
0
 10
16301.56864714382
 20
1483.001142058444
 30
0.0
  0
VERTEX
  5
EF455
  8
0
 10
16301.56864714382
 20
1513.001142058444
 30
0.0
  0
VERTEX
  5
EF456
  8
0
 10
16051.56864714382
 20
1513.001142058444
 30
0.0
  0
VERTEX
  5
EF457
  8
0
 10
16051.56864714382
 20
1483.001142058444
 30
0.0
  0
SEQEND
  5
EF65C
  8
0
  0
POLYLINE
  5
E41BD
  8
0
 66
     1
 10
0.0
 20
0.0
 30
0.0
 70
     1
  0
VERTEX
  5
EF458
  8
0
 10
16301.56864714382
 20
3333.001142058444
 30
0.0
  0
VERTEX
  5
EF459
  8
0
 10
16301.56864714382
 20
3363.001142058445
 30
0.0
  0
VERTEX
  5
EF45A
  8
0
 10
16051.56864714382
 20
3363.001142058445
 30
0.0
  0
VERTEX
  5
EF45B
  8
0
 10
16051.56864714382
 20
3333.001142058444
 30
0.0
  0
SEQEND
  5
EF65D
  8
0
  0
POLYLINE
  5
E465E
  8
0
 66
     1
 10
0.0
 20
0.0
 30
0.0
 70
     1
  0
VERTEX
  5
EF45C
  8
0
 10
17301.5686471438
 20
2683.001142058444
 30
0.0
  0
VERTEX
  5
EF45D
  8
0
 10
17301.5686471438
 20
2713.001142058444
 30
0.0
  0
VERTEX
  5
EF45E
  8
0
 10
17051.5686471438
 20
2713.001142058444
 30
0.0
  0
VERTEX
  5
EF45F
  8
0
 10
17051.5686471438
 20
2683.001142058444
 30
0.0
  0
SEQEND
  5
EF65E
  8
0
  0
POLYLINE
  5
E465F
  8
0
 66
     1
 10
0.0
 20
0.0
 30
0.0
 70
     1
  0
VERTEX
  5
EF460
  8
0
 10
18331.56864714384
 20
2683.001142058444
 30
0.0
  0
VERTEX
  5
EF461
  8
0
 10
18331.56864714384
 20
2713.001142058444
 30
0.0
  0
VERTEX
  5
EF462
  8
0
 10
18581.56864714384
 20
2713.001142058444
 30
0.0
  0
VERTEX
  5
EF463
  8
0
 10
18581.56864714384
 20
2683.001142058444
 30
0.0
  0
SEQEND
  5
EF65F
  8
0
  0
POLYLINE
  5
E4660
  8
0
 66
     1
 10
0.0
 20
0.0
 30
0.0
 70
     1
  0
VERTEX
  5
EF464
  8
0
 10
18331.56864714384
 20
2083.001142058444
 30
0.0
  0
VERTEX
  5
EF465
  8
0
 10
18331.56864714384
 20
2113.001142058444
 30
0.0
  0
VERTEX
  5
EF466
  8
0
 10
18581.56864714384
 20
2113.001142058444
 30
0.0
  0
VERTEX
  5
EF467
  8
0
 10
18581.56864714384
 20
2083.001142058444
 30
0.0
  0
SEQEND
  5
EF660
  8
0
  0
POLYLINE
  5
E4661
  8
0
 66
     1
 10
0.0
 20
0.0
 30
0.0
 70
     1
  0
VERTEX
  5
EF468
  8
0
 10
17331.56864714383
 20
2983.001142058444
 30
0.0
  0
VERTEX
  5
EF469
  8
0
 10
17331.56864714383
 20
3013.001142058444
 30
0.0
  0
VERTEX
  5
EF46A
  8
0
 10
17581.56864714383
 20
3013.001142058444
 30
0.0
  0
VERTEX
  5
EF46B
  8
0
 10
17581.56864714383
 20
2983.001142058444
 30
0.0
  0
SEQEND
  5
EF661
  8
0
  0
POLYLINE
  5
E4662
  8
0
 66
     1
 10
0.0
 20
0.0
 30
0.0
 70
     1
  0
VERTEX
  5
EF46C
  8
0
 10
18301.56864714383
 20
2983.001142058444
 30
0.0
  0
VERTEX
  5
EF46D
  8
0
 10
18301.56864714383
 20
3013.001142058444
 30
0.0
  0
VERTEX
  5
EF46E
  8
0
 10
18051.56864714382
 20
3013.001142058444
 30
0.0
  0
VERTEX
  5
EF46F
  8
0
 10
18051.56864714382
 20
2983.001142058444
 30
0.0
  0
SEQEND
  5
EF662
  8
0
  0
POLYLINE
  5
E4663
  8
0
 66
     1
 10
0.0
 20
0.0
 30
0.0
 70
     1
  0
VERTEX
  5
EF470
  8
0
 10
18301.56864714383
 20
2383.001142058444
 30
0.0
  0
VERTEX
  5
EF471
  8
0
 10
18301.56864714383
 20
2413.001142058444
 30
0.0
  0
VERTEX
  5
EF472
  8
0
 10
18051.56864714382
 20
2413.001142058444
 30
0.0
  0
VERTEX
  5
EF473
  8
0
 10
18051.56864714382
 20
2383.001142058444
 30
0.0
  0
SEQEND
  5
EF663
  8
0
  0
POLYLINE
  5
E4664
  8
0
 66
     1
 10
0.0
 20
0.0
 30
0.0
 70
     1
  0
VERTEX
  5
EF474
  8
0
 10
18301.56864714383
 20
1783.001142058443
 30
0.0
  0
VERTEX
  5
EF475
  8
0
 10
18301.56864714383
 20
1813.001142058444
 30
0.0
  0
VERTEX
  5
EF476
  8
0
 10
18051.56864714382
 20
1813.001142058444
 30
0.0
  0
VERTEX
  5
EF477
  8
0
 10
18051.56864714382
 20
1783.001142058443
 30
0.0
  0
SEQEND
  5
EF664
  8
0
  0
POLYLINE
  5
E4665
  8
0
 66
     1
 10
0.0
 20
0.0
 30
0.0
 70
     1
  0
VERTEX
  5
EF478
  8
0
 10
17331.56864714384
 20
1783.001142058443
 30
0.0
  0
VERTEX
  5
EF479
  8
0
 10
17331.56864714384
 20
1813.001142058444
 30
0.0
  0
VERTEX
  5
EF47A
  8
0
 10
17581.56864714384
 20
1813.001142058444
 30
0.0
  0
VERTEX
  5
EF47B
  8
0
 10
17581.56864714384
 20
1783.001142058443
 30
0.0
  0
SEQEND
  5
EF665
  8
0
  0
POLYLINE
  5
E4666
  8
0
 66
     1
 10
0.0
 20
0.0
 30
0.0
 70
     1
  0
VERTEX
  5
EF47C
  8
0
 10
17331.56864714384
 20
2383.001142058444
 30
0.0
  0
VERTEX
  5
EF47D
  8
0
 10
17331.56864714384
 20
2413.001142058444
 30
0.0
  0
VERTEX
  5
EF47E
  8
0
 10
17581.56864714384
 20
2413.001142058444
 30
0.0
  0
VERTEX
  5
EF47F
  8
0
 10
17581.56864714384
 20
2383.001142058444
 30
0.0
  0
SEQEND
  5
EF666
  8
0
  0
LINE
  5
E4667
  8
0
 10
25222.70790157032
 20
4343.001128036108
 30
0.0
 11
15916.56864714382
 21
4343.001128036108
 31
0.0
  0
LINE
  5
E4668
  8
0
 10
25475.84238657329
 20
1343.001142058444
 30
0.0
 11
15916.56864714382
 21
1343.001142058444
 31
0.0
  0
POLYLINE
  5
E46A8
  8
0
 66
     1
 10
0.0
 20
0.0
 30
0.0
 70
     1
  0
VERTEX
  5
EF480
  8
0
 10
19455.65976579516
 20
6357.001128036106
 30
0.0
  0
VERTEX
  5
EF481
  8
0
 10
19455.65976579516
 20
6363.001128036106
 30
0.0
  0
VERTEX
  5
EF482
  8
0
 10
19485.65976579516
 20
6363.001128036106
 30
0.0
  0
VERTEX
  5
EF483
  8
0
 10
19485.65976579516
 20
6357.001128036106
 30
0.0
  0
SEQEND
  5
EF667
  8
0
  0
POLYLINE
  5
E46A9
  8
0
 66
     1
 10
0.0
 20
0.0
 30
0.0
 70
     1
  0
VERTEX
  5
EF484
  8
0
 10
19455.65976579516
 20
4343.001128036108
 30
0.0
  0
VERTEX
  5
EF485
  8
0
 10
19455.65976579516
 20
4349.001128036105
 30
0.0
  0
VERTEX
  5
EF486
  8
0
 10
19485.65976579516
 20
4349.001128036105
 30
0.0
  0
VERTEX
  5
EF487
  8
0
 10
19485.65976579516
 20
4343.001128036108
 30
0.0
  0
SEQEND
  5
EF668
  8
0
  0
POLYLINE
  5
E46AA
  8
0
 66
     1
 10
0.0
 20
0.0
 30
0.0
 70
     1
  0
VERTEX
  5
EF488
  8
0
 10
19455.65976579516
 20
6357.001128036106
 30
0.0
  0
VERTEX
  5
EF489
  8
0
 10
19455.65976579516
 20
4349.001128036105
 30
0.0
  0
VERTEX
  5
EF48A
  8
0
 10
19485.65976579516
 20
4349.001128036105
 30
0.0
  0
VERTEX
  5
EF48B
  8
0
 10
19485.65976579516
 20
6357.001128036106
 30
0.0
  0
SEQEND
  5
EF669
  8
0
  0
POLYLINE
  5
E46EA
  8
0
 66
     1
 10
0.0
 20
0.0
 30
0.0
 70
     1
  0
VERTEX
  5
EF48C
  8
0
 10
20655.65976579516
 20
6357.001128036106
 30
0.0
  0
VERTEX
  5
EF48D
  8
0
 10
20655.65976579516
 20
4349.001128036105
 30
0.0
  0
VERTEX
  5
EF48E
  8
0
 10
20685.65976579516
 20
4349.001128036105
 30
0.0
  0
VERTEX
  5
EF48F
  8
0
 10
20685.65976579516
 20
6357.001128036106
 30
0.0
  0
SEQEND
  5
EF66A
  8
0
  0
POLYLINE
  5
E46EB
  8
0
 66
     1
 10
0.0
 20
0.0
 30
0.0
 70
     1
  0
VERTEX
  5
EF490
  8
0
 10
20655.65976579516
 20
4343.001128036108
 30
0.0
  0
VERTEX
  5
EF491
  8
0
 10
20655.65976579516
 20
4349.001128036105
 30
0.0
  0
VERTEX
  5
EF492
  8
0
 10
20685.65976579516
 20
4349.001128036105
 30
0.0
  0
VERTEX
  5
EF493
  8
0
 10
20685.65976579516
 20
4343.001128036108
 30
0.0
  0
SEQEND
  5
EF66B
  8
0
  0
POLYLINE
  5
E46EC
  8
0
 66
     1
 10
0.0
 20
0.0
 30
0.0
 70
     1
  0
VERTEX
  5
EF494
  8
0
 10
20655.65976579516
 20
6357.001128036106
 30
0.0
  0
VERTEX
  5
EF495
  8
0
 10
20655.65976579516
 20
6363.001128036106
 30
0.0
  0
VERTEX
  5
EF496
  8
0
 10
20685.65976579516
 20
6363.001128036106
 30
0.0
  0
VERTEX
  5
EF497
  8
0
 10
20685.65976579516
 20
6357.001128036106
 30
0.0
  0
SEQEND
  5
EF66C
  8
0
  0
POLYLINE
  5
E46F0
  8
0
 66
     1
 10
0.0
 20
0.0
 30
0.0
 70
     1
  0
VERTEX
  5
EF498
  8
0
 10
19485.65976579516
 20
4483.001128036105
 30
0.0
  0
VERTEX
  5
EF499
  8
0
 10
19485.65976579516
 20
4513.001128036106
 30
0.0
  0
VERTEX
  5
EF49A
  8
0
 10
20655.65976579516
 20
4513.001128036106
 30
0.0
  0
VERTEX
  5
EF49B
  8
0
 10
20655.65976579516
 20
4483.001128036105
 30
0.0
  0
SEQEND
  5
EF66D
  8
0
  0
POLYLINE
  5
E46F1
  8
0
 66
     1
 10
0.0
 20
0.0
 30
0.0
 70
     1
  0
VERTEX
  5
EF49C
  8
0
 10
19485.65976579516
 20
6333.001128036106
 30
0.0
  0
VERTEX
  5
EF49D
  8
0
 10
19485.65976579516
 20
6363.001128036106
 30
0.0
  0
VERTEX
  5
EF49E
  8
0
 10
20655.65976579516
 20
6363.001128036106
 30
0.0
  0
VERTEX
  5
EF49F
  8
0
 10
20655.65976579516
 20
6333.001128036106
 30
0.0
  0
SEQEND
  5
EF66E
  8
0
  0
POLYLINE
  5
E46F3
  8
0
 66
     1
 10
0.0
 20
0.0
 30
0.0
 70
     1
  0
VERTEX
  5
EF4A0
  8
0
 10
21485.65976579516
 20
4483.001128036105
 30
0.0
  0
VERTEX
  5
EF4A1
  8
0
 10
21485.65976579516
 20
4513.001128036106
 30
0.0
  0
VERTEX
  5
EF4A2
  8
0
 10
22455.65976579516
 20
4513.001128036106
 30
0.0
  0
VERTEX
  5
EF4A3
  8
0
 10
22455.65976579516
 20
4483.001128036105
 30
0.0
  0
SEQEND
  5
EF66F
  8
0
  0
POLYLINE
  5
E46F7
  8
0
 66
     1
 10
0.0
 20
0.0
 30
0.0
 70
     1
  0
VERTEX
  5
EF4A4
  8
0
 10
22455.65976579516
 20
6357.001128036106
 30
0.0
  0
VERTEX
  5
EF4A5
  8
0
 10
22455.65976579516
 20
6363.001128036106
 30
0.0
  0
VERTEX
  5
EF4A6
  8
0
 10
22485.65976579516
 20
6363.001128036106
 30
0.0
  0
VERTEX
  5
EF4A7
  8
0
 10
22485.65976579516
 20
6357.001128036106
 30
0.0
  0
SEQEND
  5
EF670
  8
0
  0
POLYLINE
  5
E46F8
  8
0
 66
     1
 10
0.0
 20
0.0
 30
0.0
 70
     1
  0
VERTEX
  5
EF4A8
  8
0
 10
22455.65976579516
 20
4343.001128036108
 30
0.0
  0
VERTEX
  5
EF4A9
  8
0
 10
22455.65976579516
 20
4349.001128036105
 30
0.0
  0
VERTEX
  5
EF4AA
  8
0
 10
22485.65976579516
 20
4349.001128036105
 30
0.0
  0
VERTEX
  5
EF4AB
  8
0
 10
22485.65976579516
 20
4343.001128036108
 30
0.0
  0
SEQEND
  5
EF671
  8
0
  0
POLYLINE
  5
E46F9
  8
0
 66
     1
 10
0.0
 20
0.0
 30
0.0
 70
     1
  0
VERTEX
  5
EF4AC
  8
0
 10
22455.65976579516
 20
6357.001128036106
 30
0.0
  0
VERTEX
  5
EF4AD
  8
0
 10
22455.65976579516
 20
4349.001128036105
 30
0.0
  0
VERTEX
  5
EF4AE
  8
0
 10
22485.65976579516
 20
4349.001128036105
 30
0.0
  0
VERTEX
  5
EF4AF
  8
0
 10
22485.65976579516
 20
6357.001128036106
 30
0.0
  0
SEQEND
  5
EF672
  8
0
  0
POLYLINE
  5
E46FA
  8
0
 66
     1
 10
0.0
 20
0.0
 30
0.0
 70
     1
  0
VERTEX
  5
EF4B0
  8
0
 10
21455.65976579516
 20
6357.001128036106
 30
0.0
  0
VERTEX
  5
EF4B1
  8
0
 10
21455.65976579516
 20
4349.001128036105
 30
0.0
  0
VERTEX
  5
EF4B2
  8
0
 10
21485.65976579516
 20
4349.001128036105
 30
0.0
  0
VERTEX
  5
EF4B3
  8
0
 10
21485.65976579516
 20
6357.001128036106
 30
0.0
  0
SEQEND
  5
EF673
  8
0
  0
POLYLINE
  5
E46FB
  8
0
 66
     1
 10
0.0
 20
0.0
 30
0.0
 70
     1
  0
VERTEX
  5
EF4B4
  8
0
 10
21455.65976579516
 20
4343.001128036108
 30
0.0
  0
VERTEX
  5
EF4B5
  8
0
 10
21455.65976579516
 20
4349.001128036105
 30
0.0
  0
VERTEX
  5
EF4B6
  8
0
 10
21485.65976579516
 20
4349.001128036105
 30
0.0
  0
VERTEX
  5
EF4B7
  8
0
 10
21485.65976579516
 20
4343.001128036108
 30
0.0
  0
SEQEND
  5
EF674
  8
0
  0
POLYLINE
  5
E46FC
  8
0
 66
     1
 10
0.0
 20
0.0
 30
0.0
 70
     1
  0
VERTEX
  5
EF4B8
  8
0
 10
21455.65976579516
 20
6357.001128036106
 30
0.0
  0
VERTEX
  5
EF4B9
  8
0
 10
21455.65976579516
 20
6363.001128036106
 30
0.0
  0
VERTEX
  5
EF4BA
  8
0
 10
21485.65976579516
 20
6363.001128036106
 30
0.0
  0
VERTEX
  5
EF4BB
  8
0
 10
21485.65976579516
 20
6357.001128036106
 30
0.0
  0
SEQEND
  5
EF675
  8
0
  0
POLYLINE
  5
E46FF
  8
0
 66
     1
 10
0.0
 20
0.0
 30
0.0
 70
     1
  0
VERTEX
  5
EF4BC
  8
0
 10
20685.65976579516
 20
5433.001128036107
 30
0.0
  0
VERTEX
  5
EF4BD
  8
0
 10
20685.65976579516
 20
5463.001128036106
 30
0.0
  0
VERTEX
  5
EF4BE
  8
0
 10
21455.65976579516
 20
5463.001128036106
 30
0.0
  0
VERTEX
  5
EF4BF
  8
0
 10
21455.65976579516
 20
5433.001128036107
 30
0.0
  0
SEQEND
  5
EF676
  8
0
  0
POLYLINE
  5
E4724
  8
0
 66
     1
 10
0.0
 20
0.0
 30
0.0
 70
     1
  0
VERTEX
  5
EF4C0
  8
0
 10
19455.65976579516
 20
6333.001128036106
 30
0.0
  0
VERTEX
  5
EF4C1
  8
0
 10
19455.65976579516
 20
6363.001128036106
 30
0.0
  0
VERTEX
  5
EF4C2
  8
0
 10
19205.65976579516
 20
6363.001128036106
 30
0.0
  0
VERTEX
  5
EF4C3
  8
0
 10
19205.65976579516
 20
6333.001128036106
 30
0.0
  0
SEQEND
  5
EF677
  8
0
  0
POLYLINE
  5
E4726
  8
0
 66
     1
 10
0.0
 20
0.0
 30
0.0
 70
     1
  0
VERTEX
  5
EF4C4
  8
0
 10
22455.65976579516
 20
6333.001128036106
 30
0.0
  0
VERTEX
  5
EF4C5
  8
0
 10
22455.65976579516
 20
6363.001128036106
 30
0.0
  0
VERTEX
  5
EF4C6
  8
0
 10
21485.65976579516
 20
6363.001128036106
 30
0.0
  0
VERTEX
  5
EF4C7
  8
0
 10
21485.65976579516
 20
6333.001128036106
 30
0.0
  0
SEQEND
  5
EF678
  8
0
  0
POLYLINE
  5
E4731
  8
0
 66
     1
 10
0.0
 20
0.0
 30
0.0
 70
     1
  0
VERTEX
  5
EF4C8
  8
0
 10
19455.65976579516
 20
4483.001128036105
 30
0.0
  0
VERTEX
  5
EF4C9
  8
0
 10
19455.65976579516
 20
4513.001128036106
 30
0.0
  0
VERTEX
  5
EF4CA
  8
0
 10
19205.65976579516
 20
4513.001128036106
 30
0.0
  0
VERTEX
  5
EF4CB
  8
0
 10
19205.65976579516
 20
4483.001128036105
 30
0.0
  0
SEQEND
  5
EF679
  8
0
  0
POLYLINE
  5
E4766
  8
0
 66
     1
 10
0.0
 20
0.0
 30
0.0
 70
     1
  0
VERTEX
  5
EF4CC
  8
0
 10
21485.65976579516
 20
5883.001128036106
 30
0.0
  0
VERTEX
  5
EF4CD
  8
0
 10
21485.65976579516
 20
5913.001128036106
 30
0.0
  0
VERTEX
  5
EF4CE
  8
0
 10
22455.65976579516
 20
5913.001128036106
 30
0.0
  0
VERTEX
  5
EF4CF
  8
0
 10
22455.65976579516
 20
5883.001128036106
 30
0.0
  0
SEQEND
  5
EF67A
  8
0
  0
POLYLINE
  5
E476A
  8
0
 66
     1
 10
0.0
 20
0.0
 30
0.0
 70
     1
  0
VERTEX
  5
EF4D0
  8
0
 10
20655.65976579517
 20
5883.001128036106
 30
0.0
  0
VERTEX
  5
EF4D1
  8
0
 10
20655.65976579517
 20
5913.001128036106
 30
0.0
  0
VERTEX
  5
EF4D2
  8
0
 10
19485.65976579517
 20
5913.001128036106
 30
0.0
  0
VERTEX
  5
EF4D3
  8
0
 10
19485.65976579517
 20
5883.001128036106
 30
0.0
  0
SEQEND
  5
EF67B
  8
0
  0
POLYLINE
  5
E476B
  8
0
 66
     1
 10
0.0
 20
0.0
 30
0.0
 70
     1
  0
VERTEX
  5
EF4D4
  8
0
 10
20685.65976579516
 20
6333.001128036106
 30
0.0
  0
VERTEX
  5
EF4D5
  8
0
 10
20685.65976579516
 20
6363.001128036106
 30
0.0
  0
VERTEX
  5
EF4D6
  8
0
 10
21455.65976579516
 20
6363.001128036106
 30
0.0
  0
VERTEX
  5
EF4D7
  8
0
 10
21455.65976579516
 20
6333.001128036106
 30
0.0
  0
SEQEND
  5
EF67C
  8
0
  0
POLYLINE
  5
E476C
  8
0
 66
     1
 10
0.0
 20
0.0
 30
0.0
 70
     1
  0
VERTEX
  5
EF4D8
  8
0
 10
20685.65976579516
 20
4483.001128036105
 30
0.0
  0
VERTEX
  5
EF4D9
  8
0
 10
20685.65976579516
 20
4513.001128036106
 30
0.0
  0
VERTEX
  5
EF4DA
  8
0
 10
21455.65976579516
 20
4513.001128036106
 30
0.0
  0
VERTEX
  5
EF4DB
  8
0
 10
21455.65976579516
 20
4483.001128036105
 30
0.0
  0
SEQEND
  5
EF67D
  8
0
  0
POLYLINE
  5
E4771
  8
0
 66
     1
 10
0.0
 20
0.0
 30
0.0
 70
     1
  0
VERTEX
  5
EF4DC
  8
0
 10
20685.65976579517
 20
5883.001128036106
 30
0.0
  0
VERTEX
  5
EF4DD
  8
0
 10
20685.65976579517
 20
5913.001128036106
 30
0.0
  0
VERTEX
  5
EF4DE
  8
0
 10
20935.65976579517
 20
5913.001128036106
 30
0.0
  0
VERTEX
  5
EF4DF
  8
0
 10
20935.65976579517
 20
5883.001128036106
 30
0.0
  0
SEQEND
  5
EF67E
  8
0
  0
POLYLINE
  5
E4772
  8
0
 66
     1
 10
0.0
 20
0.0
 30
0.0
 70
     1
  0
VERTEX
  5
EF4E0
  8
0
 10
21455.65976579515
 20
5883.001128036106
 30
0.0
  0
VERTEX
  5
EF4E1
  8
0
 10
21455.65976579515
 20
5913.001128036106
 30
0.0
  0
VERTEX
  5
EF4E2
  8
0
 10
21205.65976579515
 20
5913.001128036106
 30
0.0
  0
VERTEX
  5
EF4E3
  8
0
 10
21205.65976579515
 20
5883.001128036106
 30
0.0
  0
SEQEND
  5
EF67F
  8
0
  0
POLYLINE
  5
E4773
  8
0
 66
     1
 10
0.0
 20
0.0
 30
0.0
 70
     1
  0
VERTEX
  5
EF4E4
  8
0
 10
21455.65976579515
 20
5013.001128036108
 30
0.0
  0
VERTEX
  5
EF4E5
  8
0
 10
21455.65976579515
 20
4983.001128036106
 30
0.0
  0
VERTEX
  5
EF4E6
  8
0
 10
21205.65976579515
 20
4983.001128036106
 30
0.0
  0
VERTEX
  5
EF4E7
  8
0
 10
21205.65976579515
 20
5013.001128036108
 30
0.0
  0
SEQEND
  5
EF680
  8
0
  0
POLYLINE
  5
E4774
  8
0
 66
     1
 10
0.0
 20
0.0
 30
0.0
 70
     1
  0
VERTEX
  5
EF4E8
  8
0
 10
20685.65976579517
 20
5013.001128036108
 30
0.0
  0
VERTEX
  5
EF4E9
  8
0
 10
20685.65976579517
 20
4983.001128036106
 30
0.0
  0
VERTEX
  5
EF4EA
  8
0
 10
20935.65976579517
 20
4983.001128036106
 30
0.0
  0
VERTEX
  5
EF4EB
  8
0
 10
20935.65976579517
 20
5013.001128036108
 30
0.0
  0
SEQEND
  5
EF681
  8
0
  0
POLYLINE
  5
E4775
  8
0
 66
     1
 10
0.0
 20
0.0
 30
0.0
 70
     1
  0
VERTEX
  5
EF4EC
  8
0
 10
19455.65976579517
 20
5463.001128036106
 30
0.0
  0
VERTEX
  5
EF4ED
  8
0
 10
19455.65976579517
 20
5433.001128036107
 30
0.0
  0
VERTEX
  5
EF4EE
  8
0
 10
19205.65976579517
 20
5433.001128036107
 30
0.0
  0
VERTEX
  5
EF4EF
  8
0
 10
19205.65976579517
 20
5463.001128036106
 30
0.0
  0
SEQEND
  5
EF682
  8
0
  0
POLYLINE
  5
E4777
  8
0
 66
     1
 10
0.0
 20
0.0
 30
0.0
 70
     1
  0
VERTEX
  5
EF4F0
  8
0
 10
20655.65976579517
 20
5013.001128036108
 30
0.0
  0
VERTEX
  5
EF4F1
  8
0
 10
20655.65976579517
 20
4983.001128036106
 30
0.0
  0
VERTEX
  5
EF4F2
  8
0
 10
19485.65976579517
 20
4983.001128036106
 30
0.0
  0
VERTEX
  5
EF4F3
  8
0
 10
19485.65976579517
 20
5013.001128036108
 30
0.0
  0
SEQEND
  5
EF683
  8
0
  0
POLYLINE
  5
E4778
  8
0
 66
     1
 10
0.0
 20
0.0
 30
0.0
 70
     1
  0
VERTEX
  5
EF4F4
  8
0
 10
21485.65976579516
 20
5013.001128036108
 30
0.0
  0
VERTEX
  5
EF4F5
  8
0
 10
21485.65976579516
 20
4983.001128036106
 30
0.0
  0
VERTEX
  5
EF4F6
  8
0
 10
22455.65976579516
 20
4983.001128036106
 30
0.0
  0
VERTEX
  5
EF4F7
  8
0
 10
22455.65976579516
 20
5013.001128036108
 30
0.0
  0
SEQEND
  5
EF684
  8
0
  0
POLYLINE
  5
E4779
  8
0
 66
     1
 10
0.0
 20
0.0
 30
0.0
 70
     1
  0
VERTEX
  5
EF4F8
  8
0
 10
23255.65976579516
 20
5013.001128036108
 30
0.0
  0
VERTEX
  5
EF4F9
  8
0
 10
23255.65976579516
 20
4983.001128036106
 30
0.0
  0
VERTEX
  5
EF4FA
  8
0
 10
23005.65976579515
 20
4983.001128036106
 30
0.0
  0
VERTEX
  5
EF4FB
  8
0
 10
23005.65976579515
 20
5013.001128036108
 30
0.0
  0
SEQEND
  5
EF685
  8
0
  0
POLYLINE
  5
E477A
  8
0
 66
     1
 10
0.0
 20
0.0
 30
0.0
 70
     1
  0
VERTEX
  5
EF4FC
  8
0
 10
22485.65976579516
 20
5013.001128036108
 30
0.0
  0
VERTEX
  5
EF4FD
  8
0
 10
22485.65976579516
 20
4983.001128036106
 30
0.0
  0
VERTEX
  5
EF4FE
  8
0
 10
22735.65976579516
 20
4983.001128036106
 30
0.0
  0
VERTEX
  5
EF4FF
  8
0
 10
22735.65976579516
 20
5013.001128036108
 30
0.0
  0
SEQEND
  5
EF686
  8
0
  0
POLYLINE
  5
E477B
  8
0
 66
     1
 10
0.0
 20
0.0
 30
0.0
 70
     1
  0
VERTEX
  5
EF500
  8
0
 10
22485.65976579516
 20
5883.001128036106
 30
0.0
  0
VERTEX
  5
EF501
  8
0
 10
22485.65976579516
 20
5913.001128036106
 30
0.0
  0
VERTEX
  5
EF502
  8
0
 10
22735.65976579516
 20
5913.001128036106
 30
0.0
  0
VERTEX
  5
EF503
  8
0
 10
22735.65976579516
 20
5883.001128036106
 30
0.0
  0
SEQEND
  5
EF687
  8
0
  0
POLYLINE
  5
E477C
  8
0
 66
     1
 10
0.0
 20
0.0
 30
0.0
 70
     1
  0
VERTEX
  5
EF504
  8
0
 10
23255.65976579516
 20
5883.001128036106
 30
0.0
  0
VERTEX
  5
EF505
  8
0
 10
23255.65976579516
 20
5913.001128036106
 30
0.0
  0
VERTEX
  5
EF506
  8
0
 10
23005.65976579515
 20
5913.001128036106
 30
0.0
  0
VERTEX
  5
EF507
  8
0
 10
23005.65976579515
 20
5883.001128036106
 30
0.0
  0
SEQEND
  5
EF688
  8
0
  0
POLYLINE
  5
E477D
  8
0
 66
     1
 10
0.0
 20
0.0
 30
0.0
 70
     1
  0
VERTEX
  5
EF508
  8
0
 10
23255.65976579516
 20
4483.001128036105
 30
0.0
  0
VERTEX
  5
EF509
  8
0
 10
23255.65976579516
 20
4513.001128036106
 30
0.0
  0
VERTEX
  5
EF50A
  8
0
 10
22485.65976579516
 20
4513.001128036106
 30
0.0
  0
VERTEX
  5
EF50B
  8
0
 10
22485.65976579516
 20
4483.001128036105
 30
0.0
  0
SEQEND
  5
EF689
  8
0
  0
POLYLINE
  5
E477E
  8
0
 66
     1
 10
0.0
 20
0.0
 30
0.0
 70
     1
  0
VERTEX
  5
EF50C
  8
0
 10
23255.65976579516
 20
6333.001128036106
 30
0.0
  0
VERTEX
  5
EF50D
  8
0
 10
23255.65976579516
 20
6363.001128036106
 30
0.0
  0
VERTEX
  5
EF50E
  8
0
 10
22485.65976579516
 20
6363.001128036106
 30
0.0
  0
VERTEX
  5
EF50F
  8
0
 10
22485.65976579516
 20
6333.001128036106
 30
0.0
  0
SEQEND
  5
EF68A
  8
0
  0
POLYLINE
  5
E477F
  8
0
 66
     1
 10
0.0
 20
0.0
 30
0.0
 70
     1
  0
VERTEX
  5
EF510
  8
0
 10
23255.65976579516
 20
5433.001128036107
 30
0.0
  0
VERTEX
  5
EF511
  8
0
 10
23255.65976579516
 20
5463.001128036106
 30
0.0
  0
VERTEX
  5
EF512
  8
0
 10
22485.65976579516
 20
5463.001128036106
 30
0.0
  0
VERTEX
  5
EF513
  8
0
 10
22485.65976579516
 20
5433.001128036107
 30
0.0
  0
SEQEND
  5
EF68B
  8
0
  0
POLYLINE
  5
E4780
  8
0
 66
     1
 10
0.0
 20
0.0
 30
0.0
 70
     1
  0
VERTEX
  5
EF514
  8
0
 10
23285.65976579516
 20
6357.001128036106
 30
0.0
  0
VERTEX
  5
EF515
  8
0
 10
23285.65976579516
 20
4349.001128036105
 30
0.0
  0
VERTEX
  5
EF516
  8
0
 10
23255.65976579516
 20
4349.001128036105
 30
0.0
  0
VERTEX
  5
EF517
  8
0
 10
23255.65976579516
 20
6357.001128036106
 30
0.0
  0
SEQEND
  5
EF68C
  8
0
  0
POLYLINE
  5
E4781
  8
0
 66
     1
 10
0.0
 20
0.0
 30
0.0
 70
     1
  0
VERTEX
  5
EF518
  8
0
 10
23285.65976579516
 20
4343.001128036108
 30
0.0
  0
VERTEX
  5
EF519
  8
0
 10
23285.65976579516
 20
4349.001128036105
 30
0.0
  0
VERTEX
  5
EF51A
  8
0
 10
23255.65976579516
 20
4349.001128036105
 30
0.0
  0
VERTEX
  5
EF51B
  8
0
 10
23255.65976579516
 20
4343.001128036108
 30
0.0
  0
SEQEND
  5
EF68D
  8
0
  0
POLYLINE
  5
E4782
  8
0
 66
     1
 10
0.0
 20
0.0
 30
0.0
 70
     1
  0
VERTEX
  5
EF51C
  8
0
 10
23285.65976579516
 20
6357.001128036106
 30
0.0
  0
VERTEX
  5
EF51D
  8
0
 10
23285.65976579516
 20
6363.001128036106
 30
0.0
  0
VERTEX
  5
EF51E
  8
0
 10
23255.65976579516
 20
6363.001128036106
 30
0.0
  0
VERTEX
  5
EF51F
  8
0
 10
23255.65976579516
 20
6357.001128036106
 30
0.0
  0
SEQEND
  5
EF68E
  8
0
  0
POLYLINE
  5
E4790
  8
0
 66
     1
 10
0.0
 20
0.0
 30
0.0
 70
     1
  0
VERTEX
  5
EF520
  8
0
 10
23285.65976579515
 20
5013.001128036108
 30
0.0
  0
VERTEX
  5
EF521
  8
0
 10
23285.65976579515
 20
4983.001128036106
 30
0.0
  0
VERTEX
  5
EF522
  8
0
 10
24455.65976579515
 20
4983.001128036106
 30
0.0
  0
VERTEX
  5
EF523
  8
0
 10
24455.65976579515
 20
5013.001128036108
 30
0.0
  0
SEQEND
  5
EF68F
  8
0
  0
POLYLINE
  5
E4791
  8
0
 66
     1
 10
0.0
 20
0.0
 30
0.0
 70
     1
  0
VERTEX
  5
EF524
  8
0
 10
24485.65976579515
 20
5463.001128036106
 30
0.0
  0
VERTEX
  5
EF525
  8
0
 10
24485.65976579515
 20
5433.001128036107
 30
0.0
  0
VERTEX
  5
EF526
  8
0
 10
24735.65976579515
 20
5433.001128036107
 30
0.0
  0
VERTEX
  5
EF527
  8
0
 10
24735.65976579515
 20
5463.001128036106
 30
0.0
  0
SEQEND
  5
EF690
  8
0
  0
POLYLINE
  5
E4793
  8
0
 66
     1
 10
0.0
 20
0.0
 30
0.0
 70
     1
  0
VERTEX
  5
EF528
  8
0
 10
23285.65976579515
 20
5883.001128036106
 30
0.0
  0
VERTEX
  5
EF529
  8
0
 10
23285.65976579515
 20
5913.001128036106
 30
0.0
  0
VERTEX
  5
EF52A
  8
0
 10
24455.65976579515
 20
5913.001128036106
 30
0.0
  0
VERTEX
  5
EF52B
  8
0
 10
24455.65976579515
 20
5883.001128036106
 30
0.0
  0
SEQEND
  5
EF691
  8
0
  0
POLYLINE
  5
E4794
  8
0
 66
     1
 10
0.0
 20
0.0
 30
0.0
 70
     1
  0
VERTEX
  5
EF52C
  8
0
 10
24485.65976579515
 20
4483.001128036105
 30
0.0
  0
VERTEX
  5
EF52D
  8
0
 10
24485.65976579515
 20
4513.001128036106
 30
0.0
  0
VERTEX
  5
EF52E
  8
0
 10
24735.65976579515
 20
4513.001128036106
 30
0.0
  0
VERTEX
  5
EF52F
  8
0
 10
24735.65976579515
 20
4483.001128036105
 30
0.0
  0
SEQEND
  5
EF692
  8
0
  0
POLYLINE
  5
E4795
  8
0
 66
     1
 10
0.0
 20
0.0
 30
0.0
 70
     1
  0
VERTEX
  5
EF530
  8
0
 10
24485.65976579515
 20
6333.001128036106
 30
0.0
  0
VERTEX
  5
EF531
  8
0
 10
24485.65976579515
 20
6363.001128036106
 30
0.0
  0
VERTEX
  5
EF532
  8
0
 10
24735.65976579515
 20
6363.001128036106
 30
0.0
  0
VERTEX
  5
EF533
  8
0
 10
24735.65976579515
 20
6333.001128036106
 30
0.0
  0
SEQEND
  5
EF693
  8
0
  0
POLYLINE
  5
E4796
  8
0
 66
     1
 10
0.0
 20
0.0
 30
0.0
 70
     1
  0
VERTEX
  5
EF534
  8
0
 10
24455.65976579515
 20
6333.001128036106
 30
0.0
  0
VERTEX
  5
EF535
  8
0
 10
24455.65976579515
 20
6363.001128036106
 30
0.0
  0
VERTEX
  5
EF536
  8
0
 10
23285.65976579516
 20
6363.001128036106
 30
0.0
  0
VERTEX
  5
EF537
  8
0
 10
23285.65976579516
 20
6333.001128036106
 30
0.0
  0
SEQEND
  5
EF694
  8
0
  0
POLYLINE
  5
E4797
  8
0
 66
     1
 10
0.0
 20
0.0
 30
0.0
 70
     1
  0
VERTEX
  5
EF538
  8
0
 10
24455.65976579515
 20
4483.001128036105
 30
0.0
  0
VERTEX
  5
EF539
  8
0
 10
24455.65976579515
 20
4513.001128036106
 30
0.0
  0
VERTEX
  5
EF53A
  8
0
 10
23285.65976579516
 20
4513.001128036106
 30
0.0
  0
VERTEX
  5
EF53B
  8
0
 10
23285.65976579516
 20
4483.001128036105
 30
0.0
  0
SEQEND
  5
EF695
  8
0
  0
POLYLINE
  5
E4799
  8
0
 66
     1
 10
0.0
 20
0.0
 30
0.0
 70
     1
  0
VERTEX
  5
EF53C
  8
0
 10
23285.65976579516
 20
6357.001128036106
 30
0.0
  0
VERTEX
  5
EF53D
  8
0
 10
23285.65976579516
 20
6363.001128036106
 30
0.0
  0
VERTEX
  5
EF53E
  8
0
 10
23255.65976579516
 20
6363.001128036106
 30
0.0
  0
VERTEX
  5
EF53F
  8
0
 10
23255.65976579516
 20
6357.001128036106
 30
0.0
  0
SEQEND
  5
EF696
  8
0
  0
POLYLINE
  5
E479A
  8
0
 66
     1
 10
0.0
 20
0.0
 30
0.0
 70
     1
  0
VERTEX
  5
EF540
  8
0
 10
23285.65976579516
 20
4343.001128036108
 30
0.0
  0
VERTEX
  5
EF541
  8
0
 10
23285.65976579516
 20
4349.001128036105
 30
0.0
  0
VERTEX
  5
EF542
  8
0
 10
23255.65976579516
 20
4349.001128036105
 30
0.0
  0
VERTEX
  5
EF543
  8
0
 10
23255.65976579516
 20
4343.001128036108
 30
0.0
  0
SEQEND
  5
EF697
  8
0
  0
POLYLINE
  5
E479B
  8
0
 66
     1
 10
0.0
 20
0.0
 30
0.0
 70
     1
  0
VERTEX
  5
EF544
  8
0
 10
23285.65976579516
 20
6357.001128036106
 30
0.0
  0
VERTEX
  5
EF545
  8
0
 10
23285.65976579516
 20
4349.001128036105
 30
0.0
  0
VERTEX
  5
EF546
  8
0
 10
23255.65976579516
 20
4349.001128036105
 30
0.0
  0
VERTEX
  5
EF547
  8
0
 10
23255.65976579516
 20
6357.001128036106
 30
0.0
  0
SEQEND
  5
EF698
  8
0
  0
POLYLINE
  5
E479C
  8
0
 66
     1
 10
0.0
 20
0.0
 30
0.0
 70
     1
  0
VERTEX
  5
EF548
  8
0
 10
24485.65976579515
 20
6357.001128036106
 30
0.0
  0
VERTEX
  5
EF549
  8
0
 10
24485.65976579515
 20
4349.001128036105
 30
0.0
  0
VERTEX
  5
EF54A
  8
0
 10
24455.65976579515
 20
4349.001128036105
 30
0.0
  0
VERTEX
  5
EF54B
  8
0
 10
24455.65976579515
 20
6357.001128036106
 30
0.0
  0
SEQEND
  5
EF699
  8
0
  0
POLYLINE
  5
E479D
  8
0
 66
     1
 10
0.0
 20
0.0
 30
0.0
 70
     1
  0
VERTEX
  5
EF54C
  8
0
 10
24485.65976579515
 20
4343.001128036108
 30
0.0
  0
VERTEX
  5
EF54D
  8
0
 10
24485.65976579515
 20
4349.001128036105
 30
0.0
  0
VERTEX
  5
EF54E
  8
0
 10
24455.65976579515
 20
4349.001128036105
 30
0.0
  0
VERTEX
  5
EF54F
  8
0
 10
24455.65976579515
 20
4343.001128036108
 30
0.0
  0
SEQEND
  5
EF69A
  8
0
  0
POLYLINE
  5
E479E
  8
0
 66
     1
 10
0.0
 20
0.0
 30
0.0
 70
     1
  0
VERTEX
  5
EF550
  8
0
 10
24485.65976579515
 20
6357.001128036106
 30
0.0
  0
VERTEX
  5
EF551
  8
0
 10
24485.65976579515
 20
6363.001128036106
 30
0.0
  0
VERTEX
  5
EF552
  8
0
 10
24455.65976579515
 20
6363.001128036106
 30
0.0
  0
VERTEX
  5
EF553
  8
0
 10
24455.65976579515
 20
6357.001128036106
 30
0.0
  0
SEQEND
  5
EF69B
  8
0
  0
POLYLINE
  5
E47A0
  8
0
 66
     1
 10
0.0
 20
0.0
 30
0.0
 70
     1
  0
VERTEX
  5
EF554
  8
0
 10
20655.65976579517
 20
5433.001128036107
 30
0.0
  0
VERTEX
  5
EF555
  8
0
 10
20655.65976579517
 20
5463.001128036106
 30
0.0
  0
VERTEX
  5
EF556
  8
0
 10
19485.65976579517
 20
5463.001128036106
 30
0.0
  0
VERTEX
  5
EF557
  8
0
 10
19485.65976579517
 20
5433.001128036107
 30
0.0
  0
SEQEND
  5
EF69C
  8
0
  0
POLYLINE
  5
E47A2
  8
0
 66
     1
 10
0.0
 20
0.0
 30
0.0
 70
     1
  0
VERTEX
  5
EF558
  8
0
 10
23285.65976579515
 20
5433.001128036107
 30
0.0
  0
VERTEX
  5
EF559
  8
0
 10
23285.65976579515
 20
5463.001128036106
 30
0.0
  0
VERTEX
  5
EF55A
  8
0
 10
24455.65976579515
 20
5463.001128036106
 30
0.0
  0
VERTEX
  5
EF55B
  8
0
 10
24455.65976579515
 20
5433.001128036107
 30
0.0
  0
SEQEND
  5
EF69D
  8
0
  0
POLYLINE
  5
E47BE
  8
0
 66
     1
 10
0.0
 20
0.0
 30
0.0
 70
     1
  0
VERTEX
  5
EF55C
  8
0
 10
22255.65976579515
 20
3357.001142058444
 30
0.0
  0
VERTEX
  5
EF55D
  8
0
 10
22255.65976579515
 20
3363.001142058445
 30
0.0
  0
VERTEX
  5
EF55E
  8
0
 10
22285.65976579514
 20
3363.001142058445
 30
0.0
  0
VERTEX
  5
EF55F
  8
0
 10
22285.65976579514
 20
3357.001142058444
 30
0.0
  0
SEQEND
  5
EF69E
  8
0
  0
POLYLINE
  5
E47BF
  8
0
 66
     1
 10
0.0
 20
0.0
 30
0.0
 70
     1
  0
VERTEX
  5
EF560
  8
0
 10
22255.65976579515
 20
1343.001142058444
 30
0.0
  0
VERTEX
  5
EF561
  8
0
 10
22255.65976579515
 20
1349.001142058444
 30
0.0
  0
VERTEX
  5
EF562
  8
0
 10
22285.65976579514
 20
1349.001142058444
 30
0.0
  0
VERTEX
  5
EF563
  8
0
 10
22285.65976579514
 20
1343.001142058444
 30
0.0
  0
SEQEND
  5
EF69F
  8
0
  0
POLYLINE
  5
E47C0
  8
0
 66
     1
 10
0.0
 20
0.0
 30
0.0
 70
     1
  0
VERTEX
  5
EF564
  8
0
 10
22255.65976579515
 20
3357.001142058444
 30
0.0
  0
VERTEX
  5
EF565
  8
0
 10
22255.65976579515
 20
1349.001142058444
 30
0.0
  0
VERTEX
  5
EF566
  8
0
 10
22285.65976579514
 20
1349.001142058444
 30
0.0
  0
VERTEX
  5
EF567
  8
0
 10
22285.65976579514
 20
3357.001142058444
 30
0.0
  0
SEQEND
  5
EF6A0
  8
0
  0
POLYLINE
  5
E47CB
  8
0
 66
     1
 10
0.0
 20
0.0
 30
0.0
 70
     1
  0
VERTEX
  5
EF568
  8
0
 10
23455.65976579516
 20
3357.001142058444
 30
0.0
  0
VERTEX
  5
EF569
  8
0
 10
23455.65976579516
 20
1349.001142058444
 30
0.0
  0
VERTEX
  5
EF56A
  8
0
 10
23485.65976579515
 20
1349.001142058444
 30
0.0
  0
VERTEX
  5
EF56B
  8
0
 10
23485.65976579515
 20
3357.001142058444
 30
0.0
  0
SEQEND
  5
EF6A1
  8
0
  0
POLYLINE
  5
E47CC
  8
0
 66
     1
 10
0.0
 20
0.0
 30
0.0
 70
     1
  0
VERTEX
  5
EF56C
  8
0
 10
23455.65976579516
 20
3357.001142058444
 30
0.0
  0
VERTEX
  5
EF56D
  8
0
 10
23455.65976579516
 20
3363.001142058445
 30
0.0
  0
VERTEX
  5
EF56E
  8
0
 10
23485.65976579515
 20
3363.001142058445
 30
0.0
  0
VERTEX
  5
EF56F
  8
0
 10
23485.65976579515
 20
3357.001142058444
 30
0.0
  0
SEQEND
  5
EF6A2
  8
0
  0
POLYLINE
  5
E47CD
  8
0
 66
     1
 10
0.0
 20
0.0
 30
0.0
 70
     1
  0
VERTEX
  5
EF570
  8
0
 10
23455.65976579516
 20
1343.001142058444
 30
0.0
  0
VERTEX
  5
EF571
  8
0
 10
23455.65976579516
 20
1349.001142058444
 30
0.0
  0
VERTEX
  5
EF572
  8
0
 10
23485.65976579515
 20
1349.001142058444
 30
0.0
  0
VERTEX
  5
EF573
  8
0
 10
23485.65976579515
 20
1343.001142058444
 30
0.0
  0
SEQEND
  5
EF6A3
  8
0
  0
POLYLINE
  5
E47CE
  8
0
 66
     1
 10
0.0
 20
0.0
 30
0.0
 70
     1
  0
VERTEX
  5
EF574
  8
0
 10
22285.65976579514
 20
3333.001142058444
 30
0.0
  0
VERTEX
  5
EF575
  8
0
 10
22285.65976579514
 20
3363.001142058445
 30
0.0
  0
VERTEX
  5
EF576
  8
0
 10
23455.65976579516
 20
3363.001142058445
 30
0.0
  0
VERTEX
  5
EF577
  8
0
 10
23455.65976579516
 20
3333.001142058444
 30
0.0
  0
SEQEND
  5
EF6A4
  8
0
  0
POLYLINE
  5
E47D2
  8
0
 66
     1
 10
0.0
 20
0.0
 30
0.0
 70
     1
  0
VERTEX
  5
EF578
  8
0
 10
22285.65976579514
 20
2983.001142058444
 30
0.0
  0
VERTEX
  5
EF579
  8
0
 10
22285.65976579514
 20
3013.001142058444
 30
0.0
  0
VERTEX
  5
EF57A
  8
0
 10
23455.65976579516
 20
3013.001142058444
 30
0.0
  0
VERTEX
  5
EF57B
  8
0
 10
23455.65976579516
 20
2983.001142058444
 30
0.0
  0
SEQEND
  5
EF6A5
  8
0
  0
POLYLINE
  5
E47D3
  8
0
 66
     1
 10
0.0
 20
0.0
 30
0.0
 70
     1
  0
VERTEX
  5
EF57C
  8
0
 10
22285.65976579514
 20
1483.001142058444
 30
0.0
  0
VERTEX
  5
EF57D
  8
0
 10
22285.65976579514
 20
1513.001142058444
 30
0.0
  0
VERTEX
  5
EF57E
  8
0
 10
23455.65976579516
 20
1513.001142058444
 30
0.0
  0
VERTEX
  5
EF57F
  8
0
 10
23455.65976579516
 20
1483.001142058444
 30
0.0
  0
SEQEND
  5
EF6A6
  8
0
  0
POLYLINE
  5
E47D4
  8
0
 66
     1
 10
0.0
 20
0.0
 30
0.0
 70
     1
  0
VERTEX
  5
EF580
  8
0
 10
22285.65976579514
 20
1783.001142058443
 30
0.0
  0
VERTEX
  5
EF581
  8
0
 10
22285.65976579514
 20
1813.001142058444
 30
0.0
  0
VERTEX
  5
EF582
  8
0
 10
23455.65976579516
 20
1813.001142058444
 30
0.0
  0
VERTEX
  5
EF583
  8
0
 10
23455.65976579516
 20
1783.001142058443
 30
0.0
  0
SEQEND
  5
EF6A7
  8
0
  0
POLYLINE
  5
E47D5
  8
0
 66
     1
 10
0.0
 20
0.0
 30
0.0
 70
     1
  0
VERTEX
  5
EF584
  8
0
 10
24455.65976579515
 20
3333.001142058444
 30
0.0
  0
VERTEX
  5
EF585
  8
0
 10
24455.65976579515
 20
3363.001142058445
 30
0.0
  0
VERTEX
  5
EF586
  8
0
 10
23485.65976579515
 20
3363.001142058445
 30
0.0
  0
VERTEX
  5
EF587
  8
0
 10
23485.65976579515
 20
3333.001142058444
 30
0.0
  0
SEQEND
  5
EF6A8
  8
0
  0
POLYLINE
  5
E47D6
  8
0
 66
     1
 10
0.0
 20
0.0
 30
0.0
 70
     1
  0
VERTEX
  5
EF588
  8
0
 10
24455.65976579515
 20
2083.001142058444
 30
0.0
  0
VERTEX
  5
EF589
  8
0
 10
24455.65976579515
 20
2113.001142058444
 30
0.0
  0
VERTEX
  5
EF58A
  8
0
 10
23485.65976579515
 20
2113.001142058444
 30
0.0
  0
VERTEX
  5
EF58B
  8
0
 10
23485.65976579515
 20
2083.001142058444
 30
0.0
  0
SEQEND
  5
EF6A9
  8
0
  0
POLYLINE
  5
E47D7
  8
0
 66
     1
 10
0.0
 20
0.0
 30
0.0
 70
     1
  0
VERTEX
  5
EF58C
  8
0
 10
24455.65976579515
 20
2383.001142058444
 30
0.0
  0
VERTEX
  5
EF58D
  8
0
 10
24455.65976579515
 20
2413.001142058444
 30
0.0
  0
VERTEX
  5
EF58E
  8
0
 10
23485.65976579515
 20
2413.001142058444
 30
0.0
  0
VERTEX
  5
EF58F
  8
0
 10
23485.65976579515
 20
2383.001142058444
 30
0.0
  0
SEQEND
  5
EF6AA
  8
0
  0
POLYLINE
  5
E47D8
  8
0
 66
     1
 10
0.0
 20
0.0
 30
0.0
 70
     1
  0
VERTEX
  5
EF590
  8
0
 10
24455.65976579515
 20
2683.001142058444
 30
0.0
  0
VERTEX
  5
EF591
  8
0
 10
24455.65976579515
 20
2713.001142058444
 30
0.0
  0
VERTEX
  5
EF592
  8
0
 10
23485.65976579515
 20
2713.001142058444
 30
0.0
  0
VERTEX
  5
EF593
  8
0
 10
23485.65976579515
 20
2683.001142058444
 30
0.0
  0
SEQEND
  5
EF6AB
  8
0
  0
POLYLINE
  5
E47D9
  8
0
 66
     1
 10
0.0
 20
0.0
 30
0.0
 70
     1
  0
VERTEX
  5
EF594
  8
0
 10
24455.65976579515
 20
2983.001142058444
 30
0.0
  0
VERTEX
  5
EF595
  8
0
 10
24455.65976579515
 20
3013.001142058444
 30
0.0
  0
VERTEX
  5
EF596
  8
0
 10
23485.65976579515
 20
3013.001142058444
 30
0.0
  0
VERTEX
  5
EF597
  8
0
 10
23485.65976579515
 20
2983.001142058444
 30
0.0
  0
SEQEND
  5
EF6AC
  8
0
  0
POLYLINE
  5
E47DA
  8
0
 66
     1
 10
0.0
 20
0.0
 30
0.0
 70
     1
  0
VERTEX
  5
EF598
  8
0
 10
24455.65976579515
 20
1483.001142058444
 30
0.0
  0
VERTEX
  5
EF599
  8
0
 10
24455.65976579515
 20
1513.001142058444
 30
0.0
  0
VERTEX
  5
EF59A
  8
0
 10
23485.65976579515
 20
1513.001142058444
 30
0.0
  0
VERTEX
  5
EF59B
  8
0
 10
23485.65976579515
 20
1483.001142058444
 30
0.0
  0
SEQEND
  5
EF6AD
  8
0
  0
POLYLINE
  5
E47DB
  8
0
 66
     1
 10
0.0
 20
0.0
 30
0.0
 70
     1
  0
VERTEX
  5
EF59C
  8
0
 10
24455.65976579515
 20
1783.001142058443
 30
0.0
  0
VERTEX
  5
EF59D
  8
0
 10
24455.65976579515
 20
1813.001142058444
 30
0.0
  0
VERTEX
  5
EF59E
  8
0
 10
23485.65976579515
 20
1813.001142058444
 30
0.0
  0
VERTEX
  5
EF59F
  8
0
 10
23485.65976579515
 20
1783.001142058443
 30
0.0
  0
SEQEND
  5
EF6AE
  8
0
  0
POLYLINE
  5
E47DC
  8
0
 66
     1
 10
0.0
 20
0.0
 30
0.0
 70
     1
  0
VERTEX
  5
EF5A0
  8
0
 10
24485.65976579515
 20
3357.001142058444
 30
0.0
  0
VERTEX
  5
EF5A1
  8
0
 10
24485.65976579515
 20
3363.001142058445
 30
0.0
  0
VERTEX
  5
EF5A2
  8
0
 10
24455.65976579515
 20
3363.001142058445
 30
0.0
  0
VERTEX
  5
EF5A3
  8
0
 10
24455.65976579515
 20
3357.001142058444
 30
0.0
  0
SEQEND
  5
EF6AF
  8
0
  0
POLYLINE
  5
E47DD
  8
0
 66
     1
 10
0.0
 20
0.0
 30
0.0
 70
     1
  0
VERTEX
  5
EF5A4
  8
0
 10
24485.65976579515
 20
1343.001142058444
 30
0.0
  0
VERTEX
  5
EF5A5
  8
0
 10
24485.65976579515
 20
1349.001142058444
 30
0.0
  0
VERTEX
  5
EF5A6
  8
0
 10
24455.65976579515
 20
1349.001142058444
 30
0.0
  0
VERTEX
  5
EF5A7
  8
0
 10
24455.65976579515
 20
1343.001142058444
 30
0.0
  0
SEQEND
  5
EF6B0
  8
0
  0
POLYLINE
  5
E47DE
  8
0
 66
     1
 10
0.0
 20
0.0
 30
0.0
 70
     1
  0
VERTEX
  5
EF5A8
  8
0
 10
24485.65976579515
 20
3357.001142058444
 30
0.0
  0
VERTEX
  5
EF5A9
  8
0
 10
24485.65976579515
 20
1349.001142058444
 30
0.0
  0
VERTEX
  5
EF5AA
  8
0
 10
24455.65976579515
 20
1349.001142058444
 30
0.0
  0
VERTEX
  5
EF5AB
  8
0
 10
24455.65976579515
 20
3357.001142058444
 30
0.0
  0
SEQEND
  5
EF6B1
  8
0
  0
POLYLINE
  5
E4821
  8
0
 66
     1
 10
0.0
 20
0.0
 30
0.0
 70
     1
  0
VERTEX
  5
EF5AC
  8
0
 10
24485.65976579516
 20
2683.001142058444
 30
0.0
  0
VERTEX
  5
EF5AD
  8
0
 10
24485.65976579516
 20
2713.001142058444
 30
0.0
  0
VERTEX
  5
EF5AE
  8
0
 10
24735.65976579516
 20
2713.001142058444
 30
0.0
  0
VERTEX
  5
EF5AF
  8
0
 10
24735.65976579516
 20
2683.001142058444
 30
0.0
  0
SEQEND
  5
EF6B2
  8
0
  0
POLYLINE
  5
E4822
  8
0
 66
     1
 10
0.0
 20
0.0
 30
0.0
 70
     1
  0
VERTEX
  5
EF5B0
  8
0
 10
24485.65976579516
 20
2083.001142058444
 30
0.0
  0
VERTEX
  5
EF5B1
  8
0
 10
24485.65976579516
 20
2113.001142058444
 30
0.0
  0
VERTEX
  5
EF5B2
  8
0
 10
24735.65976579516
 20
2113.001142058444
 30
0.0
  0
VERTEX
  5
EF5B3
  8
0
 10
24735.65976579516
 20
2083.001142058444
 30
0.0
  0
SEQEND
  5
EF6B3
  8
0
  0
POLYLINE
  5
E4824
  8
0
 66
     1
 10
0.0
 20
0.0
 30
0.0
 70
     1
  0
VERTEX
  5
EF5B4
  8
0
 10
24485.65976579516
 20
1483.001142058444
 30
0.0
  0
VERTEX
  5
EF5B5
  8
0
 10
24485.65976579516
 20
1513.001142058444
 30
0.0
  0
VERTEX
  5
EF5B6
  8
0
 10
24735.65976579516
 20
1513.001142058444
 30
0.0
  0
VERTEX
  5
EF5B7
  8
0
 10
24735.65976579516
 20
1483.001142058444
 30
0.0
  0
SEQEND
  5
EF6B4
  8
0
  0
POLYLINE
  5
E4826
  8
0
 66
     1
 10
0.0
 20
0.0
 30
0.0
 70
     1
  0
VERTEX
  5
EF5B8
  8
0
 10
24485.65976579516
 20
3333.001142058444
 30
0.0
  0
VERTEX
  5
EF5B9
  8
0
 10
24485.65976579516
 20
3363.001142058445
 30
0.0
  0
VERTEX
  5
EF5BA
  8
0
 10
24735.65976579516
 20
3363.001142058445
 30
0.0
  0
VERTEX
  5
EF5BB
  8
0
 10
24735.65976579516
 20
3333.001142058444
 30
0.0
  0
SEQEND
  5
EF6B5
  8
0
  0
POLYLINE
  5
E485F
  8
0
 66
     1
 10
0.0
 20
0.0
 30
0.0
 70
     1
  0
VERTEX
  5
EF5BC
  8
0
 10
21255.65976579513
 20
3333.001142058444
 30
0.0
  0
VERTEX
  5
EF5BD
  8
0
 10
21255.65976579513
 20
3363.001142058445
 30
0.0
  0
VERTEX
  5
EF5BE
  8
0
 10
21005.65976579513
 20
3363.001142058445
 30
0.0
  0
VERTEX
  5
EF5BF
  8
0
 10
21005.65976579513
 20
3333.001142058444
 30
0.0
  0
SEQEND
  5
EF6B6
  8
0
  0
POLYLINE
  5
E4861
  8
0
 66
     1
 10
0.0
 20
0.0
 30
0.0
 70
     1
  0
VERTEX
  5
EF5C0
  8
0
 10
21255.65976579513
 20
1483.001142058444
 30
0.0
  0
VERTEX
  5
EF5C1
  8
0
 10
21255.65976579513
 20
1513.001142058444
 30
0.0
  0
VERTEX
  5
EF5C2
  8
0
 10
21005.65976579513
 20
1513.001142058444
 30
0.0
  0
VERTEX
  5
EF5C3
  8
0
 10
21005.65976579513
 20
1483.001142058444
 30
0.0
  0
SEQEND
  5
EF6B7
  8
0
  0
POLYLINE
  5
E4863
  8
0
 66
     1
 10
0.0
 20
0.0
 30
0.0
 70
     1
  0
VERTEX
  5
EF5C4
  8
0
 10
21255.65976579513
 20
2083.001142058444
 30
0.0
  0
VERTEX
  5
EF5C5
  8
0
 10
21255.65976579513
 20
2113.001142058444
 30
0.0
  0
VERTEX
  5
EF5C6
  8
0
 10
21005.65976579513
 20
2113.001142058444
 30
0.0
  0
VERTEX
  5
EF5C7
  8
0
 10
21005.65976579513
 20
2083.001142058444
 30
0.0
  0
SEQEND
  5
EF6B8
  8
0
  0
POLYLINE
  5
E4864
  8
0
 66
     1
 10
0.0
 20
0.0
 30
0.0
 70
     1
  0
VERTEX
  5
EF5C8
  8
0
 10
21255.65976579513
 20
2683.001142058444
 30
0.0
  0
VERTEX
  5
EF5C9
  8
0
 10
21255.65976579513
 20
2713.001142058444
 30
0.0
  0
VERTEX
  5
EF5CA
  8
0
 10
21005.65976579513
 20
2713.001142058444
 30
0.0
  0
VERTEX
  5
EF5CB
  8
0
 10
21005.65976579513
 20
2683.001142058444
 30
0.0
  0
SEQEND
  5
EF6B9
  8
0
  0
POLYLINE
  5
E4866
  8
0
 66
     1
 10
0.0
 20
0.0
 30
0.0
 70
     1
  0
VERTEX
  5
EF5CC
  8
0
 10
21255.65976579514
 20
3357.001142058444
 30
0.0
  0
VERTEX
  5
EF5CD
  8
0
 10
21255.65976579514
 20
1349.001142058444
 30
0.0
  0
VERTEX
  5
EF5CE
  8
0
 10
21285.65976579514
 20
1349.001142058444
 30
0.0
  0
VERTEX
  5
EF5CF
  8
0
 10
21285.65976579514
 20
3357.001142058444
 30
0.0
  0
SEQEND
  5
EF6BA
  8
0
  0
POLYLINE
  5
E4867
  8
0
 66
     1
 10
0.0
 20
0.0
 30
0.0
 70
     1
  0
VERTEX
  5
EF5D0
  8
0
 10
21255.65976579514
 20
3357.001142058444
 30
0.0
  0
VERTEX
  5
EF5D1
  8
0
 10
21255.65976579514
 20
3363.001142058445
 30
0.0
  0
VERTEX
  5
EF5D2
  8
0
 10
21285.65976579514
 20
3363.001142058445
 30
0.0
  0
VERTEX
  5
EF5D3
  8
0
 10
21285.65976579514
 20
3357.001142058444
 30
0.0
  0
SEQEND
  5
EF6BB
  8
0
  0
POLYLINE
  5
E4868
  8
0
 66
     1
 10
0.0
 20
0.0
 30
0.0
 70
     1
  0
VERTEX
  5
EF5D4
  8
0
 10
21285.65976579514
 20
1783.001142058443
 30
0.0
  0
VERTEX
  5
EF5D5
  8
0
 10
21285.65976579514
 20
1813.001142058444
 30
0.0
  0
VERTEX
  5
EF5D6
  8
0
 10
22255.65976579514
 20
1813.001142058444
 30
0.0
  0
VERTEX
  5
EF5D7
  8
0
 10
22255.65976579514
 20
1783.001142058443
 30
0.0
  0
SEQEND
  5
EF6BC
  8
0
  0
POLYLINE
  5
E4869
  8
0
 66
     1
 10
0.0
 20
0.0
 30
0.0
 70
     1
  0
VERTEX
  5
EF5D8
  8
0
 10
21285.65976579514
 20
1483.001142058444
 30
0.0
  0
VERTEX
  5
EF5D9
  8
0
 10
21285.65976579514
 20
1513.001142058444
 30
0.0
  0
VERTEX
  5
EF5DA
  8
0
 10
22255.65976579514
 20
1513.001142058444
 30
0.0
  0
VERTEX
  5
EF5DB
  8
0
 10
22255.65976579514
 20
1483.001142058444
 30
0.0
  0
SEQEND
  5
EF6BD
  8
0
  0
POLYLINE
  5
E486A
  8
0
 66
     1
 10
0.0
 20
0.0
 30
0.0
 70
     1
  0
VERTEX
  5
EF5DC
  8
0
 10
21285.65976579514
 20
2983.001142058444
 30
0.0
  0
VERTEX
  5
EF5DD
  8
0
 10
21285.65976579514
 20
3013.001142058444
 30
0.0
  0
VERTEX
  5
EF5DE
  8
0
 10
22255.65976579514
 20
3013.001142058444
 30
0.0
  0
VERTEX
  5
EF5DF
  8
0
 10
22255.65976579514
 20
2983.001142058444
 30
0.0
  0
SEQEND
  5
EF6BE
  8
0
  0
POLYLINE
  5
E486B
  8
0
 66
     1
 10
0.0
 20
0.0
 30
0.0
 70
     1
  0
VERTEX
  5
EF5E0
  8
0
 10
21285.65976579514
 20
2683.001142058444
 30
0.0
  0
VERTEX
  5
EF5E1
  8
0
 10
21285.65976579514
 20
2713.001142058444
 30
0.0
  0
VERTEX
  5
EF5E2
  8
0
 10
22255.65976579514
 20
2713.001142058444
 30
0.0
  0
VERTEX
  5
EF5E3
  8
0
 10
22255.65976579514
 20
2683.001142058444
 30
0.0
  0
SEQEND
  5
EF6BF
  8
0
  0
POLYLINE
  5
E486C
  8
0
 66
     1
 10
0.0
 20
0.0
 30
0.0
 70
     1
  0
VERTEX
  5
EF5E4
  8
0
 10
21285.65976579514
 20
2383.001142058444
 30
0.0
  0
VERTEX
  5
EF5E5
  8
0
 10
21285.65976579514
 20
2413.001142058444
 30
0.0
  0
VERTEX
  5
EF5E6
  8
0
 10
22255.65976579514
 20
2413.001142058444
 30
0.0
  0
VERTEX
  5
EF5E7
  8
0
 10
22255.65976579514
 20
2383.001142058444
 30
0.0
  0
SEQEND
  5
EF6C0
  8
0
  0
POLYLINE
  5
E486D
  8
0
 66
     1
 10
0.0
 20
0.0
 30
0.0
 70
     1
  0
VERTEX
  5
EF5E8
  8
0
 10
21285.65976579514
 20
2083.001142058444
 30
0.0
  0
VERTEX
  5
EF5E9
  8
0
 10
21285.65976579514
 20
2113.001142058444
 30
0.0
  0
VERTEX
  5
EF5EA
  8
0
 10
22255.65976579514
 20
2113.001142058444
 30
0.0
  0
VERTEX
  5
EF5EB
  8
0
 10
22255.65976579514
 20
2083.001142058444
 30
0.0
  0
SEQEND
  5
EF6C1
  8
0
  0
POLYLINE
  5
E486E
  8
0
 66
     1
 10
0.0
 20
0.0
 30
0.0
 70
     1
  0
VERTEX
  5
EF5EC
  8
0
 10
21285.65976579514
 20
3333.001142058444
 30
0.0
  0
VERTEX
  5
EF5ED
  8
0
 10
21285.65976579514
 20
3363.001142058445
 30
0.0
  0
VERTEX
  5
EF5EE
  8
0
 10
22255.65976579514
 20
3363.001142058445
 30
0.0
  0
VERTEX
  5
EF5EF
  8
0
 10
22255.65976579514
 20
3333.001142058444
 30
0.0
  0
SEQEND
  5
EF6C2
  8
0
  0
POLYLINE
  5
E486F
  8
0
 66
     1
 10
0.0
 20
0.0
 30
0.0
 70
     1
  0
VERTEX
  5
EF5F0
  8
0
 10
21255.65976579514
 20
1343.001142058444
 30
0.0
  0
VERTEX
  5
EF5F1
  8
0
 10
21255.65976579514
 20
1349.001142058444
 30
0.0
  0
VERTEX
  5
EF5F2
  8
0
 10
21285.65976579514
 20
1349.001142058444
 30
0.0
  0
VERTEX
  5
EF5F3
  8
0
 10
21285.65976579514
 20
1343.001142058444
 30
0.0
  0
SEQEND
  5
EF6C3
  8
0
  0
POLYLINE
  5
E4870
  8
0
 66
     1
 10
0.0
 20
0.0
 30
0.0
 70
     1
  0
VERTEX
  5
EF5F4
  8
0
 10
15504.39009731774
 20
554.0366420584437
 30
0.0
  0
VERTEX
  5
EF5F5
  8
0
 10
25888.02093639937
 20
554.0366420584437
 30
0.0
  0
VERTEX
  5
EF5F6
  8
0
 10
25888.02093639937
 20
7151.965628036109
 30
0.0
  0
VERTEX
  5
EF5F7
  8
0
 10
15504.39009731774
 20
7151.965628036109
 30
0.0
  0
SEQEND
  5
EF6C4
  8
0
  0
POLYLINE
  5
E6E07
  8
0
 66
     1
 10
0.0
 20
0.0
 30
0.0
 70
     1
  0
VERTEX
  5
EF5F8
  8
0
 10
21485.65976579516
 20
5433.001128036107
 30
0.0
  0
VERTEX
  5
EF5F9
  8
0
 10
21485.65976579516
 20
5463.001128036106
 30
0.0
  0
VERTEX
  5
EF5FA
  8
0
 10
22455.65976579516
 20
5463.001128036106
 30
0.0
  0
VERTEX
  5
EF5FB
  8
0
 10
22455.65976579516
 20
5433.001128036107
 30
0.0
  0
SEQEND
  5
EF6C5
  8
0
  0
VIEWPORT
  5
DAB74
 67
     1
  8
0
 10
0.0
 20
0.0
 30
0.0
 40
10.87270777479893
 41
8.16
 68
     1
 69
     1
1001
ACAD
1000
MVIEW
1002
{
1070
    16
1010
0.0
1020
0.0
1030
0.0
1010
0.0
1020
0.0
1030
1.0
1040
0.0
1040
8.16
1040
6.065999999999998
1040
3.851238605898123
1040
50.0
1040
0.0
1040
0.0
1070
    16
1070
   100
1070
     1
1070
     3
1070
     0
1070
     0
1070
     0
1070
     0
1040
0.0
1040
0.0
1040
0.0
1040
0.5
1040
0.5
1040
0.0
1040
0.0
1070
     0
1002
{
1002
}
1002
}
  0
VIEWPORT
  5
DAB75
 67
     1
  8
0
 10
5.25
 20
4.0
 30
0.0
 40
8.4
 41
6.4
 68
     2
 69
     2
1001
ACAD
1000
MVIEW
1002
{
1070
    16
1010
0.0
1020
0.0
1030
0.0
1010
0.0
1020
0.0
1030
1.0
1040
0.0
1040
12730.99251508979
1040
-238.8342129778575
1040
5240.682605436173
1040
50.0
1040
0.0
1040
0.0
1070
     0
1070
   100
1070
     1
1070
     3
1070
     0
1070
     0
1070
     0
1070
     0
1040
0.0
1040
0.0
1040
0.0
1040
0.5
1040
0.5
1040
0.0
1040
0.0
1070
     0
1002
{
1002
}
1002
}
  0
ENDSEC
  0
EOF
