  0
SECTION
  2
HEADER
  9
$ACADVER
  1
AC1032
  9
$ACADMAINTVER
 90
       55
  9
$DWGCODEPAGE
  3
ANSI_1252
  9
$LASTSAVEDBY
  1
ucom07
  9
$REQUIREDVERSIONS
160
                 0
  9
$INSBASE
 10
0.0
 20
0.0
 30
0.0
  9
$EXTMIN
 10
-4012.685974119233
 20
-987.6576470269351
 30
0.0
  9
$EXTMAX
 10
13214.7025841856
 20
12352.36923202941
 30
0.0
  9
$LIMMIN
 10
0.0
 20
0.0
  9
$LIMMAX
 10
12.0
 20
9.0
  9
$ORTHOMODE
 70
     1
  9
$REGENMODE
 70
     1
  9
$FILLMODE
 70
     1
  9
$QTEXTMODE
 70
     0
  9
$MIRRTEXT
 70
     0
  9
$LTSCALE
 40
5.0
  9
$ATTMODE
 70
     1
  9
$TEXTSIZE
 40
19.0
  9
$TRACEWID
 40
0.05
  9
$TEXTSTYLE
  7
STILE1
  9
$CLAYER
  8
0
  9
$CELTYPE
  6
ByLayer
  9
$CECOLOR
 62
   256
  9
$CELTSCALE
 40
1.0
  9
$DISPSILH
 70
     0
  9
$DIMSCALE
 40
50.0
  9
$DIMASZ
 40
2.5
  9
$DIMEXO
 40
1.0
  9
$DIMDLI
 40
0.0
  9
$DIMRND
 40
0.0
  9
$DIMDLE
 40
0.0
  9
$DIMEXE
 40
1.0
  9
$DIMTP
 40
0.0
  9
$DIMTM
 40
0.0
  9
$DIMTXT
 40
2.5
  9
$DIMCEN
 40
1.0
  9
$DIMTSZ
 40
0.0
  9
$DIMTOL
 70
     0
  9
$DIMLIM
 70
     0
  9
$DIMTIH
 70
     0
  9
$DIMTOH
 70
     0
  9
$DIMSE1
 70
     0
  9
$DIMSE2
 70
     0
  9
$DIMTAD
 70
     1
  9
$DIMZIN
 70
     8
  9
$DIMBLK
  1

  9
$DIMASO
 70
     1
  9
$DIMSHO
 70
     0
  9
$DIMPOST
  1

  9
$DIMAPOST
  1

  9
$DIMALT
 70
     0
  9
$DIMALTD
 70
     2
  9
$DIMALTF
 40
25.4
  9
$DIMLFAC
 40
1.0
  9
$DIMTOFL
 70
     1
  9
$DIMTVP
 40
0.0
  9
$DIMTIX
 70
     1
  9
$DIMSOXD
 70
     0
  9
$DIMSAH
 70
     0
  9
$DIMBLK1
  1

  9
$DIMBLK2
  1

  9
$DIMSTYLE
  2
STANDARD
  9
$DIMCLRD
 70
     0
  9
$DIMCLRE
 70
     0
  9
$DIMCLRT
 70
     0
  9
$DIMTFAC
 40
1.0
  9
$DIMGAP
 40
1.5
  9
$DIMJUST
 70
     0
  9
$DIMSD1
 70
     0
  9
$DIMSD2
 70
     0
  9
$DIMTOLJ
 70
     1
  9
$DIMTZIN
 70
     0
  9
$DIMALTZ
 70
     0
  9
$DIMALTTZ
 70
     0
  9
$DIMUPT
 70
     0
  9
$DIMDEC
 70
     4
  9
$DIMTDEC
 70
     4
  9
$DIMALTU
 70
     2
  9
$DIMALTTD
 70
     2
  9
$DIMTXSTY
  7
STANDARD
  9
$DIMAUNIT
 70
     0
  9
$DIMADEC
 70
     0
  9
$DIMALTRND
 40
0.0
  9
$DIMAZIN
 70
     0
  9
$DIMDSEP
 70
    46
  9
$DIMATFIT
 70
     3
  9
$DIMFRAC
 70
     0
  9
$DIMLDRBLK
  1

  9
$DIMLUNIT
 70
     2
  9
$DIMLWD
 70
    -2
  9
$DIMLWE
 70
    -2
  9
$DIMTMOVE
 70
     2
  9
$DIMFXL
 40
1.0
  9
$DIMFXLON
 70
     0
  9
$DIMJOGANG
 40
0.7853981633974483
  9
$DIMTFILL
 70
     0
  9
$DIMTFILLCLR
 70
     0
  9
$DIMARCSYM
 70
     0
  9
$DIMLTYPE
  6

  9
$DIMLTEX1
  6

  9
$DIMLTEX2
  6

  9
$DIMTXTDIRECTION
 70
     0
  9
$LUNITS
 70
     2
  9
$LUPREC
 70
     4
  9
$SKETCHINC
 40
0.1
  9
$FILLETRAD
 40
20.0
  9
$AUNITS
 70
     0
  9
$AUPREC
 70
     0
  9
$MENU
  1
acad
  9
$ELEVATION
 40
0.0
  9
$PELEVATION
 40
0.0
  9
$THICKNESS
 40
0.0
  9
$LIMCHECK
 70
     0
  9
$CHAMFERA
 40
1200.0
  9
$CHAMFERB
 40
1200.0
  9
$CHAMFERC
 40
0.0
  9
$CHAMFERD
 40
0.0
  9
$SKPOLY
 70
     0
  9
$TDCREATE
 40
2450277.504307743
  9
$TDUCREATE
 40
2450277.42097441
  9
$TDUPDATE
 40
2460453.647888715
  9
$TDUUPDATE
 40
2460453.564555382
  9
$TDINDWG
 40
26.3353385532
  9
$TDUSRTIMER
 40
0.0091252315
  9
$USRTIMER
 70
     1
  9
$ANGBASE
 50
0.0
  9
$ANGDIR
 70
     0
  9
$PDMODE
 70
     0
  9
$PDSIZE
 40
0.0
  9
$PLINEWID
 40
0.0
  9
$SPLFRAME
 70
     0
  9
$SPLINETYPE
 70
     6
  9
$SPLINESEGS
 70
     8
  9
$HANDSEED
  5
F0746
  9
$SURFTAB1
 70
     6
  9
$SURFTAB2
 70
     6
  9
$SURFTYPE
 70
     6
  9
$SURFU
 70
     6
  9
$SURFV
 70
     6
  9
$UCSBASE
  2

  9
$UCSNAME
  2

  9
$UCSORG
 10
0.0
 20
0.0
 30
0.0
  9
$UCSXDIR
 10
1.0
 20
0.0
 30
0.0
  9
$UCSYDIR
 10
0.0
 20
1.0
 30
0.0
  9
$UCSORTHOREF
  2

  9
$UCSORTHOVIEW
 70
     0
  9
$UCSORGTOP
 10
0.0
 20
0.0
 30
0.0
  9
$UCSORGBOTTOM
 10
0.0
 20
0.0
 30
0.0
  9
$UCSORGLEFT
 10
0.0
 20
0.0
 30
0.0
  9
$UCSORGRIGHT
 10
0.0
 20
0.0
 30
0.0
  9
$UCSORGFRONT
 10
0.0
 20
0.0
 30
0.0
  9
$UCSORGBACK
 10
0.0
 20
0.0
 30
0.0
  9
$PUCSBASE
  2

  9
$PUCSNAME
  2

  9
$PUCSORG
 10
0.0
 20
0.0
 30
0.0
  9
$PUCSXDIR
 10
1.0
 20
0.0
 30
0.0
  9
$PUCSYDIR
 10
0.0
 20
1.0
 30
0.0
  9
$PUCSORTHOREF
  2

  9
$PUCSORTHOVIEW
 70
     0
  9
$PUCSORGTOP
 10
0.0
 20
0.0
 30
0.0
  9
$PUCSORGBOTTOM
 10
0.0
 20
0.0
 30
0.0
  9
$PUCSORGLEFT
 10
0.0
 20
0.0
 30
0.0
  9
$PUCSORGRIGHT
 10
0.0
 20
0.0
 30
0.0
  9
$PUCSORGFRONT
 10
0.0
 20
0.0
 30
0.0
  9
$PUCSORGBACK
 10
0.0
 20
0.0
 30
0.0
  9
$USERI1
 70
     0
  9
$USERI2
 70
     0
  9
$USERI3
 70
     0
  9
$USERI4
 70
     0
  9
$USERI5
 70
     0
  9
$USERR1
 40
0.0
  9
$USERR2
 40
0.0
  9
$USERR3
 40
0.0
  9
$USERR4
 40
0.0
  9
$USERR5
 40
0.0
  9
$WORLDVIEW
 70
     0
  9
$SHADEDGE
 70
     3
  9
$SHADEDIF
 70
    70
  9
$TILEMODE
 70
     1
  9
$MAXACTVP
 70
    16
  9
$PINSBASE
 10
0.0
 20
0.0
 30
0.0
  9
$PLIMCHECK
 70
     0
  9
$PEXTMIN
 10
0.0
 20
0.0
 30
0.0
  9
$PEXTMAX
 10
0.0
 20
0.0
 30
0.0
  9
$PLIMMIN
 10
0.0
 20
0.0
  9
$PLIMMAX
 10
0.0
 20
0.0
  9
$UNITMODE
 70
     0
  9
$VISRETAIN
 70
     0
  9
$PLINEGEN
 70
     0
  9
$PSLTSCALE
 70
     1
  9
$TREEDEPTH
 70
  3020
  9
$CMLSTYLE
  2
Standard
  9
$CMLJUST
 70
     0
  9
$CMLSCALE
 40
1.0
  9
$PROXYGRAPHICS
 70
     1
  9
$MEASUREMENT
 70
     0
  9
$CELWEIGHT
370
    -1
  9
$ENDCAPS
280
     0
  9
$JOINSTYLE
280
     0
  9
$LWDISPLAY
290
     0
  9
$INSUNITS
 70
     0
  9
$HYPERLINKBASE
  1

  9
$STYLESHEET
  1

  9
$XEDIT
290
     1
  9
$CEPSNTYPE
380
     0
  9
$PSTYLEMODE
290
     1
  9
$FINGERPRINTGUID
  2
{68c6be6d-a05a-47c3-bbae-38baa048f18e}
  9
$VERSIONGUID
  2
{FAEB1C32-E019-11D5-929B-00C0DF256EC4}
  9
$EXTNAMES
290
     1
  9
$PSVPSCALE
 40
0.0
  9
$OLESTARTUP
290
     0
  9
$SORTENTS
280
   127
  9
$INDEXCTL
280
     0
  9
$HIDETEXT
280
     1
  9
$XCLIPFRAME
280
     0
  9
$HALOGAP
280
     0
  9
$OBSCOLOR
 70
   257
  9
$OBSLTYPE
280
     0
  9
$INTERSECTIONDISPLAY
280
     0
  9
$INTERSECTIONCOLOR
 70
   257
  9
$DIMASSOC
280
     2
  9
$PROJECTNAME
  1

  9
$CAMERADISPLAY
290
     0
  9
$LENSLENGTH
 40
50.0
  9
$CAMERAHEIGHT
 40
0.0
  9
$STEPSPERSEC
 40
2.0
  9
$STEPSIZE
 40
6.0
  9
$3DDWFPREC
 40
2.0
  9
$PSOLWIDTH
 40
0.25
  9
$PSOLHEIGHT
 40
4.0
  9
$LOFTANG1
 40
1.570796326794897
  9
$LOFTANG2
 40
1.570796326794897
  9
$LOFTMAG1
 40
0.0
  9
$LOFTMAG2
 40
0.0
  9
$LOFTPARAM
 70
     7
  9
$LOFTNORMALS
280
     1
  9
$LATITUDE
 40
37.795
  9
$LONGITUDE
 40
-122.394
  9
$NORTHDIRECTION
 40
0.0
  9
$TIMEZONE
 70
 -8000
  9
$LIGHTGLYPHDISPLAY
280
     1
  9
$TILEMODELIGHTSYNCH
280
     1
  9
$SOLIDHIST
280
     0
  9
$SHOWHIST
280
     1
  9
$DWFFRAME
280
     2
  9
$DGNFRAME
280
     2
  9
$REALWORLDSCALE
290
     1
  9
$INTERFERECOLOR
 62
   256
  9
$CSHADOW
280
     0
  9
$SHADOWPLANELOCATION
 40
0.0
  0
ENDSEC
  0
SECTION
  2
CLASSES
  0
CLASS
  1
ACDBDICTIONARYWDFLT
  2
AcDbDictionaryWithDefault
  3
ObjectDBX Classes
 90
        0
 91
        3
280
     0
281
     0
  0
CLASS
  1
MATERIAL
  2
AcDbMaterial
  3
ObjectDBX Classes
 90
     1153
 91
        3
280
     0
281
     0
  0
CLASS
  1
SCALE
  2
AcDbScale
  3
ObjectDBX Classes
 90
     1153
 91
        3
280
     0
281
     0
  0
CLASS
  1
VISUALSTYLE
  2
AcDbVisualStyle
  3
ObjectDBX Classes
 90
     4095
 91
        3
280
     0
281
     0
  0
CLASS
  1
TABLESTYLE
  2
AcDbTableStyle
  3
ObjectDBX Classes
 90
     4095
 91
        3
280
     0
281
     0
  0
CLASS
  1
MLEADERSTYLE
  2
AcDbMLeaderStyle
  3
ACDB_MLEADERSTYLE_CLASS
 90
     4095
 91
        3
280
     0
281
     0
  0
CLASS
  1
DICTIONARYVAR
  2
AcDbDictionaryVar
  3
ObjectDBX Classes
 90
        0
 91
        3
280
     0
281
     0
  0
CLASS
  1
SORTENTSTABLE
  2
AcDbSortentsTable
  3
ObjectDBX Classes
 90
        0
 91
        3
280
     0
281
     0
  0
CLASS
  1
DIMASSOC
  2
AcDbDimAssoc
  3
"AcDbDimAssoc|Product Desc:     AcDim ARX App For Dimension|Company:          Autodesk, Inc.|WEB Address:      www.autodesk.com"
 90
        0
 91
        3
280
     0
281
     0
  0
CLASS
  1
BREAKDATA
  2
AcDbBreakData
  3
ObjectDBX Classes
 90
     1024
 91
        3
280
     0
281
     0
  0
CLASS
  1
SUN
  2
AcDbSun
  3
SCENEOE
 90
     1153
 91
        3
280
     0
281
     0
  0
CLASS
  1
CELLSTYLEMAP
  2
AcDbCellStyleMap
  3
ObjectDBX Classes
 90
     1152
 91
        3
280
     0
281
     0
  0
ENDSEC
  0
SECTION
  2
TABLES
  0
TABLE
  2
VPORT
  5
EF6CC
330
0
100
AcDbSymbolTable
 70
     1
  0
VPORT
  5
EF6E3
330
EF6CC
100
AcDbSymbolTableRecord
100
AcDbViewportTableRecord
  2
*ACTIVE
 70
     0
 10
0.0
 20
0.0
 11
1.0
 21
1.0
 12
4601.008305033181
 22
5682.355792501239
 13
0.0
 23
0.0
 14
1.0
 24
1.0
 15
0.0
 25
0.0
 16
0.0
 26
0.0
 36
1.0
 17
0.0
 27
0.0
 37
0.0
 40
13606.82741663748
 41
1.944065484311051
 42
50.0
 43
0.0
 44
0.0
 50
0.0
 51
0.0
 71
    16
 72
   100
 73
     1
 74
     1
 75
     0
 76
     1
 77
     0
 78
     0
281
     0
 65
     0
110
0.0
120
0.0
130
0.0
111
1.0
121
0.0
131
0.0
112
0.0
122
1.0
132
0.0
 79
     0
146
0.0
348
EF73F
 60
     3
 61
     5
292
     1
282
     1
141
0.0
142
0.0
 63
   256
361
F070C
  0
ENDTAB
  0
TABLE
  2
LTYPE
  5
EF6C9
330
0
100
AcDbSymbolTable
 70
     1
  0
LTYPE
  5
EF6D7
330
EF6C9
100
AcDbSymbolTableRecord
100
AcDbLinetypeTableRecord
  2
ByBlock
 70
     0
  3

 72
    65
 73
     0
 40
0.0
  0
LTYPE
  5
EF6D8
330
EF6C9
100
AcDbSymbolTableRecord
100
AcDbLinetypeTableRecord
  2
ByLayer
 70
     0
  3

 72
    65
 73
     0
 40
0.0
  0
LTYPE
  5
EF6D9
330
EF6C9
100
AcDbSymbolTableRecord
100
AcDbLinetypeTableRecord
  2
CONTINUOUS
 70
     0
  3
Solid line
 72
    65
 73
     0
 40
0.0
  0
ENDTAB
  0
TABLE
  2
LAYER
  5
EF6C7
102
{ACAD_XDICTIONARY
360
EF78F
102
}
330
0
100
AcDbSymbolTable
 70
     1
  0
LAYER
  5
EF6D4
330
EF6C7
100
AcDbSymbolTableRecord
100
AcDbLayerTableRecord
  2
0
 70
     0
 62
     7
  6
CONTINUOUS
370
    -3
390
EF6D3
347
EF6E9
348
0
  0
ENDTAB
  0
TABLE
  2
STYLE
  5
EF6C8
330
0
100
AcDbSymbolTable
 70
     2
  0
STYLE
  5
EF6D5
330
EF6C8
100
AcDbSymbolTableRecord
100
AcDbTextStyleTableRecord
  2
STANDARD
 70
     0
 40
0.0
 41
1.0
 50
0.0
 71
     0
 42
2.5
  3
txt
  4

  0
STYLE
  5
EF6EC
330
EF6C8
100
AcDbSymbolTableRecord
100
AcDbTextStyleTableRecord
  2
STILE1
 70
     0
 40
0.0
 41
1.0
 50
0.0
 71
     0
 42
19.0
  3
ROMANS.SHX
  4

  0
ENDTAB
  0
TABLE
  2
VIEW
  5
EF6CA
330
0
100
AcDbSymbolTable
 70
     0
  0
ENDTAB
  0
TABLE
  2
UCS
  5
EF6CB
330
0
100
AcDbSymbolTable
 70
     0
  0
ENDTAB
  0
TABLE
  2
APPID
  5
EF6CD
330
0
100
AcDbSymbolTable
 70
    43
  0
APPID
  5
EF6D6
330
EF6CD
100
AcDbSymbolTableRecord
100
AcDbRegAppTableRecord
  2
ACAD
 70
     0
  0
APPID
  5
EF6EE
330
EF6CD
100
AcDbSymbolTableRecord
100
AcDbRegAppTableRecord
  2
DCO15
 70
     0
  0
APPID
  5
EF6EF
330
EF6CD
100
AcDbSymbolTableRecord
100
AcDbRegAppTableRecord
  2
ACAECLAYERSTANDARD
 70
     0
  0
APPID
  5
EF6F0
330
EF6CD
100
AcDbSymbolTableRecord
100
AcDbRegAppTableRecord
  2
ACDBDYNAMICBLOCKGUID
 70
     0
  0
APPID
  5
EF6F1
330
EF6CD
100
AcDbSymbolTableRecord
100
AcDbRegAppTableRecord
  2
ACDBBLOCKREPETAG
 70
     0
  0
APPID
  5
EF6F2
330
EF6CD
100
AcDbSymbolTableRecord
100
AcDbRegAppTableRecord
  2
ACAD_PSEXT
 70
     0
  0
APPID
  5
EF6F3
330
EF6CD
100
AcDbSymbolTableRecord
100
AcDbRegAppTableRecord
  2
ACAD_DSTYLE_DIMJAG
 70
     0
  0
APPID
  5
EF6F4
330
EF6CD
100
AcDbSymbolTableRecord
100
AcDbRegAppTableRecord
  2
ACAD_DSTYLE_DIMTALN
 70
     0
  0
APPID
  5
EF6F5
330
EF6CD
100
AcDbSymbolTableRecord
100
AcDbRegAppTableRecord
  2
ACAD_DSTYLE_DIMRADIAL_EXTE
 70
     0
  0
APPID
  5
EF6F6
330
EF6CD
100
AcDbSymbolTableRecord
100
AcDbRegAppTableRecord
  2
RAK
 70
     0
  0
APPID
  5
EF6F7
330
EF6CD
100
AcDbSymbolTableRecord
100
AcDbRegAppTableRecord
  2
ACLAYERTOOLS
 70
     0
  0
APPID
  5
EF6F8
330
EF6CD
100
AcDbSymbolTableRecord
100
AcDbRegAppTableRecord
  2
REVIT
 70
     0
  0
APPID
  5
EF6F9
330
EF6CD
100
AcDbSymbolTableRecord
100
AcDbRegAppTableRecord
  2
ACAD_MLEADERVER
 70
     0
  0
APPID
  5
EF6FA
330
EF6CD
100
AcDbSymbolTableRecord
100
AcDbRegAppTableRecord
  2
ACAD_DSTYLE_DIMBREAK
 70
     0
  0
APPID
  5
EF6FB
330
EF6CD
100
AcDbSymbolTableRecord
100
AcDbRegAppTableRecord
  2
ACCMTRANSPARENCY
 70
     0
  0
APPID
  5
EF6FC
330
EF6CD
100
AcDbSymbolTableRecord
100
AcDbRegAppTableRecord
  2
ACAD_NAV_VCDISPLAY
 70
     0
  0
APPID
  5
EF6FD
330
EF6CD
100
AcDbSymbolTableRecord
100
AcDbRegAppTableRecord
  2
GRADIENTCOLOR1ACI
 70
     0
  0
APPID
  5
EF6FE
330
EF6CD
100
AcDbSymbolTableRecord
100
AcDbRegAppTableRecord
  2
GRADIENTCOLOR2ACI
 70
     0
  0
APPID
  5
EF6FF
330
EF6CD
100
AcDbSymbolTableRecord
100
AcDbRegAppTableRecord
  2
PROGE_PRINT_SETTINGS
 70
     0
  0
APPID
  5
EF700
330
EF6CD
100
AcDbSymbolTableRecord
100
AcDbRegAppTableRecord
  2
AA_WLPR
 70
     0
  0
APPID
  5
EF701
330
EF6CD
100
AcDbSymbolTableRecord
100
AcDbRegAppTableRecord
  2
AA_WLENT
 70
     0
  0
APPID
  5
EF702
330
EF6CD
100
AcDbSymbolTableRecord
100
AcDbRegAppTableRecord
  2
AA_WLTP
 70
     0
  0
APPID
  5
EF703
330
EF6CD
100
AcDbSymbolTableRecord
100
AcDbRegAppTableRecord
  2
AA_WLBK
 70
     0
  0
APPID
  5
EF704
330
EF6CD
100
AcDbSymbolTableRecord
100
AcDbRegAppTableRecord
  2
ACAD_DSTYLE_DIMJOGGED_JOGA
 70
     0
  0
APPID
  5
EF705
330
EF6CD
100
AcDbSymbolTableRecord
100
AcDbRegAppTableRecord
  2
$DDT_AUDIT_GENERATED__2CAF
 70
     0
  0
APPID
  5
EF706
330
EF6CD
100
AcDbSymbolTableRecord
100
AcDbRegAppTableRecord
  2
ACAD_DSTYLE_DIMEXT_LENGTH
 70
     0
  0
APPID
  5
EF707
330
EF6CD
100
AcDbSymbolTableRecord
100
AcDbRegAppTableRecord
  2
ACAD_DSTYLE_DIMEXT_ENABLED
 70
     0
  0
APPID
  5
EF708
330
EF6CD
100
AcDbSymbolTableRecord
100
AcDbRegAppTableRecord
  2
ACAD_DSTYLE_DIMJOGGED_JOG0
 70
     0
  0
APPID
  5
EF709
330
EF6CD
100
AcDbSymbolTableRecord
100
AcDbRegAppTableRecord
  2
ACAD_DSTYLE_DIMARC_LENGTH_
 70
     0
  0
APPID
  5
EF70A
330
EF6CD
100
AcDbSymbolTableRecord
100
AcDbRegAppTableRecord
  2
C_AND_O
 70
     0
  0
APPID
  5
EF70B
330
EF6CD
100
AcDbSymbolTableRecord
100
AcDbRegAppTableRecord
  2
AVE_FINISH
 70
     0
  0
APPID
  5
EF70C
330
EF6CD
100
AcDbSymbolTableRecord
100
AcDbRegAppTableRecord
  2
AVE_RENDER
 70
     0
  0
APPID
  5
EF70D
330
EF6CD
100
AcDbSymbolTableRecord
100
AcDbRegAppTableRecord
  2
AVE_ENTITY_MATERIAL
 70
     0
  0
APPID
  5
EF70E
330
EF6CD
100
AcDbSymbolTableRecord
100
AcDbRegAppTableRecord
  2
AVE_MATERIAL
 70
     0
  0
APPID
  5
EF70F
330
EF6CD
100
AcDbSymbolTableRecord
100
AcDbRegAppTableRecord
  2
ADDC5$_$SETUP-
 70
     0
  0
APPID
  5
EF710
330
EF6CD
100
AcDbSymbolTableRecord
100
AcDbRegAppTableRecord
  2
ADDC4$_$SETUP-
 70
     0
  0
APPID
  5
EF711
330
EF6CD
100
AcDbSymbolTableRecord
100
AcDbRegAppTableRecord
  2
ADDC4$_$ARTSETUP-
 70
     0
  0
APPID
  5
EF712
330
EF6CD
100
AcDbSymbolTableRecord
100
AcDbRegAppTableRecord
  2
GENIUS_GENODEF_13
 70
     0
  0
APPID
  5
EF713
330
EF6CD
100
AcDbSymbolTableRecord
100
AcDbRegAppTableRecord
  2
GENIUS_GENOBJ-N-REC_13
 70
     0
  0
APPID
  5
EF714
330
EF6CD
100
AcDbSymbolTableRecord
100
AcDbRegAppTableRecord
  2
GENIUS_GENREC_14
 70
     0
  0
APPID
  5
EF766
330
EF6CD
100
AcDbSymbolTableRecord
100
AcDbRegAppTableRecord
  2
PE_URL
 70
     0
  0
APPID
  5
EF7C3
330
EF6CD
100
AcDbSymbolTableRecord
100
AcDbRegAppTableRecord
  2
ENABLE_CUSTOM_SPLIT
 70
     0
  0
APPID
  5
EF7E6
330
EF6CD
100
AcDbSymbolTableRecord
100
AcDbRegAppTableRecord
  2
HATCHBACKGROUNDCOLOR
 70
     0
  0
ENDTAB
  0
TABLE
  2
DIMSTYLE
  5
EF6CE
330
0
100
AcDbSymbolTable
 70
     1
100
AcDbDimStyleTable
  0
DIMSTYLE
105
EF715
330
EF6CE
100
AcDbSymbolTableRecord
100
AcDbDimStyleTableRecord
  2
STANDARD
 70
     0
178
     0
340
EF6EC
  0
ENDTAB
  0
TABLE
  2
BLOCK_RECORD
  5
EF6C6
330
0
100
AcDbSymbolTable
 70
     0
  0
BLOCK_RECORD
  5
EF6E0
102
{ACAD_XDICTIONARY
360
F070A
102
}
330
EF6C6
100
AcDbSymbolTableRecord
100
AcDbBlockTableRecord
  2
*Model_Space
340
EF6E1
 70
     0
280
     1
281
     0
  0
BLOCK_RECORD
  5
EF6DE
330
EF6C6
100
AcDbSymbolTableRecord
100
AcDbBlockTableRecord
  2
*Paper_Space
340
EF6DF
 70
     0
280
     1
281
     0
  0
ENDTAB
  0
ENDSEC
  0
SECTION
  2
BLOCKS
  0
BLOCK
  5
EF716
330
EF6E0
100
AcDbEntity
  8
0
100
AcDbBlockBegin
  2
*Model_Space
 70
     0
 10
0.0
 20
0.0
 30
0.0
  3
*Model_Space
  1

  0
ENDBLK
  5
EEC63
330
EF6E0
100
AcDbEntity
  8
0
100
AcDbBlockEnd
  0
BLOCK
  5
EF717
330
EF6DE
100
AcDbEntity
 67
     1
  8
0
100
AcDbBlockBegin
  2
*Paper_Space
 70
     0
 10
0.0
 20
0.0
 30
0.0
  3
*Paper_Space
  1

  0
ENDBLK
  5
EEC5F
330
EF6DE
100
AcDbEntity
 67
     1
  8
0
100
AcDbBlockEnd
  0
ENDSEC
  0
SECTION
  2
ENTITIES
  0
LWPOLYLINE
  5
DD2BE
330
EF6E0
100
AcDbEntity
  8
0
100
AcDbPolyline
 90
        4
 70
     1
 43
0.0
 10
-4012.685974119233
 20
7762.369232029412
 10
2168.388158423171
 20
7762.369232029412
 10
2168.388158423171
 20
12352.36923202941
 10
-4012.685974119233
 20
12352.36923202941
  0
LINE
  5
DD2BF
330
EF6E0
100
AcDbEntity
  8
0
100
AcDbLine
 10
4012.685974119231
 20
0.0000000000002274
 30
0.0
 11
4012.685974119231
 21
-987.6576470269353
 31
0.0
  0
TEXT
  5
DD2C0
330
EF6E0
100
AcDbEntity
  8
0
100
AcDbText
 10
2240.022522568668
 20
-208.9254166234015
 30
0.0
 40
125.0
  1
2024-06
  7
STILE1
 72
     1
 11
2674.918355902001
 21
-208.9254166234015
 31
0.0
100
AcDbText
  0
LINE
  5
DD2C1
330
EF6E0
100
AcDbEntity
  8
0
100
AcDbLine
 10
1337.561991373077
 20
-299.9965549039189
 30
0.0
 11
1337.561991373077
 21
0.0
 31
0.0
  0
LINE
  5
DD2C2
330
EF6E0
100
AcDbEntity
  8
0
100
AcDbLine
 10
-1337.561991373077
 20
0.0
 30
0.0
 11
-1337.561991373077
 21
-987.6576470269353
 31
0.0
  0
LWPOLYLINE
  5
DD2C3
330
EF6E0
100
AcDbEntity
  8
0
100
AcDbPolyline
 90
        4
 70
     1
 43
0.0
 10
-4012.685974119231
 20
0.0
 10
4012.685974119231
 20
0.0
 10
4012.685974119231
 20
-987.6576470269353
 10
-4012.685974119231
 20
-987.6576470269353
  0
LWPOLYLINE
  5
DD2C4
330
EF6E0
100
AcDbEntity
  8
0
100
AcDbPolyline
 90
        2
 70
     0
 43
0.0
 10
-1337.561991373077
 20
-299.9965549039189
 10
4012.685974119231
 20
-299.9965549039186
  0
TEXT
  5
DD2C5
330
EF6E0
100
AcDbEntity
  8
0
100
AcDbText
 10
-527.8452372835668
 20
-817.4938565844182
 30
0.0
 40
125.0
  1
This drawing is property of Fantin S.r.l. 
  7
STILE1
 72
     1
 11
1487.035715097386
 21
-817.4938565844182
 31
0.0
100
AcDbText
  0
LWPOLYLINE
  5
DD2C6
330
EF6E0
100
AcDbEntity
  8
0
100
AcDbPolyline
 90
       16
 70
     1
 43
0.0
 10
-3164.963312949987
 20
-604.0348442923276
 10
-3164.963312949987
 20
-604.0348442923276
 10
-3140.60203043744
 20
-687.6576470269355
 10
-3014.885328505188
 20
-687.6576470269355
 10
-3132.294182670303
 20
-334.8833143443335
 42
0.1089385125692126
 10
-3145.036042486318
 20
-307.2121766244527
 42
0.1589313772246072
 10
-3157.031867676415
 20
-299.9273046676535
 42
0.058673645385263
 10
-3173.277038573287
 20
-298.3360188803636
 10
-3173.277038573287
 20
-298.3360188803636
 10
-3268.525316026062
 20
-298.3360188803636
 42
0.058673645385263
 10
-3284.770486922936
 20
-299.9273046676535
 42
0.1589313772246072
 10
-3296.766312113032
 20
-307.2121766244527
 42
0.1089385125692126
 10
-3309.508171929046
 20
-334.8833143443335
 10
-3426.917026089505
 20
-687.6576470269355
 10
-3307.851080996916
 20
-687.6576470269355
 10
-3284.038581000641
 20
-604.0348442923276
  0
LWPOLYLINE
  5
DD2C7
330
EF6E0
100
AcDbEntity
  8
0
100
AcDbPolyline
 90
        5
 70
     0
 43
0.0
 10
-3221.454976396636
 20
-406.8789198133162
 10
-3188.227030434647
 20
-520.96670193132
 10
-3260.775573728607
 20
-520.96670193132
 10
-3227.547627761961
 20
-406.8789198133162
 10
-3221.454976396636
 20
-406.8789198133162
  0
LWPOLYLINE
  5
DD2C8
330
EF6E0
100
AcDbEntity
  8
0
100
AcDbPolyline
 90
       11
 70
     0
 43
0.0
 10
-3407.540086535738
 20
-300.0
 10
-3407.540086535738
 20
-389.1607937274967
 10
-3593.616583929397
 20
-389.1607937274967
 10
-3593.616583929397
 20
-466.1362847220151
 10
-3463.47293430008
 20
-466.1362847220151
 10
-3463.47293430008
 20
-549.2095947265625
 10
-3593.616583929397
 20
-549.2095947265625
 10
-3593.616583929397
 20
-687.6576470269355
 10
-3712.685974119231
 20
-687.6576470269355
 10
-3712.685974119231
 20
-300.0
 10
-3407.540086535738
 20
-300.0
  0
LWPOLYLINE
  5
DD2C9
330
EF6E0
100
AcDbEntity
  8
0
100
AcDbPolyline
 90
        4
 70
     1
 43
0.0
 10
-2192.47902425006
 20
-299.9982774525415
 10
-2073.409634060226
 20
-299.9982774525415
 10
-2073.409634060226
 20
-687.6576470269355
 10
-2192.47902425006
 20
-687.6576470269355
  0
LWPOLYLINE
  5
DD2CA
330
EF6E0
100
AcDbEntity
  8
0
100
AcDbPolyline
 90
        9
 70
     0
 43
0.0
 10
-2229.582702633925
 20
-299.9982774525415
 10
-2229.582702633925
 20
-390.8213297522161
 10
-2345.878790956922
 20
-390.8213297522161
 10
-2345.878790956922
 20
-687.6576470269355
 10
-2464.948181146756
 20
-687.6576470269355
 10
-2464.948181146756
 20
-390.8213297522161
 10
-2578.481302894652
 20
-390.8213297522161
 10
-2578.481302894652
 20
-299.9982774525415
 10
-2229.582702633925
 20
-299.9982774525415
  0
LWPOLYLINE
  5
DD2CB
330
EF6E0
100
AcDbEntity
  8
0
100
AcDbPolyline
 90
       15
 70
     0
 43
0.0
 10
-2982.206875272095
 20
-687.6576470269355
 10
-2982.206875272095
 20
-299.9965549039189
 10
-2880.857333708556
 20
-299.9965549039189
 42
-0.316444976687396
 10
-2829.909539115615
 20
-328.2411702477839
 10
-2729.116380475462
 20
-498.2600775826719
 10
-2726.348246252165
 20
-498.2600775826719
 10
-2726.348246252165
 20
-299.9965549039189
 10
-2613.924445258454
 20
-299.9965549039189
 10
-2613.924445258454
 20
-687.6576470269355
 10
-2696.446539983154
 20
-687.6576470269355
 42
-0.312959769389874
 10
-2747.39433458075
 20
-659.4147542316932
 10
-2867.014940045774
 20
-466.1380072694737
 10
-2869.779629176483
 20
-466.1380072694737
 10
-2869.779629176483
 20
-687.6576470269355
 10
-2982.206875272095
 20
-687.6576470269355
  0
LWPOLYLINE
  5
DD2CC
330
EF6E0
100
AcDbEntity
  8
0
100
AcDbPolyline
 90
       15
 70
     0
 43
0.0
 10
-2005.844421386719
 20
-687.6576470269355
 10
-2005.844421386719
 20
-299.9965549039189
 10
-1904.494879823178
 20
-299.9965549039189
 42
-0.316444976687396
 10
-1853.547085234894
 20
-328.2411702477839
 10
-1752.753926590085
 20
-498.2600775826719
 10
-1749.985792371444
 20
-498.2600775826719
 10
-1749.985792371444
 20
-299.9965549039189
 10
-1637.561991373077
 20
-299.9965549039189
 10
-1637.561991373077
 20
-687.6576470269355
 10
-1720.084086097777
 20
-687.6576470269355
 42
-0.312959769389874
 10
-1771.031880690716
 20
-659.4147542316932
 10
-1890.652486160398
 20
-466.1380072694737
 10
-1893.417175291106
 20
-466.1380072694737
 10
-1893.417175291106
 20
-687.6576470269355
 10
-2005.844421386719
 20
-687.6576470269355
  0
TEXT
  5
DD2CD
330
EF6E0
100
AcDbEntity
  8
0
100
AcDbText
 10
-492.3511028769727
 20
-208.9254166234014
 30
0.0
 40
125.0
  1
Uno Living
  7
STILE1
 72
     1
 11
7.741903075408115
 21
-208.9254166234014
 31
0.0
100
AcDbText
  0
TEXT
  5
DD2CE
330
EF6E0
100
AcDbEntity
  8
0
100
AcDbText
 10
-838.7791374978221
 20
-555.4096502962035
 30
0.0
 40
125.0
  1
Questo disegno è di proprietà di Fantin S.r.l.   
  7
STILE1
 72
     1
 11
1583.839910121225
 21
-555.4096502962035
 31
0.0
100
AcDbText
  0
LWPOLYLINE
  5
DD2D0
330
EF6E0
100
AcDbEntity
  8
0
100
AcDbPolyline
 90
        4
 70
     1
 43
0.0
 10
2831.07174510397
 20
7762.36923202941
 10
13214.7025841856
 20
7762.36923202941
 10
13214.7025841856
 20
12352.36923202941
 10
2831.07174510397
 20
12352.36923202941
  0
LWPOLYLINE
  5
E3ABB
330
EF6E0
100
AcDbEntity
  8
0
100
AcDbPolyline
 90
       17
 70
     0
 43
0.0
 10
12298.44524873328
 20
11577.33371800707
 10
12304.94524873327
 20
11577.33371800707
 10
12304.94524873327
 20
11576.33371800708
 10
12299.44524873327
 20
11576.33371800708
 10
12299.44524873327
 20
11552.33371800708
 10
12327.44524873327
 20
11552.33371800708
 10
12327.44524873327
 20
11850.33371800708
 10
12299.44524873327
 20
11850.33371800708
 10
12299.44524873327
 20
11826.33371800708
 10
12304.94524873327
 20
11826.33371800708
 10
12304.94524873327
 20
11825.33371800708
 10
12298.44524873328
 20
11825.33371800708
 10
12298.44524873328
 20
11851.33371800708
 10
12328.44524873327
 20
11851.33371800708
 10
12328.44524873327
 20
11551.33371800708
 10
12298.44524873328
 20
11551.33371800708
 10
12298.44524873328
 20
11577.33371800707
  0
LWPOLYLINE
  5
E3ABC
330
EF6E0
100
AcDbEntity
  8
0
100
AcDbPolyline
 90
       13
 70
     0
 43
0.0
 10
12326.74524873321
 20
11747.13371800712
 10
12327.44524873327
 20
11747.13371800712
 10
12327.44524873327
 20
11723.13371800712
 10
12303.14524873323
 20
11723.13371800712
 10
12303.14524873323
 20
11679.53371800715
 10
12327.44524873327
 20
11679.53371800715
 10
12327.44524873327
 20
11655.53371800715
 10
12326.74524873321
 20
11655.53371800715
 10
12326.74524873321
 20
11678.83371800708
 10
12302.44524873327
 20
11678.83371800708
 10
12302.44524873327
 20
11723.83371800708
 10
12326.74524873321
 20
11723.83371800708
 10
12326.74524873321
 20
11747.13371800712
  0
LINE
  5
E3ABD
330
EF6E0
100
AcDbEntity
  8
0
100
AcDbLine
 10
12327.44524873327
 20
11797.9232085518
 30
0.0
 11
12327.44524873327
 21
11754.32320855182
 31
0.0
  0
LWPOLYLINE
  5
E3ABE
330
EF6E0
100
AcDbEntity
  8
0
100
AcDbPolyline
 90
       12
 70
     1
 43
0.0
 10
11666.46463761878
 20
11851.33371800708
 10
11666.46463761878
 20
11821.33371800708
 10
11681.46463761878
 20
11821.33371800708
 10
11681.46463761878
 20
11581.33371800708
 10
11666.46463761878
 20
11581.33371800708
 10
11666.46463761878
 20
11551.33371800708
 10
10496.46463761878
 20
11551.33371800708
 10
10496.46463761878
 20
11581.33371800708
 10
10481.46463761878
 20
11581.33371800708
 10
10481.46463761878
 20
11821.33371800708
 10
10496.46463761878
 20
11821.33371800708
 10
10496.46463761878
 20
11851.33371800708
  0
LWPOLYLINE
  5
E3ABF
330
EF6E0
100
AcDbEntity
  8
0
100
AcDbPolyline
 90
       12
 70
     1
 43
0.0
 10
9436.464637618787
 20
11851.33371800708
 10
9436.464637618787
 20
11821.33371800708
 10
9451.464637618787
 20
11821.33371800708
 10
9451.464637618787
 20
11581.33371800708
 10
9436.464637618787
 20
11581.33371800708
 10
9436.464637618787
 20
11551.33371800708
 10
8466.464637618776
 20
11551.33371800708
 10
8466.464637618776
 20
11581.33371800708
 10
8451.464637618776
 20
11581.33371800708
 10
8451.464637618776
 20
11821.33371800708
 10
8466.464637618776
 20
11821.33371800708
 10
8466.464637618776
 20
11851.33371800708
  0
LWPOLYLINE
  5
E3AC0
330
EF6E0
100
AcDbEntity
  8
0
100
AcDbPolyline
 90
       12
 70
     1
 43
0.0
 10
7206.46463761879
 20
11851.33371800708
 10
7206.46463761879
 20
11821.33371800708
 10
7221.464637618788
 20
11821.33371800708
 10
7221.464637618788
 20
11581.33371800708
 10
7206.46463761879
 20
11581.33371800708
 10
7206.46463761879
 20
11551.33371800708
 10
6436.464637618787
 20
11551.33371800708
 10
6436.464637618787
 20
11581.33371800708
 10
6421.464637618787
 20
11581.33371800708
 10
6421.464637618787
 20
11821.33371800708
 10
6436.464637618787
 20
11821.33371800708
 10
6436.464637618787
 20
11851.33371800708
  0
TEXT
  5
E3AC2
330
EF6E0
100
AcDbEntity
  8
0
100
AcDbText
 10
10752.7645032376
 20
11069.46641245938
 30
0.0
 40
100.0
  1
L 120
  7
STILE1
100
AcDbText
  0
TEXT
  5
E3AC3
330
EF6E0
100
AcDbEntity
  8
0
100
AcDbText
 10
8689.345280554067
 20
11069.46641245938
 30
0.0
 40
100.0
  1
L 100
  7
STILE1
100
AcDbText
  0
TEXT
  5
E3AC4
330
EF6E0
100
AcDbEntity
  8
0
100
AcDbText
 10
6581.323235880507
 20
11069.46641245938
 30
0.0
 40
100.0
  1
L 80
  7
STILE1
100
AcDbText
  0
TEXT
  5
E3AC5
330
EF6E0
100
AcDbEntity
  8
0
100
AcDbText
 10
3697.973535880377
 20
11586.39193644371
 30
0.0
 40
100.0
  1
P 30
  7
STILE1
100
AcDbText
  0
LWPOLYLINE
  5
E3AC6
330
EF6E0
100
AcDbEntity
  8
0
100
AcDbPolyline
 90
       12
 70
     1
 43
0.0
 10
5176.464637618794
 20
11851.33371800708
 10
5176.464637618794
 20
11821.33371800708
 10
5191.464637618792
 20
11821.33371800708
 10
5191.464637618792
 20
11581.33371800708
 10
5176.464637618794
 20
11581.33371800708
 10
5176.464637618794
 20
11551.33371800708
 10
4606.46463761879
 20
11551.33371800708
 10
4606.46463761879
 20
11581.33371800708
 10
4591.464637618794
 20
11581.33371800708
 10
4591.464637618794
 20
11821.33371800708
 10
4606.46463761879
 20
11821.33371800708
 10
4606.46463761879
 20
11851.33371800708
  0
TEXT
  5
E3AE2
330
EF6E0
100
AcDbEntity
  8
0
100
AcDbText
 10
4651.323235880514
 20
11069.46641245938
 30
0.0
 40
100.0
  1
L 60
  7
STILE1
100
AcDbText
  0
LWPOLYLINE
  5
E4078
330
EF6E0
100
AcDbEntity
  8
0
100
AcDbPolyline
 90
       21
 70
     0
 43
0.0
 10
10481.46463761878
 20
10081.33371800708
 10
10481.46463761878
 20
10321.33371800708
 10
10481.46463761878
 20
10321.33371800708
 10
10481.46463761878
 20
10321.33371800708
 10
10496.46463761878
 20
10321.33371800708
 10
10496.46463761878
 20
10351.33371800708
 10
11666.46463761878
 20
10351.33371800708
 10
11666.46463761878
 20
10321.33371800708
 10
11696.46463761878
 20
10321.33371800708
 10
11696.46463761878
 20
10351.33371800708
 10
11931.46463761878
 20
10351.33371800708
 10
11931.46463761878
 20
10051.33371800708
 10
11696.46463761878
 20
10051.33371800708
 10
11696.46463761878
 20
10081.33371800708
 10
11666.46463761878
 20
10081.33371800708
 10
11666.46463761878
 20
10051.33371800708
 10
10496.46463761878
 20
10051.33371800708
 10
10496.46463761878
 20
10081.33371800708
 10
10481.46463761878
 20
10081.33371800708
 10
10481.46463761878
 20
10081.33371800708
 10
10481.46463761878
 20
10081.33371800708
  0
LWPOLYLINE
  5
E4079
330
EF6E0
100
AcDbEntity
  8
0
100
AcDbPolyline
 90
       21
 70
     0
 43
0.0
 10
10231.46463761879
 20
8551.333718007078
 10
10231.46463761879
 20
8851.333718007078
 10
10466.46463761879
 20
8851.333718007078
 10
10466.46463761879
 20
8821.333718007078
 10
10496.46463761878
 20
8821.333718007078
 10
10496.46463761878
 20
8851.333718007078
 10
11666.46463761878
 20
8851.333718007078
 10
11666.46463761878
 20
8821.333718007078
 10
11696.46463761878
 20
8821.333718007078
 10
11696.46463761878
 20
8851.333718007078
 10
11931.46463761878
 20
8851.333718007078
 10
11931.46463761878
 20
8551.333718007078
 10
11696.46463761878
 20
8551.333718007078
 10
11696.46463761878
 20
8581.333718007078
 10
11666.46463761878
 20
8581.333718007078
 10
11666.46463761878
 20
8551.333718007078
 10
10496.46463761878
 20
8551.333718007078
 10
10496.46463761878
 20
8581.333718007078
 10
10466.46463761879
 20
8581.333718007078
 10
10466.46463761879
 20
8551.333718007078
 10
10216.46463761879
 20
8551.333718007078
  0
LWPOLYLINE
  5
E407A
330
EF6E0
100
AcDbEntity
  8
0
100
AcDbPolyline
 90
       21
 70
     0
 43
0.0
 10
8451.464637618776
 20
10081.33371800708
 10
8451.464637618776
 20
10321.33371800708
 10
8451.464637618776
 20
10321.33371800708
 10
8451.464637618776
 20
10321.33371800708
 10
8466.464637618776
 20
10321.33371800708
 10
8466.464637618776
 20
10351.33371800708
 10
9436.464637618787
 20
10351.33371800708
 10
9436.464637618787
 20
10321.33371800708
 10
9466.464637618787
 20
10321.33371800708
 10
9466.464637618787
 20
10351.33371800708
 10
9701.464637618787
 20
10351.33371800708
 10
9701.464637618787
 20
10051.33371800708
 10
9466.464637618787
 20
10051.33371800708
 10
9466.464637618787
 20
10081.33371800708
 10
9436.464637618787
 20
10081.33371800708
 10
9436.464637618787
 20
10051.33371800708
 10
8466.464637618776
 20
10051.33371800708
 10
8466.464637618776
 20
10081.33371800708
 10
8451.464637618776
 20
10081.33371800708
 10
8451.464637618776
 20
10081.33371800708
 10
8451.464637618776
 20
10081.33371800708
  0
LWPOLYLINE
  5
E407B
330
EF6E0
100
AcDbEntity
  8
0
100
AcDbPolyline
 90
       21
 70
     0
 43
0.0
 10
8201.46463761879
 20
8551.333718007078
 10
8201.46463761879
 20
8851.333718007078
 10
8436.464637618787
 20
8851.333718007078
 10
8436.464637618787
 20
8821.333718007078
 10
8466.464637618776
 20
8821.333718007078
 10
8466.464637618776
 20
8851.333718007078
 10
9436.464637618787
 20
8851.333718007078
 10
9436.464637618787
 20
8821.333718007078
 10
9466.464637618787
 20
8821.333718007078
 10
9466.464637618787
 20
8851.333718007078
 10
9701.464637618787
 20
8851.333718007078
 10
9701.464637618787
 20
8551.333718007078
 10
9466.464637618787
 20
8551.333718007078
 10
9466.464637618787
 20
8581.333718007078
 10
9436.464637618787
 20
8581.333718007078
 10
9436.464637618787
 20
8551.333718007078
 10
8466.464637618776
 20
8551.333718007078
 10
8466.464637618776
 20
8581.333718007078
 10
8436.464637618787
 20
8581.333718007078
 10
8436.464637618787
 20
8551.333718007078
 10
8201.46463761879
 20
8551.333718007078
  0
LINE
  5
E407C
330
EF6E0
100
AcDbEntity
  8
0
100
AcDbLine
 10
12327.44524873327
 20
10297.9232085518
 30
0.0
 11
12327.44524873327
 21
10254.32320855182
 31
0.0
  0
LWPOLYLINE
  5
E407D
330
EF6E0
100
AcDbEntity
  8
0
100
AcDbPolyline
 90
       13
 70
     0
 43
0.0
 10
12326.74524873321
 20
10247.13371800712
 10
12327.44524873327
 20
10247.13371800712
 10
12327.44524873327
 20
10223.13371800712
 10
12303.14524873323
 20
10223.13371800712
 10
12303.14524873323
 20
10179.53371800715
 10
12327.44524873327
 20
10179.53371800715
 10
12327.44524873327
 20
10155.53371800715
 10
12326.74524873321
 20
10155.53371800715
 10
12326.74524873321
 20
10178.83371800708
 10
12302.44524873327
 20
10178.83371800708
 10
12302.44524873327
 20
10223.83371800708
 10
12326.74524873321
 20
10223.83371800708
 10
12326.74524873321
 20
10247.13371800712
  0
LWPOLYLINE
  5
E407E
330
EF6E0
100
AcDbEntity
  8
0
100
AcDbPolyline
 90
       17
 70
     0
 43
0.0
 10
12298.44524873328
 20
10077.33371800708
 10
12304.94524873327
 20
10077.33371800708
 10
12304.94524873327
 20
10076.33371800708
 10
12299.44524873327
 20
10076.33371800708
 10
12299.44524873327
 20
10052.33371800708
 10
12327.44524873327
 20
10052.33371800708
 10
12327.44524873327
 20
10350.33371800708
 10
12299.44524873327
 20
10350.33371800708
 10
12299.44524873327
 20
10326.33371800708
 10
12304.94524873327
 20
10326.33371800708
 10
12304.94524873327
 20
10325.33371800708
 10
12298.44524873328
 20
10325.33371800708
 10
12298.44524873328
 20
10351.33371800708
 10
12328.44524873327
 20
10351.33371800708
 10
12328.44524873327
 20
10051.33371800708
 10
12298.44524873328
 20
10051.33371800708
 10
12298.44524873328
 20
10077.33371800708
  0
LWPOLYLINE
  5
E407F
330
EF6E0
100
AcDbEntity
  8
0
100
AcDbPolyline
 90
       17
 70
     0
 43
0.0
 10
12298.44524873328
 20
8577.333718007078
 10
12304.94524873327
 20
8577.333718007078
 10
12304.94524873327
 20
8576.333718007078
 10
12299.44524873327
 20
8576.333718007078
 10
12299.44524873327
 20
8552.333718007078
 10
12327.44524873327
 20
8552.333718007078
 10
12327.44524873327
 20
8850.333718007078
 10
12299.44524873327
 20
8850.333718007078
 10
12299.44524873327
 20
8826.333718007078
 10
12304.94524873327
 20
8826.333718007078
 10
12304.94524873327
 20
8825.333718007078
 10
12298.44524873328
 20
8825.333718007078
 10
12298.44524873328
 20
8851.333718007078
 10
12328.44524873327
 20
8851.333718007078
 10
12328.44524873327
 20
8551.333718007078
 10
12298.44524873328
 20
8551.333718007078
 10
12298.44524873328
 20
8577.333718007078
  0
LWPOLYLINE
  5
E4080
330
EF6E0
100
AcDbEntity
  8
0
100
AcDbPolyline
 90
       13
 70
     0
 43
0.0
 10
12326.74524873321
 20
8747.133718007124
 10
12327.44524873327
 20
8747.133718007124
 10
12327.44524873327
 20
8723.133718007124
 10
12303.14524873323
 20
8723.133718007124
 10
12303.14524873323
 20
8679.533718007147
 10
12327.44524873327
 20
8679.533718007147
 10
12327.44524873327
 20
8655.533718007147
 10
12326.74524873321
 20
8655.533718007147
 10
12326.74524873321
 20
8678.833718007078
 10
12302.44524873327
 20
8678.833718007078
 10
12302.44524873327
 20
8723.833718007078
 10
12326.74524873321
 20
8723.833718007078
 10
12326.74524873321
 20
8747.133718007124
  0
LINE
  5
E4081
330
EF6E0
100
AcDbEntity
  8
0
100
AcDbLine
 10
12327.44524873327
 20
8797.923208551798
 30
0.0
 11
12327.44524873327
 21
8754.323208551821
 31
0.0
  0
TEXT
  5
E4086
330
EF6E0
100
AcDbEntity
  8
0
100
AcDbText
 10
8477.080655262567
 20
9569.46641245938
 30
0.0
 40
100.0
  1
L 100 + 25
  7
STILE1
100
AcDbText
  0
TEXT
  5
E4087
330
EF6E0
100
AcDbEntity
  8
0
100
AcDbText
 10
10668.51192229406
 20
9569.46641245938
 30
0.0
 40
100.0
  1
L 120 +25
  7
STILE1
100
AcDbText
  0
TEXT
  5
E4088
330
EF6E0
100
AcDbEntity
  8
0
100
AcDbText
 10
10310.43840269631
 20
8069.46641245938
 30
0.0
 40
100.0
  1
L 120 + 25 + 25
  7
STILE1
100
AcDbText
  0
TEXT
  5
E4089
330
EF6E0
100
AcDbEntity
  8
0
100
AcDbText
 10
8190.850758991957
 20
8069.46641245938
 30
0.0
 40
100.0
  1
L 100 + 25 + 25
  7
STILE1
100
AcDbText
  0
LWPOLYLINE
  5
E4108
330
EF6E0
100
AcDbEntity
  8
0
100
AcDbPolyline
 90
        4
 70
     1
 43
0.0
 10
-8.199868380798762
 20
4933.00112803611
 10
-8.199868380798762
 20
4963.001128036109
 10
226.8001316192012
 20
4963.001128036109
 10
226.8001316192012
 20
4933.00112803611
  0
LWPOLYLINE
  5
E4109
330
EF6E0
100
AcDbEntity
  8
0
100
AcDbPolyline
 90
        4
 70
     1
 43
0.0
 10
-8.199868380798762
 20
4483.001128036109
 10
-8.199868380798762
 20
4513.001128036109
 10
226.8001316192012
 20
4513.001128036109
 10
226.8001316192012
 20
4483.001128036109
  0
LWPOLYLINE
  5
E410A
330
EF6E0
100
AcDbEntity
  8
0
100
AcDbPolyline
 90
        4
 70
     1
 43
0.0
 10
-8.199868380798762
 20
5833.001128036109
 10
-8.199868380798762
 20
5863.001128036109
 10
226.8001316192012
 20
5863.001128036109
 10
226.8001316192012
 20
5833.001128036109
  0
LWPOLYLINE
  5
E410C
330
EF6E0
100
AcDbEntity
  8
0
100
AcDbPolyline
 90
        4
 70
     1
 43
0.0
 10
-8.199868380798762
 20
5383.001128036109
 10
-8.199868380798762
 20
5413.001128036109
 10
226.8001316192012
 20
5413.001128036109
 10
226.8001316192012
 20
5383.001128036109
  0
LWPOLYLINE
  5
E410E
330
EF6E0
100
AcDbEntity
  8
0
100
AcDbPolyline
 90
        4
 70
     1
 43
0.0
 10
-8.199868380798762
 20
6333.001128036109
 10
-8.199868380798762
 20
6363.001128036109
 10
226.8001316192012
 20
6363.001128036109
 10
226.8001316192012
 20
6333.001128036109
  0
LWPOLYLINE
  5
E4112
330
EF6E0
100
AcDbEntity
  8
0
100
AcDbPolyline
 90
        4
 70
     1
 43
0.0
 10
-1208.199868380779
 20
4343.00112803611
 10
-1208.199868380779
 20
4349.001128036109
 10
-1238.199868380779
 20
4349.001128036109
 10
-1238.199868380779
 20
4343.00112803611
  0
LWPOLYLINE
  5
E4113
330
EF6E0
100
AcDbEntity
  8
0
100
AcDbPolyline
 90
        4
 70
     1
 43
0.0
 10
-1208.199868380779
 20
6357.001128036109
 10
-1208.199868380779
 20
6363.001128036109
 10
-1238.199868380779
 20
6363.001128036109
 10
-1238.199868380779
 20
6357.001128036109
  0
LWPOLYLINE
  5
E4114
330
EF6E0
100
AcDbEntity
  8
0
100
AcDbPolyline
 90
        4
 70
     1
 43
0.0
 10
-1208.199868380779
 20
6357.001128036109
 10
-1208.199868380779
 20
4349.001128036109
 10
-1238.199868380779
 20
4349.001128036109
 10
-1238.199868380779
 20
6357.001128036109
  0
LWPOLYLINE
  5
E4115
330
EF6E0
100
AcDbEntity
  8
0
100
AcDbPolyline
 90
        4
 70
     1
 43
0.0
 10
-38.19986838077693
 20
4933.00112803611
 10
-38.19986838077693
 20
4963.001128036109
 10
-1208.199868380779
 20
4963.001128036109
 10
-1208.199868380779
 20
4933.00112803611
  0
LWPOLYLINE
  5
E4116
330
EF6E0
100
AcDbEntity
  8
0
100
AcDbPolyline
 90
        4
 70
     1
 43
0.0
 10
-38.19986838077693
 20
4483.001128036109
 10
-38.19986838077693
 20
4513.001128036109
 10
-1208.199868380779
 20
4513.001128036109
 10
-1208.199868380779
 20
4483.001128036109
  0
LWPOLYLINE
  5
E4117
330
EF6E0
100
AcDbEntity
  8
0
100
AcDbPolyline
 90
        4
 70
     1
 43
0.0
 10
-38.19986838077693
 20
5833.001128036109
 10
-38.19986838077693
 20
5863.001128036109
 10
-1208.199868380779
 20
5863.001128036109
 10
-1208.199868380779
 20
5833.001128036109
  0
LWPOLYLINE
  5
E4119
330
EF6E0
100
AcDbEntity
  8
0
100
AcDbPolyline
 90
        4
 70
     1
 43
0.0
 10
-38.19986838077693
 20
5383.001128036109
 10
-38.19986838077693
 20
5413.001128036109
 10
-1208.199868380779
 20
5413.001128036109
 10
-1208.199868380779
 20
5383.001128036109
  0
LWPOLYLINE
  5
E411B
330
EF6E0
100
AcDbEntity
  8
0
100
AcDbPolyline
 90
        4
 70
     1
 43
0.0
 10
-38.19986838077693
 20
6333.001128036109
 10
-38.19986838077693
 20
6363.001128036109
 10
-1208.199868380779
 20
6363.001128036109
 10
-1208.199868380779
 20
6333.001128036109
  0
LWPOLYLINE
  5
E411C
330
EF6E0
100
AcDbEntity
  8
0
100
AcDbPolyline
 90
        4
 70
     1
 43
0.0
 10
-38.19986838077693
 20
6357.001128036109
 10
-38.19986838077693
 20
4349.001128036109
 10
-8.199868380798762
 20
4349.001128036109
 10
-8.199868380798762
 20
6357.001128036109
  0
LWPOLYLINE
  5
E411D
330
EF6E0
100
AcDbEntity
  8
0
100
AcDbPolyline
 90
        4
 70
     1
 43
0.0
 10
-38.19986838077693
 20
4343.00112803611
 10
-38.19986838077693
 20
4349.001128036109
 10
-8.199868380798762
 20
4349.001128036109
 10
-8.199868380798762
 20
4343.00112803611
  0
LWPOLYLINE
  5
E411E
330
EF6E0
100
AcDbEntity
  8
0
100
AcDbPolyline
 90
        4
 70
     1
 43
0.0
 10
-38.19986838077693
 20
6357.001128036109
 10
-38.19986838077693
 20
6363.001128036109
 10
-8.199868380798762
 20
6363.001128036109
 10
-8.199868380798762
 20
6357.001128036109
  0
LWPOLYLINE
  5
E415D
330
EF6E0
100
AcDbEntity
  8
0
100
AcDbPolyline
 90
        4
 70
     1
 43
0.0
 10
-238.1998683807988
 20
3357.001142058447
 10
-238.1998683807988
 20
3363.001142058448
 10
-208.1998683807988
 20
3363.001142058448
 10
-208.1998683807988
 20
3357.001142058447
  0
LWPOLYLINE
  5
E415E
330
EF6E0
100
AcDbEntity
  8
0
100
AcDbPolyline
 90
        4
 70
     1
 43
0.0
 10
-238.1998683807988
 20
1343.001142058447
 10
-238.1998683807988
 20
1349.001142058447
 10
-208.1998683807988
 20
1349.001142058447
 10
-208.1998683807988
 20
1343.001142058447
  0
LWPOLYLINE
  5
E415F
330
EF6E0
100
AcDbEntity
  8
0
100
AcDbPolyline
 90
        4
 70
     1
 43
0.0
 10
-238.1998683807988
 20
3357.001142058447
 10
-238.1998683807988
 20
1349.001142058447
 10
-208.1998683807988
 20
1349.001142058447
 10
-208.1998683807988
 20
3357.001142058447
  0
LWPOLYLINE
  5
E4160
330
EF6E0
100
AcDbEntity
  8
0
100
AcDbPolyline
 90
        4
 70
     1
 43
0.0
 10
-238.1998683807988
 20
3333.001142058447
 10
-238.1998683807988
 20
3363.001142058448
 10
-1208.199868380779
 20
3363.001142058448
 10
-1208.199868380779
 20
3333.001142058447
  0
LWPOLYLINE
  5
E4162
330
EF6E0
100
AcDbEntity
  8
0
100
AcDbPolyline
 90
        4
 70
     1
 43
0.0
 10
-238.1998683807988
 20
2383.001142058447
 10
-238.1998683807988
 20
2413.001142058447
 10
-1208.199868380779
 20
2413.001142058447
 10
-1208.199868380779
 20
2383.001142058447
  0
LWPOLYLINE
  5
E4164
330
EF6E0
100
AcDbEntity
  8
0
100
AcDbPolyline
 90
        4
 70
     1
 43
0.0
 10
-238.1998683807988
 20
2983.001142058447
 10
-238.1998683807988
 20
3013.001142058447
 10
-1208.199868380779
 20
3013.001142058447
 10
-1208.199868380779
 20
2983.001142058447
  0
LWPOLYLINE
  5
E4165
330
EF6E0
100
AcDbEntity
  8
0
100
AcDbPolyline
 90
        4
 70
     1
 43
0.0
 10
-238.1998683807988
 20
1483.001142058447
 10
-238.1998683807988
 20
1513.001142058447
 10
-1208.199868380779
 20
1513.001142058447
 10
-1208.199868380779
 20
1483.001142058447
  0
LWPOLYLINE
  5
E4166
330
EF6E0
100
AcDbEntity
  8
0
100
AcDbPolyline
 90
        4
 70
     1
 43
0.0
 10
-238.1998683807988
 20
1783.001142058446
 10
-238.1998683807988
 20
1813.001142058447
 10
-1208.199868380779
 20
1813.001142058447
 10
-1208.199868380779
 20
1783.001142058446
  0
LWPOLYLINE
  5
E4167
330
EF6E0
100
AcDbEntity
  8
0
100
AcDbPolyline
 90
        4
 70
     1
 43
0.0
 10
-1208.199868380779
 20
3357.001142058447
 10
-1208.199868380779
 20
1349.001142058447
 10
-1238.199868380779
 20
1349.001142058447
 10
-1238.199868380779
 20
3357.001142058447
  0
LWPOLYLINE
  5
E4168
330
EF6E0
100
AcDbEntity
  8
0
100
AcDbPolyline
 90
        4
 70
     1
 43
0.0
 10
-1208.199868380779
 20
3357.001142058447
 10
-1208.199868380779
 20
3363.001142058448
 10
-1238.199868380779
 20
3363.001142058448
 10
-1238.199868380779
 20
3357.001142058447
  0
LWPOLYLINE
  5
E4169
330
EF6E0
100
AcDbEntity
  8
0
100
AcDbPolyline
 90
        4
 70
     1
 43
0.0
 10
-1208.199868380779
 20
1343.001142058447
 10
-1208.199868380779
 20
1349.001142058447
 10
-1238.199868380779
 20
1349.001142058447
 10
-1238.199868380779
 20
1343.001142058447
  0
LWPOLYLINE
  5
E416A
330
EF6E0
100
AcDbEntity
  8
0
100
AcDbPolyline
 90
        4
 70
     1
 43
0.0
 10
761.8001316192231
 20
3357.001142058447
 10
761.8001316192231
 20
1349.001142058447
 10
791.8001316192012
 20
1349.001142058447
 10
791.8001316192012
 20
3357.001142058447
  0
LWPOLYLINE
  5
E416B
330
EF6E0
100
AcDbEntity
  8
0
100
AcDbPolyline
 90
        4
 70
     1
 43
0.0
 10
761.8001316192231
 20
3357.001142058447
 10
761.8001316192231
 20
3363.001142058448
 10
791.8001316192012
 20
3363.001142058448
 10
791.8001316192012
 20
3357.001142058447
  0
LWPOLYLINE
  5
E416C
330
EF6E0
100
AcDbEntity
  8
0
100
AcDbPolyline
 90
        4
 70
     1
 43
0.0
 10
761.8001316192231
 20
1343.001142058447
 10
761.8001316192231
 20
1349.001142058447
 10
791.8001316192012
 20
1349.001142058447
 10
791.8001316192012
 20
1343.001142058447
  0
LWPOLYLINE
  5
E416D
330
EF6E0
100
AcDbEntity
  8
0
100
AcDbPolyline
 90
        4
 70
     1
 43
0.0
 10
-208.1998683807988
 20
3333.001142058447
 10
-208.1998683807988
 20
3363.001142058448
 10
761.8001316192231
 20
3363.001142058448
 10
761.8001316192231
 20
3333.001142058447
  0
LWPOLYLINE
  5
E416E
330
EF6E0
100
AcDbEntity
  8
0
100
AcDbPolyline
 90
        4
 70
     1
 43
0.0
 10
-208.1998683807988
 20
2083.001142058447
 10
-208.1998683807988
 20
2113.001142058447
 10
761.8001316192231
 20
2113.001142058447
 10
761.8001316192231
 20
2083.001142058447
  0
LWPOLYLINE
  5
E4170
330
EF6E0
100
AcDbEntity
  8
0
100
AcDbPolyline
 90
        4
 70
     1
 43
0.0
 10
-208.1998683807988
 20
2683.001142058447
 10
-208.1998683807988
 20
2713.001142058447
 10
761.8001316192231
 20
2713.001142058447
 10
761.8001316192231
 20
2683.001142058447
  0
LWPOLYLINE
  5
E4172
330
EF6E0
100
AcDbEntity
  8
0
100
AcDbPolyline
 90
        4
 70
     1
 43
0.0
 10
-208.1998683807988
 20
1483.001142058447
 10
-208.1998683807988
 20
1513.001142058447
 10
761.8001316192231
 20
1513.001142058447
 10
761.8001316192231
 20
1483.001142058447
  0
LWPOLYLINE
  5
E4174
330
EF6E0
100
AcDbEntity
  8
0
100
AcDbPolyline
 90
        4
 70
     1
 43
0.0
 10
1761.800131619212
 20
3333.001142058447
 10
1761.800131619212
 20
3363.001142058448
 10
791.8001316192012
 20
3363.001142058448
 10
791.8001316192012
 20
3333.001142058447
  0
LWPOLYLINE
  5
E4176
330
EF6E0
100
AcDbEntity
  8
0
100
AcDbPolyline
 90
        4
 70
     1
 43
0.0
 10
1761.800131619212
 20
2383.001142058447
 10
1761.800131619212
 20
2413.001142058447
 10
791.8001316192012
 20
2413.001142058447
 10
791.8001316192012
 20
2383.001142058447
  0
LWPOLYLINE
  5
E4178
330
EF6E0
100
AcDbEntity
  8
0
100
AcDbPolyline
 90
        4
 70
     1
 43
0.0
 10
1761.800131619212
 20
2983.001142058447
 10
1761.800131619212
 20
3013.001142058447
 10
791.8001316192012
 20
3013.001142058447
 10
791.8001316192012
 20
2983.001142058447
  0
LWPOLYLINE
  5
E4179
330
EF6E0
100
AcDbEntity
  8
0
100
AcDbPolyline
 90
        4
 70
     1
 43
0.0
 10
1761.800131619212
 20
1483.001142058447
 10
1761.800131619212
 20
1513.001142058447
 10
791.8001316192012
 20
1513.001142058447
 10
791.8001316192012
 20
1483.001142058447
  0
LWPOLYLINE
  5
E417A
330
EF6E0
100
AcDbEntity
  8
0
100
AcDbPolyline
 90
        4
 70
     1
 43
0.0
 10
1761.800131619212
 20
1783.001142058446
 10
1761.800131619212
 20
1813.001142058447
 10
791.8001316192012
 20
1813.001142058447
 10
791.8001316192012
 20
1783.001142058446
  0
LWPOLYLINE
  5
E417B
330
EF6E0
100
AcDbEntity
  8
0
100
AcDbPolyline
 90
        4
 70
     1
 43
0.0
 10
1791.800131619223
 20
3357.001142058447
 10
1791.800131619223
 20
3363.001142058448
 10
1761.800131619212
 20
3363.001142058448
 10
1761.800131619212
 20
3357.001142058447
  0
LWPOLYLINE
  5
E417C
330
EF6E0
100
AcDbEntity
  8
0
100
AcDbPolyline
 90
        4
 70
     1
 43
0.0
 10
1791.800131619223
 20
1343.001142058447
 10
1791.800131619223
 20
1349.001142058447
 10
1761.800131619212
 20
1349.001142058447
 10
1761.800131619212
 20
1343.001142058447
  0
LWPOLYLINE
  5
E417D
330
EF6E0
100
AcDbEntity
  8
0
100
AcDbPolyline
 90
        4
 70
     1
 43
0.0
 10
1791.800131619223
 20
3357.001142058447
 10
1791.800131619223
 20
1349.001142058447
 10
1761.800131619212
 20
1349.001142058447
 10
1761.800131619212
 20
3357.001142058447
  0
LWPOLYLINE
  5
E417F
330
EF6E0
100
AcDbEntity
  8
0
100
AcDbPolyline
 90
        4
 70
     1
 43
0.0
 10
-1238.199868380768
 20
6333.001128036109
 10
-1238.199868380768
 20
6363.001128036109
 10
-1473.199868380768
 20
6363.001128036109
 10
-1473.199868380768
 20
6333.001128036109
  0
LWPOLYLINE
  5
E4181
330
EF6E0
100
AcDbEntity
  8
0
100
AcDbPolyline
 90
        4
 70
     1
 43
0.0
 10
-1238.199868380768
 20
5383.001128036109
 10
-1238.199868380768
 20
5413.001128036109
 10
-1473.199868380768
 20
5413.001128036109
 10
-1473.199868380768
 20
5383.001128036109
  0
LWPOLYLINE
  5
E4183
330
EF6E0
100
AcDbEntity
  8
0
100
AcDbPolyline
 90
        4
 70
     1
 43
0.0
 10
-1238.199868380768
 20
5833.001128036109
 10
-1238.199868380768
 20
5863.001128036109
 10
-1473.199868380768
 20
5863.001128036109
 10
-1473.199868380768
 20
5833.001128036109
  0
LWPOLYLINE
  5
E4184
330
EF6E0
100
AcDbEntity
  8
0
100
AcDbPolyline
 90
        4
 70
     1
 43
0.0
 10
-1238.199868380768
 20
4483.001128036109
 10
-1238.199868380768
 20
4513.001128036109
 10
-1473.199868380768
 20
4513.001128036109
 10
-1473.199868380768
 20
4483.001128036109
  0
LWPOLYLINE
  5
E4185
330
EF6E0
100
AcDbEntity
  8
0
100
AcDbPolyline
 90
        4
 70
     1
 43
0.0
 10
-1238.199868380768
 20
4933.00112803611
 10
-1238.199868380768
 20
4963.001128036109
 10
-1473.199868380768
 20
4963.001128036109
 10
-1473.199868380768
 20
4933.00112803611
  0
LWPOLYLINE
  5
E419F
330
EF6E0
100
AcDbEntity
  8
0
100
AcDbPolyline
 90
        4
 70
     1
 43
0.0
 10
1791.800131619223
 20
3333.001142058447
 10
1791.800131619223
 20
3363.001142058448
 10
2026.800131619201
 20
3363.001142058448
 10
2026.800131619201
 20
3333.001142058447
  0
LWPOLYLINE
  5
E41A8
330
EF6E0
100
AcDbEntity
  8
0
100
AcDbPolyline
 90
        4
 70
     1
 43
0.0
 10
526.8001316192413
 20
2983.001142058447
 10
526.8001316192413
 20
3013.001142058447
 10
761.8001316192231
 20
3013.001142058447
 10
761.8001316192231
 20
2983.001142058447
  0
LWPOLYLINE
  5
E41B7
330
EF6E0
100
AcDbEntity
  8
0
100
AcDbPolyline
 90
        4
 70
     1
 43
0.0
 10
-1238.199868380788
 20
2983.001142058447
 10
-1238.199868380788
 20
3013.001142058447
 10
-1473.199868380788
 20
3013.001142058447
 10
-1473.199868380788
 20
2983.001142058447
  0
LWPOLYLINE
  5
E41BA
330
EF6E0
100
AcDbEntity
  8
0
100
AcDbPolyline
 90
        4
 70
     1
 43
0.0
 10
-1238.199868380788
 20
2383.001142058447
 10
-1238.199868380788
 20
2413.001142058447
 10
-1473.199868380788
 20
2413.001142058447
 10
-1473.199868380788
 20
2383.001142058447
  0
LWPOLYLINE
  5
E41BB
330
EF6E0
100
AcDbEntity
  8
0
100
AcDbPolyline
 90
        4
 70
     1
 43
0.0
 10
-1238.199868380788
 20
1783.001142058446
 10
-1238.199868380788
 20
1813.001142058447
 10
-1473.199868380788
 20
1813.001142058447
 10
-1473.199868380788
 20
1783.001142058446
  0
LWPOLYLINE
  5
E41BC
330
EF6E0
100
AcDbEntity
  8
0
100
AcDbPolyline
 90
        4
 70
     1
 43
0.0
 10
-1238.199868380788
 20
1483.001142058447
 10
-1238.199868380788
 20
1513.001142058447
 10
-1473.199868380788
 20
1513.001142058447
 10
-1473.199868380788
 20
1483.001142058447
  0
LWPOLYLINE
  5
E41BD
330
EF6E0
100
AcDbEntity
  8
0
100
AcDbPolyline
 90
        4
 70
     1
 43
0.0
 10
-1238.199868380788
 20
3333.001142058447
 10
-1238.199868380788
 20
3363.001142058448
 10
-1473.199868380788
 20
3363.001142058448
 10
-1473.199868380788
 20
3333.001142058447
  0
LWPOLYLINE
  5
E465F
330
EF6E0
100
AcDbEntity
  8
0
100
AcDbPolyline
 90
        4
 70
     1
 43
0.0
 10
791.8001316192303
 20
2683.001142058447
 10
791.8001316192303
 20
2713.001142058447
 10
1026.80013161923
 20
2713.001142058447
 10
1026.80013161923
 20
2683.001142058447
  0
LWPOLYLINE
  5
E4660
330
EF6E0
100
AcDbEntity
  8
0
100
AcDbPolyline
 90
        4
 70
     1
 43
0.0
 10
791.8001316192303
 20
2083.001142058447
 10
791.8001316192303
 20
2113.001142058447
 10
1026.80013161923
 20
2113.001142058447
 10
1026.80013161923
 20
2083.001142058447
  0
LWPOLYLINE
  5
E4661
330
EF6E0
100
AcDbEntity
  8
0
100
AcDbPolyline
 90
        4
 70
     1
 43
0.0
 10
-208.1998683807769
 20
2983.001142058447
 10
-208.1998683807769
 20
3013.001142058447
 10
26.80013161922307
 20
3013.001142058447
 10
26.80013161922307
 20
2983.001142058447
  0
LINE
  5
E4667
330
EF6E0
100
AcDbEntity
  8
0
100
AcDbLine
 10
11236.2066572806
 20
4343.001128036113
 30
0.0
 11
4745.087702969033
 21
4343.001128036113
 31
0.0
  0
LINE
  5
E4668
330
EF6E0
100
AcDbEntity
  8
0
100
AcDbLine
 10
11236.2066572806
 20
1343.00114205845
 30
0.0
 11
6279.270314696701
 21
1343.00114205845
 31
0.0
  0
LWPOLYLINE
  5
E46A8
330
EF6E0
100
AcDbEntity
  8
0
100
AcDbPolyline
 90
        4
 70
     1
 43
0.0
 10
5469.158521505437
 20
6357.001128036111
 10
5469.158521505437
 20
6363.001128036111
 10
5499.158521505437
 20
6363.001128036111
 10
5499.158521505437
 20
6357.001128036111
  0
LWPOLYLINE
  5
E46A9
330
EF6E0
100
AcDbEntity
  8
0
100
AcDbPolyline
 90
        4
 70
     1
 43
0.0
 10
5469.158521505437
 20
4343.001128036113
 10
5469.158521505437
 20
4349.001128036111
 10
5499.158521505437
 20
4349.001128036111
 10
5499.158521505437
 20
4343.001128036113
  0
LWPOLYLINE
  5
E46AA
330
EF6E0
100
AcDbEntity
  8
0
100
AcDbPolyline
 90
        4
 70
     1
 43
0.0
 10
5469.158521505437
 20
6357.001128036111
 10
5469.158521505437
 20
4349.001128036111
 10
5499.158521505437
 20
4349.001128036111
 10
5499.158521505437
 20
6357.001128036111
  0
LWPOLYLINE
  5
E46EA
330
EF6E0
100
AcDbEntity
  8
0
100
AcDbPolyline
 90
        4
 70
     1
 43
0.0
 10
6669.158521505437
 20
6357.001128036111
 10
6669.158521505437
 20
4349.001128036111
 10
6699.158521505437
 20
4349.001128036111
 10
6699.158521505437
 20
6357.001128036111
  0
LWPOLYLINE
  5
E46EB
330
EF6E0
100
AcDbEntity
  8
0
100
AcDbPolyline
 90
        4
 70
     1
 43
0.0
 10
6669.158521505437
 20
4343.001128036113
 10
6669.158521505437
 20
4349.001128036111
 10
6699.158521505437
 20
4349.001128036111
 10
6699.158521505437
 20
4343.001128036113
  0
LWPOLYLINE
  5
E46EC
330
EF6E0
100
AcDbEntity
  8
0
100
AcDbPolyline
 90
        4
 70
     1
 43
0.0
 10
6669.158521505437
 20
6357.001128036111
 10
6669.158521505437
 20
6363.001128036111
 10
6699.158521505437
 20
6363.001128036111
 10
6699.158521505437
 20
6357.001128036111
  0
LWPOLYLINE
  5
E46F0
330
EF6E0
100
AcDbEntity
  8
0
100
AcDbPolyline
 90
        4
 70
     1
 43
0.0
 10
5499.158521505437
 20
4483.001128036111
 10
5499.158521505437
 20
4513.001128036111
 10
6669.158521505437
 20
4513.001128036111
 10
6669.158521505437
 20
4483.001128036111
  0
LWPOLYLINE
  5
E46F1
330
EF6E0
100
AcDbEntity
  8
0
100
AcDbPolyline
 90
        4
 70
     1
 43
0.0
 10
5499.158521505437
 20
6333.001128036111
 10
5499.158521505437
 20
6363.001128036111
 10
6669.158521505437
 20
6363.001128036111
 10
6669.158521505437
 20
6333.001128036111
  0
LWPOLYLINE
  5
E46F3
330
EF6E0
100
AcDbEntity
  8
0
100
AcDbPolyline
 90
        4
 70
     1
 43
0.0
 10
7499.158521505437
 20
4483.001128036111
 10
7499.158521505437
 20
4513.001128036111
 10
8469.158521505437
 20
4513.001128036111
 10
8469.158521505437
 20
4483.001128036111
  0
LWPOLYLINE
  5
E46F7
330
EF6E0
100
AcDbEntity
  8
0
100
AcDbPolyline
 90
        4
 70
     1
 43
0.0
 10
8469.158521505437
 20
6357.001128036111
 10
8469.158521505437
 20
6363.001128036111
 10
8499.158521505437
 20
6363.001128036111
 10
8499.158521505437
 20
6357.001128036111
  0
LWPOLYLINE
  5
E46F8
330
EF6E0
100
AcDbEntity
  8
0
100
AcDbPolyline
 90
        4
 70
     1
 43
0.0
 10
8469.158521505437
 20
4343.001128036113
 10
8469.158521505437
 20
4349.001128036111
 10
8499.158521505437
 20
4349.001128036111
 10
8499.158521505437
 20
4343.001128036113
  0
LWPOLYLINE
  5
E46F9
330
EF6E0
100
AcDbEntity
  8
0
100
AcDbPolyline
 90
        4
 70
     1
 43
0.0
 10
8469.158521505437
 20
6357.001128036111
 10
8469.158521505437
 20
4349.001128036111
 10
8499.158521505437
 20
4349.001128036111
 10
8499.158521505437
 20
6357.001128036111
  0
LWPOLYLINE
  5
E46FA
330
EF6E0
100
AcDbEntity
  8
0
100
AcDbPolyline
 90
        4
 70
     1
 43
0.0
 10
7469.158521505437
 20
6357.001128036111
 10
7469.158521505437
 20
4349.001128036111
 10
7499.158521505437
 20
4349.001128036111
 10
7499.158521505437
 20
6357.001128036111
  0
LWPOLYLINE
  5
E46FB
330
EF6E0
100
AcDbEntity
  8
0
100
AcDbPolyline
 90
        4
 70
     1
 43
0.0
 10
7469.158521505437
 20
4343.001128036113
 10
7469.158521505437
 20
4349.001128036111
 10
7499.158521505437
 20
4349.001128036111
 10
7499.158521505437
 20
4343.001128036113
  0
LWPOLYLINE
  5
E46FC
330
EF6E0
100
AcDbEntity
  8
0
100
AcDbPolyline
 90
        4
 70
     1
 43
0.0
 10
7469.158521505437
 20
6357.001128036111
 10
7469.158521505437
 20
6363.001128036111
 10
7499.158521505437
 20
6363.001128036111
 10
7499.158521505437
 20
6357.001128036111
  0
LWPOLYLINE
  5
E46FF
330
EF6E0
100
AcDbEntity
  8
0
100
AcDbPolyline
 90
        4
 70
     1
 43
0.0
 10
6699.158521505437
 20
5433.001128036113
 10
6699.158521505437
 20
5463.001128036111
 10
7469.158521505437
 20
5463.001128036111
 10
7469.158521505437
 20
5433.001128036113
  0
LWPOLYLINE
  5
E4724
330
EF6E0
100
AcDbEntity
  8
0
100
AcDbPolyline
 90
        4
 70
     1
 43
0.0
 10
5469.158521505437
 20
6333.001128036111
 10
5469.158521505437
 20
6363.001128036111
 10
5234.158521505437
 20
6363.001128036111
 10
5234.158521505437
 20
6333.001128036111
  0
LWPOLYLINE
  5
E4726
330
EF6E0
100
AcDbEntity
  8
0
100
AcDbPolyline
 90
        4
 70
     1
 43
0.0
 10
8469.158521505437
 20
6333.001128036111
 10
8469.158521505437
 20
6363.001128036111
 10
7499.158521505437
 20
6363.001128036111
 10
7499.158521505437
 20
6333.001128036111
  0
LWPOLYLINE
  5
E4731
330
EF6E0
100
AcDbEntity
  8
0
100
AcDbPolyline
 90
        4
 70
     1
 43
0.0
 10
5469.158521505437
 20
4483.001128036111
 10
5469.158521505437
 20
4513.001128036111
 10
5234.158521505437
 20
4513.001128036111
 10
5234.158521505437
 20
4483.001128036111
  0
LWPOLYLINE
  5
E4766
330
EF6E0
100
AcDbEntity
  8
0
100
AcDbPolyline
 90
        4
 70
     1
 43
0.0
 10
7499.158521505437
 20
5883.001128036111
 10
7499.158521505437
 20
5913.001128036111
 10
8469.158521505437
 20
5913.001128036111
 10
8469.158521505437
 20
5883.001128036111
  0
LWPOLYLINE
  5
E476A
330
EF6E0
100
AcDbEntity
  8
0
100
AcDbPolyline
 90
        4
 70
     1
 43
0.0
 10
6669.158521505448
 20
5883.001128036111
 10
6669.158521505448
 20
5913.001128036111
 10
5499.158521505448
 20
5913.001128036111
 10
5499.158521505448
 20
5883.001128036111
  0
LWPOLYLINE
  5
E476B
330
EF6E0
100
AcDbEntity
  8
0
100
AcDbPolyline
 90
        4
 70
     1
 43
0.0
 10
6699.158521505437
 20
6333.001128036111
 10
6699.158521505437
 20
6363.001128036111
 10
7469.158521505437
 20
6363.001128036111
 10
7469.158521505437
 20
6333.001128036111
  0
LWPOLYLINE
  5
E476C
330
EF6E0
100
AcDbEntity
  8
0
100
AcDbPolyline
 90
        4
 70
     1
 43
0.0
 10
6699.158521505437
 20
4483.001128036111
 10
6699.158521505437
 20
4513.001128036111
 10
7469.158521505437
 20
4513.001128036111
 10
7469.158521505437
 20
4483.001128036111
  0
LWPOLYLINE
  5
E4771
330
EF6E0
100
AcDbEntity
  8
0
100
AcDbPolyline
 90
        4
 70
     1
 43
0.0
 10
6699.158521505448
 20
5883.001128036111
 10
6699.158521505448
 20
5913.001128036111
 10
6934.158521505448
 20
5913.001128036111
 10
6934.158521505448
 20
5883.001128036111
  0
LWPOLYLINE
  5
E4772
330
EF6E0
100
AcDbEntity
  8
0
100
AcDbPolyline
 90
        4
 70
     1
 43
0.0
 10
7469.158521505426
 20
5883.001128036111
 10
7469.158521505426
 20
5913.001128036111
 10
7234.158521505426
 20
5913.001128036113
 10
7234.158521505426
 20
5883.001128036113
  0
LWPOLYLINE
  5
E4773
330
EF6E0
100
AcDbEntity
  8
0
100
AcDbPolyline
 90
        4
 70
     1
 43
0.0
 10
7469.158521505426
 20
5013.001128036113
 10
7469.158521505426
 20
4983.001128036111
 10
7234.158521505426
 20
4983.001128036111
 10
7234.158521505426
 20
5013.001128036113
  0
LWPOLYLINE
  5
E4774
330
EF6E0
100
AcDbEntity
  8
0
100
AcDbPolyline
 90
        4
 70
     1
 43
0.0
 10
6699.158521505448
 20
5013.001128036113
 10
6699.158521505448
 20
4983.001128036111
 10
6934.158521505448
 20
4983.001128036111
 10
6934.158521505448
 20
5013.001128036113
  0
LWPOLYLINE
  5
E4775
330
EF6E0
100
AcDbEntity
  8
0
100
AcDbPolyline
 90
        4
 70
     1
 43
0.0
 10
5469.158521505448
 20
5463.001128036111
 10
5469.158521505448
 20
5433.001128036113
 10
5234.158521505448
 20
5433.001128036113
 10
5234.158521505448
 20
5463.001128036111
  0
LWPOLYLINE
  5
E4777
330
EF6E0
100
AcDbEntity
  8
0
100
AcDbPolyline
 90
        4
 70
     1
 43
0.0
 10
6669.158521505448
 20
5013.001128036113
 10
6669.158521505448
 20
4983.001128036111
 10
5499.158521505448
 20
4983.001128036111
 10
5499.158521505448
 20
5013.001128036113
  0
LWPOLYLINE
  5
E4778
330
EF6E0
100
AcDbEntity
  8
0
100
AcDbPolyline
 90
        4
 70
     1
 43
0.0
 10
7499.158521505437
 20
5013.001128036113
 10
7499.158521505437
 20
4983.001128036111
 10
8469.158521505437
 20
4983.001128036111
 10
8469.158521505437
 20
5013.001128036113
  0
LWPOLYLINE
  5
E4779
330
EF6E0
100
AcDbEntity
  8
0
100
AcDbPolyline
 90
        4
 70
     1
 43
0.0
 10
9269.158521505437
 20
5013.001128036113
 10
9269.158521505437
 20
4983.001128036111
 10
9034.158521505426
 20
4983.001128036111
 10
9034.158521505426
 20
5013.001128036113
  0
LWPOLYLINE
  5
E477A
330
EF6E0
100
AcDbEntity
  8
0
100
AcDbPolyline
 90
        4
 70
     1
 43
0.0
 10
8499.158521505437
 20
5013.001128036113
 10
8499.158521505437
 20
4983.001128036111
 10
8734.158521505437
 20
4983.001128036111
 10
8734.158521505437
 20
5013.001128036113
  0
LWPOLYLINE
  5
E477B
330
EF6E0
100
AcDbEntity
  8
0
100
AcDbPolyline
 90
        4
 70
     1
 43
0.0
 10
8499.158521505437
 20
5883.001128036111
 10
8499.158521505437
 20
5913.001128036111
 10
8734.158521505437
 20
5913.001128036111
 10
8734.158521505437
 20
5883.001128036111
  0
LWPOLYLINE
  5
E477C
330
EF6E0
100
AcDbEntity
  8
0
100
AcDbPolyline
 90
        4
 70
     1
 43
0.0
 10
9269.158521505437
 20
5883.001128036111
 10
9269.158521505437
 20
5913.001128036111
 10
9034.158521505426
 20
5913.001128036111
 10
9034.158521505426
 20
5883.001128036111
  0
LWPOLYLINE
  5
E477D
330
EF6E0
100
AcDbEntity
  8
0
100
AcDbPolyline
 90
        4
 70
     1
 43
0.0
 10
9269.158521505437
 20
4483.001128036111
 10
9269.158521505437
 20
4513.001128036111
 10
8499.158521505437
 20
4513.001128036111
 10
8499.158521505437
 20
4483.001128036111
  0
LWPOLYLINE
  5
E477E
330
EF6E0
100
AcDbEntity
  8
0
100
AcDbPolyline
 90
        4
 70
     1
 43
0.0
 10
9269.158521505437
 20
6333.001128036111
 10
9269.158521505437
 20
6363.001128036111
 10
8499.158521505437
 20
6363.001128036111
 10
8499.158521505437
 20
6333.001128036111
  0
LWPOLYLINE
  5
E477F
330
EF6E0
100
AcDbEntity
  8
0
100
AcDbPolyline
 90
        4
 70
     1
 43
0.0
 10
9269.158521505437
 20
5433.001128036113
 10
9269.158521505437
 20
5463.001128036111
 10
8499.158521505437
 20
5463.001128036111
 10
8499.158521505437
 20
5433.001128036113
  0
LWPOLYLINE
  5
E4780
330
EF6E0
100
AcDbEntity
  8
0
100
AcDbPolyline
 90
        4
 70
     1
 43
0.0
 10
9299.158521505437
 20
6357.001128036111
 10
9299.158521505437
 20
4349.001128036111
 10
9269.158521505437
 20
4349.001128036111
 10
9269.158521505437
 20
6357.001128036111
  0
LWPOLYLINE
  5
E4781
330
EF6E0
100
AcDbEntity
  8
0
100
AcDbPolyline
 90
        4
 70
     1
 43
0.0
 10
9299.158521505437
 20
4343.001128036113
 10
9299.158521505437
 20
4349.001128036111
 10
9269.158521505437
 20
4349.001128036111
 10
9269.158521505437
 20
4343.001128036113
  0
LWPOLYLINE
  5
E4782
330
EF6E0
100
AcDbEntity
  8
0
100
AcDbPolyline
 90
        4
 70
     1
 43
0.0
 10
9299.158521505437
 20
6357.001128036111
 10
9299.158521505437
 20
6363.001128036111
 10
9269.158521505437
 20
6363.001128036111
 10
9269.158521505437
 20
6357.001128036111
  0
LWPOLYLINE
  5
E4790
330
EF6E0
100
AcDbEntity
  8
0
100
AcDbPolyline
 90
        4
 70
     1
 43
0.0
 10
9299.158521505426
 20
5013.001128036113
 10
9299.158521505426
 20
4983.001128036111
 10
10469.15852150543
 20
4983.001128036111
 10
10469.15852150543
 20
5013.001128036113
  0
LWPOLYLINE
  5
E4791
330
EF6E0
100
AcDbEntity
  8
0
100
AcDbPolyline
 90
        4
 70
     1
 43
0.0
 10
10499.15852150543
 20
5463.001128036111
 10
10499.15852150543
 20
5433.001128036113
 10
10734.15852150543
 20
5433.001128036113
 10
10734.15852150543
 20
5463.001128036111
  0
LWPOLYLINE
  5
E4793
330
EF6E0
100
AcDbEntity
  8
0
100
AcDbPolyline
 90
        4
 70
     1
 43
0.0
 10
9299.158521505426
 20
5883.001128036111
 10
9299.158521505426
 20
5913.001128036111
 10
10469.15852150543
 20
5913.001128036111
 10
10469.15852150543
 20
5883.001128036111
  0
LWPOLYLINE
  5
E4794
330
EF6E0
100
AcDbEntity
  8
0
100
AcDbPolyline
 90
        4
 70
     1
 43
0.0
 10
10499.15852150543
 20
4483.001128036111
 10
10499.15852150543
 20
4513.001128036111
 10
10734.15852150543
 20
4513.001128036111
 10
10734.15852150543
 20
4483.001128036111
  0
LWPOLYLINE
  5
E4795
330
EF6E0
100
AcDbEntity
  8
0
100
AcDbPolyline
 90
        4
 70
     1
 43
0.0
 10
10499.15852150543
 20
6333.001128036111
 10
10499.15852150543
 20
6363.001128036111
 10
10734.15852150543
 20
6363.001128036111
 10
10734.15852150543
 20
6333.001128036111
  0
LWPOLYLINE
  5
E4796
330
EF6E0
100
AcDbEntity
  8
0
100
AcDbPolyline
 90
        4
 70
     1
 43
0.0
 10
10469.15852150543
 20
6333.001128036111
 10
10469.15852150543
 20
6363.001128036111
 10
9299.158521505437
 20
6363.001128036111
 10
9299.158521505437
 20
6333.001128036111
  0
LWPOLYLINE
  5
E4797
330
EF6E0
100
AcDbEntity
  8
0
100
AcDbPolyline
 90
        4
 70
     1
 43
0.0
 10
10469.15852150543
 20
4483.001128036111
 10
10469.15852150543
 20
4513.001128036111
 10
9299.158521505437
 20
4513.001128036111
 10
9299.158521505437
 20
4483.001128036111
  0
LWPOLYLINE
  5
E4799
330
EF6E0
100
AcDbEntity
  8
0
100
AcDbPolyline
 90
        4
 70
     1
 43
0.0
 10
9299.158521505437
 20
6357.001128036111
 10
9299.158521505437
 20
6363.001128036111
 10
9269.158521505437
 20
6363.001128036111
 10
9269.158521505437
 20
6357.001128036111
  0
LWPOLYLINE
  5
E479A
330
EF6E0
100
AcDbEntity
  8
0
100
AcDbPolyline
 90
        4
 70
     1
 43
0.0
 10
9299.158521505437
 20
4343.001128036113
 10
9299.158521505437
 20
4349.001128036111
 10
9269.158521505437
 20
4349.001128036111
 10
9269.158521505437
 20
4343.001128036113
  0
LWPOLYLINE
  5
E479B
330
EF6E0
100
AcDbEntity
  8
0
100
AcDbPolyline
 90
        4
 70
     1
 43
0.0
 10
9299.158521505437
 20
6357.001128036111
 10
9299.158521505437
 20
4349.001128036111
 10
9269.158521505437
 20
4349.001128036111
 10
9269.158521505437
 20
6357.001128036111
  0
LWPOLYLINE
  5
E479C
330
EF6E0
100
AcDbEntity
  8
0
100
AcDbPolyline
 90
        4
 70
     1
 43
0.0
 10
10499.15852150543
 20
6357.001128036111
 10
10499.15852150543
 20
4349.001128036111
 10
10469.15852150543
 20
4349.001128036111
 10
10469.15852150543
 20
6357.001128036111
  0
LWPOLYLINE
  5
E479D
330
EF6E0
100
AcDbEntity
  8
0
100
AcDbPolyline
 90
        4
 70
     1
 43
0.0
 10
10499.15852150543
 20
4343.001128036113
 10
10499.15852150543
 20
4349.001128036111
 10
10469.15852150543
 20
4349.001128036111
 10
10469.15852150543
 20
4343.001128036113
  0
LWPOLYLINE
  5
E479E
330
EF6E0
100
AcDbEntity
  8
0
100
AcDbPolyline
 90
        4
 70
     1
 43
0.0
 10
10499.15852150543
 20
6357.001128036111
 10
10499.15852150543
 20
6363.001128036111
 10
10469.15852150543
 20
6363.001128036111
 10
10469.15852150543
 20
6357.001128036111
  0
LWPOLYLINE
  5
E47A0
330
EF6E0
100
AcDbEntity
  8
0
100
AcDbPolyline
 90
        4
 70
     1
 43
0.0
 10
6669.158521505448
 20
5433.001128036113
 10
6669.158521505448
 20
5463.001128036111
 10
5499.158521505448
 20
5463.001128036111
 10
5499.158521505448
 20
5433.001128036113
  0
LWPOLYLINE
  5
E47A2
330
EF6E0
100
AcDbEntity
  8
0
100
AcDbPolyline
 90
        4
 70
     1
 43
0.0
 10
9299.158521505426
 20
5433.001128036113
 10
9299.158521505426
 20
5463.001128036111
 10
10469.15852150543
 20
5463.001128036111
 10
10469.15852150543
 20
5433.001128036113
  0
LWPOLYLINE
  5
E47BE
330
EF6E0
100
AcDbEntity
  8
0
100
AcDbPolyline
 90
        4
 70
     1
 43
0.0
 10
8269.158521505424
 20
3357.001142058449
 10
8269.158521505424
 20
3363.00114205845
 10
8299.158521505413
 20
3363.00114205845
 10
8299.158521505413
 20
3357.001142058449
  0
LWPOLYLINE
  5
E47BF
330
EF6E0
100
AcDbEntity
  8
0
100
AcDbPolyline
 90
        4
 70
     1
 43
0.0
 10
8269.158521505424
 20
1343.001142058449
 10
8269.158521505424
 20
1349.001142058449
 10
8299.158521505413
 20
1349.001142058449
 10
8299.158521505413
 20
1343.001142058449
  0
LWPOLYLINE
  5
E47C0
330
EF6E0
100
AcDbEntity
  8
0
100
AcDbPolyline
 90
        4
 70
     1
 43
0.0
 10
8269.158521505424
 20
3357.001142058449
 10
8269.158521505424
 20
1349.001142058449
 10
8299.158521505413
 20
1349.001142058449
 10
8299.158521505413
 20
3357.001142058449
  0
LWPOLYLINE
  5
E47CB
330
EF6E0
100
AcDbEntity
  8
0
100
AcDbPolyline
 90
        4
 70
     1
 43
0.0
 10
9469.158521505435
 20
3357.001142058449
 10
9469.158521505435
 20
1349.001142058449
 10
9499.158521505424
 20
1349.001142058449
 10
9499.158521505424
 20
3357.001142058449
  0
LWPOLYLINE
  5
E47CC
330
EF6E0
100
AcDbEntity
  8
0
100
AcDbPolyline
 90
        4
 70
     1
 43
0.0
 10
9469.158521505435
 20
3357.001142058449
 10
9469.158521505435
 20
3363.00114205845
 10
9499.158521505424
 20
3363.00114205845
 10
9499.158521505424
 20
3357.001142058449
  0
LWPOLYLINE
  5
E47CD
330
EF6E0
100
AcDbEntity
  8
0
100
AcDbPolyline
 90
        4
 70
     1
 43
0.0
 10
9469.158521505435
 20
1343.001142058449
 10
9469.158521505435
 20
1349.001142058449
 10
9499.158521505424
 20
1349.001142058449
 10
9499.158521505424
 20
1343.001142058449
  0
LWPOLYLINE
  5
E47CE
330
EF6E0
100
AcDbEntity
  8
0
100
AcDbPolyline
 90
        4
 70
     1
 43
0.0
 10
8299.158521505413
 20
3333.001142058449
 10
8299.158521505413
 20
3363.00114205845
 10
9469.158521505435
 20
3363.00114205845
 10
9469.158521505435
 20
3333.001142058449
  0
LWPOLYLINE
  5
E47D2
330
EF6E0
100
AcDbEntity
  8
0
100
AcDbPolyline
 90
        4
 70
     1
 43
0.0
 10
8299.158521505413
 20
2983.001142058449
 10
8299.158521505413
 20
3013.001142058449
 10
9469.158521505435
 20
3013.001142058449
 10
9469.158521505435
 20
2983.001142058449
  0
LWPOLYLINE
  5
E47D3
330
EF6E0
100
AcDbEntity
  8
0
100
AcDbPolyline
 90
        4
 70
     1
 43
0.0
 10
8299.158521505413
 20
1483.001142058449
 10
8299.158521505413
 20
1513.001142058449
 10
9469.158521505435
 20
1513.001142058449
 10
9469.158521505435
 20
1483.001142058449
  0
LWPOLYLINE
  5
E47D4
330
EF6E0
100
AcDbEntity
  8
0
100
AcDbPolyline
 90
        4
 70
     1
 43
0.0
 10
8299.158521505413
 20
1783.001142058448
 10
8299.158521505413
 20
1813.001142058449
 10
9469.158521505435
 20
1813.001142058449
 10
9469.158521505435
 20
1783.001142058448
  0
LWPOLYLINE
  5
E47D5
330
EF6E0
100
AcDbEntity
  8
0
100
AcDbPolyline
 90
        4
 70
     1
 43
0.0
 10
10469.15852150542
 20
3333.001142058449
 10
10469.15852150542
 20
3363.00114205845
 10
9499.158521505424
 20
3363.00114205845
 10
9499.158521505424
 20
3333.001142058449
  0
LWPOLYLINE
  5
E47D6
330
EF6E0
100
AcDbEntity
  8
0
100
AcDbPolyline
 90
        4
 70
     1
 43
0.0
 10
10469.15852150542
 20
2083.001142058449
 10
10469.15852150542
 20
2113.001142058449
 10
9499.158521505424
 20
2113.001142058449
 10
9499.158521505424
 20
2083.001142058449
  0
LWPOLYLINE
  5
E47D7
330
EF6E0
100
AcDbEntity
  8
0
100
AcDbPolyline
 90
        4
 70
     1
 43
0.0
 10
10469.15852150542
 20
2383.001142058449
 10
10469.15852150542
 20
2413.001142058449
 10
9499.158521505424
 20
2413.001142058449
 10
9499.158521505424
 20
2383.001142058449
  0
LWPOLYLINE
  5
E47D8
330
EF6E0
100
AcDbEntity
  8
0
100
AcDbPolyline
 90
        4
 70
     1
 43
0.0
 10
10469.15852150542
 20
2683.001142058449
 10
10469.15852150542
 20
2713.001142058449
 10
9499.158521505424
 20
2713.001142058449
 10
9499.158521505424
 20
2683.001142058449
  0
LWPOLYLINE
  5
E47D9
330
EF6E0
100
AcDbEntity
  8
0
100
AcDbPolyline
 90
        4
 70
     1
 43
0.0
 10
10469.15852150542
 20
2983.001142058449
 10
10469.15852150542
 20
3013.001142058449
 10
9499.158521505424
 20
3013.001142058449
 10
9499.158521505424
 20
2983.001142058449
  0
LWPOLYLINE
  5
E47DA
330
EF6E0
100
AcDbEntity
  8
0
100
AcDbPolyline
 90
        4
 70
     1
 43
0.0
 10
10469.15852150542
 20
1483.001142058449
 10
10469.15852150542
 20
1513.001142058449
 10
9499.158521505424
 20
1513.001142058449
 10
9499.158521505424
 20
1483.001142058449
  0
LWPOLYLINE
  5
E47DB
330
EF6E0
100
AcDbEntity
  8
0
100
AcDbPolyline
 90
        4
 70
     1
 43
0.0
 10
10469.15852150542
 20
1783.001142058448
 10
10469.15852150542
 20
1813.001142058449
 10
9499.158521505424
 20
1813.001142058449
 10
9499.158521505424
 20
1783.001142058448
  0
LWPOLYLINE
  5
E47DC
330
EF6E0
100
AcDbEntity
  8
0
100
AcDbPolyline
 90
        4
 70
     1
 43
0.0
 10
10499.15852150542
 20
3357.001142058449
 10
10499.15852150542
 20
3363.00114205845
 10
10469.15852150542
 20
3363.00114205845
 10
10469.15852150542
 20
3357.001142058449
  0
LWPOLYLINE
  5
E47DD
330
EF6E0
100
AcDbEntity
  8
0
100
AcDbPolyline
 90
        4
 70
     1
 43
0.0
 10
10499.15852150542
 20
1343.001142058449
 10
10499.15852150542
 20
1349.001142058449
 10
10469.15852150542
 20
1349.001142058449
 10
10469.15852150542
 20
1343.001142058449
  0
LWPOLYLINE
  5
E47DE
330
EF6E0
100
AcDbEntity
  8
0
100
AcDbPolyline
 90
        4
 70
     1
 43
0.0
 10
10499.15852150542
 20
3357.001142058449
 10
10499.15852150542
 20
1349.001142058449
 10
10469.15852150542
 20
1349.001142058449
 10
10469.15852150542
 20
3357.001142058449
  0
LWPOLYLINE
  5
E4821
330
EF6E0
100
AcDbEntity
  8
0
100
AcDbPolyline
 90
        4
 70
     1
 43
0.0
 10
10499.15852150543
 20
2683.001142058449
 10
10499.15852150543
 20
2713.001142058449
 10
10734.15852150542
 20
2713.001142058449
 10
10734.15852150542
 20
2683.001142058449
  0
LWPOLYLINE
  5
E4822
330
EF6E0
100
AcDbEntity
  8
0
100
AcDbPolyline
 90
        4
 70
     1
 43
0.0
 10
10499.15852150543
 20
2083.001142058449
 10
10499.15852150543
 20
2113.001142058449
 10
10734.15852150542
 20
2113.001142058449
 10
10734.15852150542
 20
2083.001142058449
  0
LWPOLYLINE
  5
E4824
330
EF6E0
100
AcDbEntity
  8
0
100
AcDbPolyline
 90
        4
 70
     1
 43
0.0
 10
10499.15852150543
 20
1483.001142058449
 10
10499.15852150543
 20
1513.001142058449
 10
10734.15852150542
 20
1513.001142058449
 10
10734.15852150542
 20
1483.001142058449
  0
LWPOLYLINE
  5
E4826
330
EF6E0
100
AcDbEntity
  8
0
100
AcDbPolyline
 90
        4
 70
     1
 43
0.0
 10
10499.15852150543
 20
3333.001142058449
 10
10499.15852150543
 20
3363.00114205845
 10
10734.15852150542
 20
3363.001142058451
 10
10734.15852150542
 20
3333.00114205845
  0
LWPOLYLINE
  5
E485F
330
EF6E0
100
AcDbEntity
  8
0
100
AcDbPolyline
 90
        4
 70
     1
 43
0.0
 10
7269.158521505407
 20
3333.001142058449
 10
7269.158521505407
 20
3363.00114205845
 10
7034.158521505414
 20
3363.001142058451
 10
7034.158521505414
 20
3333.00114205845
  0
LWPOLYLINE
  5
E4861
330
EF6E0
100
AcDbEntity
  8
0
100
AcDbPolyline
 90
        4
 70
     1
 43
0.0
 10
7269.158521505407
 20
1483.001142058449
 10
7269.158521505407
 20
1513.001142058449
 10
7034.158521505414
 20
1513.001142058449
 10
7034.158521505414
 20
1483.001142058449
  0
LWPOLYLINE
  5
E4863
330
EF6E0
100
AcDbEntity
  8
0
100
AcDbPolyline
 90
        4
 70
     1
 43
0.0
 10
7269.158521505407
 20
2083.001142058449
 10
7269.158521505407
 20
2113.001142058449
 10
7034.158521505414
 20
2113.001142058449
 10
7034.158521505414
 20
2083.001142058449
  0
LWPOLYLINE
  5
E4864
330
EF6E0
100
AcDbEntity
  8
0
100
AcDbPolyline
 90
        4
 70
     1
 43
0.0
 10
7269.158521505407
 20
2683.001142058449
 10
7269.158521505407
 20
2713.001142058449
 10
7034.158521505414
 20
2713.001142058449
 10
7034.158521505414
 20
2683.001142058449
  0
LWPOLYLINE
  5
E4866
330
EF6E0
100
AcDbEntity
  8
0
100
AcDbPolyline
 90
        4
 70
     1
 43
0.0
 10
7269.158521505415
 20
3357.001142058449
 10
7269.158521505415
 20
1349.001142058449
 10
7299.158521505415
 20
1349.001142058449
 10
7299.158521505415
 20
3357.001142058449
  0
LWPOLYLINE
  5
E4867
330
EF6E0
100
AcDbEntity
  8
0
100
AcDbPolyline
 90
        4
 70
     1
 43
0.0
 10
7269.158521505415
 20
3357.001142058449
 10
7269.158521505415
 20
3363.00114205845
 10
7299.158521505415
 20
3363.00114205845
 10
7299.158521505415
 20
3357.001142058449
  0
LWPOLYLINE
  5
E4868
330
EF6E0
100
AcDbEntity
  8
0
100
AcDbPolyline
 90
        4
 70
     1
 43
0.0
 10
7299.158521505415
 20
1783.001142058448
 10
7299.158521505415
 20
1813.001142058449
 10
8269.158521505413
 20
1813.001142058449
 10
8269.158521505413
 20
1783.001142058448
  0
LWPOLYLINE
  5
E4869
330
EF6E0
100
AcDbEntity
  8
0
100
AcDbPolyline
 90
        4
 70
     1
 43
0.0
 10
7299.158521505415
 20
1483.001142058449
 10
7299.158521505415
 20
1513.001142058449
 10
8269.158521505413
 20
1513.001142058449
 10
8269.158521505413
 20
1483.001142058449
  0
LWPOLYLINE
  5
E486A
330
EF6E0
100
AcDbEntity
  8
0
100
AcDbPolyline
 90
        4
 70
     1
 43
0.0
 10
7299.158521505415
 20
2983.001142058449
 10
7299.158521505415
 20
3013.001142058449
 10
8269.158521505413
 20
3013.001142058449
 10
8269.158521505413
 20
2983.001142058449
  0
LWPOLYLINE
  5
E486B
330
EF6E0
100
AcDbEntity
  8
0
100
AcDbPolyline
 90
        4
 70
     1
 43
0.0
 10
7299.158521505415
 20
2683.001142058449
 10
7299.158521505415
 20
2713.001142058449
 10
8269.158521505413
 20
2713.001142058449
 10
8269.158521505413
 20
2683.001142058449
  0
LWPOLYLINE
  5
E486C
330
EF6E0
100
AcDbEntity
  8
0
100
AcDbPolyline
 90
        4
 70
     1
 43
0.0
 10
7299.158521505415
 20
2383.001142058449
 10
7299.158521505415
 20
2413.001142058449
 10
8269.158521505413
 20
2413.001142058449
 10
8269.158521505413
 20
2383.001142058449
  0
LWPOLYLINE
  5
E486D
330
EF6E0
100
AcDbEntity
  8
0
100
AcDbPolyline
 90
        4
 70
     1
 43
0.0
 10
7299.158521505415
 20
2083.001142058449
 10
7299.158521505415
 20
2113.001142058449
 10
8269.158521505413
 20
2113.001142058449
 10
8269.158521505413
 20
2083.001142058449
  0
LWPOLYLINE
  5
E486E
330
EF6E0
100
AcDbEntity
  8
0
100
AcDbPolyline
 90
        4
 70
     1
 43
0.0
 10
7299.158521505415
 20
3333.001142058449
 10
7299.158521505415
 20
3363.00114205845
 10
8269.158521505413
 20
3363.00114205845
 10
8269.158521505413
 20
3333.001142058449
  0
LWPOLYLINE
  5
E486F
330
EF6E0
100
AcDbEntity
  8
0
100
AcDbPolyline
 90
        4
 70
     1
 43
0.0
 10
7269.158521505415
 20
1343.001142058449
 10
7269.158521505415
 20
1349.001142058449
 10
7299.158521505415
 20
1349.001142058449
 10
7299.158521505415
 20
1343.001142058449
  0
LWPOLYLINE
  5
E4870
330
EF6E0
100
AcDbEntity
  8
0
100
AcDbPolyline
 90
        4
 70
     1
 43
0.0
 10
-4012.685974119233
 20
554.0366420584451
 10
13214.70258418559
 20
554.0366420584442
 10
13214.70258418559
 20
7151.96562803611
 10
-4012.685974119233
 20
7151.965628036111
  0
LWPOLYLINE
  5
E6E07
330
EF6E0
100
AcDbEntity
  8
0
100
AcDbPolyline
 90
        4
 70
     1
 43
0.0
 10
7499.158521505437
 20
5433.001128036113
 10
7499.158521505437
 20
5463.001128036111
 10
8469.158521505437
 20
5463.001128036111
 10
8469.158521505437
 20
5433.001128036113
  0
LWPOLYLINE
  5
EF794
330
EF6E0
100
AcDbEntity
  8
0
100
AcDbPolyline
 90
        4
 70
     1
 43
0.0
 10
578.1807308721059
 20
11669.99245446856
 10
578.1807308721059
 20
11675.99245446856
 10
608.1807308721068
 20
11675.99245446856
 10
608.1807308721068
 20
11669.99245446856
1001
PE_URL
1000

  0
LWPOLYLINE
  5
EF795
330
EF6E0
100
AcDbEntity
  8
0
100
AcDbPolyline
 90
        4
 70
     1
 43
0.0
 10
578.1807308721059
 20
8655.992454468558
 10
578.1807308721059
 20
8661.992454468558
 10
608.1807308721068
 20
8661.992454468558
 10
608.1807308721068
 20
8655.992454468558
1001
PE_URL
1000

  0
LWPOLYLINE
  5
EF797
330
EF6E0
100
AcDbEntity
  8
0
100
AcDbPolyline
 90
        4
 70
     1
 43
0.0
 10
-1081.819269127893
 20
8655.992454468558
 10
-1081.819269127893
 20
8661.992454468558
 10
-1051.819269127893
 20
8661.992454468558
 10
-1051.819269127893
 20
8655.992454468558
1001
PE_URL
1000

  0
LWPOLYLINE
  5
EF798
330
EF6E0
100
AcDbEntity
  8
0
100
AcDbPolyline
 90
        4
 70
     1
 43
0.0
 10
-1911.819269127893
 20
8655.992454468558
 10
-1911.819269127893
 20
8661.992454468558
 10
-1881.819269127893
 20
8661.992454468558
 10
-1881.819269127893
 20
8655.992454468558
1001
PE_URL
1000

  0
LWPOLYLINE
  5
EF799
330
EF6E0
100
AcDbEntity
  8
0
100
AcDbPolyline
 90
        4
 70
     1
 43
0.0
 10
-2741.819269127893
 20
8655.992454468558
 10
-2741.819269127893
 20
8661.992454468558
 10
-2711.819269127893
 20
8661.992454468558
 10
-2711.819269127893
 20
8655.992454468558
1001
PE_URL
1000

  0
TEXT
  5
EF79A
330
EF6E0
100
AcDbEntity
  8
0
100
AcDbText
 10
-93.95836272666611
 20
11042.61489884525
 30
0.0
 40
100.0
  1
H 252
  7
STILE1
100
AcDbText
1001
PE_URL
1000

  0
TEXT
  5
EF79B
330
EF6E0
100
AcDbEntity
  8
0
100
AcDbText
 10
736.0416372733339
 20
11559.53930513399
 30
0.0
 40
100.0
  1
H 302
  7
STILE1
100
AcDbText
1001
PE_URL
1000

  0
TEXT
  5
EF79C
330
EF6E0
100
AcDbEntity
  8
0
100
AcDbText
 10
-923.9583627266661
 20
10544.76881500743
 30
0.0
 40
100.0
  1
H 202
  7
STILE1
100
AcDbText
1001
PE_URL
1000

  0
TEXT
  5
EF79D
330
EF6E0
100
AcDbEntity
  8
0
100
AcDbText
 10
-1753.958362726666
 20
10059.35472185431
 30
0.0
 40
100.0
  1
H 152
  7
STILE1
100
AcDbText
1001
PE_URL
1000

  0
TEXT
  5
EF79E
330
EF6E0
100
AcDbEntity
  8
0
100
AcDbText
 10
-2583.958362726666
 20
9549.25274267416
 30
0.0
 40
100.0
  1
H 102
  7
STILE1
100
AcDbText
1001
PE_URL
1000

  0
LWPOLYLINE
  5
EF79F
330
EF6E0
100
AcDbEntity
  8
0
100
AcDbPolyline
 90
        4
 70
     1
 43
0.0
 10
-1051.819269127893
 20
8655.992454468558
 10
-1051.819269127893
 20
8661.992454468562
 10
-1081.819269127893
 20
8661.992454468562
 10
-1081.819269127893
 20
8655.992454468558
1001
PE_URL
1000

  0
LWPOLYLINE
  5
EF7A0
330
EF6E0
100
AcDbEntity
  8
0
100
AcDbPolyline
 90
        4
 70
     1
 43
0.0
 10
-1081.819269127893
 20
10675.99245446843
 10
-1051.819269127966
 20
10675.99245446843
 10
-1051.819269127966
 20
10669.99245446843
 10
-1081.819269127893
 20
10669.99245446843
1001
PE_URL
1000

  0
LWPOLYLINE
  5
EF7A1
330
EF6E0
100
AcDbEntity
  8
0
100
AcDbPolyline
 90
        2
 70
     0
 43
0.0
 10
-1081.819269128039
 20
10661.99245446838
 10
-1081.819269127981
 20
8795.99245446835
1001
PE_URL
1000

  0
LWPOLYLINE
  5
EF7A2
330
EF6E0
100
AcDbEntity
  8
0
100
AcDbPolyline
 90
        4
 70
     1
 43
0.0
 10
-1081.819269127915
 20
10669.99245446843
 10
-1081.819269127951
 20
8661.99245446835
 10
-1051.819269127981
 20
8661.99245446835
 10
-1051.819269127944
 20
10669.99245446843
1001
PE_URL
1000

  0
LWPOLYLINE
  5
EF7A3
330
EF6E0
100
AcDbEntity
  8
0
100
AcDbPolyline
 90
        4
 70
     1
 43
0.0
 10
-1911.819269127893
 20
8655.992454468558
 10
-1911.819269127893
 20
8661.992454468558
 10
-1881.819269127893
 20
8661.992454468558
 10
-1881.819269127893
 20
8655.992454468558
1001
PE_URL
1000

  0
LWPOLYLINE
  5
EF7A4
330
EF6E0
100
AcDbEntity
  8
0
100
AcDbPolyline
 90
        4
 70
     1
 43
0.0
 10
-1881.819269127893
 20
8655.992454468558
 10
-1881.819269127893
 20
8661.992454468562
 10
-1911.819269127893
 20
8661.992454468562
 10
-1911.819269127893
 20
8655.992454468558
1001
PE_URL
1000

  0
LWPOLYLINE
  5
EF7A5
330
EF6E0
100
AcDbEntity
  8
0
100
AcDbPolyline
 90
        4
 70
     1
 43
0.0
 10
-1911.819269127857
 20
10175.99245446856
 10
-1881.81926912793
 20
10175.99245446856
 10
-1881.81926912793
 20
10169.99245446855
 10
-1911.819269127857
 20
10169.99245446855
1001
PE_URL
1000

  0
LWPOLYLINE
  5
EF7A6
330
EF6E0
100
AcDbEntity
  8
0
100
AcDbPolyline
 90
        4
 70
     1
 43
0.0
 10
-1911.819269127879
 20
10169.99245446855
 10
-1911.819269127951
 20
8661.99245446835
 10
-1881.819269127981
 20
8661.99245446835
 10
-1881.819269127908
 20
10169.99245446855
1001
PE_URL
1000

  0
LWPOLYLINE
  5
EF7A7
330
EF6E0
100
AcDbEntity
  8
0
100
AcDbPolyline
 90
        4
 70
     1
 43
0.0
 10
-2741.819269127893
 20
8655.992454468558
 10
-2741.819269127893
 20
8661.992454468558
 10
-2711.819269127893
 20
8661.992454468558
 10
-2711.819269127893
 20
8655.992454468558
1001
PE_URL
1000

  0
LWPOLYLINE
  5
EF7A8
330
EF6E0
100
AcDbEntity
  8
0
100
AcDbPolyline
 90
        4
 70
     1
 43
0.0
 10
-2711.819269127893
 20
8655.992454468558
 10
-2711.819269127893
 20
8661.992454468562
 10
-2741.819269127893
 20
8661.992454468562
 10
-2741.819269127893
 20
8655.992454468558
1001
PE_URL
1000

  0
LWPOLYLINE
  5
EF7A9
330
EF6E0
100
AcDbEntity
  8
0
100
AcDbPolyline
 90
        4
 70
     1
 43
0.0
 10
-2741.819269127893
 20
9675.992454468558
 10
-2711.819269127966
 20
9675.992454468558
 10
-2711.819269127966
 20
9669.992454468555
 10
-2741.819269127893
 20
9669.992454468555
1001
PE_URL
1000

  0
LWPOLYLINE
  5
EF7AA
330
EF6E0
100
AcDbEntity
  8
0
100
AcDbPolyline
 90
        4
 70
     1
 43
0.0
 10
-2741.819269127916
 20
9669.992454468555
 10
-2741.819269127951
 20
8661.99245446835
 10
-2711.81926912798
 20
8661.99245446835
 10
-2711.819269127944
 20
9669.992454468555
1001
PE_URL
1000

  0
LINE
  5
EF7AB
330
EF6E0
100
AcDbEntity
  8
0
100
AcDbLine
 10
-1896.819269127893
 20
8655.992454468558
 30
0.0
 11
-1896.819269127893
 21
8655.992454468558
 31
0.0
1001
PE_URL
1000

  0
LWPOLYLINE
  5
EF7AC
330
EF6E0
100
AcDbEntity
  8
0
100
AcDbPolyline
 90
        4
 70
     1
 43
0.0
 10
-251.8192691300096
 20
11175.99245446856
 10
-221.8192691300824
 20
11175.99245446856
 10
-221.8192691300824
 20
11169.99245446855
 10
-251.8192691300096
 20
11169.99245446855
1001
PE_URL
1000

  0
LWPOLYLINE
  5
EF7AD
330
EF6E0
100
AcDbEntity
  8
0
100
AcDbPolyline
 90
        4
 70
     1
 43
0.0
 10
-251.8192691300314
 20
11169.99245446855
 10
-251.8192691278787
 20
8661.992454468558
 10
-221.8192691279078
 20
8661.992454468558
 10
-221.8192691300605
 20
11169.99245446855
1001
PE_URL
1000

  0
LWPOLYLINE
  5
EF7AE
330
EF6E0
100
AcDbEntity
  8
0
100
AcDbPolyline
 90
        4
 70
     1
 43
0.0
 10
-221.8192691278932
 20
8655.992454468558
 10
-221.8192691278932
 20
8661.992454468562
 10
-251.8192691278932
 20
8661.992454468562
 10
-251.8192691278932
 20
8655.992454468558
1001
PE_URL
1000

  0
LWPOLYLINE
  5
EF7AF
330
EF6E0
100
AcDbEntity
  8
0
100
AcDbPolyline
 90
        4
 70
     1
 43
0.0
 10
578.1807308721059
 20
11675.99245446856
 10
608.1807308720329
 20
11675.99245446856
 10
608.1807308720329
 20
11669.99245446855
 10
578.1807308721059
 20
11669.99245446855
1001
PE_URL
1000

  0
LWPOLYLINE
  5
EF7B0
330
EF6E0
100
AcDbEntity
  8
0
100
AcDbPolyline
 90
        4
 70
     1
 43
0.0
 10
578.1807308721218
 20
11669.99245446856
 10
578.1807308721218
 20
8661.992454468558
 10
608.1807308720918
 20
8661.992454468558
 10
608.1807308720918
 20
11669.99245446856
1001
PE_URL
1000

  0
LWPOLYLINE
  5
EF7B1
330
EF6E0
100
AcDbEntity
  8
0
100
AcDbPolyline
 90
        4
 70
     1
 43
0.0
 10
608.1807308721068
 20
8655.992454468555
 10
608.1807308721068
 20
8661.992454468558
 10
578.1807308721068
 20
8661.992454468558
 10
578.1807308721068
 20
8655.992454468555
1001
PE_URL
1000

  0
LWPOLYLINE
  5
F06E0
330
EF6E0
100
AcDbEntity
  8
0
100
AcDbPolyline
 90
        4
 70
     1
 43
0.0
 10
526.8001316192413
 20
2383.001142058447
 10
526.8001316192413
 20
2413.001142058447
 10
761.8001316192231
 20
2413.001142058447
 10
761.8001316192231
 20
2383.001142058447
  0
LWPOLYLINE
  5
F06E1
330
EF6E0
100
AcDbEntity
  8
0
100
AcDbPolyline
 90
        4
 70
     1
 43
0.0
 10
526.8001316192413
 20
1783.001142058447
 10
526.8001316192413
 20
1813.001142058447
 10
761.8001316192231
 20
1813.001142058447
 10
761.8001316192231
 20
1783.001142058447
  0
LWPOLYLINE
  5
F06E2
330
EF6E0
100
AcDbEntity
  8
0
100
AcDbPolyline
 90
        4
 70
     1
 43
0.0
 10
1791.800131619223
 20
1483.001142058447
 10
1791.800131619223
 20
1513.001142058447
 10
2026.800131619201
 20
1513.001142058447
 10
2026.800131619201
 20
1483.001142058447
  0
LWPOLYLINE
  5
F06E3
330
EF6E0
100
AcDbEntity
  8
0
100
AcDbPolyline
 90
        4
 70
     1
 43
0.0
 10
-473.1998683807878
 20
2683.001142058447
 10
-473.1998683807878
 20
2713.001142058447
 10
-238.1998683808097
 20
2713.001142058447
 10
-238.1998683808097
 20
2683.001142058447
  0
LWPOLYLINE
  5
F06E4
330
EF6E0
100
AcDbEntity
  8
0
100
AcDbPolyline
 90
        4
 70
     1
 43
0.0
 10
-473.1998683807878
 20
2083.001142058447
 10
-473.1998683807878
 20
2113.001142058447
 10
-238.1998683808097
 20
2113.001142058447
 10
-238.1998683808097
 20
2083.001142058447
  0
LWPOLYLINE
  5
F06E5
330
EF6E0
100
AcDbEntity
  8
0
100
AcDbPolyline
 90
        4
 70
     1
 43
0.0
 10
-208.1998683807697
 20
2383.001142058447
 10
-208.1998683807697
 20
2413.001142058447
 10
26.80013161923034
 20
2413.001142058447
 10
26.80013161923034
 20
2383.001142058447
  0
LWPOLYLINE
  5
F06E6
330
EF6E0
100
AcDbEntity
  8
0
100
AcDbPolyline
 90
        4
 70
     1
 43
0.0
 10
-208.1998683807697
 20
1783.001142058447
 10
-208.1998683807697
 20
1813.001142058447
 10
26.80013161923034
 20
1813.001142058447
 10
26.80013161923034
 20
1783.001142058447
  0
LINE
  5
F0729
330
EF6E0
100
AcDbEntity
  8
0
100
AcDbLine
 10
2855.101985538519
 20
1343.001142058447
 30
0.0
 11
-1806.945206844553
 21
1343.001142058447
 31
0.0
  0
LINE
  5
F073C
330
EF6E0
100
AcDbEntity
  8
0
100
AcDbLine
 10
763.2889510621071
 20
4343.00112803611
 30
0.0
 11
-1806.945206844553
 21
4343.00112803611
 31
0.0
  0
VIEWPORT
  5
DAB74
330
EF6DE
100
AcDbEntity
 67
     1
  8
0
100
AcDbViewport
 10
0.0
 20
0.0
 30
0.0
 40
10.87270777479893
 41
8.16
 68
     1
 69
     1
 12
6.065999999999998
 22
3.851238605898123
 13
0.0
 23
0.0
 14
0.5
 24
0.5
 15
0.0
 25
0.0
 16
0.0
 26
0.0
 36
1.0
 17
0.0
 27
0.0
 37
0.0
 42
50.0
 43
0.0
 44
0.0
 45
8.16
 50
0.0
 51
0.0
 72
   100
 90
   557296
  1

281
     0
 71
     0
 74
     0
110
0.0
120
0.0
130
0.0
111
1.0
121
0.0
131
0.0
112
0.0
122
1.0
132
0.0
 79
     0
146
0.0
170
     0
 61
     5
348
EF73F
292
     1
282
     1
141
0.0
142
0.0
 63
   256
  0
VIEWPORT
  5
DAB75
330
EF6DE
100
AcDbEntity
 67
     1
  8
0
100
AcDbViewport
 10
5.25
 20
4.0
 30
0.0
 40
8.4
 41
6.4
 68
     2
 69
     2
 12
-238.8342129778575
 22
5240.682605436173
 13
0.0
 23
0.0
 14
0.5
 24
0.5
 15
0.0
 25
0.0
 16
0.0
 26
0.0
 36
1.0
 17
0.0
 27
0.0
 37
0.0
 42
50.0
 43
0.0
 44
0.0
 45
12730.99251508979
 50
0.0
 51
0.0
 72
   100
 90
   557280
  1

281
     0
 71
     0
 74
     0
110
0.0
120
0.0
130
0.0
111
1.0
121
0.0
131
0.0
112
0.0
122
1.0
132
0.0
 79
     0
146
0.0
170
     0
 61
     5
348
EF73F
292
     1
282
     1
141
0.0
142
0.0
 63
   256
  0
ENDSEC
  0
SECTION
  2
OBJECTS
  0
DICTIONARY
  5
EF6D0
330
0
100
AcDbDictionary
281
     1
  3
ACAD_COLOR
350
EF768
  3
ACAD_DETAILVIEWSTYLE
350
EF7CB
  3
ACAD_GROUP
350
EF6D1
  3
ACAD_LAYOUT
350
EF6DD
  3
ACAD_MATERIAL
350
EF6E6
  3
ACAD_MLEADERSTYLE
350
EF755
  3
ACAD_MLINESTYLE
350
EF6DA
  3
ACAD_PLOTSETTINGS
350
EF6DC
  3
ACAD_PLOTSTYLENAME
350
EF6D2
  3
ACAD_SCALELIST
350
EF718
  3
ACAD_SECTIONVIEWSTYLE
350
EF7CC
  3
ACAD_TABLESTYLE
350
EF753
  3
ACAD_VISUALSTYLE
350
EF73A
  3
ACDB_RECOMPOSE_DATA
350
F0745
  3
AcDbVariableDictionary
350
EF7C6
  3
APPDATA
350
EF757
  3
PRINTCONFIG
350
F0713
  0
SUN
  5
F070C
330
EF6E3
100
AcDbSun
 90
        1
290
     0
 63
     7
421
 16777215
 40
1.0
291
     1
 91
  2455826
 92
 54000000
292
     0
 70
     2
 71
   256
280
     1
  0
DICTIONARY
  5
EF78F
330
EF6C7
100
AcDbDictionary
280
     1
281
     1
  3
ACAD_LAYERSTATES
360
EF790
  0
DICTIONARY
  5
F070A
330
EF6E0
100
AcDbDictionary
280
     1
281
     1
  3
DIM_BOUNDING_BOXES_V1
360
F070B
  0
DICTIONARY
  5
EF768
102
{ACAD_REACTORS
330
EF6D0
102
}
330
EF6D0
100
AcDbDictionary
281
     1
  0
DICTIONARY
  5
EF7CB
102
{ACAD_REACTORS
330
EF6D0
102
}
330
EF6D0
100
AcDbDictionary
281
     1
  0
DICTIONARY
  5
EF6D1
102
{ACAD_REACTORS
330
EF6D0
102
}
330
EF6D0
100
AcDbDictionary
281
     1
  0
DICTIONARY
  5
EF6DD
102
{ACAD_REACTORS
330
EF6D0
102
}
330
EF6D0
100
AcDbDictionary
281
     1
  3
Foglio1
350
EF6DF
  3
Model
350
EF6E1
  0
DICTIONARY
  5
EF6E6
102
{ACAD_REACTORS
330
EF6D0
102
}
330
EF6D0
100
AcDbDictionary
281
     1
  3
ByBlock
350
EF6E8
  3
ByLayer
350
EF6E7
  3
Global
350
EF6E9
  0
DICTIONARY
  5
EF755
102
{ACAD_REACTORS
330
EF6D0
102
}
330
EF6D0
100
AcDbDictionary
281
     1
  3
Standard
350
EF756
  0
DICTIONARY
  5
EF6DA
102
{ACAD_REACTORS
330
EF6D0
102
}
330
EF6D0
100
AcDbDictionary
281
     1
  3
Standard
350
EF6DB
  0
DICTIONARY
  5
EF6DC
102
{ACAD_REACTORS
330
EF6D0
102
}
330
EF6D0
100
AcDbDictionary
281
     1
  0
ACDBDICTIONARYWDFLT
  5
EF6D2
102
{ACAD_REACTORS
330
EF6D0
102
}
330
EF6D0
100
AcDbDictionary
281
     1
  3
Normal
350
EF6D3
100
AcDbDictionaryWithDefault
340
EF6D3
  0
DICTIONARY
  5
EF718
102
{ACAD_REACTORS
330
EF6D0
102
}
330
EF6D0
100
AcDbDictionary
281
     1
  3
A0
350
EF719
  3
A1
350
EF71A
  3
A2
350
EF71B
  3
A3
350
EF71C
  3
A4
350
EF71D
  3
A5
350
EF71E
  3
A6
350
EF71F
  3
A7
350
EF720
  3
A8
350
EF721
  3
A9
350
EF722
  3
B0
350
EF723
  3
B1
350
EF724
  3
B2
350
EF725
  3
B3
350
EF726
  3
B4
350
EF727
  3
B5
350
EF728
  3
B6
350
EF729
  3
B7
350
EF72A
  3
B8
350
EF72B
  3
B9
350
EF72C
  3
C0
350
EF72D
  3
C1
350
EF72E
  3
C2
350
EF72F
  3
C3
350
EF730
  3
C4
350
EF731
  3
C5
350
EF732
  3
C6
350
EF733
  3
C7
350
EF734
  3
C8
350
EF735
  3
C9
350
EF736
  3
D0
350
EF737
  3
D1
350
EF738
  3
D2
350
EF739
  0
DICTIONARY
  5
EF7CC
102
{ACAD_REACTORS
330
EF6D0
102
}
330
EF6D0
100
AcDbDictionary
281
     1
  0
DICTIONARY
  5
EF753
102
{ACAD_REACTORS
330
EF6D0
102
}
330
EF6D0
100
AcDbDictionary
281
     1
  3
Standard
350
EF754
  0
DICTIONARY
  5
EF73A
102
{ACAD_REACTORS
330
EF6D0
102
}
330
EF6D0
100
AcDbDictionary
281
     1
  3
2dWireframe
350
EF73F
  3
Basic
350
EF742
  3
Brighten
350
EF746
  3
ColorChange
350
EF74A
  3
Conceptual
350
EF744
  3
Dim
350
EF745
  3
EdgeColorOff
350
EF74D
  3
Facepattern
350
EF749
  3
Flat
350
EF73B
  3
FlatWithEdges
350
EF73C
  3
Gouraud
350
EF73D
  3
GouraudWithEdges
350
EF73E
  3
Hidden
350
EF741
  3
JitterOff
350
EF74B
  3
Linepattern
350
EF748
  3
OverhangOff
350
EF74C
  3
Realistic
350
EF743
  3
Shaded
350
EF752
  3
Shaded with edges
350
EF751
  3
Shades of Gray
350
EF74E
  3
Sketchy
350
EF74F
  3
Thicken
350
EF747
  3
Wireframe
350
EF740
  3
X-Ray
350
EF750
  0
XRECORD
  5
F0745
102
{ACAD_REACTORS
330
EF6D0
102
}
330
EF6D0
100
AcDbXrecord
280
     1
 90
        1
330
EF754
  0
DICTIONARY
  5
EF7C6
102
{ACAD_REACTORS
330
EF6D0
102
}
330
EF6D0
100
AcDbDictionary
281
     1
  3
CANNOSCALE
350
EF7C7
  3
CMLEADERSTYLE
350
EF7C9
  3
CTABLESTYLE
350
EF7C8
  3
MSLTSCALE
350
EF7CA
  3
XCLIPFRAME
350
F0712
  0
DICTIONARY
  5
EF757
102
{ACAD_REACTORS
330
EF6D0
102
}
330
EF6D0
100
AcDbDictionary
281
     1
  0
DICTIONARYVAR
  5
F0713
102
{ACAD_REACTORS
330
EF6D0
102
}
330
EF6D0
100
DictionaryVariables
280
     0
  1
0
  0
DICTIONARY
  5
EF790
102
{ACAD_REACTORS
330
EF78F
102
}
330
EF78F
100
AcDbDictionary
281
     1
  0
DICTIONARY
  5
F070B
102
{ACAD_REACTORS
330
F070A
102
}
330
F070A
100
AcDbDictionary
281
     1
  0
LAYOUT
  5
EF6DF
102
{ACAD_REACTORS
330
EF6DD
102
}
330
EF6DD
100
AcDbPlotSettings
  1

  2
none_device
  4

  6

 40
0.0
 41
0.0
 42
0.0
 43
0.0
 44
0.0
 45
0.0
 46
0.0
 47
0.0
 48
0.0
 49
0.0
140
0.0
141
0.0
142
1.0
143
1.0
 70
   688
 72
     0
 73
     0
 74
     5
  7

 75
    16
 76
     0
 77
     2
 78
   300
147
1.0
148
0.0
149
0.0
100
AcDbLayout
  1
Foglio1
 70
     1
 71
     1
 10
0.0
 20
0.0
 11
0.0
 21
0.0
 12
0.0
 22
0.0
 32
0.0
 14
0.0
 24
0.0
 34
0.0
 15
0.0
 25
0.0
 35
0.0
146
0.0
 13
0.0
 23
0.0
 33
0.0
 16
1.0
 26
0.0
 36
0.0
 17
0.0
 27
1.0
 37
0.0
 76
     0
330
EF6DE
331
DAB74
  0
LAYOUT
  5
EF6E1
102
{ACAD_REACTORS
330
EF6DD
102
}
330
EF6DD
100
AcDbPlotSettings
  1

  2
none_device
  4
Letter_(8.50_x_11.00_Inches)
  6

 40
6.35
 41
6.35
 42
6.35
 43
6.35
 44
215.9
 45
279.4
 46
0.0
 47
0.0
 48
0.0
 49
0.0
140
0.0
141
0.0
142
1.0
143
1.0
 70
  1712
 72
     0
 73
     0
 74
     0
  7

 75
     0
 76
     0
 77
     2
 78
   300
147
1.0
148
0.0
149
0.0
100
AcDbLayout
  1
Model
 70
     1
 71
     0
 10
0.0
 20
0.0
 11
12.0
 21
9.0
 12
0.0
 22
0.0
 32
0.0
 14
-4012.685974119233
 24
-987.6576470269351
 34
0.0
 15
13214.7025841856
 25
12352.36923202941
 35
0.0
146
0.0
 13
0.0
 23
0.0
 33
0.0
 16
1.0
 26
0.0
 36
0.0
 17
0.0
 27
1.0
 37
0.0
 76
     0
330
EF6E0
331
EF6E3
  0
MATERIAL
  5
EF6E8
102
{ACAD_REACTORS
330
EF6E6
102
}
330
EF6E6
100
AcDbMaterial
  1
ByBlock
 72
     1
 94
      127
  0
MATERIAL
  5
EF6E7
102
{ACAD_REACTORS
330
EF6E6
102
}
330
EF6E6
100
AcDbMaterial
  1
ByLayer
 72
     1
 94
      127
  0
MATERIAL
  5
EF6E9
102
{ACAD_REACTORS
330
EF6E6
102
}
330
EF6E6
100
AcDbMaterial
  1
Global
 72
     1
 94
      127
  0
MLEADERSTYLE
  5
EF756
102
{ACAD_REACTORS
330
EF755
102
}
330
EF755
100
AcDbMLeaderStyle
179
     2
170
     2
171
     1
172
     0
 90
        2
 40
0.0
 41
0.0
173
     1
 91
-1056964608
340
EF6D7
 92
       -2
290
     1
 42
0.09
291
     1
 43
0.36
  3
Standard
341
0
 44
0.18
300

342
EF6D5
174
     1
178
     1
175
     1
176
     0
 93
-1056964608
 45
0.18
292
     0
297
     0
 46
0.18
343
0
 94
-1056964608
 47
1.0
 49
1.0
140
1.0
293
     1
141
0.0
294
     1
177
     0
142
1.0
295
     0
296
     0
143
0.125
271
     0
272
     9
273
     9
298
     0
  0
MLINESTYLE
  5
EF6DB
102
{ACAD_REACTORS
330
EF6DA
102
}
330
EF6DA
100
AcDbMlineStyle
  2
Standard
 70
     0
  3

 62
   256
 51
90.0
 52
90.0
 71
     2
 49
0.5
 62
   256
  6
BYLAYER
 49
-0.5
 62
   256
  6
BYLAYER
  0
ACDBPLACEHOLDER
  5
EF6D3
102
{ACAD_REACTORS
330
EF6D2
102
}
330
EF6D2
  0
SCALE
  5
EF719
102
{ACAD_REACTORS
330
EF718
102
}
330
EF718
100
AcDbScale
 70
     0
300
1:1
140
1.0
141
1.0
290
     1
  0
SCALE
  5
EF71A
102
{ACAD_REACTORS
330
EF718
102
}
330
EF718
100
AcDbScale
 70
     0
300
1:2
140
1.0
141
2.0
290
     0
  0
SCALE
  5
EF71B
102
{ACAD_REACTORS
330
EF718
102
}
330
EF718
100
AcDbScale
 70
     0
300
1:4
140
1.0
141
4.0
290
     0
  0
SCALE
  5
EF71C
102
{ACAD_REACTORS
330
EF718
102
}
330
EF718
100
AcDbScale
 70
     0
300
1:5
140
1.0
141
5.0
290
     0
  0
SCALE
  5
EF71D
102
{ACAD_REACTORS
330
EF718
102
}
330
EF718
100
AcDbScale
 70
     0
300
1:8
140
1.0
141
8.0
290
     0
  0
SCALE
  5
EF71E
102
{ACAD_REACTORS
330
EF718
102
}
330
EF718
100
AcDbScale
 70
     0
300
1:10
140
1.0
141
10.0
290
     0
  0
SCALE
  5
EF71F
102
{ACAD_REACTORS
330
EF718
102
}
330
EF718
100
AcDbScale
 70
     0
300
1:16
140
1.0
141
16.0
290
     0
  0
SCALE
  5
EF720
102
{ACAD_REACTORS
330
EF718
102
}
330
EF718
100
AcDbScale
 70
     0
300
1:20
140
1.0
141
20.0
290
     0
  0
SCALE
  5
EF721
102
{ACAD_REACTORS
330
EF718
102
}
330
EF718
100
AcDbScale
 70
     0
300
1:30
140
1.0
141
30.0
290
     0
  0
SCALE
  5
EF722
102
{ACAD_REACTORS
330
EF718
102
}
330
EF718
100
AcDbScale
 70
     0
300
1:40
140
1.0
141
40.0
290
     0
  0
SCALE
  5
EF723
102
{ACAD_REACTORS
330
EF718
102
}
330
EF718
100
AcDbScale
 70
     0
300
1:50
140
1.0
141
50.0
290
     0
  0
SCALE
  5
EF724
102
{ACAD_REACTORS
330
EF718
102
}
330
EF718
100
AcDbScale
 70
     0
300
1:100
140
1.0
141
100.0
290
     0
  0
SCALE
  5
EF725
102
{ACAD_REACTORS
330
EF718
102
}
330
EF718
100
AcDbScale
 70
     0
300
2:1
140
2.0
141
1.0
290
     0
  0
SCALE
  5
EF726
102
{ACAD_REACTORS
330
EF718
102
}
330
EF718
100
AcDbScale
 70
     0
300
4:1
140
4.0
141
1.0
290
     0
  0
SCALE
  5
EF727
102
{ACAD_REACTORS
330
EF718
102
}
330
EF718
100
AcDbScale
 70
     0
300
8:1
140
8.0
141
1.0
290
     0
  0
SCALE
  5
EF728
102
{ACAD_REACTORS
330
EF718
102
}
330
EF718
100
AcDbScale
 70
     0
300
10:1
140
10.0
141
1.0
290
     0
  0
SCALE
  5
EF729
102
{ACAD_REACTORS
330
EF718
102
}
330
EF718
100
AcDbScale
 70
     0
300
100:1
140
100.0
141
1.0
290
     0
  0
SCALE
  5
EF72A
102
{ACAD_REACTORS
330
EF718
102
}
330
EF718
100
AcDbScale
 70
     0
300
1/128" = 1'-0"
140
0.0078125
141
12.0
290
     0
  0
SCALE
  5
EF72B
102
{ACAD_REACTORS
330
EF718
102
}
330
EF718
100
AcDbScale
 70
     0
300
1/64" = 1'-0"
140
0.015625
141
12.0
290
     0
  0
SCALE
  5
EF72C
102
{ACAD_REACTORS
330
EF718
102
}
330
EF718
100
AcDbScale
 70
     0
300
1/32" = 1'-0"
140
0.03125
141
12.0
290
     0
  0
SCALE
  5
EF72D
102
{ACAD_REACTORS
330
EF718
102
}
330
EF718
100
AcDbScale
 70
     0
300
1/16" = 1'-0"
140
0.0625
141
12.0
290
     0
  0
SCALE
  5
EF72E
102
{ACAD_REACTORS
330
EF718
102
}
330
EF718
100
AcDbScale
 70
     0
300
3/32" = 1'-0"
140
0.09375
141
12.0
290
     0
  0
SCALE
  5
EF72F
102
{ACAD_REACTORS
330
EF718
102
}
330
EF718
100
AcDbScale
 70
     0
300
1/8" = 1'-0"
140
0.125
141
12.0
290
     0
  0
SCALE
  5
EF730
102
{ACAD_REACTORS
330
EF718
102
}
330
EF718
100
AcDbScale
 70
     0
300
3/16" = 1'-0"
140
0.1875
141
12.0
290
     0
  0
SCALE
  5
EF731
102
{ACAD_REACTORS
330
EF718
102
}
330
EF718
100
AcDbScale
 70
     0
300
1/4" = 1'-0"
140
0.25
141
12.0
290
     0
  0
SCALE
  5
EF732
102
{ACAD_REACTORS
330
EF718
102
}
330
EF718
100
AcDbScale
 70
     0
300
3/8" = 1'-0"
140
0.375
141
12.0
290
     0
  0
SCALE
  5
EF733
102
{ACAD_REACTORS
330
EF718
102
}
330
EF718
100
AcDbScale
 70
     0
300
1/2" = 1'-0"
140
0.5
141
12.0
290
     0
  0
SCALE
  5
EF734
102
{ACAD_REACTORS
330
EF718
102
}
330
EF718
100
AcDbScale
 70
     0
300
3/4" = 1'-0"
140
0.75
141
12.0
290
     0
  0
SCALE
  5
EF735
102
{ACAD_REACTORS
330
EF718
102
}
330
EF718
100
AcDbScale
 70
     0
300
1" = 1'-0"
140
1.0
141
12.0
290
     0
  0
SCALE
  5
EF736
102
{ACAD_REACTORS
330
EF718
102
}
330
EF718
100
AcDbScale
 70
     0
300
1-1/2" = 1'-0"
140
1.5
141
12.0
290
     0
  0
SCALE
  5
EF737
102
{ACAD_REACTORS
330
EF718
102
}
330
EF718
100
AcDbScale
 70
     0
300
3" = 1'-0"
140
3.0
141
12.0
290
     0
  0
SCALE
  5
EF738
102
{ACAD_REACTORS
330
EF718
102
}
330
EF718
100
AcDbScale
 70
     0
300
6" = 1'-0"
140
6.0
141
12.0
290
     0
  0
SCALE
  5
EF739
102
{ACAD_REACTORS
330
EF718
102
}
330
EF718
100
AcDbScale
 70
     0
300
1'-0" = 1'-0"
140
12.0
141
12.0
290
     0
  0
TABLESTYLE
  5
EF754
102
{ACAD_REACTORS
330
EF753
102
}
102
{ACAD_XDICTIONARY
360
F0743
102
}
330
EF753
100
AcDbTableStyle
  3
Standard
 70
     0
 71
     0
 40
0.06
 41
0.06
280
     0
281
     0
  7
STANDARD
140
0.18
170
     2
 62
     0
 63
   257
283
     0
 90
        4
 91
        0
  1

274
    -2
284
     1
 64
     0
275
    -2
285
     1
 65
     0
276
    -2
286
     1
 66
     0
277
    -2
287
     1
 67
     0
278
    -2
288
     1
 68
     0
279
    -2
289
     1
 69
     0
  7
STANDARD
140
0.25
170
     5
 62
     0
 63
   257
283
     0
 90
        4
 91
        0
  1

274
    -2
284
     1
 64
     0
275
    -2
285
     1
 65
     0
276
    -2
286
     1
 66
     0
277
    -2
287
     1
 67
     0
278
    -2
288
     1
 68
     0
279
    -2
289
     1
 69
     0
  7
STANDARD
140
0.18
170
     5
 62
     0
 63
   257
283
     0
 90
        4
 91
        0
  1

274
    -2
284
     1
 64
     0
275
    -2
285
     1
 65
     0
276
    -2
286
     1
 66
     0
277
    -2
287
     1
 67
     0
278
    -2
288
     1
 68
     0
279
    -2
289
     1
 69
     0
  0
VISUALSTYLE
  5
EF73F
102
{ACAD_REACTORS
330
EF73A
102
}
330
EF73A
100
AcDbVisualStyle
  2
2dWireframe
 70
     4
177
     3
291
     0
 70
    58
 90
        0
176
     1
 90
        2
176
     1
 90
        0
176
     1
 90
        0
176
     1
 40
0.6
176
     1
 40
30.0
176
     1
 62
     7
420
 16777215
176
     1
 90
        1
176
     1
 90
        4
176
     1
 62
     7
176
     1
 62
   257
176
     1
 90
        1
176
     1
 90
        1
176
     1
 40
1.0
176
     1
 90
        0
176
     1
 62
   257
176
     1
 40
1.0
176
     1
 90
        1
176
     1
 90
        6
176
     1
 90
        2
176
     1
 62
     7
176
     1
 90
        5
176
     1
 90
        0
176
     1
 90
        0
176
     1
290
     0
176
     1
 90
        1
176
     1
 40
0.0
176
     1
 90
        0
176
     1
290
     1
176
     1
290
     1
176
     1
290
     0
176
     1
290
     0
176
     1
290
     0
176
     1
290
     0
176
     1
290
     0
176
     1
290
     0
176
     1
290
     0
176
     1
 90
       50
176
     1
 40
0.0
176
     1
 40
1.0
176
     1
 90
        0
176
     1
 62
    18
420
        0
176
     1
 90
       50
176
     1
 90
        3
176
     1
 62
     5
420
      255
176
     1
290
     0
176
     1
 90
       50
176
     1
 90
       50
176
     1
 90
       50
176
     1
290
     0
176
     1
 90
       50
176
     1
 62
   256
176
     0
 40
1.0
176
     0
 90
        2
176
     1
  1
strokes_ogs.tif
176
     1
290
     0
176
     1
 40
1.0
176
     1
 40
1.0
176
     1
  0
VISUALSTYLE
  5
EF742
102
{ACAD_REACTORS
330
EF73A
102
}
330
EF73A
100
AcDbVisualStyle
  2
Basic
 70
     7
177
     3
291
     1
 70
    58
 90
        1
176
     1
 90
        0
176
     1
 90
        1
176
     1
 90
        0
176
     1
 40
0.6
176
     1
 40
30.0
176
     1
 62
     7
420
 16777215
176
     1
 90
        0
176
     1
 90
        4
176
     1
 62
     7
176
     1
 62
   257
176
     1
 90
        1
176
     1
 90
        1
176
     1
 40
1.0
176
     1
 90
        8
176
     1
 62
     7
176
     1
 40
1.0
176
     1
 90
        1
176
     1
 90
        6
176
     1
 90
        2
176
     1
 62
     7
176
     1
 90
        5
176
     1
 90
        0
176
     1
 90
        0
176
     1
290
     0
176
     1
 90
        1
176
     1
 40
0.0
176
     1
 90
        0
176
     1
290
     0
176
     1
290
     1
176
     1
290
     1
176
     1
290
     0
176
     1
290
     0
176
     1
290
     0
176
     1
290
     0
176
     1
290
     0
176
     1
290
     0
176
     1
 90
       50
176
     1
 40
0.0
176
     1
 40
1.0
176
     1
 90
        0
176
     1
 62
    18
420
        0
176
     1
 90
       50
176
     1
 90
        3
176
     1
 62
     5
420
      255
176
     1
290
     0
176
     1
 90
       50
176
     1
 90
       50
176
     1
 90
       50
176
     1
290
     0
176
     1
 90
       50
176
     1
 62
   256
176
     0
 40
1.0
176
     0
 90
        2
176
     1
  1
strokes_ogs.tif
176
     1
290
     0
176
     1
 40
1.0
176
     1
 40
1.0
176
     1
  0
VISUALSTYLE
  5
EF746
102
{ACAD_REACTORS
330
EF73A
102
}
330
EF73A
100
AcDbVisualStyle
  2
Brighten
 70
    12
177
     3
291
     1
 70
    58
 90
        2
176
     1
 90
        2
176
     1
 90
        0
176
     1
 90
        0
176
     1
 40
0.6
176
     1
 40
30.0
176
     1
 62
     7
420
 16777215
176
     1
 90
        1
176
     1
 90
        4
176
     1
 62
     7
176
     1
 62
   257
176
     1
 90
        1
176
     1
 90
        1
176
     1
 40
1.0
176
     1
 90
        8
176
     1
 62
     7
176
     1
 40
1.0
176
     1
 90
        1
176
     1
 90
        6
176
     1
 90
        2
176
     1
 62
     7
176
     1
 90
        5
176
     1
 90
        0
176
     1
 90
        0
176
     1
290
     0
176
     1
 90
        1
176
     1
 40
50.0
176
     1
 90
        0
176
     1
290
     0
176
     1
290
     1
176
     1
290
     1
176
     1
290
     0
176
     1
290
     0
176
     1
290
     0
176
     1
290
     0
176
     1
290
     0
176
     1
290
     0
176
     1
 90
       50
176
     1
 40
0.0
176
     1
 40
1.0
176
     1
 90
        0
176
     1
 62
    18
420
        0
176
     1
 90
       50
176
     1
 90
        3
176
     1
 62
     5
420
      255
176
     1
290
     0
176
     1
 90
       50
176
     1
 90
       50
176
     1
 90
       50
176
     1
290
     0
176
     1
 90
       50
176
     1
 62
   256
176
     0
 40
1.0
176
     0
 90
        2
176
     1
  1
strokes_ogs.tif
176
     1
290
     0
176
     1
 40
1.0
176
     1
 40
1.0
176
     1
  0
VISUALSTYLE
  5
EF74A
102
{ACAD_REACTORS
330
EF73A
102
}
330
EF73A
100
AcDbVisualStyle
  2
ColorChange
 70
    16
177
     3
291
     1
 70
    58
 90
        2
176
     1
 90
        2
176
     1
 90
        3
176
     1
 90
        0
176
     1
 40
0.6
176
     1
 40
30.0
176
     1
 62
     8
420
  8421504
176
     1
 90
        1
176
     1
 90
        4
176
     1
 62
     7
176
     1
 62
   257
176
     1
 90
        1
176
     1
 90
        1
176
     1
 40
1.0
176
     1
 90
        8
176
     1
 62
     8
420
  8421504
176
     1
 40
1.0
176
     1
 90
        1
176
     1
 90
        6
176
     1
 90
        2
176
     1
 62
     7
176
     1
 90
        5
176
     1
 90
        0
176
     1
 90
        0
176
     1
290
     0
176
     1
 90
        1
176
     1
 40
0.0
176
     1
 90
        0
176
     1
290
     0
176
     1
290
     1
176
     1
290
     1
176
     1
290
     0
176
     1
290
     0
176
     1
290
     0
176
     1
290
     0
176
     1
290
     0
176
     1
290
     0
176
     1
 90
       50
176
     1
 40
0.0
176
     1
 40
1.0
176
     1
 90
        0
176
     1
 62
    18
420
        0
176
     1
 90
       50
176
     1
 90
        3
176
     1
 62
     5
420
      255
176
     1
290
     0
176
     1
 90
       50
176
     1
 90
       50
176
     1
 90
       50
176
     1
290
     0
176
     1
 90
       50
176
     1
 62
   256
176
     0
 40
1.0
176
     0
 90
        2
176
     1
  1
strokes_ogs.tif
176
     1
290
     0
176
     1
 40
1.0
176
     1
 40
1.0
176
     1
  0
VISUALSTYLE
  5
EF744
102
{ACAD_REACTORS
330
EF73A
102
}
330
EF73A
100
AcDbVisualStyle
  2
Conceptual
 70
     9
177
     3
291
     0
 70
    58
 90
        3
176
     1
 90
        2
176
     1
 90
        0
176
     1
 90
        0
176
     1
 40
0.6
176
     1
 40
30.0
176
     1
 62
     7
420
 16777215
176
     1
 90
        2
176
     1
 90
        2
176
     1
 62
     7
176
     1
 62
   257
176
     1
 90
        1
176
     1
 90
        1
176
     1
 40
179.0
176
     1
 90
        8
176
     1
 62
     7
176
     1
 40
1.0
176
     1
 90
        1
176
     1
 90
        6
176
     1
 90
        2
176
     1
 62
     7
176
     1
 90
        3
176
     1
 90
        0
176
     1
 90
        0
176
     1
290
     0
176
     1
 90
        1
176
     1
 40
0.0
176
     1
 90
        0
176
     1
290
     0
176
     1
290
     1
176
     1
290
     1
176
     1
290
     0
176
     1
290
     0
176
     1
290
     0
176
     1
290
     0
176
     1
290
     0
176
     1
290
     0
176
     1
 90
       50
176
     1
 40
0.0
176
     1
 40
1.0
176
     1
 90
        0
176
     1
 62
    18
420
        0
176
     1
 90
       50
176
     1
 90
        3
176
     1
 62
     5
420
      255
176
     1
290
     0
176
     1
 90
       50
176
     1
 90
       50
176
     1
 90
       50
176
     1
290
     0
176
     1
 90
       50
176
     1
 62
   256
176
     0
 40
1.0
176
     0
 90
        2
176
     1
  1
strokes_ogs.tif
176
     1
290
     0
176
     1
 40
1.0
176
     1
 40
1.0
176
     1
  0
VISUALSTYLE
  5
EF745
102
{ACAD_REACTORS
330
EF73A
102
}
330
EF73A
100
AcDbVisualStyle
  2
Dim
 70
    11
177
     3
291
     1
 70
    58
 90
        2
176
     1
 90
        2
176
     1
 90
        0
176
     1
 90
        0
176
     1
 40
0.6
176
     1
 40
30.0
176
     1
 62
     7
420
 16777215
176
     1
 90
        1
176
     1
 90
        4
176
     1
 62
     7
176
     1
 62
   257
176
     1
 90
        1
176
     1
 90
        1
176
     1
 40
1.0
176
     1
 90
        8
176
     1
 62
     7
176
     1
 40
1.0
176
     1
 90
        1
176
     1
 90
        6
176
     1
 90
        2
176
     1
 62
     7
176
     1
 90
        5
176
     1
 90
        0
176
     1
 90
        0
176
     1
290
     0
176
     1
 90
        1
176
     1
 40
-50.0
176
     1
 90
        0
176
     1
290
     0
176
     1
290
     1
176
     1
290
     1
176
     1
290
     0
176
     1
290
     0
176
     1
290
     0
176
     1
290
     0
176
     1
290
     0
176
     1
290
     0
176
     1
 90
       50
176
     1
 40
0.0
176
     1
 40
1.0
176
     1
 90
        0
176
     1
 62
    18
420
        0
176
     1
 90
       50
176
     1
 90
        3
176
     1
 62
     5
420
      255
176
     1
290
     0
176
     1
 90
       50
176
     1
 90
       50
176
     1
 90
       50
176
     1
290
     0
176
     1
 90
       50
176
     1
 62
   256
176
     0
 40
1.0
176
     0
 90
        2
176
     1
  1
strokes_ogs.tif
176
     1
290
     0
176
     1
 40
1.0
176
     1
 40
1.0
176
     1
  0
VISUALSTYLE
  5
EF74D
102
{ACAD_REACTORS
330
EF73A
102
}
330
EF73A
100
AcDbVisualStyle
  2
EdgeColorOff
 70
    22
177
     3
291
     1
 70
    58
 90
        2
176
     1
 90
        2
176
     1
 90
        0
176
     1
 90
        0
176
     1
 40
0.6
176
     1
 40
30.0
176
     1
 62
     7
420
 16777215
176
     1
 90
        1
176
     1
 90
        4
176
     1
 62
     7
176
     1
 62
   257
176
     1
 90
        1
176
     1
 90
        1
176
     1
 40
1.0
176
     1
 90
        8
176
     1
 62
     7
176
     1
 40
1.0
176
     1
 90
        1
176
     1
 90
        6
176
     1
 90
        2
176
     1
 62
     7
176
     1
 90
        5
176
     1
 90
        0
176
     1
 90
        0
176
     1
290
     0
176
     1
 90
        1
176
     1
 40
0.0
176
     1
 90
        0
176
     1
290
     0
176
     1
290
     1
176
     1
290
     1
176
     1
290
     0
176
     1
290
     0
176
     1
290
     0
176
     1
290
     0
176
     1
290
     0
176
     1
290
     0
176
     1
 90
       50
176
     1
 40
0.0
176
     1
 40
1.0
176
     1
 90
        0
176
     1
 62
    18
420
        0
176
     1
 90
       50
176
     1
 90
        3
176
     1
 62
     5
420
      255
176
     1
290
     0
176
     1
 90
       50
176
     1
 90
       50
176
     1
 90
       50
176
     1
290
     0
176
     1
 90
       50
176
     1
 62
   256
176
     0
 40
1.0
176
     0
 90
        2
176
     1
  1
strokes_ogs.tif
176
     1
290
     0
176
     1
 40
1.0
176
     1
 40
1.0
176
     1
  0
VISUALSTYLE
  5
EF749
102
{ACAD_REACTORS
330
EF73A
102
}
330
EF73A
100
AcDbVisualStyle
  2
Facepattern
 70
    15
177
     3
291
     1
 70
    58
 90
        2
176
     1
 90
        2
176
     1
 90
        0
176
     1
 90
        0
176
     1
 40
0.6
176
     1
 40
30.0
176
     1
 62
     7
420
 16777215
176
     1
 90
        1
176
     1
 90
        4
176
     1
 62
     7
176
     1
 62
   257
176
     1
 90
        1
176
     1
 90
        1
176
     1
 40
1.0
176
     1
 90
        8
176
     1
 62
     7
176
     1
 40
1.0
176
     1
 90
        1
176
     1
 90
        6
176
     1
 90
        2
176
     1
 62
     7
176
     1
 90
        5
176
     1
 90
        0
176
     1
 90
        0
176
     1
290
     0
176
     1
 90
        1
176
     1
 40
0.0
176
     1
 90
        0
176
     1
290
     0
176
     1
290
     1
176
     1
290
     1
176
     1
290
     0
176
     1
290
     0
176
     1
290
     0
176
     1
290
     0
176
     1
290
     0
176
     1
290
     0
176
     1
 90
       50
176
     1
 40
0.0
176
     1
 40
1.0
176
     1
 90
        0
176
     1
 62
    18
420
        0
176
     1
 90
       50
176
     1
 90
        3
176
     1
 62
     5
420
      255
176
     1
290
     0
176
     1
 90
       50
176
     1
 90
       50
176
     1
 90
       50
176
     1
290
     0
176
     1
 90
       50
176
     1
 62
   256
176
     0
 40
1.0
176
     0
 90
        2
176
     1
  1
strokes_ogs.tif
176
     1
290
     0
176
     1
 40
1.0
176
     1
 40
1.0
176
     1
  0
VISUALSTYLE
  5
EF73B
102
{ACAD_REACTORS
330
EF73A
102
}
330
EF73A
100
AcDbVisualStyle
  2
Flat
 70
     0
177
     3
291
     1
 70
    58
 90
        2
176
     1
 90
        1
176
     1
 90
        1
176
     1
 90
        2
176
     1
 40
0.6
176
     1
 40
30.0
176
     1
 62
     7
420
 16777215
176
     1
 90
        0
176
     1
 90
        0
176
     1
 62
     7
176
     1
 62
   257
176
     1
 90
        1
176
     1
 90
        1
176
     1
 40
1.0
176
     1
 90
        8
176
     1
 62
     7
176
     1
 40
1.0
176
     1
 90
        1
176
     1
 90
        6
176
     1
 90
        2
176
     1
 62
     7
176
     1
 90
        5
176
     1
 90
        0
176
     1
 90
        0
176
     1
290
     0
176
     1
 90
       13
176
     1
 40
0.0
176
     1
 90
        0
176
     1
290
     0
176
     1
290
     1
176
     1
290
     1
176
     1
290
     0
176
     1
290
     0
176
     1
290
     0
176
     1
290
     0
176
     1
290
     0
176
     1
290
     0
176
     1
 90
       50
176
     1
 40
0.0
176
     1
 40
1.0
176
     1
 90
        0
176
     1
 62
    18
420
        0
176
     1
 90
       50
176
     1
 90
        3
176
     1
 62
     5
420
      255
176
     1
290
     0
176
     1
 90
       50
176
     1
 90
       50
176
     1
 90
       50
176
     1
290
     0
176
     1
 90
       50
176
     1
 62
   256
176
     0
 40
1.0
176
     0
 90
        2
176
     1
  1
strokes_ogs.tif
176
     1
290
     0
176
     1
 40
1.0
176
     1
 40
1.0
176
     1
  0
VISUALSTYLE
  5
EF73C
102
{ACAD_REACTORS
330
EF73A
102
}
330
EF73A
100
AcDbVisualStyle
  2
FlatWithEdges
 70
     1
177
     3
291
     1
 70
    58
 90
        2
176
     1
 90
        1
176
     1
 90
        1
176
     1
 90
        2
176
     1
 40
0.6
176
     1
 40
30.0
176
     1
 62
     7
420
 16777215
176
     1
 90
        1
176
     1
 90
        0
176
     1
 62
     7
176
     1
 62
   257
176
     1
 90
        1
176
     1
 90
        1
176
     1
 40
1.0
176
     1
 90
        0
176
     1
 62
   257
176
     1
 40
1.0
176
     1
 90
        1
176
     1
 90
        6
176
     1
 90
        2
176
     1
 62
     7
176
     1
 90
        5
176
     1
 90
        0
176
     1
 90
        0
176
     1
290
     0
176
     1
 90
       13
176
     1
 40
0.0
176
     1
 90
        0
176
     1
290
     0
176
     1
290
     1
176
     1
290
     1
176
     1
290
     0
176
     1
290
     0
176
     1
290
     0
176
     1
290
     0
176
     1
290
     0
176
     1
290
     0
176
     1
 90
       50
176
     1
 40
0.0
176
     1
 40
1.0
176
     1
 90
        0
176
     1
 62
    18
420
        0
176
     1
 90
       50
176
     1
 90
        3
176
     1
 62
     5
420
      255
176
     1
290
     0
176
     1
 90
       50
176
     1
 90
       50
176
     1
 90
       50
176
     1
290
     0
176
     1
 90
       50
176
     1
 62
   256
176
     0
 40
1.0
176
     0
 90
        2
176
     1
  1
strokes_ogs.tif
176
     1
290
     0
176
     1
 40
1.0
176
     1
 40
1.0
176
     1
  0
VISUALSTYLE
  5
EF73D
102
{ACAD_REACTORS
330
EF73A
102
}
330
EF73A
100
AcDbVisualStyle
  2
Gouraud
 70
     2
177
     3
291
     1
 70
    58
 90
        2
176
     1
 90
        2
176
     1
 90
        1
176
     1
 90
        2
176
     1
 40
0.6
176
     1
 40
30.0
176
     1
 62
     7
420
 16777215
176
     1
 90
        0
176
     1
 90
        0
176
     1
 62
     7
176
     1
 62
   257
176
     1
 90
        1
176
     1
 90
        1
176
     1
 40
1.0
176
     1
 90
        0
176
     1
 62
     7
176
     1
 40
1.0
176
     1
 90
        1
176
     1
 90
        6
176
     1
 90
        2
176
     1
 62
     7
176
     1
 90
        5
176
     1
 90
        0
176
     1
 90
        0
176
     1
290
     0
176
     1
 90
       13
176
     1
 40
0.0
176
     1
 90
        0
176
     1
290
     0
176
     1
290
     1
176
     1
290
     1
176
     1
290
     0
176
     1
290
     0
176
     1
290
     0
176
     1
290
     0
176
     1
290
     0
176
     1
290
     0
176
     1
 90
       50
176
     1
 40
0.0
176
     1
 40
1.0
176
     1
 90
        0
176
     1
 62
    18
420
        0
176
     1
 90
       50
176
     1
 90
        3
176
     1
 62
     5
420
      255
176
     1
290
     0
176
     1
 90
       50
176
     1
 90
       50
176
     1
 90
       50
176
     1
290
     0
176
     1
 90
       50
176
     1
 62
   256
176
     0
 40
1.0
176
     0
 90
        2
176
     1
  1
strokes_ogs.tif
176
     1
290
     0
176
     1
 40
1.0
176
     1
 40
1.0
176
     1
  0
VISUALSTYLE
  5
EF73E
102
{ACAD_REACTORS
330
EF73A
102
}
330
EF73A
100
AcDbVisualStyle
  2
GouraudWithEdges
 70
     3
177
     3
291
     1
 70
    58
 90
        2
176
     1
 90
        2
176
     1
 90
        1
176
     1
 90
        2
176
     1
 40
0.6
176
     1
 40
30.0
176
     1
 62
     7
420
 16777215
176
     1
 90
        1
176
     1
 90
        0
176
     1
 62
     7
176
     1
 62
   257
176
     1
 90
        1
176
     1
 90
        1
176
     1
 40
1.0
176
     1
 90
        0
176
     1
 62
   257
176
     1
 40
1.0
176
     1
 90
        1
176
     1
 90
        6
176
     1
 90
        2
176
     1
 62
     7
176
     1
 90
        5
176
     1
 90
        0
176
     1
 90
        0
176
     1
290
     0
176
     1
 90
       13
176
     1
 40
0.0
176
     1
 90
        0
176
     1
290
     0
176
     1
290
     1
176
     1
290
     1
176
     1
290
     0
176
     1
290
     0
176
     1
290
     0
176
     1
290
     0
176
     1
290
     0
176
     1
290
     0
176
     1
 90
       50
176
     1
 40
0.0
176
     1
 40
1.0
176
     1
 90
        0
176
     1
 62
    18
420
        0
176
     1
 90
       50
176
     1
 90
        3
176
     1
 62
     5
420
      255
176
     1
290
     0
176
     1
 90
       50
176
     1
 90
       50
176
     1
 90
       50
176
     1
290
     0
176
     1
 90
       50
176
     1
 62
   256
176
     0
 40
1.0
176
     0
 90
        2
176
     1
  1
strokes_ogs.tif
176
     1
290
     0
176
     1
 40
1.0
176
     1
 40
1.0
176
     1
  0
VISUALSTYLE
  5
EF741
102
{ACAD_REACTORS
330
EF73A
102
}
330
EF73A
100
AcDbVisualStyle
  2
Hidden
 70
     6
177
     3
291
     0
 70
    58
 90
        1
176
     1
 90
        2
176
     1
 90
        2
176
     1
 90
        0
176
     1
 40
0.6
176
     1
 40
30.0
176
     1
 62
     7
420
 16777215
176
     1
 90
        2
176
     1
 90
        2
176
     1
 62
     7
176
     1
 62
   257
176
     1
 90
        2
176
     1
 90
        1
176
     1
 40
40.0
176
     1
 90
        0
176
     1
 62
   257
176
     1
 40
1.0
176
     1
 90
        1
176
     1
 90
        6
176
     1
 90
        2
176
     1
 62
     7
176
     1
 90
        3
176
     1
 90
        0
176
     1
 90
        0
176
     1
290
     0
176
     1
 90
        1
176
     1
 40
0.0
176
     1
 90
        0
176
     1
290
     0
176
     1
290
     1
176
     1
290
     1
176
     1
290
     0
176
     1
290
     0
176
     1
290
     0
176
     1
290
     0
176
     1
290
     0
176
     1
290
     0
176
     1
 90
       50
176
     1
 40
0.0
176
     1
 40
1.0
176
     1
 90
        0
176
     1
 62
    18
420
        0
176
     1
 90
       50
176
     1
 90
        3
176
     1
 62
     5
420
      255
176
     1
290
     0
176
     1
 90
       50
176
     1
 90
       50
176
     1
 90
       50
176
     1
290
     0
176
     1
 90
       50
176
     1
 62
   256
176
     0
 40
1.0
176
     0
 90
        2
176
     1
  1
strokes_ogs.tif
176
     1
290
     0
176
     1
 40
1.0
176
     1
 40
1.0
176
     1
  0
VISUALSTYLE
  5
EF74B
102
{ACAD_REACTORS
330
EF73A
102
}
330
EF73A
100
AcDbVisualStyle
  2
JitterOff
 70
    20
177
     3
291
     1
 70
    58
 90
        2
176
     1
 90
        2
176
     1
 90
        0
176
     1
 90
        0
176
     1
 40
0.6
176
     1
 40
30.0
176
     1
 62
     7
420
 16777215
176
     1
 90
        1
176
     1
 90
        4
176
     1
 62
     7
176
     1
 62
   257
176
     1
 90
        1
176
     1
 90
        1
176
     1
 40
1.0
176
     1
 90
       10
176
     1
 62
     7
176
     1
 40
1.0
176
     1
 90
        1
176
     1
 90
        6
176
     1
 90
        2
176
     1
 62
     7
176
     1
 90
        5
176
     1
 90
        0
176
     1
 90
        0
176
     1
290
     0
176
     1
 90
        1
176
     1
 40
0.0
176
     1
 90
        0
176
     1
290
     0
176
     1
290
     1
176
     1
290
     1
176
     1
290
     0
176
     1
290
     0
176
     1
290
     0
176
     1
290
     0
176
     1
290
     0
176
     1
290
     0
176
     1
 90
       50
176
     1
 40
0.0
176
     1
 40
1.0
176
     1
 90
        0
176
     1
 62
    18
420
        0
176
     1
 90
       50
176
     1
 90
        3
176
     1
 62
     5
420
      255
176
     1
290
     0
176
     1
 90
       50
176
     1
 90
       50
176
     1
 90
       50
176
     1
290
     0
176
     1
 90
       50
176
     1
 62
   256
176
     0
 40
1.0
176
     0
 90
        2
176
     1
  1
strokes_ogs.tif
176
     1
290
     0
176
     1
 40
1.0
176
     1
 40
1.0
176
     1
  0
VISUALSTYLE
  5
EF748
102
{ACAD_REACTORS
330
EF73A
102
}
330
EF73A
100
AcDbVisualStyle
  2
Linepattern
 70
    14
177
     3
291
     1
 70
    58
 90
        2
176
     1
 90
        2
176
     1
 90
        0
176
     1
 90
        0
176
     1
 40
0.6
176
     1
 40
30.0
176
     1
 62
     7
420
 16777215
176
     1
 90
        1
176
     1
 90
        4
176
     1
 62
     7
176
     1
 62
   257
176
     1
 90
        7
176
     1
 90
        7
176
     1
 40
1.0
176
     1
 90
        8
176
     1
 62
     7
176
     1
 40
1.0
176
     1
 90
        1
176
     1
 90
        6
176
     1
 90
        2
176
     1
 62
     7
176
     1
 90
        5
176
     1
 90
        0
176
     1
 90
        0
176
     1
290
     0
176
     1
 90
        1
176
     1
 40
0.0
176
     1
 90
        0
176
     1
290
     0
176
     1
290
     1
176
     1
290
     1
176
     1
290
     0
176
     1
290
     0
176
     1
290
     0
176
     1
290
     0
176
     1
290
     0
176
     1
290
     0
176
     1
 90
       50
176
     1
 40
0.0
176
     1
 40
1.0
176
     1
 90
        0
176
     1
 62
    18
420
        0
176
     1
 90
       50
176
     1
 90
        3
176
     1
 62
     5
420
      255
176
     1
290
     0
176
     1
 90
       50
176
     1
 90
       50
176
     1
 90
       50
176
     1
290
     0
176
     1
 90
       50
176
     1
 62
   256
176
     0
 40
1.0
176
     0
 90
        2
176
     1
  1
strokes_ogs.tif
176
     1
290
     0
176
     1
 40
1.0
176
     1
 40
1.0
176
     1
  0
VISUALSTYLE
  5
EF74C
102
{ACAD_REACTORS
330
EF73A
102
}
330
EF73A
100
AcDbVisualStyle
  2
OverhangOff
 70
    21
177
     3
291
     1
 70
    58
 90
        2
176
     1
 90
        2
176
     1
 90
        0
176
     1
 90
        0
176
     1
 40
0.6
176
     1
 40
30.0
176
     1
 62
     7
420
 16777215
176
     1
 90
        1
176
     1
 90
        4
176
     1
 62
     7
176
     1
 62
   257
176
     1
 90
        1
176
     1
 90
        1
176
     1
 40
1.0
176
     1
 90
        9
176
     1
 62
     7
176
     1
 40
1.0
176
     1
 90
        1
176
     1
 90
        6
176
     1
 90
        2
176
     1
 62
     7
176
     1
 90
        5
176
     1
 90
        0
176
     1
 90
        0
176
     1
290
     0
176
     1
 90
        1
176
     1
 40
0.0
176
     1
 90
        0
176
     1
290
     0
176
     1
290
     1
176
     1
290
     1
176
     1
290
     0
176
     1
290
     0
176
     1
290
     0
176
     1
290
     0
176
     1
290
     0
176
     1
290
     0
176
     1
 90
       50
176
     1
 40
0.0
176
     1
 40
1.0
176
     1
 90
        0
176
     1
 62
    18
420
        0
176
     1
 90
       50
176
     1
 90
        3
176
     1
 62
     5
420
      255
176
     1
290
     0
176
     1
 90
       50
176
     1
 90
       50
176
     1
 90
       50
176
     1
290
     0
176
     1
 90
       50
176
     1
 62
   256
176
     0
 40
1.0
176
     0
 90
        2
176
     1
  1
strokes_ogs.tif
176
     1
290
     0
176
     1
 40
1.0
176
     1
 40
1.0
176
     1
  0
VISUALSTYLE
  5
EF743
102
{ACAD_REACTORS
330
EF73A
102
}
330
EF73A
100
AcDbVisualStyle
  2
Realistic
 70
     8
177
     3
291
     0
 70
    58
 90
        2
176
     1
 90
        3
176
     1
 90
        0
176
     1
 90
        2
176
     1
 40
0.6
176
     1
 40
30.0
176
     1
 62
     7
420
 16777215
176
     1
 90
        0
176
     1
 90
        0
176
     1
 62
     7
176
     1
 62
   257
176
     1
 90
        1
176
     1
 90
        1
176
     1
 40
1.0
176
     1
 90
        8
176
     1
 62
   257
176
     1
 40
1.0
176
     1
 90
        1
176
     1
 90
        6
176
     1
 90
        2
176
     1
 62
     7
176
     1
 90
        3
176
     1
 90
        0
176
     1
 90
        0
176
     1
290
     0
176
     1
 90
       13
176
     1
 40
0.0
176
     1
 90
        0
176
     1
290
     0
176
     1
290
     1
176
     1
290
     1
176
     1
290
     0
176
     1
290
     0
176
     1
290
     0
176
     1
290
     0
176
     1
290
     0
176
     1
290
     0
176
     1
 90
       50
176
     1
 40
0.0
176
     1
 40
1.0
176
     1
 90
        0
176
     1
 62
    18
420
        0
176
     1
 90
       50
176
     1
 90
        3
176
     1
 62
     5
420
      255
176
     1
290
     0
176
     1
 90
       50
176
     1
 90
       50
176
     1
 90
       50
176
     1
290
     0
176
     1
 90
       50
176
     1
 62
   256
176
     0
 40
1.0
176
     0
 90
        2
176
     1
  1
strokes_ogs.tif
176
     1
290
     0
176
     1
 40
1.0
176
     1
 40
1.0
176
     1
  0
VISUALSTYLE
  5
EF752
102
{ACAD_REACTORS
330
EF73A
102
}
330
EF73A
100
AcDbVisualStyle
  2
Shaded
 70
    27
177
     3
291
     0
 70
    58
 90
        2
176
     1
 90
        2
176
     1
 90
        1
176
     1
 90
        2
176
     1
 40
0.6
176
     1
 40
30.0
176
     1
 62
     7
420
 16777215
176
     1
 90
        0
176
     1
 90
        4
176
     1
 62
     7
176
     1
 62
   257
176
     1
 90
        1
176
     1
 90
        1
176
     1
 40
1.0
176
     1
 90
        8
176
     1
 62
   257
176
     1
 40
1.0
176
     1
 90
        1
176
     1
 90
        6
176
     1
 90
        2
176
     1
 62
     8
420
  7895160
176
     1
 90
        3
176
     1
 90
        0
176
     1
 90
        0
176
     1
290
     0
176
     1
 90
        5
176
     1
 40
0.0
176
     1
 90
        0
176
     1
290
     0
176
     1
290
     1
176
     1
290
     1
176
     1
290
     0
176
     1
290
     0
176
     1
290
     0
176
     1
290
     0
176
     1
290
     0
176
     1
290
     0
176
     1
 90
       50
176
     1
 40
0.0
176
     1
 40
1.0
176
     1
 90
        0
176
     1
 62
    18
420
        0
176
     1
 90
       50
176
     1
 90
        3
176
     1
 62
     5
420
      255
176
     1
290
     0
176
     1
 90
       50
176
     1
 90
       50
176
     1
 90
       50
176
     1
290
     0
176
     1
 90
       50
176
     1
 62
   256
176
     0
 40
1.0
176
     0
 90
        2
176
     1
  1
strokes_ogs.tif
176
     1
290
     0
176
     1
 40
1.0
176
     1
 40
1.0
176
     1
  0
VISUALSTYLE
  5
EF751
102
{ACAD_REACTORS
330
EF73A
102
}
330
EF73A
100
AcDbVisualStyle
  2
Shaded with edges
 70
    26
177
     3
291
     0
 70
    58
 90
        2
176
     1
 90
        2
176
     1
 90
        1
176
     1
 90
        2
176
     1
 40
0.6
176
     1
 40
30.0
176
     1
 62
     7
420
 16777215
176
     1
 90
        1
176
     1
 90
       10
176
     1
 62
     7
176
     1
 62
   257
176
     1
 90
        2
176
     1
 90
        1
176
     1
 40
1.0
176
     1
 90
        8
176
     1
 62
   257
176
     1
 40
1.0
176
     1
 90
        1
176
     1
 90
        6
176
     1
 90
        2
176
     1
 62
     7
176
     1
 90
        3
176
     1
 90
        0
176
     1
 90
        0
176
     1
290
     0
176
     1
 90
        5
176
     1
 40
0.0
176
     1
 90
        0
176
     1
290
     0
176
     1
290
     1
176
     1
290
     1
176
     1
290
     0
176
     1
290
     0
176
     1
290
     0
176
     1
290
     0
176
     1
290
     0
176
     1
290
     0
176
     1
 90
       50
176
     1
 40
0.0
176
     1
 40
1.0
176
     1
 90
        0
176
     1
 62
    18
420
        0
176
     1
 90
       50
176
     1
 90
        3
176
     1
 62
     5
420
      255
176
     1
290
     0
176
     1
 90
       50
176
     1
 90
       50
176
     1
 90
       50
176
     1
290
     0
176
     1
 90
       50
176
     1
 62
   256
176
     0
 40
1.0
176
     0
 90
        2
176
     1
  1
strokes_ogs.tif
176
     1
290
     0
176
     1
 40
1.0
176
     1
 40
1.0
176
     1
  0
VISUALSTYLE
  5
EF74E
102
{ACAD_REACTORS
330
EF73A
102
}
330
EF73A
100
AcDbVisualStyle
  2
Shades of Gray
 70
    23
177
     3
291
     0
 70
    58
 90
        2
176
     1
 90
        2
176
     1
 90
        3
176
     1
 90
        0
176
     1
 40
0.6
176
     1
 40
30.0
176
     1
 62
     7
420
 16777215
176
     1
 90
        2
176
     1
 90
        2
176
     1
 62
     7
176
     1
 62
     7
176
     1
 90
        1
176
     1
 90
        1
176
     1
 40
40.0
176
     1
 90
        8
176
     1
 62
     7
176
     1
 40
1.0
176
     1
 90
        1
176
     1
 90
        6
176
     1
 90
        2
176
     1
 62
     7
176
     1
 90
        3
176
     1
 90
        0
176
     1
 90
        0
176
     1
290
     0
176
     1
 90
        1
176
     1
 40
0.0
176
     1
 90
        0
176
     1
290
     0
176
     1
290
     1
176
     1
290
     1
176
     1
290
     0
176
     1
290
     0
176
     1
290
     0
176
     1
290
     0
176
     1
290
     0
176
     1
290
     0
176
     1
 90
       50
176
     1
 40
0.0
176
     1
 40
1.0
176
     1
 90
        0
176
     1
 62
    18
420
        0
176
     1
 90
       50
176
     1
 90
        3
176
     1
 62
     5
420
      255
176
     1
290
     0
176
     1
 90
       50
176
     1
 90
       50
176
     1
 90
       50
176
     1
290
     0
176
     1
 90
       50
176
     1
 62
   256
176
     0
 40
1.0
176
     0
 90
        2
176
     1
  1
strokes_ogs.tif
176
     1
290
     0
176
     1
 40
1.0
176
     1
 40
1.0
176
     1
  0
VISUALSTYLE
  5
EF74F
102
{ACAD_REACTORS
330
EF73A
102
}
330
EF73A
100
AcDbVisualStyle
  2
Sketchy
 70
    24
177
     3
291
     0
 70
    58
 90
        1
176
     1
 90
        2
176
     1
 90
        2
176
     1
 90
        0
176
     1
 40
0.6
176
     1
 40
30.0
176
     1
 62
     7
420
 16777215
176
     1
 90
        2
176
     1
 90
        2
176
     1
 62
     7
176
     1
 62
     7
176
     1
 90
        1
176
     1
 90
        1
176
     1
 40
40.0
176
     1
 90
       11
176
     1
 62
     7
176
     1
 40
1.0
176
     1
 90
        1
176
     1
 90
        6
176
     1
 90
        2
176
     1
 62
     7
176
     1
 90
        6
176
     1
 90
        0
176
     1
 90
        0
176
     1
290
     0
176
     1
 90
        1
176
     1
 40
0.0
176
     1
 90
        0
176
     1
290
     0
176
     1
290
     1
176
     1
290
     1
176
     1
290
     0
176
     1
290
     0
176
     1
290
     0
176
     1
290
     0
176
     1
290
     0
176
     1
290
     0
176
     1
 90
       50
176
     1
 40
0.0
176
     1
 40
1.0
176
     1
 90
        0
176
     1
 62
    18
420
        0
176
     1
 90
       50
176
     1
 90
        3
176
     1
 62
     5
420
      255
176
     1
290
     0
176
     1
 90
       50
176
     1
 90
       50
176
     1
 90
       50
176
     1
290
     0
176
     1
 90
       50
176
     1
 62
   256
176
     0
 40
1.0
176
     0
 90
        2
176
     1
  1
strokes_ogs.tif
176
     1
290
     0
176
     1
 40
1.0
176
     1
 40
1.0
176
     1
  0
VISUALSTYLE
  5
EF747
102
{ACAD_REACTORS
330
EF73A
102
}
330
EF73A
100
AcDbVisualStyle
  2
Thicken
 70
    13
177
     3
291
     1
 70
    58
 90
        2
176
     1
 90
        2
176
     1
 90
        0
176
     1
 90
        0
176
     1
 40
0.6
176
     1
 40
30.0
176
     1
 62
     7
420
 16777215
176
     1
 90
        1
176
     1
 90
        4
176
     1
 62
     7
176
     1
 62
   257
176
     1
 90
        1
176
     1
 90
        1
176
     1
 40
1.0
176
     1
 90
       12
176
     1
 62
     7
176
     1
 40
1.0
176
     1
 90
        1
176
     1
 90
        6
176
     1
 90
        2
176
     1
 62
     7
176
     1
 90
        5
176
     1
 90
        0
176
     1
 90
        0
176
     1
290
     0
176
     1
 90
        1
176
     1
 40
0.0
176
     1
 90
        0
176
     1
290
     0
176
     1
290
     1
176
     1
290
     1
176
     1
290
     0
176
     1
290
     0
176
     1
290
     0
176
     1
290
     0
176
     1
290
     0
176
     1
290
     0
176
     1
 90
       50
176
     1
 40
0.0
176
     1
 40
1.0
176
     1
 90
        0
176
     1
 62
    18
420
        0
176
     1
 90
       50
176
     1
 90
        3
176
     1
 62
     5
420
      255
176
     1
290
     0
176
     1
 90
       50
176
     1
 90
       50
176
     1
 90
       50
176
     1
290
     0
176
     1
 90
       50
176
     1
 62
   256
176
     0
 40
1.0
176
     0
 90
        2
176
     1
  1
strokes_ogs.tif
176
     1
290
     0
176
     1
 40
1.0
176
     1
 40
1.0
176
     1
  0
VISUALSTYLE
  5
EF740
102
{ACAD_REACTORS
330
EF73A
102
}
330
EF73A
100
AcDbVisualStyle
  2
Wireframe
 70
     5
177
     3
291
     0
 70
    58
 90
        0
176
     1
 90
        2
176
     1
 90
        0
176
     1
 90
        0
176
     1
 40
0.6
176
     1
 40
30.0
176
     1
 62
     7
420
 16777215
176
     1
 90
        1
176
     1
 90
        4
176
     1
 62
     7
176
     1
 62
   257
176
     1
 90
        1
176
     1
 90
        1
176
     1
 40
1.0
176
     1
 90
        0
176
     1
 62
   257
176
     1
 40
1.0
176
     1
 90
        1
176
     1
 90
        6
176
     1
 90
        2
176
     1
 62
     7
176
     1
 90
        3
176
     1
 90
        0
176
     1
 90
        0
176
     1
290
     0
176
     1
 90
        1
176
     1
 40
0.0
176
     1
 90
        0
176
     1
290
     0
176
     1
290
     1
176
     1
290
     1
176
     1
290
     0
176
     1
290
     0
176
     1
290
     0
176
     1
290
     0
176
     1
290
     0
176
     1
290
     0
176
     1
 90
       50
176
     1
 40
0.0
176
     1
 40
1.0
176
     1
 90
        0
176
     1
 62
    18
420
        0
176
     1
 90
       50
176
     1
 90
        3
176
     1
 62
     5
420
      255
176
     1
290
     0
176
     1
 90
       50
176
     1
 90
       50
176
     1
 90
       50
176
     1
290
     0
176
     1
 90
       50
176
     1
 62
   256
176
     0
 40
1.0
176
     0
 90
        2
176
     1
  1
strokes_ogs.tif
176
     1
290
     0
176
     1
 40
1.0
176
     1
 40
1.0
176
     1
  0
VISUALSTYLE
  5
EF750
102
{ACAD_REACTORS
330
EF73A
102
}
330
EF73A
100
AcDbVisualStyle
  2
X-Ray
 70
    25
177
     3
291
     0
 70
    58
 90
        2
176
     1
 90
        2
176
     1
 90
        1
176
     1
 90
        1
176
     1
 40
0.5
176
     1
 40
30.0
176
     1
 62
     7
420
 16777215
176
     1
 90
        1
176
     1
 90
        0
176
     1
 62
     7
176
     1
 62
   257
176
     1
 90
        1
176
     1
 90
        1
176
     1
 40
1.0
176
     1
 90
        8
176
     1
 62
     7
176
     1
 40
1.0
176
     1
 90
        1
176
     1
 90
        6
176
     1
 90
        2
176
     1
 62
     7
176
     1
 90
        3
176
     1
 90
        0
176
     1
 90
        0
176
     1
290
     0
176
     1
 90
       13
176
     1
 40
0.0
176
     1
 90
        0
176
     1
290
     0
176
     1
290
     1
176
     1
290
     1
176
     1
290
     0
176
     1
290
     0
176
     1
290
     0
176
     1
290
     0
176
     1
290
     0
176
     1
290
     0
176
     1
 90
       50
176
     1
 40
0.0
176
     1
 40
1.0
176
     1
 90
        0
176
     1
 62
    18
420
        0
176
     1
 90
       50
176
     1
 90
        3
176
     1
 62
     5
420
      255
176
     1
290
     0
176
     1
 90
       50
176
     1
 90
       50
176
     1
 90
       50
176
     1
290
     0
176
     1
 90
       50
176
     1
 62
   256
176
     0
 40
1.0
176
     0
 90
        2
176
     1
  1
strokes_ogs.tif
176
     1
290
     0
176
     1
 40
1.0
176
     1
 40
1.0
176
     1
  0
DICTIONARYVAR
  5
EF7C7
102
{ACAD_REACTORS
330
EF7C6
102
}
330
EF7C6
100
DictionaryVariables
280
     0
  1
1:1
  0
DICTIONARYVAR
  5
EF7C9
102
{ACAD_REACTORS
330
EF7C6
102
}
330
EF7C6
100
DictionaryVariables
280
     0
  1
Standard
  0
DICTIONARYVAR
  5
EF7C8
102
{ACAD_REACTORS
330
EF7C6
102
}
330
EF7C6
100
DictionaryVariables
280
     0
  1
Standard
  0
DICTIONARYVAR
  5
EF7CA
102
{ACAD_REACTORS
330
EF7C6
102
}
330
EF7C6
100
DictionaryVariables
280
     0
  1
0
  0
DICTIONARYVAR
  5
F0712
102
{ACAD_REACTORS
330
EF7C6
102
}
330
EF7C6
100
DictionaryVariables
280
     0
  1
0
  0
DICTIONARY
  5
F0743
330
EF754
100
AcDbDictionary
280
     1
281
     1
  3
ACAD_ROUNDTRIP_2008_TABLESTYLE_CELLSTYLEMAP
360
F0744
  0
CELLSTYLEMAP
  5
F0744
102
{ACAD_REACTORS
330
F0743
102
}
330
F0743
100
AcDbCellStyleMap
 90
        3
300
CELLSTYLE
  1
TABLEFORMAT_BEGIN
 90
        5
170
     1
 91
        0
 92
    32768
 62
   257
 93
        1
300
CONTENTFORMAT
  1
CONTENTFORMAT_BEGIN
 90
        0
 91
        0
 92
        4
 93
        0
300

 40
0.0
140
1.0
 94
        5
 62
     0
340
EF6D5
144
0.25
309
CONTENTFORMAT_END
171
     1
301
MARGIN
  1
CELLMARGIN_BEGIN
 40
0.06
 40
0.06
 40
0.06
 40
0.06
 40
0.06
 40
0.06
309
CELLMARGIN_END
 94
        6
 95
        1
302
GRIDFORMAT
  1
GRIDFORMAT_BEGIN
 90
        0
 91
        1
 62
     0
 92
       -2
340
EF6D7
 93
        0
 40
0.045
309
GRIDFORMAT_END
 95
        2
302
GRIDFORMAT
  1
GRIDFORMAT_BEGIN
 90
        0
 91
        1
 62
     0
 92
       -2
340
EF6D7
 93
        0
 40
0.045
309
GRIDFORMAT_END
 95
        4
302
GRIDFORMAT
  1
GRIDFORMAT_BEGIN
 90
        0
 91
        1
 62
     0
 92
       -2
340
EF6D7
 93
        0
 40
0.045
309
GRIDFORMAT_END
 95
        8
302
GRIDFORMAT
  1
GRIDFORMAT_BEGIN
 90
        0
 91
        1
 62
     0
 92
       -2
340
EF6D7
 93
        0
 40
0.045
309
GRIDFORMAT_END
 95
       16
302
GRIDFORMAT
  1
GRIDFORMAT_BEGIN
 90
        0
 91
        1
 62
     0
 92
       -2
340
EF6D7
 93
        0
 40
0.045
309
GRIDFORMAT_END
 95
       32
302
GRIDFORMAT
  1
GRIDFORMAT_BEGIN
 90
        0
 91
        1
 62
     0
 92
       -2
340
EF6D7
 93
        0
 40
0.045
309
GRIDFORMAT_END
309
TABLEFORMAT_END
  1
CELLSTYLE_BEGIN
 90
        1
 91
        1
300
_TITLE
309
CELLSTYLE_END
300
CELLSTYLE
  1
TABLEFORMAT_BEGIN
 90
        5
170
     1
 91
        0
 92
        0
 62
   257
 93
        1
300
CONTENTFORMAT
  1
CONTENTFORMAT_BEGIN
 90
        0
 91
        0
 92
        4
 93
        0
300

 40
0.0
140
1.0
 94
        5
 62
     0
340
EF6D5
144
0.18
309
CONTENTFORMAT_END
171
     1
301
MARGIN
  1
CELLMARGIN_BEGIN
 40
0.06
 40
0.06
 40
0.06
 40
0.06
 40
0.06
 40
0.06
309
CELLMARGIN_END
 94
        6
 95
        1
302
GRIDFORMAT
  1
GRIDFORMAT_BEGIN
 90
        0
 91
        1
 62
     0
 92
       -2
340
EF6D7
 93
        0
 40
0.045
309
GRIDFORMAT_END
 95
        2
302
GRIDFORMAT
  1
GRIDFORMAT_BEGIN
 90
        0
 91
        1
 62
     0
 92
       -2
340
EF6D7
 93
        0
 40
0.045
309
GRIDFORMAT_END
 95
        4
302
GRIDFORMAT
  1
GRIDFORMAT_BEGIN
 90
        0
 91
        1
 62
     0
 92
       -2
340
EF6D7
 93
        0
 40
0.045
309
GRIDFORMAT_END
 95
        8
302
GRIDFORMAT
  1
GRIDFORMAT_BEGIN
 90
        0
 91
        1
 62
     0
 92
       -2
340
EF6D7
 93
        0
 40
0.045
309
GRIDFORMAT_END
 95
       16
302
GRIDFORMAT
  1
GRIDFORMAT_BEGIN
 90
        0
 91
        1
 62
     0
 92
       -2
340
EF6D7
 93
        0
 40
0.045
309
GRIDFORMAT_END
 95
       32
302
GRIDFORMAT
  1
GRIDFORMAT_BEGIN
 90
        0
 91
        1
 62
     0
 92
       -2
340
EF6D7
 93
        0
 40
0.045
309
GRIDFORMAT_END
309
TABLEFORMAT_END
  1
CELLSTYLE_BEGIN
 90
        2
 91
        1
300
_HEADER
309
CELLSTYLE_END
300
CELLSTYLE
  1
TABLEFORMAT_BEGIN
 90
        5
170
     1
 91
        0
 92
        0
 62
   257
 93
        1
300
CONTENTFORMAT
  1
CONTENTFORMAT_BEGIN
 90
        0
 91
        0
 92
        4
 93
        0
300

 40
0.0
140
1.0
 94
        2
 62
     0
340
EF6D5
144
0.18
309
CONTENTFORMAT_END
171
     1
301
MARGIN
  1
CELLMARGIN_BEGIN
 40
0.06
 40
0.06
 40
0.06
 40
0.06
 40
0.06
 40
0.06
309
CELLMARGIN_END
 94
        6
 95
        1
302
GRIDFORMAT
  1
GRIDFORMAT_BEGIN
 90
        0
 91
        1
 62
     0
 92
       -2
340
EF6D7
 93
        0
 40
0.045
309
GRIDFORMAT_END
 95
        2
302
GRIDFORMAT
  1
GRIDFORMAT_BEGIN
 90
        0
 91
        1
 62
     0
 92
       -2
340
EF6D7
 93
        0
 40
0.045
309
GRIDFORMAT_END
 95
        4
302
GRIDFORMAT
  1
GRIDFORMAT_BEGIN
 90
        0
 91
        1
 62
     0
 92
       -2
340
EF6D7
 93
        0
 40
0.045
309
GRIDFORMAT_END
 95
        8
302
GRIDFORMAT
  1
GRIDFORMAT_BEGIN
 90
        0
 91
        1
 62
     0
 92
       -2
340
EF6D7
 93
        0
 40
0.045
309
GRIDFORMAT_END
 95
       16
302
GRIDFORMAT
  1
GRIDFORMAT_BEGIN
 90
        0
 91
        1
 62
     0
 92
       -2
340
EF6D7
 93
        0
 40
0.045
309
GRIDFORMAT_END
 95
       32
302
GRIDFORMAT
  1
GRIDFORMAT_BEGIN
 90
        0
 91
        1
 62
     0
 92
       -2
340
EF6D7
 93
        0
 40
0.045
309
GRIDFORMAT_END
309
TABLEFORMAT_END
  1
CELLSTYLE_BEGIN
 90
        3
 91
        2
300
_DATA
309
CELLSTYLE_END
  0
ENDSEC
  0
EOF
