  0
SECTION
  2
HEADER
  9
$ACADVER
  1
AC1009
  9
$DWGCODEPAGE
  3
ansi_1252
  9
$INSBASE
 10
0.0
 20
0.0
 30
0.0
  9
$EXTMIN
 10
-0.000000000007276
 20
0.0
 30
0.0
  9
$EXTMAX
 10
40100.0
 20
25069.69256525888
 30
0.0
  9
$LIMMIN
 10
0.0
 20
0.0
  9
$LIMMAX
 10
12.0
 20
9.0
  9
$ORTHOMODE
 70
     1
  9
$REGENMODE
 70
     1
  9
$FILLMODE
 70
     1
  9
$QTEXTMODE
 70
     0
  9
$MIRRTEXT
 70
     0
  9
$DRAGMODE
 70
     2
  9
$LTSCALE
 40
5.0
  9
$OSMODE
 70
 16383
  9
$ATTMODE
 70
     2
  9
$TEXTSIZE
 40
19.0
  9
$TRACEWID
 40
0.05
  9
$TEXTSTYLE
  7
STILE1
  9
$CLAYER
  8
0
  9
$CELTYPE
  6
BYLAYER
  9
$CECOLOR
 62
   256
  9
$DIMSCALE
 40
20.0
  9
$DIMASZ
 40
2.5
  9
$DIMEXO
 40
1.0
  9
$DIMDLI
 40
0.0
  9
$DIMRND
 40
0.0
  9
$DIMDLE
 40
0.0
  9
$DIMEXE
 40
1.0
  9
$DIMTP
 40
0.0
  9
$DIMTM
 40
0.0
  9
$DIMTXT
 40
2.5
  9
$DIMCEN
 40
1.0
  9
$DIMTSZ
 40
0.0
  9
$DIMTOL
 70
     0
  9
$DIMLIM
 70
     0
  9
$DIMTIH
 70
     0
  9
$DIMTOH
 70
     0
  9
$DIMSE1
 70
     0
  9
$DIMSE2
 70
     0
  9
$DIMTAD
 70
     1
  9
$DIMZIN
 70
     8
  9
$DIMBLK
  1

  9
$DIMASO
 70
     1
  9
$DIMSHO
 70
     0
  9
$DIMPOST
  1

  9
$DIMAPOST
  1

  9
$DIMALT
 70
     0
  9
$DIMALTD
 70
     2
  9
$DIMALTF
 40
25.4
  9
$DIMLFAC
 40
1.0
  9
$DIMTOFL
 70
     1
  9
$DIMTVP
 40
0.0
  9
$DIMTIX
 70
     1
  9
$DIMSOXD
 70
     0
  9
$DIMSAH
 70
     0
  9
$DIMBLK1
  1

  9
$DIMBLK2
  1

  9
$DIMSTYLE
  2
STANDARD
  9
$DIMCLRD
 70
     0
  9
$DIMCLRE
 70
     0
  9
$DIMCLRT
 70
     0
  9
$DIMTFAC
 40
1.0
  9
$DIMGAP
 40
1.5
  9
$LUNITS
 70
     2
  9
$LUPREC
 70
     4
  9
$SKETCHINC
 40
0.1
  9
$FILLETRAD
 40
500.0
  9
$AUNITS
 70
     0
  9
$AUPREC
 70
     0
  9
$MENU
  1
acad
  9
$ELEVATION
 40
0.0
  9
$PELEVATION
 40
0.0
  9
$THICKNESS
 40
0.0
  9
$LIMCHECK
 70
     0
  9
$CHAMFERA
 40
0.0
  9
$CHAMFERB
 40
0.0
  9
$SKPOLY
 70
     0
  9
$TDCREATE
 40
2450277.54597441
  9
$TDUPDATE
 40
2459760.483484086
  9
$TDINDWG
 40
23.5120962731
  9
$TDUSRTIMER
 40
0.0001477199
  9
$USRTIMER
 70
     1
  9
$ANGBASE
 50
0.0
  9
$ANGDIR
 70
     0
  9
$PDMODE
 70
     0
  9
$PDSIZE
 40
0.0
  9
$PLINEWID
 40
0.0
  9
$COORDS
 70
     1
  9
$SPLFRAME
 70
     0
  9
$SPLINETYPE
 70
     6
  9
$SPLINESEGS
 70
     8
  9
$ATTDIA
 70
     0
  9
$ATTREQ
 70
     1
  9
$HANDLING
 70
     1
  9
$HANDSEED
  5
B362A
  9
$SURFTAB1
 70
     6
  9
$SURFTAB2
 70
     6
  9
$SURFTYPE
 70
     6
  9
$SURFU
 70
     6
  9
$SURFV
 70
     6
  9
$UCSNAME
  2

  9
$UCSORG
 10
0.0
 20
0.0
 30
0.0
  9
$UCSXDIR
 10
1.0
 20
0.0
 30
0.0
  9
$UCSYDIR
 10
0.0
 20
1.0
 30
0.0
  9
$PUCSNAME
  2

  9
$PUCSORG
 10
0.0
 20
0.0
 30
0.0
  9
$PUCSXDIR
 10
1.0
 20
0.0
 30
0.0
  9
$PUCSYDIR
 10
0.0
 20
1.0
 30
0.0
  9
$USERI1
 70
     0
  9
$USERI2
 70
     0
  9
$USERI3
 70
     0
  9
$USERI4
 70
     0
  9
$USERI5
 70
     0
  9
$USERR1
 40
0.0
  9
$USERR2
 40
0.0
  9
$USERR3
 40
0.0
  9
$USERR4
 40
0.0
  9
$USERR5
 40
0.0
  9
$WORLDVIEW
 70
     1
  9
$SHADEDGE
 70
     3
  9
$SHADEDIF
 70
    70
  9
$TILEMODE
 70
     1
  9
$MAXACTVP
 70
    16
  9
$PLIMCHECK
 70
     0
  9
$PEXTMIN
 10
5211.97193308841
 20
-46.47543711420804
 30
0.0
  9
$PEXTMAX
 10
5820.50813952323
 20
216.4264256745723
 30
0.0
  9
$PLIMMIN
 10
0.0
 20
0.0
  9
$PLIMMAX
 10
0.0
 20
0.0
  9
$UNITMODE
 70
     0
  9
$VISRETAIN
 70
     0
  9
$PLINEGEN
 70
     0
  9
$PSLTSCALE
 70
     1
  0
ENDSEC
  0
SECTION
  2
TABLES
  0
TABLE
  2
VPORT
 70
     1
  0
VPORT
  2
*ACTIVE
 70
     0
 10
0.0
 20
0.0
 11
1.0
 21
1.0
 12
20050.00018673586
 22
12534.84639937286
 13
0.0
 23
0.0
 14
1.0
 24
1.0
 15
0.0
 25
0.0
 16
0.0
 26
0.0
 36
1.0
 17
0.0
 27
0.0
 37
0.0
 40
25343.32220001682
 41
2.221621621621621
 42
50.0
 43
0.0
 44
0.0
 50
0.0
 51
0.0
 71
    16
 72
   100
 73
     1
 74
     1
 75
     0
 76
     0
 77
     0
 78
     0
  0
ENDTAB
  0
TABLE
  2
LTYPE
 70
     1
  0
LTYPE
  2
CONTINUOUS
 70
     0
  3
Solid line
 72
    65
 73
     0
 40
0.0
  0
ENDTAB
  0
TABLE
  2
LAYER
 70
     5
  0
LAYER
  2
0
 70
     0
 62
     7
  6
CONTINUOUS
  0
LAYER
  2
CLOTHES_RAIL
 70
     0
 62
     3
  6
CONTINUOUS
  0
LAYER
  2
RIPIANI
 70
     0
 62
     2
  6
CONTINUOUS
  0
LAYER
  2
RETE
 70
     0
 62
     4
  6
CONTINUOUS
  0
ENDTAB
  0
TABLE
  2
STYLE
 70
     3
  0
STYLE
  2
STANDARD
 70
     0
 40
0.0
 41
1.0
 50
0.0
 71
     0
 42
2.5
  3
txt
  4

  0
STYLE
  2
STILE1
 70
     0
 40
0.0
 41
1.0
 50
0.0
 71
     0
 42
19.0
  3
ROMANS.SHX
  4

  0
STYLE
  2
STILE4
 70
     0
 40
0.0
 41
1.0
 50
0.0
 71
     0
 42
2.5
  3
ROMANS.SHX
  4

  0
ENDTAB
  0
TABLE
  2
VIEW
 70
     0
  0
ENDTAB
  0
TABLE
  2
UCS
 70
     0
  0
ENDTAB
  0
TABLE
  2
APPID
 70
    18
  0
APPID
  2
ACAD
 70
     0
  0
APPID
  2
DCO15
 70
     0
  0
APPID
  2
ACAD_PSEXT
 70
     0
  0
APPID
  2
ACAECLAYERSTANDARD
 70
     0
  0
APPID
  2
ACDBDYNAMICBLOCKGUID
 70
     0
  0
APPID
  2
ACDBBLOCKREPETAG
 70
     0
  0
APPID
  2
ACAD_DSTYLE_DIMEXT_ENABLED
 70
     0
  0
APPID
  2
ACAD_DSTYLE_DIMEXT_LENGTH
 70
     0
  0
APPID
  2
ACAD_DSTYLE_DIMJOGGED_JOGA
 70
     0
  0
APPID
  2
ACAD_DSTYLE_DIMJOGGED_JOG0
 70
     0
  0
APPID
  2
$DDT_AUDIT_GENERATED__2CAF
 70
     0
  0
APPID
  2
ACCMTRANSPARENCY
 70
     0
  0
APPID
  2
ACAD_NAV_VCDISPLAY
 70
     0
  0
APPID
  2
GRADIENTCOLOR1ACI
 70
     0
  0
APPID
  2
GRADIENTCOLOR2ACI
 70
     0
  0
APPID
  2
RAK
 70
     0
  0
APPID
  2
ACAD_DSTYLE_DIMRADIAL_EXTE
 70
     0
  0
APPID
  2
ACAD_MLEADERVER
 70
     0
  0
ENDTAB
  0
TABLE
  2
DIMSTYLE
 70
     1
  0
DIMSTYLE
  2
STANDARD
 70
     0
  3

  4

  5

  6

  7

 40
1.0
 41
0.18
 42
0.0625
 43
0.38
 44
0.18
 45
0.0
 46
0.0
 47
0.0
 48
0.0
140
300.0
141
0.09
142
0.0
143
25.4
144
1.0
145
0.0
146
1.0
147
0.09
 71
     0
 72
     0
 73
     1
 74
     1
 75
     0
 76
     0
 77
     0
 78
     0
170
     0
171
     2
172
     0
173
     0
174
     0
175
     0
176
     0
177
     0
178
     0
  0
ENDTAB
  0
ENDSEC
  0
SECTION
  2
BLOCKS
  0
BLOCK
  8
0
  2
$MODEL_SPACE
 70
     0
 10
0.0
 20
0.0
 30
0.0
  3
$MODEL_SPACE
  1

  0
ENDBLK
  5
B1BAB
  8
0
  0
BLOCK
 67
     1
  8
0
  2
$PAPER_SPACE
 70
     0
 10
0.0
 20
0.0
 30
0.0
  3
$PAPER_SPACE
  1

  0
ENDBLK
  5
B1BA7
 67
     1
  8
0
  0
ENDSEC
  0
SECTION
  2
ENTITIES
  0
TEXT
  5
3C998
  8
CLOTHES_RAIL
 10
54216.23091534142
 20
19413.99999809511
 30
0.0
 40
137.5
  1

  7
STILE1
  0
TEXT
  5
3E8B6
  8
0
 10
41890.34487605011
 20
15396.05051007833
 30
0.0
 40
85.0
  1

 50
90.0
  7
STILE1
  0
TEXT
  5
3E8B9
  8
0
 10
39397.05051007832
 20
14327.65512394988
 30
0.0
 40
85.0
  1

  7
STILE1
  0
TEXT
  5
75F3B
  8
0
 10
201181.4559518903
 20
28290.99290028673
 30
0.0
 40
112.8125
  1

  7
STILE1
  0
TEXT
  5
76002
  8
0
 10
201181.4559518903
 20
30150.99290028673
 30
0.0
 40
112.8125
  1

  7
STILE1
  0
TEXT
  5
76061
  8
0
 10
201181.4559518903
 20
32010.99290028673
 30
0.0
 40
112.8125
  1

  7
STILE1
  0
TEXT
  5
760C0
  8
0
 10
201181.4559518904
 20
33870.99290028674
 30
0.0
 40
112.8125
  1

  7
STILE1
  0
TEXT
  5
7611D
  8
0
 10
201181.4559518904
 20
35730.99290028673
 30
0.0
 40
112.8125
  1

  7
STILE1
  0
TEXT
  5
79EA0
  8
CLOTHES_RAIL
 10
184385.7047872411
 20
38170.01720615364
 30
0.0
 40
72.0
  1

  7
STILE1
  0
POLYLINE
  5
A98A4
  8
0
 66
     1
 10
0.0
 20
0.0
 30
0.0
 70
     1
  0
VERTEX
  5
B2948
  8
0
 10
0.0
 20
9015.002619770916
 30
0.0
  0
VERTEX
  5
B2949
  8
0
 10
13000.0
 20
9015.002619770916
 30
0.0
  0
VERTEX
  5
B294A
  8
0
 10
13000.0
 20
1537.657647026935
 30
0.0
  0
VERTEX
  5
B294B
  8
0
 10
0.0
 20
1537.657647026935
 30
0.0
  0
SEQEND
  5
B33F6
  8
0
  0
POLYLINE
  5
A98A6
  8
0
 66
     1
 10
0.0
 20
0.0
 30
0.0
 70
     1
  0
VERTEX
  5
B294C
  8
0
 10
27100.0
 20
1537.657647026934
 30
0.0
  0
VERTEX
  5
B294D
  8
0
 10
40100.0
 20
1537.657647026934
 30
0.0
  0
VERTEX
  5
B294E
  8
0
 10
40100.0
 20
9015.002619770908
 30
0.0
  0
VERTEX
  5
B294F
  8
0
 10
27100.0
 20
9015.002619770908
 30
0.0
  0
SEQEND
  5
B33F7
  8
0
  0
POLYLINE
  5
A98D6
  8
0
 66
     1
 10
0.0
 20
0.0
 30
0.0
 70
     1
  0
VERTEX
  5
B2950
  8
0
 10
13550.0
 20
1537.657647026935
 30
0.0
  0
VERTEX
  5
B2951
  8
0
 10
26550.0
 20
1537.657647026935
 30
0.0
  0
VERTEX
  5
B2952
  8
0
 10
26550.0
 20
1837.657647026935
 30
0.0
  0
VERTEX
  5
B2953
  8
0
 10
13550.0
 20
1837.657647026935
 30
0.0
  0
SEQEND
  5
B33F8
  8
0
  0
POLYLINE
  5
A98D7
  8
0
 66
     1
 10
0.0
 20
0.0
 30
0.0
 70
     1
  0
VERTEX
  5
B2954
  8
0
 10
27100.0
 20
1537.657647026934
 30
0.0
  0
VERTEX
  5
B2955
  8
0
 10
40100.0
 20
1537.657647026934
 30
0.0
  0
VERTEX
  5
B2956
  8
0
 10
40100.0
 20
1837.657647026935
 30
0.0
  0
VERTEX
  5
B2957
  8
0
 10
27100.0
 20
1837.657647026935
 30
0.0
  0
SEQEND
  5
B33F9
  8
0
  0
POLYLINE
  5
A9926
  8
0
 66
     1
 10
0.0
 20
0.0
 30
0.0
 70
     1
  0
VERTEX
  5
B2958
  8
0
 10
-0.000000000007276
 20
1537.657647026935
 30
0.0
  0
VERTEX
  5
B2959
  8
0
 10
13000.0
 20
1537.657647026935
 30
0.0
  0
VERTEX
  5
B295A
  8
0
 10
13000.0
 20
1837.657647026935
 30
0.0
  0
VERTEX
  5
B295B
  8
0
 10
-0.000000000007276
 20
1837.657647026935
 30
0.0
  0
SEQEND
  5
B33FA
  8
0
  0
TEXT
  5
A9927
  8
0
 10
3173.906836621409
 20
432.2479967307316
 30
0.0
 40
125.0
  1
Questo disegno è di proprietà di Fantin S.r.l.   
  7
STILE1
 72
     1
 11
5596.525884240456
 21
432.2479967307316
 31
0.0
  0
TEXT
  5
A9928
  8
0
 10
3852.932680910111
 20
778.7322304035334
 30
0.0
 40
125.0
  1
Vela
  7
STILE1
 72
     1
 11
4032.062145195825
 21
778.7322304035334
 31
0.0
  0
POLYLINE
  5
A9929
  8
0
  6
CONTINUOUS
 66
     1
 10
0.0
 20
0.0
 30
0.0
  0
VERTEX
  5
B295C
  8
0
  6
CONTINUOUS
 10
2006.841552732512
 20
299.9999999999997
 30
0.0
  0
VERTEX
  5
B295D
  8
0
  6
CONTINUOUS
 10
2006.841552732512
 20
687.661092123016
 30
0.0
  0
VERTEX
  5
B295E
  8
0
  6
CONTINUOUS
 10
2108.191094296053
 20
687.661092123016
 30
0.0
 42
-0.316444976687396
  0
VERTEX
  5
B295F
  8
0
  6
CONTINUOUS
 10
2159.138888884337
 20
659.4164767791514
 30
0.0
  0
VERTEX
  5
B2960
  8
0
  6
CONTINUOUS
 10
2259.932047529146
 20
489.3975694442633
 30
0.0
  0
VERTEX
  5
B2961
  8
0
  6
CONTINUOUS
 10
2262.700181747787
 20
489.3975694442633
 30
0.0
  0
VERTEX
  5
B2962
  8
0
  6
CONTINUOUS
 10
2262.700181747787
 20
687.661092123016
 30
0.0
  0
VERTEX
  5
B2963
  8
0
  6
CONTINUOUS
 10
2375.123982746154
 20
687.661092123016
 30
0.0
  0
VERTEX
  5
B2964
  8
0
  6
CONTINUOUS
 10
2375.123982746154
 20
299.9999999999997
 30
0.0
  0
VERTEX
  5
B2965
  8
0
  6
CONTINUOUS
 10
2292.601888021454
 20
299.9999999999997
 30
0.0
 42
-0.312959769389874
  0
VERTEX
  5
B2966
  8
0
  6
CONTINUOUS
 10
2241.654093428515
 20
328.2428927952421
 30
0.0
  0
VERTEX
  5
B2967
  8
0
  6
CONTINUOUS
 10
2122.033487958833
 20
521.5196397574612
 30
0.0
  0
VERTEX
  5
B2968
  8
0
  6
CONTINUOUS
 10
2119.268798828125
 20
521.5196397574612
 30
0.0
  0
VERTEX
  5
B2969
  8
0
  6
CONTINUOUS
 10
2119.268798828125
 20
299.9999999999997
 30
0.0
  0
VERTEX
  5
B296A
  8
0
  6
CONTINUOUS
 10
2006.841552732512
 20
299.9999999999997
 30
0.0
  0
SEQEND
  5
B33FB
  8
0
  6
CONTINUOUS
  0
POLYLINE
  5
A992A
  8
0
  6
CONTINUOUS
 66
     1
 10
0.0
 20
0.0
 30
0.0
  0
VERTEX
  5
B296B
  8
0
  6
CONTINUOUS
 10
1030.479098847136
 20
299.9999999999997
 30
0.0
  0
VERTEX
  5
B296C
  8
0
  6
CONTINUOUS
 10
1030.479098847136
 20
687.661092123016
 30
0.0
  0
VERTEX
  5
B296D
  8
0
  6
CONTINUOUS
 10
1131.828640410675
 20
687.661092123016
 30
0.0
 42
-0.316444976687396
  0
VERTEX
  5
B296E
  8
0
  6
CONTINUOUS
 10
1182.776435003616
 20
659.4164767791514
 30
0.0
  0
VERTEX
  5
B296F
  8
0
  6
CONTINUOUS
 10
1283.569593643768
 20
489.3975694442633
 30
0.0
  0
VERTEX
  5
B2970
  8
0
  6
CONTINUOUS
 10
1286.337727867066
 20
489.3975694442633
 30
0.0
  0
VERTEX
  5
B2971
  8
0
  6
CONTINUOUS
 10
1286.337727867066
 20
687.661092123016
 30
0.0
  0
VERTEX
  5
B2972
  8
0
  6
CONTINUOUS
 10
1398.761528860777
 20
687.661092123016
 30
0.0
  0
VERTEX
  5
B2973
  8
0
  6
CONTINUOUS
 10
1398.761528860777
 20
299.9999999999997
 30
0.0
  0
VERTEX
  5
B2974
  8
0
  6
CONTINUOUS
 10
1316.239434136078
 20
299.9999999999997
 30
0.0
 42
-0.312959769389874
  0
VERTEX
  5
B2975
  8
0
  6
CONTINUOUS
 10
1265.29163953848
 20
328.2428927952421
 30
0.0
  0
VERTEX
  5
B2976
  8
0
  6
CONTINUOUS
 10
1145.671034073457
 20
521.5196397574612
 30
0.0
  0
VERTEX
  5
B2977
  8
0
  6
CONTINUOUS
 10
1142.906344942748
 20
521.5196397574612
 30
0.0
  0
VERTEX
  5
B2978
  8
0
  6
CONTINUOUS
 10
1142.906344942748
 20
299.9999999999997
 30
0.0
  0
VERTEX
  5
B2979
  8
0
  6
CONTINUOUS
 10
1030.479098847136
 20
299.9999999999997
 30
0.0
  0
SEQEND
  5
B33FC
  8
0
  6
CONTINUOUS
  0
POLYLINE
  5
A992B
  8
0
  6
CONTINUOUS
 66
     1
 10
0.0
 20
0.0
 30
0.0
  0
VERTEX
  5
B297A
  8
0
  6
CONTINUOUS
 10
1783.103271485306
 20
687.6593695743937
 30
0.0
  0
VERTEX
  5
B297B
  8
0
  6
CONTINUOUS
 10
1783.103271485306
 20
596.8363172747192
 30
0.0
  0
VERTEX
  5
B297C
  8
0
  6
CONTINUOUS
 10
1666.80718316231
 20
596.8363172747192
 30
0.0
  0
VERTEX
  5
B297D
  8
0
  6
CONTINUOUS
 10
1666.80718316231
 20
299.9999999999997
 30
0.0
  0
VERTEX
  5
B297E
  8
0
  6
CONTINUOUS
 10
1547.737792972475
 20
299.9999999999997
 30
0.0
  0
VERTEX
  5
B297F
  8
0
  6
CONTINUOUS
 10
1547.737792972475
 20
596.8363172747192
 30
0.0
  0
VERTEX
  5
B2980
  8
0
  6
CONTINUOUS
 10
1434.204671224579
 20
596.8363172747192
 30
0.0
  0
VERTEX
  5
B2981
  8
0
  6
CONTINUOUS
 10
1434.204671224579
 20
687.6593695743937
 30
0.0
  0
VERTEX
  5
B2982
  8
0
  6
CONTINUOUS
 10
1783.103271485306
 20
687.6593695743937
 30
0.0
  0
SEQEND
  5
B33FD
  8
0
  6
CONTINUOUS
  0
POLYLINE
  5
A992C
  8
0
  6
CONTINUOUS
 66
     1
 10
0.0
 20
0.0
 30
0.0
 70
     1
  0
VERTEX
  5
B2983
  8
0
  6
CONTINUOUS
 10
1820.206949869171
 20
687.6593695743937
 30
0.0
  0
VERTEX
  5
B2984
  8
0
  6
CONTINUOUS
 10
1939.276340059005
 20
687.6593695743937
 30
0.0
  0
VERTEX
  5
B2985
  8
0
  6
CONTINUOUS
 10
1939.276340059005
 20
299.9999999999997
 30
0.0
  0
VERTEX
  5
B2986
  8
0
  6
CONTINUOUS
 10
1820.206949869171
 20
299.9999999999997
 30
0.0
  0
SEQEND
  5
B33FE
  8
0
  6
CONTINUOUS
  0
POLYLINE
  5
A992D
  8
0
  6
CONTINUOUS
 66
     1
 10
0.0
 20
0.0
 30
0.0
  0
VERTEX
  5
B2987
  8
0
  6
CONTINUOUS
 10
605.1458875834936
 20
687.6576470269353
 30
0.0
  0
VERTEX
  5
B2988
  8
0
  6
CONTINUOUS
 10
605.1458875834936
 20
598.4968532994384
 30
0.0
  0
VERTEX
  5
B2989
  8
0
  6
CONTINUOUS
 10
419.0693901898336
 20
598.4968532994384
 30
0.0
  0
VERTEX
  5
B298A
  8
0
  6
CONTINUOUS
 10
419.0693901898336
 20
521.52136230492
 30
0.0
  0
VERTEX
  5
B298B
  8
0
  6
CONTINUOUS
 10
549.2130398191512
 20
521.52136230492
 30
0.0
  0
VERTEX
  5
B298C
  8
0
  6
CONTINUOUS
 10
549.2130398191512
 20
438.4480523003727
 30
0.0
  0
VERTEX
  5
B298D
  8
0
  6
CONTINUOUS
 10
419.0693901898336
 20
438.4480523003727
 30
0.0
  0
VERTEX
  5
B298E
  8
0
  6
CONTINUOUS
 10
419.0693901898336
 20
299.9999999999997
 30
0.0
  0
VERTEX
  5
B298F
  8
0
  6
CONTINUOUS
 10
300.0
 20
299.9999999999997
 30
0.0
  0
VERTEX
  5
B2990
  8
0
  6
CONTINUOUS
 10
300.0
 20
687.6576470269353
 30
0.0
  0
VERTEX
  5
B2991
  8
0
  6
CONTINUOUS
 10
605.1458875834936
 20
687.6576470269353
 30
0.0
  0
SEQEND
  5
B33FF
  8
0
  6
CONTINUOUS
  0
POLYLINE
  5
A992E
  8
0
  6
CONTINUOUS
 66
     1
 10
0.0
 20
0.0
 30
0.0
  0
VERTEX
  5
B2992
  8
0
  6
CONTINUOUS
 10
791.2309977225952
 20
580.7787272136192
 30
0.0
  0
VERTEX
  5
B2993
  8
0
  6
CONTINUOUS
 10
824.458943684584
 20
466.6909450956151
 30
0.0
  0
VERTEX
  5
B2994
  8
0
  6
CONTINUOUS
 10
751.9104003906241
 20
466.6909450956151
 30
0.0
  0
VERTEX
  5
B2995
  8
0
  6
CONTINUOUS
 10
785.13834635727
 20
580.7787272136192
 30
0.0
  0
VERTEX
  5
B2996
  8
0
  6
CONTINUOUS
 10
791.2309977225952
 20
580.7787272136192
 30
0.0
  0
SEQEND
  5
B3400
  8
0
  6
CONTINUOUS
  0
POLYLINE
  5
A992F
  8
0
  6
CONTINUOUS
 66
     1
 10
0.0
 20
0.0
 30
0.0
 70
     1
  0
VERTEX
  5
B2997
  8
0
  6
CONTINUOUS
 10
847.7226611692438
 20
383.6228027346076
 30
0.0
  0
VERTEX
  5
B2998
  8
0
  6
CONTINUOUS
 10
847.7226611692438
 20
383.6228027346076
 30
0.0
  0
VERTEX
  5
B2999
  8
0
  6
CONTINUOUS
 10
872.0839436817907
 20
299.9999999999997
 30
0.0
  0
VERTEX
  5
B299A
  8
0
  6
CONTINUOUS
 10
997.8006456140432
 20
299.9999999999997
 30
0.0
  0
VERTEX
  5
B299B
  8
0
  6
CONTINUOUS
 10
880.3917914489284
 20
652.7743326826017
 30
0.0
 42
0.1089385125692126
  0
VERTEX
  5
B299C
  8
0
  6
CONTINUOUS
 10
867.6499316329131
 20
680.4454704024826
 30
0.0
 42
0.1589313772246072
  0
VERTEX
  5
B299D
  8
0
  6
CONTINUOUS
 10
855.6541064428161
 20
687.7303423592817
 30
0.0
 42
0.058673645385263
  0
VERTEX
  5
B299E
  8
0
  6
CONTINUOUS
 10
839.4089355459447
 20
689.3216281465718
 30
0.0
  0
VERTEX
  5
B299F
  8
0
  6
CONTINUOUS
 10
839.4089355459447
 20
689.3216281465718
 30
0.0
  0
VERTEX
  5
B29A0
  8
0
  6
CONTINUOUS
 10
744.1606580931694
 20
689.3216281465718
 30
0.0
 42
0.058673645385263
  0
VERTEX
  5
B29A1
  8
0
  6
CONTINUOUS
 10
727.9154871962947
 20
687.7303423592817
 30
0.0
 42
0.1589313772246072
  0
VERTEX
  5
B29A2
  8
0
  6
CONTINUOUS
 10
715.9196620061985
 20
680.4454704024826
 30
0.0
 42
0.1089385125692126
  0
VERTEX
  5
B29A3
  8
0
  6
CONTINUOUS
 10
703.1778021901849
 20
652.7743326826017
 30
0.0
  0
VERTEX
  5
B29A4
  8
0
  6
CONTINUOUS
 10
585.768948029726
 20
299.9999999999997
 30
0.0
  0
VERTEX
  5
B29A5
  8
0
  6
CONTINUOUS
 10
704.8348931223154
 20
299.9999999999997
 30
0.0
  0
VERTEX
  5
B29A6
  8
0
  6
CONTINUOUS
 10
728.6473931185901
 20
383.6228027346076
 30
0.0
  0
SEQEND
  5
B3401
  8
0
  6
CONTINUOUS
  0
TEXT
  5
A9930
  8
0
 10
3484.840736835664
 20
170.1637904425171
 30
0.0
 40
125.0
  1
This drawing is property of Fantin S.r.l. 
  7
STILE1
 72
     1
 11
5499.721689216617
 21
170.1637904425171
 31
0.0
  0
POLYLINE
  5
A9931
  8
0
 66
     1
 10
0.0
 20
0.0
 30
0.0
  0
VERTEX
  5
B29A7
  8
0
 10
2675.123982746154
 20
687.661092123016
 30
0.0
  0
VERTEX
  5
B29A8
  8
0
 10
8025.371948238463
 20
687.6610921230168
 30
0.0
  0
SEQEND
  5
B3402
  8
0
  0
POLYLINE
  5
A9932
  8
0
 66
     1
 10
0.0
 20
0.0
 30
0.0
 70
     1
  0
VERTEX
  5
B29A9
  8
0
 10
0.0
 20
987.6576470269353
 30
0.0
  0
VERTEX
  5
B29AA
  8
0
 10
8025.371948238463
 20
987.6576470269353
 30
0.0
  0
VERTEX
  5
B29AB
  8
0
 10
8025.371948238463
 20
0.0
 30
0.0
  0
VERTEX
  5
B29AC
  8
0
 10
0.0
 20
0.0
 30
0.0
  0
SEQEND
  5
B3403
  8
0
  0
LINE
  5
A9933
  8
0
 10
2675.123982746154
 20
987.6576470269353
 30
0.0
 11
2675.123982746154
 21
0.0
 31
0.0
  0
LINE
  5
A9934
  8
0
 10
5350.247965492308
 20
687.661092123016
 30
0.0
 11
5350.247965492308
 21
987.6576470269353
 31
0.0
  0
TEXT
  5
A9935
  8
0
 10
6252.7084966879
 20
778.7322304035334
 30
0.0
 40
125.0
  1
2022-06
  7
STILE1
 72
     1
 11
6687.604330021233
 21
778.7322304035334
 31
0.0
  0
LINE
  5
A9936
  8
0
 10
8025.371948238463
 20
987.6576470269353
 30
0.0
 11
8025.371948238463
 21
0.0
 31
0.0
  0
TEXT
  5
A9944
  8
0
 10
455.5941790745374
 20
1635.467425269804
 30
0.0
 40
125.0
  1
Static modules / Moduli fissi / Feste Module
  7
STILE1
 72
     1
 11
2714.987780265014
 21
1635.467425269804
 31
0.0
  0
TEXT
  5
A9945
  8
0
 10
6435.285829406143
 20
1635.467425269804
 30
0.0
 40
125.0
  1
Sliding modules / Moduli mobili / Bewegliche Module
  7
STILE1
 72
     1
 11
9075.631811549
 21
1635.467425269804
 31
0.0
  0
TEXT
  5
A9946
  8
0
 10
14200.88162072467
 20
1635.467425269804
 30
0.0
 40
125.0
  1
Modular Combinations (L=80 cm) / Componibilità moduli (L=80 cm) / Zusammensetzbarkeit Module (L=80 cm)
  7
STILE1
 72
     1
 11
19813.97685881991
 21
1635.467425269804
 31
0.0
  0
TEXT
  5
A9947
  8
0
 10
27319.31746728745
 20
1635.467425269805
 30
0.0
 40
125.0
  1
Examples of compositions / Esempi di composizioni / Kompositionsbeispiele
  7
STILE1
 72
     1
 11
31117.02952085888
 21
1635.467425269805
 31
0.0
  0
POLYLINE
  5
A9955
  8
0
 66
     1
 10
0.0
 20
0.0
 30
0.0
 70
     1
  0
VERTEX
  5
B29AD
  8
0
 10
27100.0
 20
1537.657647026934
 30
0.0
  0
VERTEX
  5
B29AE
  8
0
 10
40100.0
 20
1537.657647026934
 30
0.0
  0
VERTEX
  5
B29AF
  8
0
 10
40100.0
 20
1837.657647026935
 30
0.0
  0
VERTEX
  5
B29B0
  8
0
 10
27100.0
 20
1837.657647026935
 30
0.0
  0
SEQEND
  5
B3404
  8
0
  0
POLYLINE
  5
A995F
  8
0
 66
     1
 10
0.0
 20
0.0
 30
0.0
 70
     1
  0
VERTEX
  5
B29B1
  8
0
 10
34899.99999999999
 20
2175.036426392789
 30
0.0
  0
VERTEX
  5
B29B2
  8
0
 10
34300.00000000001
 20
2175.036426392789
 30
0.0
  0
VERTEX
  5
B29B3
  8
0
 10
34300.00000000001
 20
4298.036435929559
 30
0.0
  0
VERTEX
  5
B29B4
  8
0
 10
34899.99999999999
 20
4298.036435929559
 30
0.0
  0
SEQEND
  5
B3405
  8
0
  0
POLYLINE
  5
A9960
  8
0
 66
     1
 10
0.0
 20
0.0
 30
0.0
 70
     1
  0
VERTEX
  5
B29B5
  8
0
 10
34900.00000000001
 20
5908.171916406253
 30
0.0
  0
VERTEX
  5
B29B6
  8
0
 10
35500.00000000001
 20
5908.171916406253
 30
0.0
  0
VERTEX
  5
B29B7
  8
0
 10
35500.00000000001
 20
8431.1719164063
 30
0.0
  0
VERTEX
  5
B29B8
  8
0
 10
34900.00000000001
 20
8431.1719164063
 30
0.0
  0
SEQEND
  5
B3406
  8
0
  0
POLYLINE
  5
A9963
  8
0
 66
     1
 10
0.0
 20
0.0
 30
0.0
 70
     1
  0
VERTEX
  5
B29B9
  8
0
 10
34899.99999999999
 20
5908.171916406253
 30
0.0
  0
VERTEX
  5
B29BA
  8
0
 10
34300.00000000001
 20
5908.171916406253
 30
0.0
  0
VERTEX
  5
B29BB
  8
0
 10
34300.00000000001
 20
8431.1719164063
 30
0.0
  0
VERTEX
  5
B29BC
  8
0
 10
34899.99999999999
 20
8431.1719164063
 30
0.0
  0
SEQEND
  5
B3407
  8
0
  0
POLYLINE
  5
A9964
  8
0
 66
     1
 10
0.0
 20
0.0
 30
0.0
 70
     1
  0
VERTEX
  5
B29BD
  8
0
 10
33700.00000000001
 20
2175.036426392789
 30
0.0
  0
VERTEX
  5
B29BE
  8
0
 10
34300.00000000001
 20
2175.036426392789
 30
0.0
  0
VERTEX
  5
B29BF
  8
0
 10
34300.00000000001
 20
4298.036435929559
 30
0.0
  0
VERTEX
  5
B29C0
  8
0
 10
33700.00000000001
 20
4298.036435929559
 30
0.0
  0
SEQEND
  5
B3408
  8
0
  0
POLYLINE
  5
A9966
  8
0
 66
     1
 10
0.0
 20
0.0
 30
0.0
 70
     1
  0
VERTEX
  5
B29C1
  8
0
 10
33700.00000000001
 20
5908.171916406253
 30
0.0
  0
VERTEX
  5
B29C2
  8
0
 10
34300.00000000001
 20
5908.171916406253
 30
0.0
  0
VERTEX
  5
B29C3
  8
0
 10
34300.00000000001
 20
8431.1719164063
 30
0.0
  0
VERTEX
  5
B29C4
  8
0
 10
33700.00000000001
 20
8431.1719164063
 30
0.0
  0
SEQEND
  5
B3409
  8
0
  0
POLYLINE
  5
A996D
  8
0
 66
     1
 10
0.0
 20
0.0
 30
0.0
 70
     1
  0
VERTEX
  5
B29C5
  8
0
 10
33699.99999999999
 20
5908.171916406253
 30
0.0
  0
VERTEX
  5
B29C6
  8
0
 10
33100.00000000001
 20
5908.171916406253
 30
0.0
  0
VERTEX
  5
B29C7
  8
0
 10
33100.00000000001
 20
8431.1719164063
 30
0.0
  0
VERTEX
  5
B29C8
  8
0
 10
33699.99999999999
 20
8431.1719164063
 30
0.0
  0
SEQEND
  5
B340A
  8
0
  0
POLYLINE
  5
A996F
  8
0
 66
     1
 10
0.0
 20
0.0
 30
0.0
 70
     1
  0
VERTEX
  5
B29C9
  8
0
 10
33699.99999999999
 20
2175.036426392789
 30
0.0
  0
VERTEX
  5
B29CA
  8
0
 10
33100.00000000001
 20
2175.036426392789
 30
0.0
  0
VERTEX
  5
B29CB
  8
0
 10
33100.00000000001
 20
4298.036435929559
 30
0.0
  0
VERTEX
  5
B29CC
  8
0
 10
33699.99999999999
 20
4298.036435929559
 30
0.0
  0
SEQEND
  5
B340B
  8
0
  0
POLYLINE
  5
A9970
  8
0
 66
     1
 10
0.0
 20
0.0
 30
0.0
 70
     1
  0
VERTEX
  5
B29CD
  8
0
 10
32300.00000000001
 20
2175.036426392789
 30
0.0
  0
VERTEX
  5
B29CE
  8
0
 10
31700.00000000001
 20
2175.036426392789
 30
0.0
  0
VERTEX
  5
B29CF
  8
0
 10
31700.00000000001
 20
4298.036435929559
 30
0.0
  0
VERTEX
  5
B29D0
  8
0
 10
32300.00000000001
 20
4298.036435929559
 30
0.0
  0
SEQEND
  5
B340C
  8
0
  0
POLYLINE
  5
A9972
  8
0
 66
     1
 10
0.0
 20
0.0
 30
0.0
 70
     1
  0
VERTEX
  5
B29D1
  8
0
 10
32300.00000000001
 20
5908.171916406253
 30
0.0
  0
VERTEX
  5
B29D2
  8
0
 10
31700.00000000001
 20
5908.171916406253
 30
0.0
  0
VERTEX
  5
B29D3
  8
0
 10
31700.00000000001
 20
8431.1719164063
 30
0.0
  0
VERTEX
  5
B29D4
  8
0
 10
32300.00000000001
 20
8431.1719164063
 30
0.0
  0
SEQEND
  5
B340D
  8
0
  0
POLYLINE
  5
A9977
  8
0
 66
     1
 10
0.0
 20
0.0
 30
0.0
  0
VERTEX
  5
B29D5
  8
0
 10
35698.2067135577
 20
5891.171916406291
 30
0.0
  0
VERTEX
  5
B29D6
  8
0
 10
31501.7932864423
 20
5891.171916406291
 30
0.0
  0
SEQEND
  5
B340E
  8
0
  0
POLYLINE
  5
A9978
  8
0
 66
     1
 10
0.0
 20
0.0
 30
0.0
  0
VERTEX
  5
B29D7
  8
0
 10
35698.2067135577
 20
2158.036426392829
 30
0.0
  0
VERTEX
  5
B29D8
  8
0
 10
31501.7932864423
 20
2158.036426392829
 30
0.0
  0
SEQEND
  5
B340F
  8
0
  0
POLYLINE
  5
A997C
  8
0
 66
     1
 10
0.0
 20
0.0
 30
0.0
 70
     1
  0
VERTEX
  5
B29D9
  8
0
 10
19099.58639094051
 20
4298.036435929563
 30
0.0
  0
VERTEX
  5
B29DA
  8
0
 10
19099.58639094051
 20
2175.036426392791
 30
0.0
  0
VERTEX
  5
B29DB
  8
0
 10
19069.58639094051
 20
2175.036426392791
 30
0.0
  0
VERTEX
  5
B29DC
  8
0
 10
19069.58639094051
 20
4298.036435929563
 30
0.0
  0
SEQEND
  5
B3410
  8
0
  0
POLYLINE
  5
A997E
  8
0
 66
     1
 10
0.0
 20
0.0
 30
0.0
 70
     1
  0
VERTEX
  5
B29DD
  8
0
 10
14463.52986539044
 20
4298.036435929563
 30
0.0
  0
VERTEX
  5
B29DE
  8
0
 10
14463.52986539044
 20
2175.036426392791
 30
0.0
  0
VERTEX
  5
B29DF
  8
0
 10
14433.52986539045
 20
2175.036426392791
 30
0.0
  0
VERTEX
  5
B29E0
  8
0
 10
14433.52986539045
 20
4298.036435929563
 30
0.0
  0
SEQEND
  5
B3411
  8
0
  0
POLYLINE
  5
A997F
  8
0
 66
     1
 10
0.0
 20
0.0
 30
0.0
 70
     1
  0
VERTEX
  5
B29E1
  8
0
 10
19099.58639094058
 20
8031.171925943024
 30
0.0
  0
VERTEX
  5
B29E2
  8
0
 10
19099.58639094058
 20
5908.171916406253
 30
0.0
  0
VERTEX
  5
B29E3
  8
0
 10
19069.58639094058
 20
5908.171916406253
 30
0.0
  0
VERTEX
  5
B29E4
  8
0
 10
19069.58639094058
 20
8031.171925943024
 30
0.0
  0
SEQEND
  5
B3412
  8
0
  0
POLYLINE
  5
A9980
  8
0
 66
     1
 10
0.0
 20
0.0
 30
0.0
 70
     1
  0
VERTEX
  5
B29E5
  8
0
 10
14463.52986539045
 20
8031.171925943024
 30
0.0
  0
VERTEX
  5
B29E6
  8
0
 10
14463.52986539045
 20
5908.171916406249
 30
0.0
  0
VERTEX
  5
B29E7
  8
0
 10
14433.52986539045
 20
5908.171916406249
 30
0.0
  0
VERTEX
  5
B29E8
  8
0
 10
14433.52986539045
 20
8031.171925943024
 30
0.0
  0
SEQEND
  5
B3413
  8
0
  0
POLYLINE
  5
A998C
  8
0
 66
     1
 10
0.0
 20
0.0
 30
0.0
 70
     1
  0
VERTEX
  5
B29E9
  8
0
 10
15301.12986539054
 20
2180.036426392792
 30
0.0
  0
VERTEX
  5
B29EA
  8
0
 10
15301.12986539054
 20
4298.03643592957
 30
0.0
  0
VERTEX
  5
B29EB
  8
0
 10
15266.12986539054
 20
4298.03643592957
 30
0.0
  0
VERTEX
  5
B29EC
  8
0
 10
15266.12986539054
 20
2180.036426392792
 30
0.0
  0
SEQEND
  5
B3414
  8
0
  0
POLYLINE
  5
A998D
  8
0
 66
     1
 10
0.0
 20
0.0
 30
0.0
 70
     1
  0
VERTEX
  5
B29ED
  8
0
 10
14530.12986539054
 20
2175.036426392791
 30
0.0
  0
VERTEX
  5
B29EE
  8
0
 10
14493.52986539044
 20
2175.036426392791
 30
0.0
  0
VERTEX
  5
B29EF
  8
0
 10
14493.52986539044
 20
4298.03643592957
 30
0.0
  0
VERTEX
  5
B29F0
  8
0
 10
14529.12986539054
 20
4298.03643592957
 30
0.0
  0
VERTEX
  5
B29F1
  8
0
 10
14529.12986539054
 20
4258.036426392761
 30
0.0
  0
VERTEX
  5
B29F2
  8
0
 10
14530.12986539054
 20
4258.036426392761
 30
0.0
  0
SEQEND
  5
B3415
  8
0
  0
POLYLINE
  5
A998E
  8
0
 66
     1
 10
0.0
 20
0.0
 30
0.0
 70
     1
  0
VERTEX
  5
B29F3
  8
0
 10
15266.12986539054
 20
2198.536426392791
 30
0.0
  0
VERTEX
  5
B29F4
  8
0
 10
15266.12986539054
 20
2258.036426392791
 30
0.0
  0
VERTEX
  5
B29F5
  8
0
 10
14530.12986539054
 20
2258.036426392791
 30
0.0
  0
VERTEX
  5
B29F6
  8
0
 10
14530.12986539054
 20
2198.536426392791
 30
0.0
  0
SEQEND
  5
B3416
  8
0
  0
POLYLINE
  5
A998F
  8
0
 66
     1
 10
0.0
 20
0.0
 30
0.0
 70
     1
  0
VERTEX
  5
B29F7
  8
0
 10
14530.12986539054
 20
2258.036426392791
 30
0.0
  0
VERTEX
  5
B29F8
  8
0
 10
14530.12986539054
 20
2288.036426392791
 30
0.0
  0
VERTEX
  5
B29F9
  8
0
 10
15266.12986539054
 20
2288.036426392791
 30
0.0
  0
VERTEX
  5
B29FA
  8
0
 10
15266.12986539054
 20
2258.036426392791
 30
0.0
  0
SEQEND
  5
B3417
  8
0
  0
POLYLINE
  5
A9990
  8
CLOTHES_RAIL
 66
     1
 10
0.0
 20
0.0
 30
0.0
 70
     1
  0
VERTEX
  5
B29FB
  8
CLOTHES_RAIL
 10
15266.12986539054
 20
4185.536426392761
 30
0.0
  0
VERTEX
  5
B29FC
  8
CLOTHES_RAIL
 10
15266.12986539054
 20
4210.536426392763
 30
0.0
  0
VERTEX
  5
B29FD
  8
CLOTHES_RAIL
 10
14530.12986539054
 20
4210.536426392763
 30
0.0
  0
VERTEX
  5
B29FE
  8
CLOTHES_RAIL
 10
14530.12986539054
 20
4185.536426392761
 30
0.0
  0
SEQEND
  5
B3418
  8
CLOTHES_RAIL
  0
POLYLINE
  5
A9991
  8
0
 66
     1
 10
0.0
 20
0.0
 30
0.0
 70
     1
  0
VERTEX
  5
B29FF
  8
0
 10
14529.12986539054
 20
4258.036426392761
 30
0.0
  0
VERTEX
  5
B2A00
  8
0
 10
14529.12986539054
 20
4298.03643592957
 30
0.0
  0
VERTEX
  5
B2A01
  8
0
 10
15266.12986539054
 20
4298.03643592957
 30
0.0
  0
VERTEX
  5
B2A02
  8
0
 10
15266.12986539054
 20
4258.036426392761
 30
0.0
  0
SEQEND
  5
B3419
  8
0
  0
POLYLINE
  5
A9992
  8
0
 66
     1
 10
0.0
 20
0.0
 30
0.0
 70
     1
  0
VERTEX
  5
B2A03
  8
0
 10
15212.12986539054
 20
2198.536426392791
 30
0.0
  0
VERTEX
  5
B2A04
  8
0
 10
15212.12986539054
 20
2171.636426393001
 30
0.0
  0
VERTEX
  5
B2A05
  8
0
 10
15211.12986539054
 20
2170.636426392871
 30
0.0
  0
VERTEX
  5
B2A06
  8
0
 10
15207.12986539054
 20
2170.636426392871
 30
0.0
  0
VERTEX
  5
B2A07
  8
0
 10
15206.12986539054
 20
2171.636426393001
 30
0.0
  0
VERTEX
  5
B2A08
  8
0
 10
15206.12986539054
 20
2178.136426392871
 30
0.0
  0
VERTEX
  5
B2A09
  8
0
 10
15179.1476305474
 20
2178.607403054005
 30
0.0
  0
VERTEX
  5
B2A0A
  8
0
 10
15178.12986539054
 20
2179.625168210944
 30
0.0
  0
VERTEX
  5
B2A0B
  8
0
 10
15178.12986539054
 20
2198.536426392791
 30
0.0
  0
SEQEND
  5
B341A
  8
0
  0
POLYLINE
  5
A9993
  8
0
 66
     1
 10
0.0
 20
0.0
 30
0.0
 70
     1
  0
VERTEX
  5
B2A0C
  8
0
 10
14584.1298653906
 20
2198.536426392791
 30
0.0
  0
VERTEX
  5
B2A0D
  8
0
 10
14584.1298653906
 20
2171.636426393001
 30
0.0
  0
VERTEX
  5
B2A0E
  8
0
 10
14585.12986539054
 20
2170.636426392871
 30
0.0
  0
VERTEX
  5
B2A0F
  8
0
 10
14589.12986539059
 20
2170.636426392871
 30
0.0
  0
VERTEX
  5
B2A10
  8
0
 10
14590.12986539054
 20
2171.636426393001
 30
0.0
  0
VERTEX
  5
B2A11
  8
0
 10
14590.12986539054
 20
2178.136426392871
 30
0.0
  0
VERTEX
  5
B2A12
  8
0
 10
14617.11210023366
 20
2178.607403054005
 30
0.0
  0
VERTEX
  5
B2A13
  8
0
 10
14618.12986539054
 20
2179.625168210944
 30
0.0
  0
VERTEX
  5
B2A14
  8
0
 10
14618.12986539054
 20
2198.536426392791
 30
0.0
  0
SEQEND
  5
B341B
  8
0
  0
POLYLINE
  5
A9994
  8
0
 66
     1
 10
0.0
 20
0.0
 30
0.0
 70
     1
  0
VERTEX
  5
B2A15
  8
0
 10
15205.62986539054
 20
2178.036426392842
 30
0.0
  0
VERTEX
  5
B2A16
  8
0
 10
15205.62986539054
 20
2158.036426392841
 30
0.0
  0
VERTEX
  5
B2A17
  8
0
 10
14590.62986539054
 20
2158.036426392841
 30
0.0
  0
VERTEX
  5
B2A18
  8
0
 10
14590.62986539054
 20
2178.036426392842
 30
0.0
  0
SEQEND
  5
B341C
  8
0
  0
POLYLINE
  5
A9995
  8
0
 66
     1
 10
0.0
 20
0.0
 30
0.0
 70
     1
  0
VERTEX
  5
B2A19
  8
0
 10
14610.62986539054
 20
2158.036426392841
 30
0.0
  0
VERTEX
  5
B2A1A
  8
0
 10
14610.62986539054
 20
2178.036426392842
 30
0.0
  0
VERTEX
  5
B2A1B
  8
0
 10
14590.62986539054
 20
2178.036426392842
 30
0.0
  0
VERTEX
  5
B2A1C
  8
0
 10
14590.62986539054
 20
2158.036426392841
 30
0.0
  0
SEQEND
  5
B341D
  8
0
  0
POLYLINE
  5
A9996
  8
0
 66
     1
 10
0.0
 20
0.0
 30
0.0
 70
     1
  0
VERTEX
  5
B2A1D
  8
0
 10
15185.62986539054
 20
2158.036426392841
 30
0.0
  0
VERTEX
  5
B2A1E
  8
0
 10
15185.62986539054
 20
2178.036426392842
 30
0.0
  0
VERTEX
  5
B2A1F
  8
0
 10
15205.62986539054
 20
2178.036426392842
 30
0.0
  0
VERTEX
  5
B2A20
  8
0
 10
15205.62986539054
 20
2158.036426392841
 30
0.0
  0
SEQEND
  5
B341E
  8
0
  0
POLYLINE
  5
A9997
  8
0
 66
     1
 10
0.0
 20
0.0
 30
0.0
 70
     1
  0
VERTEX
  5
B2A21
  8
0
 10
15266.12986539054
 20
3288.036426392784
 30
0.0
  0
VERTEX
  5
B2A22
  8
0
 10
15266.12986539054
 20
3258.036426392783
 30
0.0
  0
VERTEX
  5
B2A23
  8
0
 10
14530.12986539054
 20
3258.036426392783
 30
0.0
  0
VERTEX
  5
B2A24
  8
0
 10
14530.12986539054
 20
3288.036426392784
 30
0.0
  0
SEQEND
  5
B341F
  8
0
  0
POLYLINE
  5
A9998
  8
CLOTHES_RAIL
 66
     1
 10
0.0
 20
0.0
 30
0.0
 70
     1
  0
VERTEX
  5
B2A25
  8
CLOTHES_RAIL
 10
15266.12986539054
 20
3210.536426392791
 30
0.0
  0
VERTEX
  5
B2A26
  8
CLOTHES_RAIL
 10
15266.12986539054
 20
3185.536426392785
 30
0.0
  0
VERTEX
  5
B2A27
  8
CLOTHES_RAIL
 10
14530.12986539054
 20
3185.536426392785
 30
0.0
  0
VERTEX
  5
B2A28
  8
CLOTHES_RAIL
 10
14530.12986539054
 20
3210.536426392791
 30
0.0
  0
SEQEND
  5
B3420
  8
CLOTHES_RAIL
  0
POLYLINE
  5
A99AF
  8
0
 66
     1
 10
0.0
 20
0.0
 30
0.0
 70
     1
  0
VERTEX
  5
B2A29
  8
0
 10
19902.1863909406
 20
7741.171916406253
 30
0.0
  0
VERTEX
  5
B2A2A
  8
0
 10
19902.1863909406
 20
7771.171916406245
 30
0.0
  0
VERTEX
  5
B2A2B
  8
0
 10
19166.1863909406
 20
7771.171916406245
 30
0.0
  0
VERTEX
  5
B2A2C
  8
0
 10
19166.1863909406
 20
7741.171916406253
 30
0.0
  0
SEQEND
  5
B3421
  8
0
  0
POLYLINE
  5
A99B0
  8
0
 66
     1
 10
0.0
 20
0.0
 30
0.0
 70
     1
  0
VERTEX
  5
B2A2D
  8
0
 10
19902.1863909406
 20
7491.171916406253
 30
0.0
  0
VERTEX
  5
B2A2E
  8
0
 10
19902.1863909406
 20
7521.171916406245
 30
0.0
  0
VERTEX
  5
B2A2F
  8
0
 10
19166.1863909406
 20
7521.171916406245
 30
0.0
  0
VERTEX
  5
B2A30
  8
0
 10
19166.1863909406
 20
7491.171916406253
 30
0.0
  0
SEQEND
  5
B3422
  8
0
  0
POLYLINE
  5
A99B1
  8
0
 66
     1
 10
0.0
 20
0.0
 30
0.0
 70
     1
  0
VERTEX
  5
B2A31
  8
0
 10
19902.1863909406
 20
7241.171916406253
 30
0.0
  0
VERTEX
  5
B2A32
  8
0
 10
19902.1863909406
 20
7271.171916406245
 30
0.0
  0
VERTEX
  5
B2A33
  8
0
 10
19166.1863909406
 20
7271.171916406245
 30
0.0
  0
VERTEX
  5
B2A34
  8
0
 10
19166.1863909406
 20
7241.171916406253
 30
0.0
  0
SEQEND
  5
B3423
  8
0
  0
POLYLINE
  5
A99B2
  8
0
 66
     1
 10
0.0
 20
0.0
 30
0.0
 70
     1
  0
VERTEX
  5
B2A35
  8
0
 10
19902.1863909406
 20
6991.171916406253
 30
0.0
  0
VERTEX
  5
B2A36
  8
0
 10
19902.1863909406
 20
7021.171916406245
 30
0.0
  0
VERTEX
  5
B2A37
  8
0
 10
19166.1863909406
 20
7021.171916406245
 30
0.0
  0
VERTEX
  5
B2A38
  8
0
 10
19166.1863909406
 20
6991.171916406253
 30
0.0
  0
SEQEND
  5
B3424
  8
0
  0
POLYLINE
  5
A99B3
  8
0
 66
     1
 10
0.0
 20
0.0
 30
0.0
 70
     1
  0
VERTEX
  5
B2A39
  8
0
 10
19902.1863909406
 20
6741.171916406253
 30
0.0
  0
VERTEX
  5
B2A3A
  8
0
 10
19902.1863909406
 20
6771.171916406252
 30
0.0
  0
VERTEX
  5
B2A3B
  8
0
 10
19166.1863909406
 20
6771.171916406252
 30
0.0
  0
VERTEX
  5
B2A3C
  8
0
 10
19166.1863909406
 20
6741.171916406253
 30
0.0
  0
SEQEND
  5
B3425
  8
0
  0
POLYLINE
  5
A99B4
  8
0
 66
     1
 10
0.0
 20
0.0
 30
0.0
 70
     1
  0
VERTEX
  5
B2A3D
  8
0
 10
19902.1863909406
 20
6491.171916406253
 30
0.0
  0
VERTEX
  5
B2A3E
  8
0
 10
19902.1863909406
 20
6521.171916406252
 30
0.0
  0
VERTEX
  5
B2A3F
  8
0
 10
19166.1863909406
 20
6521.171916406252
 30
0.0
  0
VERTEX
  5
B2A40
  8
0
 10
19166.1863909406
 20
6491.171916406253
 30
0.0
  0
SEQEND
  5
B3426
  8
0
  0
POLYLINE
  5
A99B5
  8
0
 66
     1
 10
0.0
 20
0.0
 30
0.0
 70
     1
  0
VERTEX
  5
B2A41
  8
0
 10
19902.1863909406
 20
6241.17191640625
 30
0.0
  0
VERTEX
  5
B2A42
  8
0
 10
19902.1863909406
 20
6271.171916406252
 30
0.0
  0
VERTEX
  5
B2A43
  8
0
 10
19166.1863909406
 20
6271.171916406252
 30
0.0
  0
VERTEX
  5
B2A44
  8
0
 10
19166.1863909406
 20
6241.17191640625
 30
0.0
  0
SEQEND
  5
B3427
  8
0
  0
POLYLINE
  5
A99B6
  8
0
 66
     1
 10
0.0
 20
0.0
 30
0.0
 70
     1
  0
VERTEX
  5
B2A45
  8
0
 10
19821.6863909406
 20
5891.171916406296
 30
0.0
  0
VERTEX
  5
B2A46
  8
0
 10
19821.6863909406
 20
5911.171916406296
 30
0.0
  0
VERTEX
  5
B2A47
  8
0
 10
19841.6863909406
 20
5911.171916406296
 30
0.0
  0
VERTEX
  5
B2A48
  8
0
 10
19841.6863909406
 20
5891.171916406296
 30
0.0
  0
SEQEND
  5
B3428
  8
0
  0
POLYLINE
  5
A99B7
  8
0
 66
     1
 10
0.0
 20
0.0
 30
0.0
 70
     1
  0
VERTEX
  5
B2A49
  8
0
 10
19246.6863909406
 20
5891.171916406296
 30
0.0
  0
VERTEX
  5
B2A4A
  8
0
 10
19246.6863909406
 20
5911.171916406296
 30
0.0
  0
VERTEX
  5
B2A4B
  8
0
 10
19226.6863909406
 20
5911.171916406296
 30
0.0
  0
VERTEX
  5
B2A4C
  8
0
 10
19226.6863909406
 20
5891.171916406296
 30
0.0
  0
SEQEND
  5
B3429
  8
0
  0
POLYLINE
  5
A99B8
  8
0
 66
     1
 10
0.0
 20
0.0
 30
0.0
 70
     1
  0
VERTEX
  5
B2A4D
  8
0
 10
19841.6863909406
 20
5911.171916406296
 30
0.0
  0
VERTEX
  5
B2A4E
  8
0
 10
19841.6863909406
 20
5891.171916406296
 30
0.0
  0
VERTEX
  5
B2A4F
  8
0
 10
19226.6863909406
 20
5891.171916406296
 30
0.0
  0
VERTEX
  5
B2A50
  8
0
 10
19226.6863909406
 20
5911.171916406296
 30
0.0
  0
SEQEND
  5
B342A
  8
0
  0
POLYLINE
  5
A99B9
  8
0
 66
     1
 10
0.0
 20
0.0
 30
0.0
 70
     1
  0
VERTEX
  5
B2A51
  8
0
 10
19220.1863909406
 20
5931.67191640625
 30
0.0
  0
VERTEX
  5
B2A52
  8
0
 10
19220.1863909406
 20
5904.771916406456
 30
0.0
  0
VERTEX
  5
B2A53
  8
0
 10
19221.1863909406
 20
5903.771916406328
 30
0.0
  0
VERTEX
  5
B2A54
  8
0
 10
19225.18639094059
 20
5903.771916406328
 30
0.0
  0
VERTEX
  5
B2A55
  8
0
 10
19226.1863909406
 20
5904.771916406456
 30
0.0
  0
VERTEX
  5
B2A56
  8
0
 10
19226.1863909406
 20
5911.271916406331
 30
0.0
  0
VERTEX
  5
B2A57
  8
0
 10
19253.16862578373
 20
5911.742893067463
 30
0.0
  0
VERTEX
  5
B2A58
  8
0
 10
19254.1863909406
 20
5912.760658224396
 30
0.0
  0
VERTEX
  5
B2A59
  8
0
 10
19254.1863909406
 20
5931.67191640625
 30
0.0
  0
SEQEND
  5
B342B
  8
0
  0
POLYLINE
  5
A99BA
  8
0
 66
     1
 10
0.0
 20
0.0
 30
0.0
 70
     1
  0
VERTEX
  5
B2A5A
  8
0
 10
19848.18639094052
 20
5931.67191640625
 30
0.0
  0
VERTEX
  5
B2A5B
  8
0
 10
19848.18639094052
 20
5904.771916406456
 30
0.0
  0
VERTEX
  5
B2A5C
  8
0
 10
19847.1863909406
 20
5903.771916406328
 30
0.0
  0
VERTEX
  5
B2A5D
  8
0
 10
19843.18639094052
 20
5903.771916406328
 30
0.0
  0
VERTEX
  5
B2A5E
  8
0
 10
19842.1863909406
 20
5904.771916406456
 30
0.0
  0
VERTEX
  5
B2A5F
  8
0
 10
19842.1863909406
 20
5911.271916406331
 30
0.0
  0
VERTEX
  5
B2A60
  8
0
 10
19815.20415609748
 20
5911.742893067463
 30
0.0
  0
VERTEX
  5
B2A61
  8
0
 10
19814.1863909406
 20
5912.760658224396
 30
0.0
  0
VERTEX
  5
B2A62
  8
0
 10
19814.1863909406
 20
5931.67191640625
 30
0.0
  0
SEQEND
  5
B342C
  8
0
  0
POLYLINE
  5
A99BB
  8
0
 66
     1
 10
0.0
 20
0.0
 30
0.0
 70
     1
  0
VERTEX
  5
B2A63
  8
0
 10
19165.1863909406
 20
7991.171916406222
 30
0.0
  0
VERTEX
  5
B2A64
  8
0
 10
19165.1863909406
 20
8031.171925943024
 30
0.0
  0
VERTEX
  5
B2A65
  8
0
 10
19902.1863909406
 20
8031.171925943024
 30
0.0
  0
VERTEX
  5
B2A66
  8
0
 10
19902.1863909406
 20
7991.171916406222
 30
0.0
  0
SEQEND
  5
B342D
  8
0
  0
POLYLINE
  5
A99BC
  8
0
 66
     1
 10
0.0
 20
0.0
 30
0.0
 70
     1
  0
VERTEX
  5
B2A67
  8
0
 10
19166.1863909406
 20
5991.17191640625
 30
0.0
  0
VERTEX
  5
B2A68
  8
0
 10
19166.1863909406
 20
6021.171916406252
 30
0.0
  0
VERTEX
  5
B2A69
  8
0
 10
19902.1863909406
 20
6021.171916406252
 30
0.0
  0
VERTEX
  5
B2A6A
  8
0
 10
19902.1863909406
 20
5991.17191640625
 30
0.0
  0
SEQEND
  5
B342E
  8
0
  0
POLYLINE
  5
A99BD
  8
0
 66
     1
 10
0.0
 20
0.0
 30
0.0
 70
     1
  0
VERTEX
  5
B2A6B
  8
0
 10
19902.1863909406
 20
5931.67191640625
 30
0.0
  0
VERTEX
  5
B2A6C
  8
0
 10
19902.1863909406
 20
5991.17191640625
 30
0.0
  0
VERTEX
  5
B2A6D
  8
0
 10
19166.1863909406
 20
5991.17191640625
 30
0.0
  0
VERTEX
  5
B2A6E
  8
0
 10
19166.1863909406
 20
5931.67191640625
 30
0.0
  0
SEQEND
  5
B342F
  8
0
  0
POLYLINE
  5
A99BE
  8
0
 66
     1
 10
0.0
 20
0.0
 30
0.0
 70
     1
  0
VERTEX
  5
B2A6F
  8
0
 10
19166.1863909406
 20
5908.171916406253
 30
0.0
  0
VERTEX
  5
B2A70
  8
0
 10
19129.58639094039
 20
5908.171916406253
 30
0.0
  0
VERTEX
  5
B2A71
  8
0
 10
19129.58639094039
 20
8031.171925943024
 30
0.0
  0
VERTEX
  5
B2A72
  8
0
 10
19165.1863909406
 20
8031.171925943024
 30
0.0
  0
VERTEX
  5
B2A73
  8
0
 10
19165.1863909406
 20
7991.171916406222
 30
0.0
  0
VERTEX
  5
B2A74
  8
0
 10
19166.1863909406
 20
7991.171916406222
 30
0.0
  0
SEQEND
  5
B3430
  8
0
  0
POLYLINE
  5
A99BF
  8
0
 66
     1
 10
0.0
 20
0.0
 30
0.0
 70
     1
  0
VERTEX
  5
B2A75
  8
0
 10
19937.1863909406
 20
5913.171916406252
 30
0.0
  0
VERTEX
  5
B2A76
  8
0
 10
19937.1863909406
 20
8031.171925943024
 30
0.0
  0
VERTEX
  5
B2A77
  8
0
 10
19902.1863909406
 20
8031.171925943024
 30
0.0
  0
VERTEX
  5
B2A78
  8
0
 10
19902.1863909406
 20
5913.171916406252
 30
0.0
  0
SEQEND
  5
B3431
  8
0
  0
POLYLINE
  5
A99C0
  8
0
 66
     1
 10
0.0
 20
0.0
 30
0.0
 70
     1
  0
VERTEX
  5
B2A79
  8
0
 10
14530.1298653905
 20
7591.171916406245
 30
0.0
  0
VERTEX
  5
B2A7A
  8
0
 10
14530.1298653905
 20
7621.171916406246
 30
0.0
  0
VERTEX
  5
B2A7B
  8
0
 10
15266.1298653905
 20
7621.171916406246
 30
0.0
  0
VERTEX
  5
B2A7C
  8
0
 10
15266.1298653905
 20
7591.171916406245
 30
0.0
  0
SEQEND
  5
B3432
  8
0
  0
POLYLINE
  5
A99C1
  8
0
 66
     1
 10
0.0
 20
0.0
 30
0.0
 70
     1
  0
VERTEX
  5
B2A7D
  8
0
 10
15266.1298653905
 20
6391.17191640625
 30
0.0
  0
VERTEX
  5
B2A7E
  8
0
 10
15266.1298653905
 20
6421.17191640625
 30
0.0
  0
VERTEX
  5
B2A7F
  8
0
 10
14530.1298653905
 20
6421.17191640625
 30
0.0
  0
VERTEX
  5
B2A80
  8
0
 10
14530.1298653905
 20
6391.17191640625
 30
0.0
  0
SEQEND
  5
B3433
  8
0
  0
POLYLINE
  5
A99C2
  8
0
 66
     1
 10
0.0
 20
0.0
 30
0.0
 70
     1
  0
VERTEX
  5
B2A81
  8
0
 10
15266.1298653905
 20
7191.171916406244
 30
0.0
  0
VERTEX
  5
B2A82
  8
0
 10
15266.1298653905
 20
7221.171916406246
 30
0.0
  0
VERTEX
  5
B2A83
  8
0
 10
14530.1298653905
 20
7221.171916406246
 30
0.0
  0
VERTEX
  5
B2A84
  8
0
 10
14530.1298653905
 20
7191.171916406244
 30
0.0
  0
SEQEND
  5
B3434
  8
0
  0
POLYLINE
  5
A99C3
  8
0
 66
     1
 10
0.0
 20
0.0
 30
0.0
 70
     1
  0
VERTEX
  5
B2A85
  8
0
 10
14530.1298653905
 20
6791.171916406253
 30
0.0
  0
VERTEX
  5
B2A86
  8
0
 10
14530.1298653905
 20
6821.171916406253
 30
0.0
  0
VERTEX
  5
B2A87
  8
0
 10
15266.1298653905
 20
6821.171916406253
 30
0.0
  0
VERTEX
  5
B2A88
  8
0
 10
15266.1298653905
 20
6791.171916406253
 30
0.0
  0
SEQEND
  5
B3435
  8
0
  0
POLYLINE
  5
A99C4
  8
0
 66
     1
 10
0.0
 20
0.0
 30
0.0
 70
     1
  0
VERTEX
  5
B2A89
  8
0
 10
15185.6298653905
 20
5891.171916406295
 30
0.0
  0
VERTEX
  5
B2A8A
  8
0
 10
15185.6298653905
 20
5911.171916406296
 30
0.0
  0
VERTEX
  5
B2A8B
  8
0
 10
15205.6298653905
 20
5911.171916406296
 30
0.0
  0
VERTEX
  5
B2A8C
  8
0
 10
15205.6298653905
 20
5891.171916406295
 30
0.0
  0
SEQEND
  5
B3436
  8
0
  0
POLYLINE
  5
A99C5
  8
0
 66
     1
 10
0.0
 20
0.0
 30
0.0
 70
     1
  0
VERTEX
  5
B2A8D
  8
0
 10
14610.6298653905
 20
5891.171916406295
 30
0.0
  0
VERTEX
  5
B2A8E
  8
0
 10
14610.6298653905
 20
5911.171916406296
 30
0.0
  0
VERTEX
  5
B2A8F
  8
0
 10
14590.6298653905
 20
5911.171916406296
 30
0.0
  0
VERTEX
  5
B2A90
  8
0
 10
14590.6298653905
 20
5891.171916406295
 30
0.0
  0
SEQEND
  5
B3437
  8
0
  0
POLYLINE
  5
A99C6
  8
0
 66
     1
 10
0.0
 20
0.0
 30
0.0
 70
     1
  0
VERTEX
  5
B2A91
  8
0
 10
15205.6298653905
 20
5911.171916406296
 30
0.0
  0
VERTEX
  5
B2A92
  8
0
 10
15205.6298653905
 20
5891.171916406295
 30
0.0
  0
VERTEX
  5
B2A93
  8
0
 10
14590.6298653905
 20
5891.171916406295
 30
0.0
  0
VERTEX
  5
B2A94
  8
0
 10
14590.6298653905
 20
5911.171916406296
 30
0.0
  0
SEQEND
  5
B3438
  8
0
  0
POLYLINE
  5
A99C7
  8
0
 66
     1
 10
0.0
 20
0.0
 30
0.0
 70
     1
  0
VERTEX
  5
B2A95
  8
0
 10
14584.12986539058
 20
5931.67191640625
 30
0.0
  0
VERTEX
  5
B2A96
  8
0
 10
14584.12986539058
 20
5904.771916406454
 30
0.0
  0
VERTEX
  5
B2A97
  8
0
 10
14585.1298653905
 20
5903.771916406328
 30
0.0
  0
VERTEX
  5
B2A98
  8
0
 10
14589.12986539061
 20
5903.771916406328
 30
0.0
  0
VERTEX
  5
B2A99
  8
0
 10
14590.1298653905
 20
5904.771916406454
 30
0.0
  0
VERTEX
  5
B2A9A
  8
0
 10
14590.1298653905
 20
5911.271916406331
 30
0.0
  0
VERTEX
  5
B2A9B
  8
0
 10
14617.11210023374
 20
5911.742893067462
 30
0.0
  0
VERTEX
  5
B2A9C
  8
0
 10
14618.1298653905
 20
5912.760658224396
 30
0.0
  0
VERTEX
  5
B2A9D
  8
0
 10
14618.1298653905
 20
5931.67191640625
 30
0.0
  0
SEQEND
  5
B3439
  8
0
  0
POLYLINE
  5
A99C8
  8
0
 66
     1
 10
0.0
 20
0.0
 30
0.0
 70
     1
  0
VERTEX
  5
B2A9E
  8
0
 10
15212.1298653905
 20
5931.67191640625
 30
0.0
  0
VERTEX
  5
B2A9F
  8
0
 10
15212.1298653905
 20
5904.771916406454
 30
0.0
  0
VERTEX
  5
B2AA0
  8
0
 10
15211.1298653905
 20
5903.771916406328
 30
0.0
  0
VERTEX
  5
B2AA1
  8
0
 10
15207.1298653905
 20
5903.771916406328
 30
0.0
  0
VERTEX
  5
B2AA2
  8
0
 10
15206.1298653905
 20
5904.771916406454
 30
0.0
  0
VERTEX
  5
B2AA3
  8
0
 10
15206.1298653905
 20
5911.271916406331
 30
0.0
  0
VERTEX
  5
B2AA4
  8
0
 10
15179.14763054741
 20
5911.742893067462
 30
0.0
  0
VERTEX
  5
B2AA5
  8
0
 10
15178.1298653905
 20
5912.760658224396
 30
0.0
  0
VERTEX
  5
B2AA6
  8
0
 10
15178.1298653905
 20
5931.67191640625
 30
0.0
  0
SEQEND
  5
B343A
  8
0
  0
POLYLINE
  5
A99C9
  8
0
 66
     1
 10
0.0
 20
0.0
 30
0.0
 70
     1
  0
VERTEX
  5
B2AA7
  8
0
 10
14529.1298653905
 20
7991.17191640622
 30
0.0
  0
VERTEX
  5
B2AA8
  8
0
 10
14529.1298653905
 20
8031.171925943024
 30
0.0
  0
VERTEX
  5
B2AA9
  8
0
 10
15266.1298653905
 20
8031.171925943024
 30
0.0
  0
VERTEX
  5
B2AAA
  8
0
 10
15266.1298653905
 20
7991.17191640622
 30
0.0
  0
SEQEND
  5
B343B
  8
0
  0
POLYLINE
  5
A99CA
  8
0
 66
     1
 10
0.0
 20
0.0
 30
0.0
 70
     1
  0
VERTEX
  5
B2AAB
  8
0
 10
14530.1298653905
 20
5991.17191640625
 30
0.0
  0
VERTEX
  5
B2AAC
  8
0
 10
14530.1298653905
 20
6021.17191640625
 30
0.0
  0
VERTEX
  5
B2AAD
  8
0
 10
15266.1298653905
 20
6021.17191640625
 30
0.0
  0
VERTEX
  5
B2AAE
  8
0
 10
15266.1298653905
 20
5991.17191640625
 30
0.0
  0
SEQEND
  5
B343C
  8
0
  0
POLYLINE
  5
A99CB
  8
0
 66
     1
 10
0.0
 20
0.0
 30
0.0
 70
     1
  0
VERTEX
  5
B2AAF
  8
0
 10
15266.1298653905
 20
5931.67191640625
 30
0.0
  0
VERTEX
  5
B2AB0
  8
0
 10
15266.1298653905
 20
5991.17191640625
 30
0.0
  0
VERTEX
  5
B2AB1
  8
0
 10
14530.1298653905
 20
5991.17191640625
 30
0.0
  0
VERTEX
  5
B2AB2
  8
0
 10
14530.1298653905
 20
5931.67191640625
 30
0.0
  0
SEQEND
  5
B343D
  8
0
  0
POLYLINE
  5
A99CC
  8
0
 66
     1
 10
0.0
 20
0.0
 30
0.0
 70
     1
  0
VERTEX
  5
B2AB3
  8
0
 10
14530.1298653905
 20
5908.171916406249
 30
0.0
  0
VERTEX
  5
B2AB4
  8
0
 10
14493.52986539045
 20
5908.171916406249
 30
0.0
  0
VERTEX
  5
B2AB5
  8
0
 10
14493.52986539045
 20
8031.171925943024
 30
0.0
  0
VERTEX
  5
B2AB6
  8
0
 10
14529.1298653905
 20
8031.171925943024
 30
0.0
  0
VERTEX
  5
B2AB7
  8
0
 10
14529.1298653905
 20
7991.17191640622
 30
0.0
  0
VERTEX
  5
B2AB8
  8
0
 10
14530.1298653905
 20
7991.17191640622
 30
0.0
  0
SEQEND
  5
B343E
  8
0
  0
POLYLINE
  5
A99CD
  8
0
 66
     1
 10
0.0
 20
0.0
 30
0.0
 70
     1
  0
VERTEX
  5
B2AB9
  8
0
 10
15301.12986539051
 20
5913.171916406248
 30
0.0
  0
VERTEX
  5
B2ABA
  8
0
 10
15301.12986539051
 20
8031.171925943024
 30
0.0
  0
VERTEX
  5
B2ABB
  8
0
 10
15266.1298653905
 20
8031.171925943024
 30
0.0
  0
VERTEX
  5
B2ABC
  8
0
 10
15266.1298653905
 20
5913.171916406248
 30
0.0
  0
SEQEND
  5
B343F
  8
0
  0
POLYLINE
  5
A99DB
  8
0
 66
     1
 10
0.0
 20
0.0
 30
0.0
 70
     1
  0
VERTEX
  5
B2ABD
  8
0
 10
19937.18639094052
 20
2180.036426392792
 30
0.0
  0
VERTEX
  5
B2ABE
  8
0
 10
19937.18639094052
 20
4298.036435929563
 30
0.0
  0
VERTEX
  5
B2ABF
  8
0
 10
19902.18639094052
 20
4298.036435929563
 30
0.0
  0
VERTEX
  5
B2AC0
  8
0
 10
19902.18639094052
 20
2180.036426392792
 30
0.0
  0
SEQEND
  5
B3440
  8
0
  0
POLYLINE
  5
A99DC
  8
0
 66
     1
 10
0.0
 20
0.0
 30
0.0
 70
     1
  0
VERTEX
  5
B2AC1
  8
0
 10
19166.18639094054
 20
2175.036426392791
 30
0.0
  0
VERTEX
  5
B2AC2
  8
0
 10
19129.58639094035
 20
2175.036426392791
 30
0.0
  0
VERTEX
  5
B2AC3
  8
0
 10
19129.58639094035
 20
4298.036435929563
 30
0.0
  0
VERTEX
  5
B2AC4
  8
0
 10
19165.18639094054
 20
4298.036435929563
 30
0.0
  0
VERTEX
  5
B2AC5
  8
0
 10
19165.18639094054
 20
4258.036426392761
 30
0.0
  0
VERTEX
  5
B2AC6
  8
0
 10
19166.18639094054
 20
4258.036426392761
 30
0.0
  0
SEQEND
  5
B3441
  8
0
  0
POLYLINE
  5
A99DD
  8
0
 66
     1
 10
0.0
 20
0.0
 30
0.0
 70
     1
  0
VERTEX
  5
B2AC7
  8
0
 10
19165.18639094054
 20
4258.036426392761
 30
0.0
  0
VERTEX
  5
B2AC8
  8
0
 10
19165.18639094054
 20
4298.036435929563
 30
0.0
  0
VERTEX
  5
B2AC9
  8
0
 10
19902.18639094052
 20
4298.036435929563
 30
0.0
  0
VERTEX
  5
B2ACA
  8
0
 10
19902.18639094052
 20
4258.036426392761
 30
0.0
  0
SEQEND
  5
B3442
  8
0
  0
POLYLINE
  5
A99DE
  8
0
 66
     1
 10
0.0
 20
0.0
 30
0.0
 70
     1
  0
VERTEX
  5
B2ACB
  8
0
 10
19848.18639094049
 20
2198.536426392791
 30
0.0
  0
VERTEX
  5
B2ACC
  8
0
 10
19848.18639094049
 20
2171.636426392994
 30
0.0
  0
VERTEX
  5
B2ACD
  8
0
 10
19847.18639094052
 20
2170.636426392871
 30
0.0
  0
VERTEX
  5
B2ACE
  8
0
 10
19843.18639094049
 20
2170.636426392871
 30
0.0
  0
VERTEX
  5
B2ACF
  8
0
 10
19842.18639094054
 20
2171.636426392994
 30
0.0
  0
VERTEX
  5
B2AD0
  8
0
 10
19842.18639094054
 20
2178.136426392871
 30
0.0
  0
VERTEX
  5
B2AD1
  8
0
 10
19815.2041560974
 20
2178.607403054005
 30
0.0
  0
VERTEX
  5
B2AD2
  8
0
 10
19814.18639094052
 20
2179.625168210938
 30
0.0
  0
VERTEX
  5
B2AD3
  8
0
 10
19814.18639094052
 20
2198.536426392791
 30
0.0
  0
SEQEND
  5
B3443
  8
0
  0
POLYLINE
  5
A99DF
  8
0
 66
     1
 10
0.0
 20
0.0
 30
0.0
 70
     1
  0
VERTEX
  5
B2AD4
  8
0
 10
19220.18639094052
 20
2198.536426392791
 30
0.0
  0
VERTEX
  5
B2AD5
  8
0
 10
19220.18639094052
 20
2171.636426392994
 30
0.0
  0
VERTEX
  5
B2AD6
  8
0
 10
19221.18639094052
 20
2170.636426392871
 30
0.0
  0
VERTEX
  5
B2AD7
  8
0
 10
19225.18639094054
 20
2170.636426392871
 30
0.0
  0
VERTEX
  5
B2AD8
  8
0
 10
19226.18639094054
 20
2171.636426392994
 30
0.0
  0
VERTEX
  5
B2AD9
  8
0
 10
19226.18639094054
 20
2178.136426392871
 30
0.0
  0
VERTEX
  5
B2ADA
  8
0
 10
19253.16862578368
 20
2178.607403054005
 30
0.0
  0
VERTEX
  5
B2ADB
  8
0
 10
19254.18639094052
 20
2179.625168210938
 30
0.0
  0
VERTEX
  5
B2ADC
  8
0
 10
19254.18639094052
 20
2198.536426392791
 30
0.0
  0
SEQEND
  5
B3444
  8
0
  0
POLYLINE
  5
A99E0
  8
0
 66
     1
 10
0.0
 20
0.0
 30
0.0
 70
     1
  0
VERTEX
  5
B2ADD
  8
0
 10
19841.68639094054
 20
2178.036426392835
 30
0.0
  0
VERTEX
  5
B2ADE
  8
0
 10
19841.68639094054
 20
2158.036426392835
 30
0.0
  0
VERTEX
  5
B2ADF
  8
0
 10
19226.68639094052
 20
2158.036426392835
 30
0.0
  0
VERTEX
  5
B2AE0
  8
0
 10
19226.68639094052
 20
2178.036426392835
 30
0.0
  0
SEQEND
  5
B3445
  8
0
  0
POLYLINE
  5
A99E1
  8
0
 66
     1
 10
0.0
 20
0.0
 30
0.0
 70
     1
  0
VERTEX
  5
B2AE1
  8
0
 10
19246.68639094052
 20
2158.036426392835
 30
0.0
  0
VERTEX
  5
B2AE2
  8
0
 10
19246.68639094052
 20
2178.036426392835
 30
0.0
  0
VERTEX
  5
B2AE3
  8
0
 10
19226.68639094052
 20
2178.036426392835
 30
0.0
  0
VERTEX
  5
B2AE4
  8
0
 10
19226.68639094052
 20
2158.036426392835
 30
0.0
  0
SEQEND
  5
B3446
  8
0
  0
POLYLINE
  5
A99E2
  8
0
 66
     1
 10
0.0
 20
0.0
 30
0.0
 70
     1
  0
VERTEX
  5
B2AE5
  8
0
 10
19821.68639094054
 20
2158.036426392835
 30
0.0
  0
VERTEX
  5
B2AE6
  8
0
 10
19821.68639094054
 20
2178.036426392835
 30
0.0
  0
VERTEX
  5
B2AE7
  8
0
 10
19841.68639094054
 20
2178.036426392835
 30
0.0
  0
VERTEX
  5
B2AE8
  8
0
 10
19841.68639094054
 20
2158.036426392835
 30
0.0
  0
SEQEND
  5
B3447
  8
0
  0
POLYLINE
  5
A99FC
  8
0
 66
     1
 10
0.0
 20
0.0
 30
0.0
 70
     1
  0
VERTEX
  5
B2AE9
  8
0
 10
19902.18639094049
 20
2198.536426392791
 30
0.0
  0
VERTEX
  5
B2AEA
  8
0
 10
19902.18639094049
 20
2258.036426392791
 30
0.0
  0
VERTEX
  5
B2AEB
  8
0
 10
19166.1863909405
 20
2258.036426392791
 30
0.0
  0
VERTEX
  5
B2AEC
  8
0
 10
19166.1863909405
 20
2198.536426392791
 30
0.0
  0
SEQEND
  5
B3448
  8
0
  0
POLYLINE
  5
A99FE
  8
0
 66
     1
 10
0.0
 20
0.0
 30
0.0
  0
VERTEX
  5
B2AED
  8
0
 10
14197.12986539054
 20
5891.171916406296
 30
0.0
  0
VERTEX
  5
B2AEE
  8
0
 10
22554.48951026663
 20
5891.171916406308
 30
0.0
  0
SEQEND
  5
B3449
  8
0
  0
POLYLINE
  5
A99FF
  8
0
 66
     1
 10
0.0
 20
0.0
 30
0.0
  0
VERTEX
  5
B2AEF
  8
0
 10
14197.12986539054
 20
2158.036426392835
 30
0.0
  0
VERTEX
  5
B2AF0
  8
0
 10
22554.48951026663
 20
2158.036426392834
 30
0.0
  0
SEQEND
  5
B344A
  8
0
  0
POLYLINE
  5
A9A1E
  8
0
 66
     1
 10
0.0
 20
0.0
 30
0.0
  0
VERTEX
  5
B2AF1
  8
0
 10
25109.50129716488
 20
2158.036426392835
 30
0.0
  0
VERTEX
  5
B2AF2
  8
0
 10
24113.08787004944
 20
2158.036426392835
 30
0.0
  0
SEQEND
  5
B344B
  8
0
  0
POLYLINE
  5
A9A23
  8
0
 66
     1
 10
0.0
 20
0.0
 30
0.0
  0
VERTEX
  5
B2AF3
  8
0
 10
25109.50129716488
 20
5891.171916406296
 30
0.0
  0
VERTEX
  5
B2AF4
  8
0
 10
24113.08787004944
 20
5891.171916406296
 30
0.0
  0
SEQEND
  5
B344C
  8
0
  0
POLYLINE
  5
A9A24
  8
0
 66
     1
 10
0.0
 20
0.0
 30
0.0
 70
     1
  0
VERTEX
  5
B2AF5
  8
0
 10
24911.29458360715
 20
5908.171916406253
 30
0.0
  0
VERTEX
  5
B2AF6
  8
0
 10
24311.29458360716
 20
5908.171916406253
 30
0.0
  0
VERTEX
  5
B2AF7
  8
0
 10
24311.29458360716
 20
8031.171925943024
 30
0.0
  0
VERTEX
  5
B2AF8
  8
0
 10
24911.29458360715
 20
8031.171925943024
 30
0.0
  0
SEQEND
  5
B344D
  8
0
  0
POLYLINE
  5
A9A25
  8
0
 66
     1
 10
0.0
 20
0.0
 30
0.0
 70
     1
  0
VERTEX
  5
B2AF9
  8
0
 10
24911.29458360715
 20
2175.036426392791
 30
0.0
  0
VERTEX
  5
B2AFA
  8
0
 10
24311.29458360716
 20
2175.036426392791
 30
0.0
  0
VERTEX
  5
B2AFB
  8
0
 10
24311.29458360716
 20
4298.036435929563
 30
0.0
  0
VERTEX
  5
B2AFC
  8
0
 10
24911.29458360715
 20
4298.036435929563
 30
0.0
  0
SEQEND
  5
B344E
  8
0
  0
POLYLINE
  5
A9A32
  8
0
 66
     1
 10
0.0
 20
0.0
 30
0.0
  0
VERTEX
  5
B2AFD
  8
0
 10
3402.630686210061
 20
2158.036426392835
 30
0.0
  0
VERTEX
  5
B2AFE
  8
0
 10
2406.217259094658
 20
2158.036426392835
 30
0.0
  0
SEQEND
  5
B344F
  8
0
  0
POLYLINE
  5
A9A33
  8
0
 66
     1
 10
0.0
 20
0.0
 30
0.0
 70
     1
  0
VERTEX
  5
B2AFF
  8
0
 10
3054.423972652367
 20
2175.036426392791
 30
0.0
  0
VERTEX
  5
B2B00
  8
0
 10
2754.423972652367
 20
2175.036426392791
 30
0.0
  0
VERTEX
  5
B2B01
  8
0
 10
2754.423972652367
 20
4298.036435929563
 30
0.0
  0
VERTEX
  5
B2B02
  8
0
 10
3054.423972652367
 20
4298.036435929563
 30
0.0
  0
SEQEND
  5
B3450
  8
0
  0
POLYLINE
  5
A9A38
  8
0
 66
     1
 10
0.0
 20
0.0
 30
0.0
 70
     1
  0
VERTEX
  5
B2B03
  8
0
 10
3054.423972652367
 20
4908.171916406238
 30
0.0
  0
VERTEX
  5
B2B04
  8
0
 10
2754.423972652367
 20
4908.171916406238
 30
0.0
  0
VERTEX
  5
B2B05
  8
0
 10
2754.423972652367
 20
7431.171925943011
 30
0.0
  0
VERTEX
  5
B2B06
  8
0
 10
3054.423972652367
 20
7431.171925943011
 30
0.0
  0
SEQEND
  5
B3451
  8
0
  0
POLYLINE
  5
A9A39
  8
0
 66
     1
 10
0.0
 20
0.0
 30
0.0
  0
VERTEX
  5
B2B07
  8
0
 10
3402.630686210061
 20
4891.171916406282
 30
0.0
  0
VERTEX
  5
B2B08
  8
0
 10
2406.217259094658
 20
4891.171916406282
 30
0.0
  0
SEQEND
  5
B3452
  8
0
  0
POLYLINE
  5
AAE23
  8
0
 66
     1
 10
0.0
 20
0.0
 30
0.0
 70
     1
  0
VERTEX
  5
B2B09
  8
0
 10
13550.0
 20
9015.002619770916
 30
0.0
  0
VERTEX
  5
B2B0A
  8
0
 10
26550.0
 20
9015.002619770916
 30
0.0
  0
VERTEX
  5
B2B0B
  8
0
 10
26550.0
 20
1537.657647026935
 30
0.0
  0
VERTEX
  5
B2B0C
  8
0
 10
13550.0
 20
1537.657647026935
 30
0.0
  0
SEQEND
  5
B3453
  8
0
  0
POLYLINE
  5
AAE44
  8
0
 66
     1
 10
0.0
 20
0.0
 30
0.0
 70
     1
  0
VERTEX
  5
B2B0D
  8
0
 10
17301.1298653905
 20
5913.171916406248
 30
0.0
  0
VERTEX
  5
B2B0E
  8
0
 10
17301.1298653905
 20
8431.171916406302
 30
0.0
  0
VERTEX
  5
B2B0F
  8
0
 10
17266.1298653905
 20
8431.171916406302
 30
0.0
  0
VERTEX
  5
B2B10
  8
0
 10
17266.1298653905
 20
5913.171916406248
 30
0.0
  0
SEQEND
  5
B3454
  8
0
  0
POLYLINE
  5
AAE45
  8
0
 66
     1
 10
0.0
 20
0.0
 30
0.0
 70
     1
  0
VERTEX
  5
B2B11
  8
0
 10
16530.1298653905
 20
5908.171916406249
 30
0.0
  0
VERTEX
  5
B2B12
  8
0
 10
16493.52986539045
 20
5908.171916406249
 30
0.0
  0
VERTEX
  5
B2B13
  8
0
 10
16493.52986539045
 20
8431.171916406302
 30
0.0
  0
VERTEX
  5
B2B14
  8
0
 10
16529.1298653905
 20
8431.171916406302
 30
0.0
  0
VERTEX
  5
B2B15
  8
0
 10
16529.1298653905
 20
8391.171906869497
 30
0.0
  0
VERTEX
  5
B2B16
  8
0
 10
16530.1298653905
 20
8391.171906869497
 30
0.0
  0
SEQEND
  5
B3455
  8
0
  0
POLYLINE
  5
AAE46
  8
0
 66
     1
 10
0.0
 20
0.0
 30
0.0
 70
     1
  0
VERTEX
  5
B2B17
  8
0
 10
17266.1298653905
 20
5931.67191640625
 30
0.0
  0
VERTEX
  5
B2B18
  8
0
 10
17266.1298653905
 20
5991.17191640625
 30
0.0
  0
VERTEX
  5
B2B19
  8
0
 10
16530.1298653905
 20
5991.17191640625
 30
0.0
  0
VERTEX
  5
B2B1A
  8
0
 10
16530.1298653905
 20
5931.67191640625
 30
0.0
  0
SEQEND
  5
B3456
  8
0
  0
POLYLINE
  5
AAE47
  8
0
 66
     1
 10
0.0
 20
0.0
 30
0.0
 70
     1
  0
VERTEX
  5
B2B1B
  8
0
 10
16530.1298653905
 20
5991.17191640625
 30
0.0
  0
VERTEX
  5
B2B1C
  8
0
 10
16530.1298653905
 20
6021.17191640625
 30
0.0
  0
VERTEX
  5
B2B1D
  8
0
 10
17266.1298653905
 20
6021.17191640625
 30
0.0
  0
VERTEX
  5
B2B1E
  8
0
 10
17266.1298653905
 20
5991.17191640625
 30
0.0
  0
SEQEND
  5
B3457
  8
0
  0
POLYLINE
  5
AAE48
  8
0
 66
     1
 10
0.0
 20
0.0
 30
0.0
 70
     1
  0
VERTEX
  5
B2B1F
  8
0
 10
16529.1298653905
 20
8391.171906869497
 30
0.0
  0
VERTEX
  5
B2B20
  8
0
 10
16529.1298653905
 20
8431.171916406302
 30
0.0
  0
VERTEX
  5
B2B21
  8
0
 10
17266.1298653905
 20
8431.171916406302
 30
0.0
  0
VERTEX
  5
B2B22
  8
0
 10
17266.1298653905
 20
8391.171906869497
 30
0.0
  0
SEQEND
  5
B3458
  8
0
  0
POLYLINE
  5
AAE49
  8
0
 66
     1
 10
0.0
 20
0.0
 30
0.0
 70
     1
  0
VERTEX
  5
B2B23
  8
0
 10
17212.1298653905
 20
5931.67191640625
 30
0.0
  0
VERTEX
  5
B2B24
  8
0
 10
17212.1298653905
 20
5904.771916406454
 30
0.0
  0
VERTEX
  5
B2B25
  8
0
 10
17211.1298653905
 20
5903.771916406328
 30
0.0
  0
VERTEX
  5
B2B26
  8
0
 10
17207.1298653905
 20
5903.771916406328
 30
0.0
  0
VERTEX
  5
B2B27
  8
0
 10
17206.1298653905
 20
5904.771916406454
 30
0.0
  0
VERTEX
  5
B2B28
  8
0
 10
17206.1298653905
 20
5911.271916406331
 30
0.0
  0
VERTEX
  5
B2B29
  8
0
 10
17179.14763054741
 20
5911.742893067462
 30
0.0
  0
VERTEX
  5
B2B2A
  8
0
 10
17178.1298653905
 20
5912.760658224396
 30
0.0
  0
VERTEX
  5
B2B2B
  8
0
 10
17178.1298653905
 20
5931.67191640625
 30
0.0
  0
SEQEND
  5
B3459
  8
0
  0
POLYLINE
  5
AAE4A
  8
0
 66
     1
 10
0.0
 20
0.0
 30
0.0
 70
     1
  0
VERTEX
  5
B2B2C
  8
0
 10
16584.12986539058
 20
5931.67191640625
 30
0.0
  0
VERTEX
  5
B2B2D
  8
0
 10
16584.12986539058
 20
5904.771916406454
 30
0.0
  0
VERTEX
  5
B2B2E
  8
0
 10
16585.1298653905
 20
5903.771916406328
 30
0.0
  0
VERTEX
  5
B2B2F
  8
0
 10
16589.12986539061
 20
5903.771916406328
 30
0.0
  0
VERTEX
  5
B2B30
  8
0
 10
16590.1298653905
 20
5904.771916406454
 30
0.0
  0
VERTEX
  5
B2B31
  8
0
 10
16590.1298653905
 20
5911.271916406331
 30
0.0
  0
VERTEX
  5
B2B32
  8
0
 10
16617.11210023374
 20
5911.742893067462
 30
0.0
  0
VERTEX
  5
B2B33
  8
0
 10
16618.1298653905
 20
5912.760658224396
 30
0.0
  0
VERTEX
  5
B2B34
  8
0
 10
16618.1298653905
 20
5931.67191640625
 30
0.0
  0
SEQEND
  5
B345A
  8
0
  0
POLYLINE
  5
AAE4B
  8
0
 66
     1
 10
0.0
 20
0.0
 30
0.0
 70
     1
  0
VERTEX
  5
B2B35
  8
0
 10
17205.6298653905
 20
5911.171916406296
 30
0.0
  0
VERTEX
  5
B2B36
  8
0
 10
17205.6298653905
 20
5891.171916406295
 30
0.0
  0
VERTEX
  5
B2B37
  8
0
 10
16590.6298653905
 20
5891.171916406295
 30
0.0
  0
VERTEX
  5
B2B38
  8
0
 10
16590.6298653905
 20
5911.171916406296
 30
0.0
  0
SEQEND
  5
B345B
  8
0
  0
POLYLINE
  5
AAE4C
  8
0
 66
     1
 10
0.0
 20
0.0
 30
0.0
 70
     1
  0
VERTEX
  5
B2B39
  8
0
 10
16610.6298653905
 20
5891.171916406295
 30
0.0
  0
VERTEX
  5
B2B3A
  8
0
 10
16610.6298653905
 20
5911.171916406296
 30
0.0
  0
VERTEX
  5
B2B3B
  8
0
 10
16590.6298653905
 20
5911.171916406296
 30
0.0
  0
VERTEX
  5
B2B3C
  8
0
 10
16590.6298653905
 20
5891.171916406295
 30
0.0
  0
SEQEND
  5
B345C
  8
0
  0
POLYLINE
  5
AAE4D
  8
0
 66
     1
 10
0.0
 20
0.0
 30
0.0
 70
     1
  0
VERTEX
  5
B2B3D
  8
0
 10
17185.6298653905
 20
5891.171916406295
 30
0.0
  0
VERTEX
  5
B2B3E
  8
0
 10
17185.6298653905
 20
5911.171916406296
 30
0.0
  0
VERTEX
  5
B2B3F
  8
0
 10
17205.6298653905
 20
5911.171916406296
 30
0.0
  0
VERTEX
  5
B2B40
  8
0
 10
17205.6298653905
 20
5891.171916406295
 30
0.0
  0
SEQEND
  5
B345D
  8
0
  0
POLYLINE
  5
AAE4E
  8
0
 66
     1
 10
0.0
 20
0.0
 30
0.0
 70
     1
  0
VERTEX
  5
B2B41
  8
0
 10
16530.1298653905
 20
6791.171916406253
 30
0.0
  0
VERTEX
  5
B2B42
  8
0
 10
16530.1298653905
 20
6821.171916406253
 30
0.0
  0
VERTEX
  5
B2B43
  8
0
 10
17266.1298653905
 20
6821.171916406253
 30
0.0
  0
VERTEX
  5
B2B44
  8
0
 10
17266.1298653905
 20
6791.171916406253
 30
0.0
  0
SEQEND
  5
B345E
  8
0
  0
POLYLINE
  5
AAE4F
  8
0
 66
     1
 10
0.0
 20
0.0
 30
0.0
 70
     1
  0
VERTEX
  5
B2B45
  8
0
 10
17266.1298653905
 20
7191.171916406244
 30
0.0
  0
VERTEX
  5
B2B46
  8
0
 10
17266.1298653905
 20
7221.171916406246
 30
0.0
  0
VERTEX
  5
B2B47
  8
0
 10
16530.1298653905
 20
7221.171916406246
 30
0.0
  0
VERTEX
  5
B2B48
  8
0
 10
16530.1298653905
 20
7191.171916406244
 30
0.0
  0
SEQEND
  5
B345F
  8
0
  0
POLYLINE
  5
AAE50
  8
0
 66
     1
 10
0.0
 20
0.0
 30
0.0
 70
     1
  0
VERTEX
  5
B2B49
  8
0
 10
17266.1298653905
 20
6391.17191640625
 30
0.0
  0
VERTEX
  5
B2B4A
  8
0
 10
17266.1298653905
 20
6421.17191640625
 30
0.0
  0
VERTEX
  5
B2B4B
  8
0
 10
16530.1298653905
 20
6421.17191640625
 30
0.0
  0
VERTEX
  5
B2B4C
  8
0
 10
16530.1298653905
 20
6391.17191640625
 30
0.0
  0
SEQEND
  5
B3460
  8
0
  0
POLYLINE
  5
AAE51
  8
0
 66
     1
 10
0.0
 20
0.0
 30
0.0
 70
     1
  0
VERTEX
  5
B2B4D
  8
0
 10
16530.1298653905
 20
7591.171916406245
 30
0.0
  0
VERTEX
  5
B2B4E
  8
0
 10
16530.1298653905
 20
7621.171916406246
 30
0.0
  0
VERTEX
  5
B2B4F
  8
0
 10
17266.1298653905
 20
7621.171916406246
 30
0.0
  0
VERTEX
  5
B2B50
  8
0
 10
17266.1298653905
 20
7591.171916406245
 30
0.0
  0
SEQEND
  5
B3461
  8
0
  0
POLYLINE
  5
AAE52
  8
CLOTHES_RAIL
 66
     1
 10
0.0
 20
0.0
 30
0.0
 70
     1
  0
VERTEX
  5
B2B51
  8
CLOTHES_RAIL
 10
17266.12986539054
 20
3210.536426392791
 30
0.0
  0
VERTEX
  5
B2B52
  8
CLOTHES_RAIL
 10
17266.12986539054
 20
3185.536426392785
 30
0.0
  0
VERTEX
  5
B2B53
  8
CLOTHES_RAIL
 10
16530.12986539054
 20
3185.536426392785
 30
0.0
  0
VERTEX
  5
B2B54
  8
CLOTHES_RAIL
 10
16530.12986539054
 20
3210.536426392791
 30
0.0
  0
SEQEND
  5
B3462
  8
CLOTHES_RAIL
  0
POLYLINE
  5
AAE53
  8
0
 66
     1
 10
0.0
 20
0.0
 30
0.0
 70
     1
  0
VERTEX
  5
B2B55
  8
0
 10
17266.12986539054
 20
3288.036426392784
 30
0.0
  0
VERTEX
  5
B2B56
  8
0
 10
17266.12986539054
 20
3258.036426392783
 30
0.0
  0
VERTEX
  5
B2B57
  8
0
 10
16530.12986539054
 20
3258.036426392783
 30
0.0
  0
VERTEX
  5
B2B58
  8
0
 10
16530.12986539054
 20
3288.036426392784
 30
0.0
  0
SEQEND
  5
B3463
  8
0
  0
POLYLINE
  5
AAE54
  8
0
 66
     1
 10
0.0
 20
0.0
 30
0.0
 70
     1
  0
VERTEX
  5
B2B59
  8
0
 10
17185.62986539054
 20
2158.036426392841
 30
0.0
  0
VERTEX
  5
B2B5A
  8
0
 10
17185.62986539054
 20
2178.036426392842
 30
0.0
  0
VERTEX
  5
B2B5B
  8
0
 10
17205.62986539054
 20
2178.036426392842
 30
0.0
  0
VERTEX
  5
B2B5C
  8
0
 10
17205.62986539054
 20
2158.036426392841
 30
0.0
  0
SEQEND
  5
B3464
  8
0
  0
POLYLINE
  5
AAE55
  8
0
 66
     1
 10
0.0
 20
0.0
 30
0.0
 70
     1
  0
VERTEX
  5
B2B5D
  8
0
 10
16610.62986539054
 20
2158.036426392841
 30
0.0
  0
VERTEX
  5
B2B5E
  8
0
 10
16610.62986539054
 20
2178.036426392842
 30
0.0
  0
VERTEX
  5
B2B5F
  8
0
 10
16590.62986539054
 20
2178.036426392842
 30
0.0
  0
VERTEX
  5
B2B60
  8
0
 10
16590.62986539054
 20
2158.036426392841
 30
0.0
  0
SEQEND
  5
B3465
  8
0
  0
POLYLINE
  5
AAE56
  8
0
 66
     1
 10
0.0
 20
0.0
 30
0.0
 70
     1
  0
VERTEX
  5
B2B61
  8
0
 10
17205.62986539054
 20
2178.036426392842
 30
0.0
  0
VERTEX
  5
B2B62
  8
0
 10
17205.62986539054
 20
2158.036426392841
 30
0.0
  0
VERTEX
  5
B2B63
  8
0
 10
16590.62986539054
 20
2158.036426392841
 30
0.0
  0
VERTEX
  5
B2B64
  8
0
 10
16590.62986539054
 20
2178.036426392842
 30
0.0
  0
SEQEND
  5
B3466
  8
0
  0
POLYLINE
  5
AAE57
  8
0
 66
     1
 10
0.0
 20
0.0
 30
0.0
 70
     1
  0
VERTEX
  5
B2B65
  8
0
 10
16584.1298653906
 20
2198.536426392791
 30
0.0
  0
VERTEX
  5
B2B66
  8
0
 10
16584.1298653906
 20
2171.636426393001
 30
0.0
  0
VERTEX
  5
B2B67
  8
0
 10
16585.12986539054
 20
2170.636426392871
 30
0.0
  0
VERTEX
  5
B2B68
  8
0
 10
16589.12986539059
 20
2170.636426392871
 30
0.0
  0
VERTEX
  5
B2B69
  8
0
 10
16590.12986539054
 20
2171.636426393001
 30
0.0
  0
VERTEX
  5
B2B6A
  8
0
 10
16590.12986539054
 20
2178.136426392871
 30
0.0
  0
VERTEX
  5
B2B6B
  8
0
 10
16617.11210023366
 20
2178.607403054005
 30
0.0
  0
VERTEX
  5
B2B6C
  8
0
 10
16618.12986539054
 20
2179.625168210944
 30
0.0
  0
VERTEX
  5
B2B6D
  8
0
 10
16618.12986539054
 20
2198.536426392791
 30
0.0
  0
SEQEND
  5
B3467
  8
0
  0
POLYLINE
  5
AAE58
  8
0
 66
     1
 10
0.0
 20
0.0
 30
0.0
 70
     1
  0
VERTEX
  5
B2B6E
  8
0
 10
17212.12986539054
 20
2198.536426392791
 30
0.0
  0
VERTEX
  5
B2B6F
  8
0
 10
17212.12986539054
 20
2171.636426393001
 30
0.0
  0
VERTEX
  5
B2B70
  8
0
 10
17211.12986539054
 20
2170.636426392871
 30
0.0
  0
VERTEX
  5
B2B71
  8
0
 10
17207.12986539054
 20
2170.636426392871
 30
0.0
  0
VERTEX
  5
B2B72
  8
0
 10
17206.12986539054
 20
2171.636426393001
 30
0.0
  0
VERTEX
  5
B2B73
  8
0
 10
17206.12986539054
 20
2178.136426392871
 30
0.0
  0
VERTEX
  5
B2B74
  8
0
 10
17179.1476305474
 20
2178.607403054005
 30
0.0
  0
VERTEX
  5
B2B75
  8
0
 10
17178.12986539054
 20
2179.625168210944
 30
0.0
  0
VERTEX
  5
B2B76
  8
0
 10
17178.12986539054
 20
2198.536426392791
 30
0.0
  0
SEQEND
  5
B3468
  8
0
  0
POLYLINE
  5
AAE59
  8
0
 66
     1
 10
0.0
 20
0.0
 30
0.0
 70
     1
  0
VERTEX
  5
B2B77
  8
0
 10
16529.12986539054
 20
4658.036416856027
 30
0.0
  0
VERTEX
  5
B2B78
  8
0
 10
16529.12986539054
 20
4698.036426392834
 30
0.0
  0
VERTEX
  5
B2B79
  8
0
 10
17266.12986539054
 20
4698.036426392834
 30
0.0
  0
VERTEX
  5
B2B7A
  8
0
 10
17266.12986539054
 20
4658.036416856027
 30
0.0
  0
SEQEND
  5
B3469
  8
0
  0
POLYLINE
  5
AAE5A
  8
CLOTHES_RAIL
 66
     1
 10
0.0
 20
0.0
 30
0.0
 70
     1
  0
VERTEX
  5
B2B7B
  8
CLOTHES_RAIL
 10
17266.12986539054
 20
4185.536426392761
 30
0.0
  0
VERTEX
  5
B2B7C
  8
CLOTHES_RAIL
 10
17266.12986539054
 20
4210.536426392763
 30
0.0
  0
VERTEX
  5
B2B7D
  8
CLOTHES_RAIL
 10
16530.12986539054
 20
4210.536426392763
 30
0.0
  0
VERTEX
  5
B2B7E
  8
CLOTHES_RAIL
 10
16530.12986539054
 20
4185.536426392761
 30
0.0
  0
SEQEND
  5
B346A
  8
CLOTHES_RAIL
  0
POLYLINE
  5
AAE5B
  8
0
 66
     1
 10
0.0
 20
0.0
 30
0.0
 70
     1
  0
VERTEX
  5
B2B7F
  8
0
 10
16530.12986539054
 20
2258.036426392791
 30
0.0
  0
VERTEX
  5
B2B80
  8
0
 10
16530.12986539054
 20
2288.036426392791
 30
0.0
  0
VERTEX
  5
B2B81
  8
0
 10
17266.12986539054
 20
2288.036426392791
 30
0.0
  0
VERTEX
  5
B2B82
  8
0
 10
17266.12986539054
 20
2258.036426392791
 30
0.0
  0
SEQEND
  5
B346B
  8
0
  0
POLYLINE
  5
AAE5C
  8
0
 66
     1
 10
0.0
 20
0.0
 30
0.0
 70
     1
  0
VERTEX
  5
B2B83
  8
0
 10
17266.12986539054
 20
2198.536426392791
 30
0.0
  0
VERTEX
  5
B2B84
  8
0
 10
17266.12986539054
 20
2258.036426392791
 30
0.0
  0
VERTEX
  5
B2B85
  8
0
 10
16530.12986539054
 20
2258.036426392791
 30
0.0
  0
VERTEX
  5
B2B86
  8
0
 10
16530.12986539054
 20
2198.536426392791
 30
0.0
  0
SEQEND
  5
B346C
  8
0
  0
POLYLINE
  5
AAE5D
  8
0
 66
     1
 10
0.0
 20
0.0
 30
0.0
 70
     1
  0
VERTEX
  5
B2B87
  8
0
 10
16530.12986539054
 20
2175.036426392791
 30
0.0
  0
VERTEX
  5
B2B88
  8
0
 10
16493.52986539044
 20
2175.036426392791
 30
0.0
  0
VERTEX
  5
B2B89
  8
0
 10
16493.52986539044
 20
4698.036426392834
 30
0.0
  0
VERTEX
  5
B2B8A
  8
0
 10
16529.12986539054
 20
4698.036426392834
 30
0.0
  0
VERTEX
  5
B2B8B
  8
0
 10
16529.12986539054
 20
4658.036416856027
 30
0.0
  0
VERTEX
  5
B2B8C
  8
0
 10
16530.12986539054
 20
4658.036416856027
 30
0.0
  0
SEQEND
  5
B346D
  8
0
  0
POLYLINE
  5
AAE5E
  8
0
 66
     1
 10
0.0
 20
0.0
 30
0.0
 70
     1
  0
VERTEX
  5
B2B8D
  8
0
 10
17301.12986539054
 20
2180.036426392792
 30
0.0
  0
VERTEX
  5
B2B8E
  8
0
 10
17301.12986539054
 20
4698.036426392834
 30
0.0
  0
VERTEX
  5
B2B8F
  8
0
 10
17266.12986539054
 20
4698.036426392834
 30
0.0
  0
VERTEX
  5
B2B90
  8
0
 10
17266.12986539054
 20
2180.036426392792
 30
0.0
  0
SEQEND
  5
B346E
  8
0
  0
POLYLINE
  5
AAE5F
  8
0
 66
     1
 10
0.0
 20
0.0
 30
0.0
 70
     1
  0
VERTEX
  5
B2B91
  8
0
 10
16463.52986539044
 20
8431.171916406302
 30
0.0
  0
VERTEX
  5
B2B92
  8
0
 10
16463.52986539044
 20
5908.171916406249
 30
0.0
  0
VERTEX
  5
B2B93
  8
0
 10
16433.52986539045
 20
5908.171916406249
 30
0.0
  0
VERTEX
  5
B2B94
  8
0
 10
16433.52986539045
 20
8431.171916406302
 30
0.0
  0
SEQEND
  5
B346F
  8
0
  0
POLYLINE
  5
AAE60
  8
0
 66
     1
 10
0.0
 20
0.0
 30
0.0
 70
     1
  0
VERTEX
  5
B2B95
  8
0
 10
16463.52986539044
 20
4698.036426392826
 30
0.0
  0
VERTEX
  5
B2B96
  8
0
 10
16463.52986539044
 20
2175.036426392791
 30
0.0
  0
VERTEX
  5
B2B97
  8
0
 10
16433.52986539045
 20
2175.036426392791
 30
0.0
  0
VERTEX
  5
B2B98
  8
0
 10
16433.52986539045
 20
4698.036426392826
 30
0.0
  0
SEQEND
  5
B3470
  8
0
  0
POLYLINE
  5
AAE67
  8
0
 66
     1
 10
0.0
 20
0.0
 30
0.0
 70
     1
  0
VERTEX
  5
B2B99
  8
0
 10
21902.1863909405
 20
2198.536426392791
 30
0.0
  0
VERTEX
  5
B2B9A
  8
0
 10
21902.1863909405
 20
2258.036426392791
 30
0.0
  0
VERTEX
  5
B2B9B
  8
0
 10
21166.1863909405
 20
2258.036426392791
 30
0.0
  0
VERTEX
  5
B2B9C
  8
0
 10
21166.1863909405
 20
2198.536426392791
 30
0.0
  0
SEQEND
  5
B3471
  8
0
  0
POLYLINE
  5
AAE6A
  8
0
 66
     1
 10
0.0
 20
0.0
 30
0.0
 70
     1
  0
VERTEX
  5
B2B9D
  8
0
 10
21821.68639094054
 20
2158.036426392835
 30
0.0
  0
VERTEX
  5
B2B9E
  8
0
 10
21821.68639094054
 20
2178.036426392835
 30
0.0
  0
VERTEX
  5
B2B9F
  8
0
 10
21841.68639094054
 20
2178.036426392835
 30
0.0
  0
VERTEX
  5
B2BA0
  8
0
 10
21841.68639094054
 20
2158.036426392835
 30
0.0
  0
SEQEND
  5
B3472
  8
0
  0
POLYLINE
  5
AAE6B
  8
0
 66
     1
 10
0.0
 20
0.0
 30
0.0
 70
     1
  0
VERTEX
  5
B2BA1
  8
0
 10
21246.68639094054
 20
2158.036426392835
 30
0.0
  0
VERTEX
  5
B2BA2
  8
0
 10
21246.68639094054
 20
2178.036426392835
 30
0.0
  0
VERTEX
  5
B2BA3
  8
0
 10
21226.68639094054
 20
2178.036426392835
 30
0.0
  0
VERTEX
  5
B2BA4
  8
0
 10
21226.68639094054
 20
2158.036426392835
 30
0.0
  0
SEQEND
  5
B3473
  8
0
  0
POLYLINE
  5
AAE6C
  8
0
 66
     1
 10
0.0
 20
0.0
 30
0.0
 70
     1
  0
VERTEX
  5
B2BA5
  8
0
 10
21841.68639094054
 20
2178.036426392835
 30
0.0
  0
VERTEX
  5
B2BA6
  8
0
 10
21841.68639094054
 20
2158.036426392835
 30
0.0
  0
VERTEX
  5
B2BA7
  8
0
 10
21226.68639094054
 20
2158.036426392835
 30
0.0
  0
VERTEX
  5
B2BA8
  8
0
 10
21226.68639094054
 20
2178.036426392835
 30
0.0
  0
SEQEND
  5
B3474
  8
0
  0
POLYLINE
  5
AAE6D
  8
0
 66
     1
 10
0.0
 20
0.0
 30
0.0
 70
     1
  0
VERTEX
  5
B2BA9
  8
0
 10
21220.18639094054
 20
2198.536426392791
 30
0.0
  0
VERTEX
  5
B2BAA
  8
0
 10
21220.18639094054
 20
2171.636426392994
 30
0.0
  0
VERTEX
  5
B2BAB
  8
0
 10
21221.18639094054
 20
2170.636426392871
 30
0.0
  0
VERTEX
  5
B2BAC
  8
0
 10
21225.18639094054
 20
2170.636426392871
 30
0.0
  0
VERTEX
  5
B2BAD
  8
0
 10
21226.18639094054
 20
2171.636426392994
 30
0.0
  0
VERTEX
  5
B2BAE
  8
0
 10
21226.18639094054
 20
2178.136426392871
 30
0.0
  0
VERTEX
  5
B2BAF
  8
0
 10
21253.16862578368
 20
2178.607403054005
 30
0.0
  0
VERTEX
  5
B2BB0
  8
0
 10
21254.18639094054
 20
2179.625168210938
 30
0.0
  0
VERTEX
  5
B2BB1
  8
0
 10
21254.18639094054
 20
2198.536426392791
 30
0.0
  0
SEQEND
  5
B3475
  8
0
  0
POLYLINE
  5
AAE6E
  8
0
 66
     1
 10
0.0
 20
0.0
 30
0.0
 70
     1
  0
VERTEX
  5
B2BB2
  8
0
 10
21848.1863909405
 20
2198.536426392791
 30
0.0
  0
VERTEX
  5
B2BB3
  8
0
 10
21848.1863909405
 20
2171.636426392994
 30
0.0
  0
VERTEX
  5
B2BB4
  8
0
 10
21847.18639094054
 20
2170.636426392871
 30
0.0
  0
VERTEX
  5
B2BB5
  8
0
 10
21843.1863909405
 20
2170.636426392871
 30
0.0
  0
VERTEX
  5
B2BB6
  8
0
 10
21842.18639094054
 20
2171.636426392994
 30
0.0
  0
VERTEX
  5
B2BB7
  8
0
 10
21842.18639094054
 20
2178.136426392871
 30
0.0
  0
VERTEX
  5
B2BB8
  8
0
 10
21815.2041560974
 20
2178.607403054005
 30
0.0
  0
VERTEX
  5
B2BB9
  8
0
 10
21814.18639094053
 20
2179.625168210938
 30
0.0
  0
VERTEX
  5
B2BBA
  8
0
 10
21814.18639094053
 20
2198.536426392791
 30
0.0
  0
SEQEND
  5
B3476
  8
0
  0
POLYLINE
  5
AAE6F
  8
0
 66
     1
 10
0.0
 20
0.0
 30
0.0
 70
     1
  0
VERTEX
  5
B2BBB
  8
0
 10
21165.18639094054
 20
4658.036416856034
 30
0.0
  0
VERTEX
  5
B2BBC
  8
0
 10
21165.18639094054
 20
4698.036426392834
 30
0.0
  0
VERTEX
  5
B2BBD
  8
0
 10
21902.18639094054
 20
4698.036426392834
 30
0.0
  0
VERTEX
  5
B2BBE
  8
0
 10
21902.18639094054
 20
4658.036416856034
 30
0.0
  0
SEQEND
  5
B3477
  8
0
  0
POLYLINE
  5
AAE70
  8
0
 66
     1
 10
0.0
 20
0.0
 30
0.0
 70
     1
  0
VERTEX
  5
B2BBF
  8
0
 10
21166.18639094054
 20
2175.036426392791
 30
0.0
  0
VERTEX
  5
B2BC0
  8
0
 10
21129.58639094035
 20
2175.036426392791
 30
0.0
  0
VERTEX
  5
B2BC1
  8
0
 10
21129.58639094035
 20
4698.036426392834
 30
0.0
  0
VERTEX
  5
B2BC2
  8
0
 10
21165.18639094054
 20
4698.036426392834
 30
0.0
  0
VERTEX
  5
B2BC3
  8
0
 10
21165.18639094054
 20
4658.036416856034
 30
0.0
  0
VERTEX
  5
B2BC4
  8
0
 10
21166.18639094054
 20
4658.036416856034
 30
0.0
  0
SEQEND
  5
B3478
  8
0
  0
POLYLINE
  5
AAE71
  8
0
 66
     1
 10
0.0
 20
0.0
 30
0.0
 70
     1
  0
VERTEX
  5
B2BC5
  8
0
 10
21937.18639094054
 20
2180.036426392792
 30
0.0
  0
VERTEX
  5
B2BC6
  8
0
 10
21937.18639094054
 20
4698.036426392834
 30
0.0
  0
VERTEX
  5
B2BC7
  8
0
 10
21902.18639094054
 20
4698.036426392834
 30
0.0
  0
VERTEX
  5
B2BC8
  8
0
 10
21902.18639094054
 20
2180.036426392792
 30
0.0
  0
SEQEND
  5
B3479
  8
0
  0
POLYLINE
  5
AAE72
  8
0
 66
     1
 10
0.0
 20
0.0
 30
0.0
 70
     1
  0
VERTEX
  5
B2BC9
  8
0
 10
21937.1863909406
 20
5913.171916406252
 30
0.0
  0
VERTEX
  5
B2BCA
  8
0
 10
21937.1863909406
 20
8431.171916406303
 30
0.0
  0
VERTEX
  5
B2BCB
  8
0
 10
21902.1863909406
 20
8431.171916406303
 30
0.0
  0
VERTEX
  5
B2BCC
  8
0
 10
21902.1863909406
 20
5913.171916406252
 30
0.0
  0
SEQEND
  5
B347A
  8
0
  0
POLYLINE
  5
AAE73
  8
0
 66
     1
 10
0.0
 20
0.0
 30
0.0
 70
     1
  0
VERTEX
  5
B2BCD
  8
0
 10
21166.1863909406
 20
5908.171916406253
 30
0.0
  0
VERTEX
  5
B2BCE
  8
0
 10
21129.58639094039
 20
5908.171916406253
 30
0.0
  0
VERTEX
  5
B2BCF
  8
0
 10
21129.58639094039
 20
8431.171916406303
 30
0.0
  0
VERTEX
  5
B2BD0
  8
0
 10
21165.1863909406
 20
8431.171916406303
 30
0.0
  0
VERTEX
  5
B2BD1
  8
0
 10
21165.1863909406
 20
8391.171906869498
 30
0.0
  0
VERTEX
  5
B2BD2
  8
0
 10
21166.1863909406
 20
8391.171906869498
 30
0.0
  0
SEQEND
  5
B347B
  8
0
  0
POLYLINE
  5
AAE74
  8
0
 66
     1
 10
0.0
 20
0.0
 30
0.0
 70
     1
  0
VERTEX
  5
B2BD3
  8
0
 10
21902.1863909406
 20
5931.67191640625
 30
0.0
  0
VERTEX
  5
B2BD4
  8
0
 10
21902.1863909406
 20
5991.17191640625
 30
0.0
  0
VERTEX
  5
B2BD5
  8
0
 10
21166.1863909406
 20
5991.17191640625
 30
0.0
  0
VERTEX
  5
B2BD6
  8
0
 10
21166.1863909406
 20
5931.67191640625
 30
0.0
  0
SEQEND
  5
B347C
  8
0
  0
POLYLINE
  5
AAE75
  8
0
 66
     1
 10
0.0
 20
0.0
 30
0.0
 70
     1
  0
VERTEX
  5
B2BD7
  8
0
 10
21166.1863909406
 20
5991.17191640625
 30
0.0
  0
VERTEX
  5
B2BD8
  8
0
 10
21166.1863909406
 20
6021.171916406252
 30
0.0
  0
VERTEX
  5
B2BD9
  8
0
 10
21902.1863909406
 20
6021.171916406252
 30
0.0
  0
VERTEX
  5
B2BDA
  8
0
 10
21902.1863909406
 20
5991.17191640625
 30
0.0
  0
SEQEND
  5
B347D
  8
0
  0
POLYLINE
  5
AAE76
  8
0
 66
     1
 10
0.0
 20
0.0
 30
0.0
 70
     1
  0
VERTEX
  5
B2BDB
  8
0
 10
21165.1863909406
 20
8391.171906869498
 30
0.0
  0
VERTEX
  5
B2BDC
  8
0
 10
21165.1863909406
 20
8431.171916406303
 30
0.0
  0
VERTEX
  5
B2BDD
  8
0
 10
21902.1863909406
 20
8431.171916406303
 30
0.0
  0
VERTEX
  5
B2BDE
  8
0
 10
21902.1863909406
 20
8391.171906869498
 30
0.0
  0
SEQEND
  5
B347E
  8
0
  0
POLYLINE
  5
AAE77
  8
0
 66
     1
 10
0.0
 20
0.0
 30
0.0
 70
     1
  0
VERTEX
  5
B2BDF
  8
0
 10
21848.18639094054
 20
5931.67191640625
 30
0.0
  0
VERTEX
  5
B2BE0
  8
0
 10
21848.18639094054
 20
5904.771916406456
 30
0.0
  0
VERTEX
  5
B2BE1
  8
0
 10
21847.1863909406
 20
5903.771916406328
 30
0.0
  0
VERTEX
  5
B2BE2
  8
0
 10
21843.18639094054
 20
5903.771916406328
 30
0.0
  0
VERTEX
  5
B2BE3
  8
0
 10
21842.1863909406
 20
5904.771916406456
 30
0.0
  0
VERTEX
  5
B2BE4
  8
0
 10
21842.1863909406
 20
5911.271916406331
 30
0.0
  0
VERTEX
  5
B2BE5
  8
0
 10
21815.20415609748
 20
5911.742893067463
 30
0.0
  0
VERTEX
  5
B2BE6
  8
0
 10
21814.1863909406
 20
5912.760658224396
 30
0.0
  0
VERTEX
  5
B2BE7
  8
0
 10
21814.1863909406
 20
5931.67191640625
 30
0.0
  0
SEQEND
  5
B347F
  8
0
  0
POLYLINE
  5
AAE78
  8
0
 66
     1
 10
0.0
 20
0.0
 30
0.0
 70
     1
  0
VERTEX
  5
B2BE8
  8
0
 10
21220.1863909406
 20
5931.67191640625
 30
0.0
  0
VERTEX
  5
B2BE9
  8
0
 10
21220.1863909406
 20
5904.771916406456
 30
0.0
  0
VERTEX
  5
B2BEA
  8
0
 10
21221.1863909406
 20
5903.771916406328
 30
0.0
  0
VERTEX
  5
B2BEB
  8
0
 10
21225.1863909406
 20
5903.771916406328
 30
0.0
  0
VERTEX
  5
B2BEC
  8
0
 10
21226.1863909406
 20
5904.771916406456
 30
0.0
  0
VERTEX
  5
B2BED
  8
0
 10
21226.1863909406
 20
5911.271916406331
 30
0.0
  0
VERTEX
  5
B2BEE
  8
0
 10
21253.16862578373
 20
5911.742893067463
 30
0.0
  0
VERTEX
  5
B2BEF
  8
0
 10
21254.1863909406
 20
5912.760658224396
 30
0.0
  0
VERTEX
  5
B2BF0
  8
0
 10
21254.1863909406
 20
5931.67191640625
 30
0.0
  0
SEQEND
  5
B3480
  8
0
  0
POLYLINE
  5
AAE79
  8
0
 66
     1
 10
0.0
 20
0.0
 30
0.0
 70
     1
  0
VERTEX
  5
B2BF1
  8
0
 10
21841.6863909406
 20
5911.171916406296
 30
0.0
  0
VERTEX
  5
B2BF2
  8
0
 10
21841.6863909406
 20
5891.171916406296
 30
0.0
  0
VERTEX
  5
B2BF3
  8
0
 10
21226.6863909406
 20
5891.171916406296
 30
0.0
  0
VERTEX
  5
B2BF4
  8
0
 10
21226.6863909406
 20
5911.171916406296
 30
0.0
  0
SEQEND
  5
B3481
  8
0
  0
POLYLINE
  5
AAE7A
  8
0
 66
     1
 10
0.0
 20
0.0
 30
0.0
 70
     1
  0
VERTEX
  5
B2BF5
  8
0
 10
21246.6863909406
 20
5891.171916406296
 30
0.0
  0
VERTEX
  5
B2BF6
  8
0
 10
21246.6863909406
 20
5911.171916406296
 30
0.0
  0
VERTEX
  5
B2BF7
  8
0
 10
21226.6863909406
 20
5911.171916406296
 30
0.0
  0
VERTEX
  5
B2BF8
  8
0
 10
21226.6863909406
 20
5891.171916406296
 30
0.0
  0
SEQEND
  5
B3482
  8
0
  0
POLYLINE
  5
AAE7B
  8
0
 66
     1
 10
0.0
 20
0.0
 30
0.0
 70
     1
  0
VERTEX
  5
B2BF9
  8
0
 10
21821.6863909406
 20
5891.171916406296
 30
0.0
  0
VERTEX
  5
B2BFA
  8
0
 10
21821.6863909406
 20
5911.171916406296
 30
0.0
  0
VERTEX
  5
B2BFB
  8
0
 10
21841.6863909406
 20
5911.171916406296
 30
0.0
  0
VERTEX
  5
B2BFC
  8
0
 10
21841.6863909406
 20
5891.171916406296
 30
0.0
  0
SEQEND
  5
B3483
  8
0
  0
POLYLINE
  5
AAE7C
  8
0
 66
     1
 10
0.0
 20
0.0
 30
0.0
 70
     1
  0
VERTEX
  5
B2BFD
  8
0
 10
21901.6863909406
 20
6391.171906869502
 30
0.0
  0
VERTEX
  5
B2BFE
  8
0
 10
21901.6863909406
 20
6421.171906869506
 30
0.0
  0
VERTEX
  5
B2BFF
  8
0
 10
21165.6863909406
 20
6421.171906869506
 30
0.0
  0
VERTEX
  5
B2C00
  8
0
 10
21165.6863909406
 20
6391.171906869502
 30
0.0
  0
SEQEND
  5
B3484
  8
0
  0
POLYLINE
  5
AAE7D
  8
0
 66
     1
 10
0.0
 20
0.0
 30
0.0
 70
     1
  0
VERTEX
  5
B2C01
  8
0
 10
21901.6863909406
 20
6641.171906869506
 30
0.0
  0
VERTEX
  5
B2C02
  8
0
 10
21901.6863909406
 20
6671.171906869506
 30
0.0
  0
VERTEX
  5
B2C03
  8
0
 10
21165.6863909406
 20
6671.171906869506
 30
0.0
  0
VERTEX
  5
B2C04
  8
0
 10
21165.6863909406
 20
6641.171906869506
 30
0.0
  0
SEQEND
  5
B3485
  8
0
  0
POLYLINE
  5
AAE7E
  8
0
 66
     1
 10
0.0
 20
0.0
 30
0.0
 70
     1
  0
VERTEX
  5
B2C05
  8
0
 10
21901.6863909406
 20
6891.171906869506
 30
0.0
  0
VERTEX
  5
B2C06
  8
0
 10
21901.6863909406
 20
6921.171906869506
 30
0.0
  0
VERTEX
  5
B2C07
  8
0
 10
21165.6863909406
 20
6921.171906869506
 30
0.0
  0
VERTEX
  5
B2C08
  8
0
 10
21165.6863909406
 20
6891.171906869506
 30
0.0
  0
SEQEND
  5
B3486
  8
0
  0
POLYLINE
  5
AAE7F
  8
0
 66
     1
 10
0.0
 20
0.0
 30
0.0
 70
     1
  0
VERTEX
  5
B2C09
  8
0
 10
21901.6863909406
 20
7141.171906869506
 30
0.0
  0
VERTEX
  5
B2C0A
  8
0
 10
21901.6863909406
 20
7171.171906869499
 30
0.0
  0
VERTEX
  5
B2C0B
  8
0
 10
21165.6863909406
 20
7171.171906869499
 30
0.0
  0
VERTEX
  5
B2C0C
  8
0
 10
21165.6863909406
 20
7141.171906869506
 30
0.0
  0
SEQEND
  5
B3487
  8
0
  0
POLYLINE
  5
AAE80
  8
0
 66
     1
 10
0.0
 20
0.0
 30
0.0
 70
     1
  0
VERTEX
  5
B2C0D
  8
0
 10
21901.6863909406
 20
7391.171906869506
 30
0.0
  0
VERTEX
  5
B2C0E
  8
0
 10
21901.6863909406
 20
7421.171906869499
 30
0.0
  0
VERTEX
  5
B2C0F
  8
0
 10
21165.6863909406
 20
7421.171906869499
 30
0.0
  0
VERTEX
  5
B2C10
  8
0
 10
21165.6863909406
 20
7391.171906869506
 30
0.0
  0
SEQEND
  5
B3488
  8
0
  0
POLYLINE
  5
AAE81
  8
0
 66
     1
 10
0.0
 20
0.0
 30
0.0
 70
     1
  0
VERTEX
  5
B2C11
  8
0
 10
21901.6863909406
 20
7641.171906869506
 30
0.0
  0
VERTEX
  5
B2C12
  8
0
 10
21901.6863909406
 20
7671.171906869499
 30
0.0
  0
VERTEX
  5
B2C13
  8
0
 10
21165.6863909406
 20
7671.171906869499
 30
0.0
  0
VERTEX
  5
B2C14
  8
0
 10
21165.6863909406
 20
7641.171906869506
 30
0.0
  0
SEQEND
  5
B3489
  8
0
  0
POLYLINE
  5
AAE82
  8
0
 66
     1
 10
0.0
 20
0.0
 30
0.0
 70
     1
  0
VERTEX
  5
B2C15
  8
0
 10
21901.6863909406
 20
7891.171906869506
 30
0.0
  0
VERTEX
  5
B2C16
  8
0
 10
21901.6863909406
 20
7921.171906869499
 30
0.0
  0
VERTEX
  5
B2C17
  8
0
 10
21165.6863909406
 20
7921.171906869499
 30
0.0
  0
VERTEX
  5
B2C18
  8
0
 10
21165.6863909406
 20
7891.171906869506
 30
0.0
  0
SEQEND
  5
B348A
  8
0
  0
POLYLINE
  5
AAE83
  8
0
 66
     1
 10
0.0
 20
0.0
 30
0.0
 70
     1
  0
VERTEX
  5
B2C19
  8
0
 10
21099.58639094059
 20
8431.171916406303
 30
0.0
  0
VERTEX
  5
B2C1A
  8
0
 10
21099.58639094059
 20
5908.171916406253
 30
0.0
  0
VERTEX
  5
B2C1B
  8
0
 10
21069.58639094059
 20
5908.171916406253
 30
0.0
  0
VERTEX
  5
B2C1C
  8
0
 10
21069.58639094059
 20
8431.171916406303
 30
0.0
  0
SEQEND
  5
B348B
  8
0
  0
POLYLINE
  5
AAE84
  8
0
 66
     1
 10
0.0
 20
0.0
 30
0.0
 70
     1
  0
VERTEX
  5
B2C1D
  8
0
 10
21099.58639094052
 20
4698.036426392834
 30
0.0
  0
VERTEX
  5
B2C1E
  8
0
 10
21099.58639094052
 20
2175.036426392791
 30
0.0
  0
VERTEX
  5
B2C1F
  8
0
 10
21069.58639094052
 20
2175.036426392791
 30
0.0
  0
VERTEX
  5
B2C20
  8
0
 10
21069.58639094052
 20
4698.036426392834
 30
0.0
  0
SEQEND
  5
B348C
  8
0
  0
POLYLINE
  5
AAE9E
  8
0
 66
     1
 10
0.0
 20
0.0
 30
0.0
 70
     1
  0
VERTEX
  5
B2C21
  8
0
 10
25307.7080107226
 20
2175.036426392791
 30
0.0
  0
VERTEX
  5
B2C22
  8
0
 10
25907.70801072259
 20
2175.036426392791
 30
0.0
  0
VERTEX
  5
B2C23
  8
0
 10
25907.70801072259
 20
4698.036426392834
 30
0.0
  0
VERTEX
  5
B2C24
  8
0
 10
25307.7080107226
 20
4698.036426392834
 30
0.0
  0
SEQEND
  5
B348D
  8
0
  0
POLYLINE
  5
AAE9F
  8
0
 66
     1
 10
0.0
 20
0.0
 30
0.0
 70
     1
  0
VERTEX
  5
B2C25
  8
0
 10
25307.7080107226
 20
5908.171916406253
 30
0.0
  0
VERTEX
  5
B2C26
  8
0
 10
25907.70801072259
 20
5908.171916406253
 30
0.0
  0
VERTEX
  5
B2C27
  8
0
 10
25907.70801072259
 20
8431.171916406303
 30
0.0
  0
VERTEX
  5
B2C28
  8
0
 10
25307.7080107226
 20
8431.171916406303
 30
0.0
  0
SEQEND
  5
B348E
  8
0
  0
POLYLINE
  5
AAEA0
  8
0
 66
     1
 10
0.0
 20
0.0
 30
0.0
  0
VERTEX
  5
B2C29
  8
0
 10
25109.50129716488
 20
5891.171916406296
 30
0.0
  0
VERTEX
  5
B2C2A
  8
0
 10
26105.91472428031
 20
5891.171916406296
 30
0.0
  0
SEQEND
  5
B348F
  8
0
  0
POLYLINE
  5
AAEA3
  8
0
 66
     1
 10
0.0
 20
0.0
 30
0.0
  0
VERTEX
  5
B2C2B
  8
0
 10
25109.50129716488
 20
2158.036426392835
 30
0.0
  0
VERTEX
  5
B2C2C
  8
0
 10
26105.91472428031
 20
2158.036426392835
 30
0.0
  0
SEQEND
  5
B3490
  8
0
  0
POLYLINE
  5
AAEA9
  8
0
 66
     1
 10
0.0
 20
0.0
 30
0.0
 70
     1
  0
VERTEX
  5
B2C2D
  8
0
 10
21901.6863909406
 20
8141.171906869507
 30
0.0
  0
VERTEX
  5
B2C2E
  8
0
 10
21901.6863909406
 20
8171.171906869499
 30
0.0
  0
VERTEX
  5
B2C2F
  8
0
 10
21165.6863909406
 20
8171.171906869499
 30
0.0
  0
VERTEX
  5
B2C30
  8
0
 10
21165.6863909406
 20
8141.171906869507
 30
0.0
  0
SEQEND
  5
B3491
  8
0
  0
POLYLINE
  5
AAEAB
  8
0
 66
     1
 10
0.0
 20
0.0
 30
0.0
 70
     1
  0
VERTEX
  5
B2C31
  8
0
 10
17266.1298653905
 20
7991.171916406237
 30
0.0
  0
VERTEX
  5
B2C32
  8
0
 10
17266.1298653905
 20
8021.171916406238
 30
0.0
  0
VERTEX
  5
B2C33
  8
0
 10
16530.1298653905
 20
8021.171916406238
 30
0.0
  0
VERTEX
  5
B2C34
  8
0
 10
16530.1298653905
 20
7991.171916406237
 30
0.0
  0
SEQEND
  5
B3492
  8
0
  0
POLYLINE
  5
AAEAD
  8
0
 66
     1
 10
0.0
 20
0.0
 30
0.0
 70
     1
  0
VERTEX
  5
B2C35
  8
0
 10
17266.12986539054
 20
4288.036426392761
 30
0.0
  0
VERTEX
  5
B2C36
  8
0
 10
17266.12986539054
 20
4258.036426392761
 30
0.0
  0
VERTEX
  5
B2C37
  8
0
 10
16530.12986539054
 20
4258.036426392761
 30
0.0
  0
VERTEX
  5
B2C38
  8
0
 10
16530.12986539054
 20
4288.036426392761
 30
0.0
  0
SEQEND
  5
B3493
  8
0
  0
POLYLINE
  5
AAEB3
  8
0
 66
     1
 10
0.0
 20
0.0
 30
0.0
 70
     1
  0
VERTEX
  5
B2C39
  8
0
 10
17466.12986539054
 20
12315.38139913674
 30
0.0
  0
VERTEX
  5
B2C3A
  8
0
 10
17466.12986539054
 20
12285.38139913674
 30
0.0
  0
VERTEX
  5
B2C3B
  8
0
 10
16530.12986539054
 20
12285.38139913674
 30
0.0
  0
VERTEX
  5
B2C3C
  8
0
 10
16530.12986539054
 20
12315.38139913674
 30
0.0
  0
SEQEND
  5
B3494
  8
0
  0
POLYLINE
  5
AAEB4
  8
0
 66
     1
 10
0.0
 20
0.0
 30
0.0
 70
     1
  0
VERTEX
  5
B2C3D
  8
0
 10
17466.1298653905
 20
16018.51688915022
 30
0.0
  0
VERTEX
  5
B2C3E
  8
0
 10
17466.1298653905
 20
16048.51688915022
 30
0.0
  0
VERTEX
  5
B2C3F
  8
0
 10
16530.1298653905
 20
16048.51688915022
 30
0.0
  0
VERTEX
  5
B2C40
  8
0
 10
16530.1298653905
 20
16018.51688915022
 30
0.0
  0
SEQEND
  5
B3495
  8
0
  0
POLYLINE
  5
AAEB5
  8
0
 66
     1
 10
0.0
 20
0.0
 30
0.0
 70
     1
  0
VERTEX
  5
B2C41
  8
0
 10
22102.1863909406
 20
16168.51687961349
 30
0.0
  0
VERTEX
  5
B2C42
  8
0
 10
22102.1863909406
 20
16198.51687961348
 30
0.0
  0
VERTEX
  5
B2C43
  8
0
 10
21166.1863909406
 20
16198.51687961348
 30
0.0
  0
VERTEX
  5
B2C44
  8
0
 10
21166.1863909406
 20
16168.51687961349
 30
0.0
  0
SEQEND
  5
B3496
  8
0
  0
POLYLINE
  5
AAEB6
  8
0
 66
     1
 10
0.0
 20
0.0
 30
0.0
  0
VERTEX
  5
B2C45
  8
0
 10
25109.50129716488
 20
10185.38139913681
 30
0.0
  0
VERTEX
  5
B2C46
  8
0
 10
26105.91472428031
 20
10185.38139913681
 30
0.0
  0
SEQEND
  5
B3497
  8
0
  0
POLYLINE
  5
AAEB9
  8
0
 66
     1
 10
0.0
 20
0.0
 30
0.0
  0
VERTEX
  5
B2C47
  8
0
 10
25109.50129716488
 20
13918.51688915027
 30
0.0
  0
VERTEX
  5
B2C48
  8
0
 10
26105.91472428031
 20
13918.51688915027
 30
0.0
  0
SEQEND
  5
B3498
  8
0
  0
POLYLINE
  5
AAEBA
  8
0
 66
     1
 10
0.0
 20
0.0
 30
0.0
 70
     1
  0
VERTEX
  5
B2C49
  8
0
 10
25307.7080107226
 20
13935.51688915023
 30
0.0
  0
VERTEX
  5
B2C4A
  8
0
 10
25907.70801072259
 20
13935.51688915023
 30
0.0
  0
VERTEX
  5
B2C4B
  8
0
 10
25907.70801072259
 20
16458.51688915028
 30
0.0
  0
VERTEX
  5
B2C4C
  8
0
 10
25307.7080107226
 20
16458.51688915028
 30
0.0
  0
SEQEND
  5
B3499
  8
0
  0
POLYLINE
  5
AAEBB
  8
0
 66
     1
 10
0.0
 20
0.0
 30
0.0
 70
     1
  0
VERTEX
  5
B2C4D
  8
0
 10
25307.7080107226
 20
10202.38139913677
 30
0.0
  0
VERTEX
  5
B2C4E
  8
0
 10
25907.70801072259
 20
10202.38139913677
 30
0.0
  0
VERTEX
  5
B2C4F
  8
0
 10
25907.70801072259
 20
12725.38139913681
 30
0.0
  0
VERTEX
  5
B2C50
  8
0
 10
25307.7080107226
 20
12725.38139913681
 30
0.0
  0
SEQEND
  5
B349A
  8
0
  0
POLYLINE
  5
AAEBD
  8
0
 66
     1
 10
0.0
 20
0.0
 30
0.0
 70
     1
  0
VERTEX
  5
B2C51
  8
0
 10
21099.58639094052
 20
12725.38139913681
 30
0.0
  0
VERTEX
  5
B2C52
  8
0
 10
21099.58639094052
 20
10202.38139913677
 30
0.0
  0
VERTEX
  5
B2C53
  8
0
 10
21069.58639094052
 20
10202.38139913677
 30
0.0
  0
VERTEX
  5
B2C54
  8
0
 10
21069.58639094052
 20
12725.38139913681
 30
0.0
  0
SEQEND
  5
B349B
  8
0
  0
POLYLINE
  5
AAEBE
  8
0
 66
     1
 10
0.0
 20
0.0
 30
0.0
 70
     1
  0
VERTEX
  5
B2C55
  8
0
 10
21099.58639094059
 20
16458.51688915028
 30
0.0
  0
VERTEX
  5
B2C56
  8
0
 10
21099.58639094059
 20
13935.51688915023
 30
0.0
  0
VERTEX
  5
B2C57
  8
0
 10
21069.58639094059
 20
13935.51688915023
 30
0.0
  0
VERTEX
  5
B2C58
  8
0
 10
21069.58639094059
 20
16458.51688915028
 30
0.0
  0
SEQEND
  5
B349C
  8
0
  0
POLYLINE
  5
AAEBF
  8
0
 66
     1
 10
0.0
 20
0.0
 30
0.0
 70
     1
  0
VERTEX
  5
B2C59
  8
0
 10
22102.1863909406
 20
15918.51687961349
 30
0.0
  0
VERTEX
  5
B2C5A
  8
0
 10
22102.1863909406
 20
15948.51687961348
 30
0.0
  0
VERTEX
  5
B2C5B
  8
0
 10
21166.1863909406
 20
15948.51687961348
 30
0.0
  0
VERTEX
  5
B2C5C
  8
0
 10
21166.1863909406
 20
15918.51687961349
 30
0.0
  0
SEQEND
  5
B349D
  8
0
  0
POLYLINE
  5
AAEC0
  8
0
 66
     1
 10
0.0
 20
0.0
 30
0.0
 70
     1
  0
VERTEX
  5
B2C5D
  8
0
 10
22102.1863909406
 20
15668.51687961349
 30
0.0
  0
VERTEX
  5
B2C5E
  8
0
 10
22102.1863909406
 20
15698.51687961348
 30
0.0
  0
VERTEX
  5
B2C5F
  8
0
 10
21166.1863909406
 20
15698.51687961348
 30
0.0
  0
VERTEX
  5
B2C60
  8
0
 10
21166.1863909406
 20
15668.51687961349
 30
0.0
  0
SEQEND
  5
B349E
  8
0
  0
POLYLINE
  5
AAEC1
  8
0
 66
     1
 10
0.0
 20
0.0
 30
0.0
 70
     1
  0
VERTEX
  5
B2C61
  8
0
 10
22102.1863909406
 20
15418.51687961349
 30
0.0
  0
VERTEX
  5
B2C62
  8
0
 10
22102.1863909406
 20
15448.51687961348
 30
0.0
  0
VERTEX
  5
B2C63
  8
0
 10
21166.1863909406
 20
15448.51687961348
 30
0.0
  0
VERTEX
  5
B2C64
  8
0
 10
21166.1863909406
 20
15418.51687961349
 30
0.0
  0
SEQEND
  5
B349F
  8
0
  0
POLYLINE
  5
AAEC2
  8
0
 66
     1
 10
0.0
 20
0.0
 30
0.0
 70
     1
  0
VERTEX
  5
B2C65
  8
0
 10
22102.1863909406
 20
15168.51687961349
 30
0.0
  0
VERTEX
  5
B2C66
  8
0
 10
22102.1863909406
 20
15198.51687961348
 30
0.0
  0
VERTEX
  5
B2C67
  8
0
 10
21166.1863909406
 20
15198.51687961348
 30
0.0
  0
VERTEX
  5
B2C68
  8
0
 10
21166.1863909406
 20
15168.51687961349
 30
0.0
  0
SEQEND
  5
B34A0
  8
0
  0
POLYLINE
  5
AAEC3
  8
0
 66
     1
 10
0.0
 20
0.0
 30
0.0
 70
     1
  0
VERTEX
  5
B2C69
  8
0
 10
22102.1863909406
 20
14918.51687961349
 30
0.0
  0
VERTEX
  5
B2C6A
  8
0
 10
22102.1863909406
 20
14948.51687961349
 30
0.0
  0
VERTEX
  5
B2C6B
  8
0
 10
21166.1863909406
 20
14948.51687961349
 30
0.0
  0
VERTEX
  5
B2C6C
  8
0
 10
21166.1863909406
 20
14918.51687961349
 30
0.0
  0
SEQEND
  5
B34A1
  8
0
  0
POLYLINE
  5
AAEC4
  8
0
 66
     1
 10
0.0
 20
0.0
 30
0.0
 70
     1
  0
VERTEX
  5
B2C6D
  8
0
 10
22102.1863909406
 20
14668.51687961349
 30
0.0
  0
VERTEX
  5
B2C6E
  8
0
 10
22102.1863909406
 20
14698.51687961349
 30
0.0
  0
VERTEX
  5
B2C6F
  8
0
 10
21166.1863909406
 20
14698.51687961349
 30
0.0
  0
VERTEX
  5
B2C70
  8
0
 10
21166.1863909406
 20
14668.51687961349
 30
0.0
  0
SEQEND
  5
B34A2
  8
0
  0
POLYLINE
  5
AAEC5
  8
0
 66
     1
 10
0.0
 20
0.0
 30
0.0
 70
     1
  0
VERTEX
  5
B2C71
  8
0
 10
22102.1863909406
 20
14418.51687961349
 30
0.0
  0
VERTEX
  5
B2C72
  8
0
 10
22102.1863909406
 20
14448.51687961349
 30
0.0
  0
VERTEX
  5
B2C73
  8
0
 10
21166.1863909406
 20
14448.51687961349
 30
0.0
  0
VERTEX
  5
B2C74
  8
0
 10
21166.1863909406
 20
14418.51687961349
 30
0.0
  0
SEQEND
  5
B34A3
  8
0
  0
POLYLINE
  5
AAEC6
  8
0
 66
     1
 10
0.0
 20
0.0
 30
0.0
 70
     1
  0
VERTEX
  5
B2C75
  8
0
 10
22021.6863909406
 20
13918.51688915027
 30
0.0
  0
VERTEX
  5
B2C76
  8
0
 10
22021.6863909406
 20
13938.51688915027
 30
0.0
  0
VERTEX
  5
B2C77
  8
0
 10
22041.6863909406
 20
13938.51688915027
 30
0.0
  0
VERTEX
  5
B2C78
  8
0
 10
22041.6863909406
 20
13918.51688915027
 30
0.0
  0
SEQEND
  5
B34A4
  8
0
  0
POLYLINE
  5
AAEC7
  8
0
 66
     1
 10
0.0
 20
0.0
 30
0.0
 70
     1
  0
VERTEX
  5
B2C79
  8
0
 10
21246.6863909406
 20
13918.51688915027
 30
0.0
  0
VERTEX
  5
B2C7A
  8
0
 10
21246.6863909406
 20
13938.51688915027
 30
0.0
  0
VERTEX
  5
B2C7B
  8
0
 10
21226.6863909406
 20
13938.51688915027
 30
0.0
  0
VERTEX
  5
B2C7C
  8
0
 10
21226.6863909406
 20
13918.51688915027
 30
0.0
  0
SEQEND
  5
B34A5
  8
0
  0
POLYLINE
  5
AAEC8
  8
0
 66
     1
 10
0.0
 20
0.0
 30
0.0
 70
     1
  0
VERTEX
  5
B2C7D
  8
0
 10
22041.6863909406
 20
13938.51688915027
 30
0.0
  0
VERTEX
  5
B2C7E
  8
0
 10
22041.6863909406
 20
13918.51688915027
 30
0.0
  0
VERTEX
  5
B2C7F
  8
0
 10
21226.6863909406
 20
13918.51688915027
 30
0.0
  0
VERTEX
  5
B2C80
  8
0
 10
21226.6863909406
 20
13938.51688915027
 30
0.0
  0
SEQEND
  5
B34A6
  8
0
  0
POLYLINE
  5
AAEC9
  8
0
 66
     1
 10
0.0
 20
0.0
 30
0.0
 70
     1
  0
VERTEX
  5
B2C81
  8
0
 10
21220.1863909406
 20
13959.01688915023
 30
0.0
  0
VERTEX
  5
B2C82
  8
0
 10
21220.1863909406
 20
13932.11688915042
 30
0.0
  0
VERTEX
  5
B2C83
  8
0
 10
21221.1863909406
 20
13931.11688915031
 30
0.0
  0
VERTEX
  5
B2C84
  8
0
 10
21225.1863909406
 20
13931.11688915031
 30
0.0
  0
VERTEX
  5
B2C85
  8
0
 10
21226.1863909406
 20
13932.11688915042
 30
0.0
  0
VERTEX
  5
B2C86
  8
0
 10
21226.1863909406
 20
13938.61688915031
 30
0.0
  0
VERTEX
  5
B2C87
  8
0
 10
21253.16862578373
 20
13939.08786581144
 30
0.0
  0
VERTEX
  5
B2C88
  8
0
 10
21254.1863909406
 20
13940.10563096838
 30
0.0
  0
VERTEX
  5
B2C89
  8
0
 10
21254.1863909406
 20
13959.01688915023
 30
0.0
  0
SEQEND
  5
B34A7
  8
0
  0
POLYLINE
  5
AAECA
  8
0
 66
     1
 10
0.0
 20
0.0
 30
0.0
 70
     1
  0
VERTEX
  5
B2C8A
  8
0
 10
22048.18639094054
 20
13959.01688915023
 30
0.0
  0
VERTEX
  5
B2C8B
  8
0
 10
22048.18639094054
 20
13932.11688915042
 30
0.0
  0
VERTEX
  5
B2C8C
  8
0
 10
22047.1863909406
 20
13931.11688915031
 30
0.0
  0
VERTEX
  5
B2C8D
  8
0
 10
22043.18639094054
 20
13931.11688915031
 30
0.0
  0
VERTEX
  5
B2C8E
  8
0
 10
22042.1863909406
 20
13932.11688915042
 30
0.0
  0
VERTEX
  5
B2C8F
  8
0
 10
22042.1863909406
 20
13938.61688915031
 30
0.0
  0
VERTEX
  5
B2C90
  8
0
 10
22015.20415609748
 20
13939.08786581144
 30
0.0
  0
VERTEX
  5
B2C91
  8
0
 10
22014.1863909406
 20
13940.10563096838
 30
0.0
  0
VERTEX
  5
B2C92
  8
0
 10
22014.1863909406
 20
13959.01688915023
 30
0.0
  0
SEQEND
  5
B34A8
  8
0
  0
POLYLINE
  5
AAECB
  8
0
 66
     1
 10
0.0
 20
0.0
 30
0.0
 70
     1
  0
VERTEX
  5
B2C93
  8
0
 10
21165.1863909406
 20
16418.51687961348
 30
0.0
  0
VERTEX
  5
B2C94
  8
0
 10
21165.1863909406
 20
16458.51688915028
 30
0.0
  0
VERTEX
  5
B2C95
  8
0
 10
22102.1863909406
 20
16458.51688915028
 30
0.0
  0
VERTEX
  5
B2C96
  8
0
 10
22102.1863909406
 20
16418.51687961348
 30
0.0
  0
SEQEND
  5
B34A9
  8
0
  0
POLYLINE
  5
AAECC
  8
0
 66
     1
 10
0.0
 20
0.0
 30
0.0
 70
     1
  0
VERTEX
  5
B2C97
  8
0
 10
21166.1863909406
 20
14018.51688915023
 30
0.0
  0
VERTEX
  5
B2C98
  8
0
 10
21166.1863909406
 20
14048.51688915023
 30
0.0
  0
VERTEX
  5
B2C99
  8
0
 10
22102.1863909406
 20
14048.51688915023
 30
0.0
  0
VERTEX
  5
B2C9A
  8
0
 10
22102.1863909406
 20
14018.51688915023
 30
0.0
  0
SEQEND
  5
B34AA
  8
0
  0
POLYLINE
  5
AAECD
  8
0
 66
     1
 10
0.0
 20
0.0
 30
0.0
 70
     1
  0
VERTEX
  5
B2C9B
  8
0
 10
22102.1863909406
 20
13959.01688915023
 30
0.0
  0
VERTEX
  5
B2C9C
  8
0
 10
22102.1863909406
 20
14018.51688915023
 30
0.0
  0
VERTEX
  5
B2C9D
  8
0
 10
21166.1863909406
 20
14018.51688915023
 30
0.0
  0
VERTEX
  5
B2C9E
  8
0
 10
21166.1863909406
 20
13959.01688915023
 30
0.0
  0
SEQEND
  5
B34AB
  8
0
  0
POLYLINE
  5
AAECE
  8
0
 66
     1
 10
0.0
 20
0.0
 30
0.0
 70
     1
  0
VERTEX
  5
B2C9F
  8
0
 10
21166.1863909406
 20
13935.51688915023
 30
0.0
  0
VERTEX
  5
B2CA0
  8
0
 10
21129.58639094039
 20
13935.51688915023
 30
0.0
  0
VERTEX
  5
B2CA1
  8
0
 10
21129.58639094039
 20
16458.51688915028
 30
0.0
  0
VERTEX
  5
B2CA2
  8
0
 10
21165.1863909406
 20
16458.51688915028
 30
0.0
  0
VERTEX
  5
B2CA3
  8
0
 10
21165.1863909406
 20
16418.51687961348
 30
0.0
  0
VERTEX
  5
B2CA4
  8
0
 10
21166.1863909406
 20
16418.51687961348
 30
0.0
  0
SEQEND
  5
B34AC
  8
0
  0
POLYLINE
  5
AAECF
  8
0
 66
     1
 10
0.0
 20
0.0
 30
0.0
 70
     1
  0
VERTEX
  5
B2CA5
  8
0
 10
22137.1863909406
 20
13940.51688915023
 30
0.0
  0
VERTEX
  5
B2CA6
  8
0
 10
22137.1863909406
 20
16458.51688915028
 30
0.0
  0
VERTEX
  5
B2CA7
  8
0
 10
22102.1863909406
 20
16458.51688915028
 30
0.0
  0
VERTEX
  5
B2CA8
  8
0
 10
22102.1863909406
 20
13940.51688915023
 30
0.0
  0
SEQEND
  5
B34AD
  8
0
  0
POLYLINE
  5
AAED0
  8
0
 66
     1
 10
0.0
 20
0.0
 30
0.0
 70
     1
  0
VERTEX
  5
B2CA9
  8
0
 10
22137.18639094055
 20
10207.38139913677
 30
0.0
  0
VERTEX
  5
B2CAA
  8
0
 10
22137.18639094055
 20
12725.38139913681
 30
0.0
  0
VERTEX
  5
B2CAB
  8
0
 10
22102.18639094054
 20
12725.38139913681
 30
0.0
  0
VERTEX
  5
B2CAC
  8
0
 10
22102.18639094054
 20
10207.38139913677
 30
0.0
  0
SEQEND
  5
B34AE
  8
0
  0
POLYLINE
  5
AAED1
  8
0
 66
     1
 10
0.0
 20
0.0
 30
0.0
 70
     1
  0
VERTEX
  5
B2CAD
  8
0
 10
21166.18639094054
 20
10202.38139913677
 30
0.0
  0
VERTEX
  5
B2CAE
  8
0
 10
21129.58639094035
 20
10202.38139913677
 30
0.0
  0
VERTEX
  5
B2CAF
  8
0
 10
21129.58639094035
 20
12725.38139913681
 30
0.0
  0
VERTEX
  5
B2CB0
  8
0
 10
21165.18639094054
 20
12725.38139913681
 30
0.0
  0
VERTEX
  5
B2CB1
  8
0
 10
21165.18639094054
 20
12685.38138960001
 30
0.0
  0
VERTEX
  5
B2CB2
  8
0
 10
21166.18639094054
 20
12685.38138960001
 30
0.0
  0
SEQEND
  5
B34AF
  8
0
  0
POLYLINE
  5
AAED2
  8
0
 66
     1
 10
0.0
 20
0.0
 30
0.0
 70
     1
  0
VERTEX
  5
B2CB3
  8
0
 10
21165.18639094054
 20
12685.38138960001
 30
0.0
  0
VERTEX
  5
B2CB4
  8
0
 10
21165.18639094054
 20
12725.38139913681
 30
0.0
  0
VERTEX
  5
B2CB5
  8
0
 10
22102.18639094054
 20
12725.38139913681
 30
0.0
  0
VERTEX
  5
B2CB6
  8
0
 10
22102.18639094054
 20
12685.38138960001
 30
0.0
  0
SEQEND
  5
B34B0
  8
0
  0
POLYLINE
  5
AAED3
  8
0
 66
     1
 10
0.0
 20
0.0
 30
0.0
 70
     1
  0
VERTEX
  5
B2CB7
  8
0
 10
22048.1863909405
 20
10225.88139913677
 30
0.0
  0
VERTEX
  5
B2CB8
  8
0
 10
22048.1863909405
 20
10198.98139913697
 30
0.0
  0
VERTEX
  5
B2CB9
  8
0
 10
22047.18639094054
 20
10197.98139913685
 30
0.0
  0
VERTEX
  5
B2CBA
  8
0
 10
22043.1863909405
 20
10197.98139913685
 30
0.0
  0
VERTEX
  5
B2CBB
  8
0
 10
22042.18639094055
 20
10198.98139913697
 30
0.0
  0
VERTEX
  5
B2CBC
  8
0
 10
22042.18639094055
 20
10205.48139913685
 30
0.0
  0
VERTEX
  5
B2CBD
  8
0
 10
22015.2041560974
 20
10205.95237579798
 30
0.0
  0
VERTEX
  5
B2CBE
  8
0
 10
22014.18639094053
 20
10206.97014095492
 30
0.0
  0
VERTEX
  5
B2CBF
  8
0
 10
22014.18639094053
 20
10225.88139913677
 30
0.0
  0
SEQEND
  5
B34B1
  8
0
  0
POLYLINE
  5
AAED4
  8
0
 66
     1
 10
0.0
 20
0.0
 30
0.0
 70
     1
  0
VERTEX
  5
B2CC0
  8
0
 10
21220.18639094054
 20
10225.88139913677
 30
0.0
  0
VERTEX
  5
B2CC1
  8
0
 10
21220.18639094054
 20
10198.98139913697
 30
0.0
  0
VERTEX
  5
B2CC2
  8
0
 10
21221.18639094054
 20
10197.98139913685
 30
0.0
  0
VERTEX
  5
B2CC3
  8
0
 10
21225.18639094054
 20
10197.98139913685
 30
0.0
  0
VERTEX
  5
B2CC4
  8
0
 10
21226.18639094054
 20
10198.98139913697
 30
0.0
  0
VERTEX
  5
B2CC5
  8
0
 10
21226.18639094054
 20
10205.48139913685
 30
0.0
  0
VERTEX
  5
B2CC6
  8
0
 10
21253.16862578368
 20
10205.95237579798
 30
0.0
  0
VERTEX
  5
B2CC7
  8
0
 10
21254.18639094054
 20
10206.97014095492
 30
0.0
  0
VERTEX
  5
B2CC8
  8
0
 10
21254.18639094054
 20
10225.88139913677
 30
0.0
  0
SEQEND
  5
B34B2
  8
0
  0
POLYLINE
  5
AAED5
  8
0
 66
     1
 10
0.0
 20
0.0
 30
0.0
 70
     1
  0
VERTEX
  5
B2CC9
  8
0
 10
22041.68639094055
 20
10205.38139913681
 30
0.0
  0
VERTEX
  5
B2CCA
  8
0
 10
22041.68639094055
 20
10185.38139913681
 30
0.0
  0
VERTEX
  5
B2CCB
  8
0
 10
21226.68639094054
 20
10185.38139913681
 30
0.0
  0
VERTEX
  5
B2CCC
  8
0
 10
21226.68639094054
 20
10205.38139913681
 30
0.0
  0
SEQEND
  5
B34B3
  8
0
  0
POLYLINE
  5
AAED6
  8
0
 66
     1
 10
0.0
 20
0.0
 30
0.0
 70
     1
  0
VERTEX
  5
B2CCD
  8
0
 10
21246.68639094054
 20
10185.38139913681
 30
0.0
  0
VERTEX
  5
B2CCE
  8
0
 10
21246.68639094054
 20
10205.38139913681
 30
0.0
  0
VERTEX
  5
B2CCF
  8
0
 10
21226.68639094054
 20
10205.38139913681
 30
0.0
  0
VERTEX
  5
B2CD0
  8
0
 10
21226.68639094054
 20
10185.38139913681
 30
0.0
  0
SEQEND
  5
B34B4
  8
0
  0
POLYLINE
  5
AAED7
  8
0
 66
     1
 10
0.0
 20
0.0
 30
0.0
 70
     1
  0
VERTEX
  5
B2CD1
  8
0
 10
22021.68639094054
 20
10185.38139913681
 30
0.0
  0
VERTEX
  5
B2CD2
  8
0
 10
22021.68639094054
 20
10205.38139913681
 30
0.0
  0
VERTEX
  5
B2CD3
  8
0
 10
22041.68639094055
 20
10205.38139913681
 30
0.0
  0
VERTEX
  5
B2CD4
  8
0
 10
22041.68639094055
 20
10185.38139913681
 30
0.0
  0
SEQEND
  5
B34B5
  8
0
  0
POLYLINE
  5
AAEDA
  8
0
 66
     1
 10
0.0
 20
0.0
 30
0.0
 70
     1
  0
VERTEX
  5
B2CD5
  8
0
 10
22102.1863909405
 20
10225.88139913677
 30
0.0
  0
VERTEX
  5
B2CD6
  8
0
 10
22102.1863909405
 20
10285.38139913677
 30
0.0
  0
VERTEX
  5
B2CD7
  8
0
 10
21166.1863909405
 20
10285.38139913677
 30
0.0
  0
VERTEX
  5
B2CD8
  8
0
 10
21166.1863909405
 20
10225.88139913677
 30
0.0
  0
SEQEND
  5
B34B6
  8
0
  0
POLYLINE
  5
AAEE1
  8
0
 66
     1
 10
0.0
 20
0.0
 30
0.0
 70
     1
  0
VERTEX
  5
B2CD9
  8
0
 10
16463.52986539044
 20
12725.38139913681
 30
0.0
  0
VERTEX
  5
B2CDA
  8
0
 10
16463.52986539044
 20
10202.38139913677
 30
0.0
  0
VERTEX
  5
B2CDB
  8
0
 10
16433.52986539045
 20
10202.38139913677
 30
0.0
  0
VERTEX
  5
B2CDC
  8
0
 10
16433.52986539045
 20
12725.38139913681
 30
0.0
  0
SEQEND
  5
B34B7
  8
0
  0
POLYLINE
  5
AAEE2
  8
0
 66
     1
 10
0.0
 20
0.0
 30
0.0
 70
     1
  0
VERTEX
  5
B2CDD
  8
0
 10
16463.52986539044
 20
16458.51688915028
 30
0.0
  0
VERTEX
  5
B2CDE
  8
0
 10
16463.52986539044
 20
13935.51688915023
 30
0.0
  0
VERTEX
  5
B2CDF
  8
0
 10
16433.52986539045
 20
13935.51688915023
 30
0.0
  0
VERTEX
  5
B2CE0
  8
0
 10
16433.52986539045
 20
16458.51688915028
 30
0.0
  0
SEQEND
  5
B34B8
  8
0
  0
POLYLINE
  5
AAEE3
  8
0
 66
     1
 10
0.0
 20
0.0
 30
0.0
 70
     1
  0
VERTEX
  5
B2CE1
  8
0
 10
17501.12986539054
 20
10207.38139913677
 30
0.0
  0
VERTEX
  5
B2CE2
  8
0
 10
17501.12986539054
 20
12725.38139913681
 30
0.0
  0
VERTEX
  5
B2CE3
  8
0
 10
17466.12986539054
 20
12725.38139913681
 30
0.0
  0
VERTEX
  5
B2CE4
  8
0
 10
17466.12986539054
 20
10207.38139913677
 30
0.0
  0
SEQEND
  5
B34B9
  8
0
  0
POLYLINE
  5
AAEE4
  8
0
 66
     1
 10
0.0
 20
0.0
 30
0.0
 70
     1
  0
VERTEX
  5
B2CE5
  8
0
 10
16530.12986539054
 20
10202.38139913677
 30
0.0
  0
VERTEX
  5
B2CE6
  8
0
 10
16493.52986539044
 20
10202.38139913677
 30
0.0
  0
VERTEX
  5
B2CE7
  8
0
 10
16493.52986539044
 20
12725.38139913681
 30
0.0
  0
VERTEX
  5
B2CE8
  8
0
 10
16529.12986539054
 20
12725.38139913681
 30
0.0
  0
VERTEX
  5
B2CE9
  8
0
 10
16529.12986539054
 20
12685.38138960001
 30
0.0
  0
VERTEX
  5
B2CEA
  8
0
 10
16530.12986539054
 20
12685.38138960001
 30
0.0
  0
SEQEND
  5
B34BA
  8
0
  0
POLYLINE
  5
AAEE5
  8
0
 66
     1
 10
0.0
 20
0.0
 30
0.0
 70
     1
  0
VERTEX
  5
B2CEB
  8
0
 10
17466.12986539054
 20
10225.88139913677
 30
0.0
  0
VERTEX
  5
B2CEC
  8
0
 10
17466.12986539054
 20
10285.38139913677
 30
0.0
  0
VERTEX
  5
B2CED
  8
0
 10
16530.12986539054
 20
10285.38139913677
 30
0.0
  0
VERTEX
  5
B2CEE
  8
0
 10
16530.12986539054
 20
10225.88139913677
 30
0.0
  0
SEQEND
  5
B34BB
  8
0
  0
POLYLINE
  5
AAEE6
  8
0
 66
     1
 10
0.0
 20
0.0
 30
0.0
 70
     1
  0
VERTEX
  5
B2CEF
  8
0
 10
16530.12986539054
 20
10285.38139913677
 30
0.0
  0
VERTEX
  5
B2CF0
  8
0
 10
16530.12986539054
 20
10315.38139913677
 30
0.0
  0
VERTEX
  5
B2CF1
  8
0
 10
17466.12986539054
 20
10315.38139913677
 30
0.0
  0
VERTEX
  5
B2CF2
  8
0
 10
17466.12986539054
 20
10285.38139913677
 30
0.0
  0
SEQEND
  5
B34BC
  8
0
  0
POLYLINE
  5
AAEE7
  8
CLOTHES_RAIL
 66
     1
 10
0.0
 20
0.0
 30
0.0
 70
     1
  0
VERTEX
  5
B2CF3
  8
CLOTHES_RAIL
 10
17466.12986539054
 20
12212.88139913674
 30
0.0
  0
VERTEX
  5
B2CF4
  8
CLOTHES_RAIL
 10
17466.12986539054
 20
12237.88139913674
 30
0.0
  0
VERTEX
  5
B2CF5
  8
CLOTHES_RAIL
 10
16530.12986539054
 20
12237.88139913674
 30
0.0
  0
VERTEX
  5
B2CF6
  8
CLOTHES_RAIL
 10
16530.12986539054
 20
12212.88139913674
 30
0.0
  0
SEQEND
  5
B34BD
  8
CLOTHES_RAIL
  0
POLYLINE
  5
AAEE8
  8
0
 66
     1
 10
0.0
 20
0.0
 30
0.0
 70
     1
  0
VERTEX
  5
B2CF7
  8
0
 10
16529.12986539054
 20
12685.38138960001
 30
0.0
  0
VERTEX
  5
B2CF8
  8
0
 10
16529.12986539054
 20
12725.38139913681
 30
0.0
  0
VERTEX
  5
B2CF9
  8
0
 10
17466.12986539054
 20
12725.38139913681
 30
0.0
  0
VERTEX
  5
B2CFA
  8
0
 10
17466.12986539054
 20
12685.38138960001
 30
0.0
  0
SEQEND
  5
B34BE
  8
0
  0
POLYLINE
  5
AAEE9
  8
0
 66
     1
 10
0.0
 20
0.0
 30
0.0
 70
     1
  0
VERTEX
  5
B2CFB
  8
0
 10
17412.12986539054
 20
10225.88139913677
 30
0.0
  0
VERTEX
  5
B2CFC
  8
0
 10
17412.12986539054
 20
10198.98139913698
 30
0.0
  0
VERTEX
  5
B2CFD
  8
0
 10
17411.12986539054
 20
10197.98139913685
 30
0.0
  0
VERTEX
  5
B2CFE
  8
0
 10
17407.12986539054
 20
10197.98139913685
 30
0.0
  0
VERTEX
  5
B2CFF
  8
0
 10
17406.12986539054
 20
10198.98139913698
 30
0.0
  0
VERTEX
  5
B2D00
  8
0
 10
17406.12986539054
 20
10205.48139913685
 30
0.0
  0
VERTEX
  5
B2D01
  8
0
 10
17379.1476305474
 20
10205.95237579798
 30
0.0
  0
VERTEX
  5
B2D02
  8
0
 10
17378.12986539054
 20
10206.97014095492
 30
0.0
  0
VERTEX
  5
B2D03
  8
0
 10
17378.12986539054
 20
10225.88139913677
 30
0.0
  0
SEQEND
  5
B34BF
  8
0
  0
POLYLINE
  5
AAEEA
  8
0
 66
     1
 10
0.0
 20
0.0
 30
0.0
 70
     1
  0
VERTEX
  5
B2D04
  8
0
 10
16584.1298653906
 20
10225.88139913677
 30
0.0
  0
VERTEX
  5
B2D05
  8
0
 10
16584.1298653906
 20
10198.98139913698
 30
0.0
  0
VERTEX
  5
B2D06
  8
0
 10
16585.12986539054
 20
10197.98139913685
 30
0.0
  0
VERTEX
  5
B2D07
  8
0
 10
16589.12986539059
 20
10197.98139913685
 30
0.0
  0
VERTEX
  5
B2D08
  8
0
 10
16590.12986539054
 20
10198.98139913698
 30
0.0
  0
VERTEX
  5
B2D09
  8
0
 10
16590.12986539054
 20
10205.48139913685
 30
0.0
  0
VERTEX
  5
B2D0A
  8
0
 10
16617.11210023366
 20
10205.95237579798
 30
0.0
  0
VERTEX
  5
B2D0B
  8
0
 10
16618.12986539054
 20
10206.97014095492
 30
0.0
  0
VERTEX
  5
B2D0C
  8
0
 10
16618.12986539054
 20
10225.88139913677
 30
0.0
  0
SEQEND
  5
B34C0
  8
0
  0
POLYLINE
  5
AAEEB
  8
0
 66
     1
 10
0.0
 20
0.0
 30
0.0
 70
     1
  0
VERTEX
  5
B2D0D
  8
0
 10
17405.62986539054
 20
10205.38139913682
 30
0.0
  0
VERTEX
  5
B2D0E
  8
0
 10
17405.62986539054
 20
10185.38139913682
 30
0.0
  0
VERTEX
  5
B2D0F
  8
0
 10
16590.62986539054
 20
10185.38139913682
 30
0.0
  0
VERTEX
  5
B2D10
  8
0
 10
16590.62986539054
 20
10205.38139913682
 30
0.0
  0
SEQEND
  5
B34C1
  8
0
  0
POLYLINE
  5
AAEEC
  8
0
 66
     1
 10
0.0
 20
0.0
 30
0.0
 70
     1
  0
VERTEX
  5
B2D11
  8
0
 10
16610.62986539054
 20
10185.38139913682
 30
0.0
  0
VERTEX
  5
B2D12
  8
0
 10
16610.62986539054
 20
10205.38139913682
 30
0.0
  0
VERTEX
  5
B2D13
  8
0
 10
16590.62986539054
 20
10205.38139913682
 30
0.0
  0
VERTEX
  5
B2D14
  8
0
 10
16590.62986539054
 20
10185.38139913682
 30
0.0
  0
SEQEND
  5
B34C2
  8
0
  0
POLYLINE
  5
AAEED
  8
0
 66
     1
 10
0.0
 20
0.0
 30
0.0
 70
     1
  0
VERTEX
  5
B2D15
  8
0
 10
17385.62986539054
 20
10185.38139913682
 30
0.0
  0
VERTEX
  5
B2D16
  8
0
 10
17385.62986539054
 20
10205.38139913682
 30
0.0
  0
VERTEX
  5
B2D17
  8
0
 10
17405.62986539054
 20
10205.38139913682
 30
0.0
  0
VERTEX
  5
B2D18
  8
0
 10
17405.62986539054
 20
10185.38139913682
 30
0.0
  0
SEQEND
  5
B34C3
  8
0
  0
POLYLINE
  5
AAEEE
  8
0
 66
     1
 10
0.0
 20
0.0
 30
0.0
 70
     1
  0
VERTEX
  5
B2D19
  8
0
 10
17466.12986539054
 20
11315.38139913676
 30
0.0
  0
VERTEX
  5
B2D1A
  8
0
 10
17466.12986539054
 20
11285.38139913676
 30
0.0
  0
VERTEX
  5
B2D1B
  8
0
 10
16530.12986539054
 20
11285.38139913676
 30
0.0
  0
VERTEX
  5
B2D1C
  8
0
 10
16530.12986539054
 20
11315.38139913676
 30
0.0
  0
SEQEND
  5
B34C4
  8
0
  0
POLYLINE
  5
AAEEF
  8
CLOTHES_RAIL
 66
     1
 10
0.0
 20
0.0
 30
0.0
 70
     1
  0
VERTEX
  5
B2D1D
  8
CLOTHES_RAIL
 10
17466.12986539054
 20
11237.88139913677
 30
0.0
  0
VERTEX
  5
B2D1E
  8
CLOTHES_RAIL
 10
17466.12986539054
 20
11212.88139913676
 30
0.0
  0
VERTEX
  5
B2D1F
  8
CLOTHES_RAIL
 10
16530.12986539054
 20
11212.88139913676
 30
0.0
  0
VERTEX
  5
B2D20
  8
CLOTHES_RAIL
 10
16530.12986539054
 20
11237.88139913677
 30
0.0
  0
SEQEND
  5
B34C5
  8
CLOTHES_RAIL
  0
POLYLINE
  5
AAEF0
  8
0
 66
     1
 10
0.0
 20
0.0
 30
0.0
 70
     1
  0
VERTEX
  5
B2D21
  8
0
 10
16530.1298653905
 20
15618.51688915022
 30
0.0
  0
VERTEX
  5
B2D22
  8
0
 10
16530.1298653905
 20
15648.51688915022
 30
0.0
  0
VERTEX
  5
B2D23
  8
0
 10
17466.1298653905
 20
15648.51688915022
 30
0.0
  0
VERTEX
  5
B2D24
  8
0
 10
17466.1298653905
 20
15618.51688915022
 30
0.0
  0
SEQEND
  5
B34C6
  8
0
  0
POLYLINE
  5
AAEF1
  8
0
 66
     1
 10
0.0
 20
0.0
 30
0.0
 70
     1
  0
VERTEX
  5
B2D25
  8
0
 10
17466.1298653905
 20
14418.51688915023
 30
0.0
  0
VERTEX
  5
B2D26
  8
0
 10
17466.1298653905
 20
14448.51688915023
 30
0.0
  0
VERTEX
  5
B2D27
  8
0
 10
16530.1298653905
 20
14448.51688915023
 30
0.0
  0
VERTEX
  5
B2D28
  8
0
 10
16530.1298653905
 20
14418.51688915023
 30
0.0
  0
SEQEND
  5
B34C7
  8
0
  0
POLYLINE
  5
AAEF2
  8
0
 66
     1
 10
0.0
 20
0.0
 30
0.0
 70
     1
  0
VERTEX
  5
B2D29
  8
0
 10
17466.1298653905
 20
15218.51688915022
 30
0.0
  0
VERTEX
  5
B2D2A
  8
0
 10
17466.1298653905
 20
15248.51688915022
 30
0.0
  0
VERTEX
  5
B2D2B
  8
0
 10
16530.1298653905
 20
15248.51688915022
 30
0.0
  0
VERTEX
  5
B2D2C
  8
0
 10
16530.1298653905
 20
15218.51688915022
 30
0.0
  0
SEQEND
  5
B34C8
  8
0
  0
POLYLINE
  5
AAEF3
  8
0
 66
     1
 10
0.0
 20
0.0
 30
0.0
 70
     1
  0
VERTEX
  5
B2D2D
  8
0
 10
16530.1298653905
 20
14818.51688915023
 30
0.0
  0
VERTEX
  5
B2D2E
  8
0
 10
16530.1298653905
 20
14848.51688915023
 30
0.0
  0
VERTEX
  5
B2D2F
  8
0
 10
17466.1298653905
 20
14848.51688915023
 30
0.0
  0
VERTEX
  5
B2D30
  8
0
 10
17466.1298653905
 20
14818.51688915023
 30
0.0
  0
SEQEND
  5
B34C9
  8
0
  0
POLYLINE
  5
AAEF4
  8
0
 66
     1
 10
0.0
 20
0.0
 30
0.0
 70
     1
  0
VERTEX
  5
B2D31
  8
0
 10
17385.6298653905
 20
13918.51688915027
 30
0.0
  0
VERTEX
  5
B2D32
  8
0
 10
17385.6298653905
 20
13938.51688915027
 30
0.0
  0
VERTEX
  5
B2D33
  8
0
 10
17405.6298653905
 20
13938.51688915027
 30
0.0
  0
VERTEX
  5
B2D34
  8
0
 10
17405.6298653905
 20
13918.51688915027
 30
0.0
  0
SEQEND
  5
B34CA
  8
0
  0
POLYLINE
  5
AAEF5
  8
0
 66
     1
 10
0.0
 20
0.0
 30
0.0
 70
     1
  0
VERTEX
  5
B2D35
  8
0
 10
16610.6298653905
 20
13918.51688915027
 30
0.0
  0
VERTEX
  5
B2D36
  8
0
 10
16610.6298653905
 20
13938.51688915027
 30
0.0
  0
VERTEX
  5
B2D37
  8
0
 10
16590.6298653905
 20
13938.51688915027
 30
0.0
  0
VERTEX
  5
B2D38
  8
0
 10
16590.6298653905
 20
13918.51688915027
 30
0.0
  0
SEQEND
  5
B34CB
  8
0
  0
POLYLINE
  5
AAEF6
  8
0
 66
     1
 10
0.0
 20
0.0
 30
0.0
 70
     1
  0
VERTEX
  5
B2D39
  8
0
 10
17405.6298653905
 20
13938.51688915027
 30
0.0
  0
VERTEX
  5
B2D3A
  8
0
 10
17405.6298653905
 20
13918.51688915027
 30
0.0
  0
VERTEX
  5
B2D3B
  8
0
 10
16590.6298653905
 20
13918.51688915027
 30
0.0
  0
VERTEX
  5
B2D3C
  8
0
 10
16590.6298653905
 20
13938.51688915027
 30
0.0
  0
SEQEND
  5
B34CC
  8
0
  0
POLYLINE
  5
AAEF7
  8
0
 66
     1
 10
0.0
 20
0.0
 30
0.0
 70
     1
  0
VERTEX
  5
B2D3D
  8
0
 10
16584.12986539058
 20
13959.01688915023
 30
0.0
  0
VERTEX
  5
B2D3E
  8
0
 10
16584.12986539058
 20
13932.11688915042
 30
0.0
  0
VERTEX
  5
B2D3F
  8
0
 10
16585.1298653905
 20
13931.11688915031
 30
0.0
  0
VERTEX
  5
B2D40
  8
0
 10
16589.12986539061
 20
13931.11688915031
 30
0.0
  0
VERTEX
  5
B2D41
  8
0
 10
16590.1298653905
 20
13932.11688915042
 30
0.0
  0
VERTEX
  5
B2D42
  8
0
 10
16590.1298653905
 20
13938.61688915031
 30
0.0
  0
VERTEX
  5
B2D43
  8
0
 10
16617.11210023374
 20
13939.08786581144
 30
0.0
  0
VERTEX
  5
B2D44
  8
0
 10
16618.1298653905
 20
13940.10563096838
 30
0.0
  0
VERTEX
  5
B2D45
  8
0
 10
16618.1298653905
 20
13959.01688915023
 30
0.0
  0
SEQEND
  5
B34CD
  8
0
  0
POLYLINE
  5
AAEF8
  8
0
 66
     1
 10
0.0
 20
0.0
 30
0.0
 70
     1
  0
VERTEX
  5
B2D46
  8
0
 10
17412.1298653905
 20
13959.01688915023
 30
0.0
  0
VERTEX
  5
B2D47
  8
0
 10
17412.1298653905
 20
13932.11688915042
 30
0.0
  0
VERTEX
  5
B2D48
  8
0
 10
17411.1298653905
 20
13931.11688915031
 30
0.0
  0
VERTEX
  5
B2D49
  8
0
 10
17407.1298653905
 20
13931.11688915031
 30
0.0
  0
VERTEX
  5
B2D4A
  8
0
 10
17406.1298653905
 20
13932.11688915042
 30
0.0
  0
VERTEX
  5
B2D4B
  8
0
 10
17406.1298653905
 20
13938.61688915031
 30
0.0
  0
VERTEX
  5
B2D4C
  8
0
 10
17379.14763054741
 20
13939.08786581144
 30
0.0
  0
VERTEX
  5
B2D4D
  8
0
 10
17378.1298653905
 20
13940.10563096838
 30
0.0
  0
VERTEX
  5
B2D4E
  8
0
 10
17378.1298653905
 20
13959.01688915023
 30
0.0
  0
SEQEND
  5
B34CE
  8
0
  0
POLYLINE
  5
AAEF9
  8
0
 66
     1
 10
0.0
 20
0.0
 30
0.0
 70
     1
  0
VERTEX
  5
B2D4F
  8
0
 10
16529.1298653905
 20
16418.51687961348
 30
0.0
  0
VERTEX
  5
B2D50
  8
0
 10
16529.1298653905
 20
16458.51688915028
 30
0.0
  0
VERTEX
  5
B2D51
  8
0
 10
17466.1298653905
 20
16458.51688915028
 30
0.0
  0
VERTEX
  5
B2D52
  8
0
 10
17466.1298653905
 20
16418.51687961348
 30
0.0
  0
SEQEND
  5
B34CF
  8
0
  0
POLYLINE
  5
AAEFA
  8
0
 66
     1
 10
0.0
 20
0.0
 30
0.0
 70
     1
  0
VERTEX
  5
B2D53
  8
0
 10
16530.1298653905
 20
14018.51688915023
 30
0.0
  0
VERTEX
  5
B2D54
  8
0
 10
16530.1298653905
 20
14048.51688915023
 30
0.0
  0
VERTEX
  5
B2D55
  8
0
 10
17466.1298653905
 20
14048.51688915023
 30
0.0
  0
VERTEX
  5
B2D56
  8
0
 10
17466.1298653905
 20
14018.51688915023
 30
0.0
  0
SEQEND
  5
B34D0
  8
0
  0
POLYLINE
  5
AAEFB
  8
0
 66
     1
 10
0.0
 20
0.0
 30
0.0
 70
     1
  0
VERTEX
  5
B2D57
  8
0
 10
17466.1298653905
 20
13959.01688915023
 30
0.0
  0
VERTEX
  5
B2D58
  8
0
 10
17466.1298653905
 20
14018.51688915023
 30
0.0
  0
VERTEX
  5
B2D59
  8
0
 10
16530.1298653905
 20
14018.51688915023
 30
0.0
  0
VERTEX
  5
B2D5A
  8
0
 10
16530.1298653905
 20
13959.01688915023
 30
0.0
  0
SEQEND
  5
B34D1
  8
0
  0
POLYLINE
  5
AAEFC
  8
0
 66
     1
 10
0.0
 20
0.0
 30
0.0
 70
     1
  0
VERTEX
  5
B2D5B
  8
0
 10
16530.1298653905
 20
13935.51688915023
 30
0.0
  0
VERTEX
  5
B2D5C
  8
0
 10
16493.52986539045
 20
13935.51688915023
 30
0.0
  0
VERTEX
  5
B2D5D
  8
0
 10
16493.52986539045
 20
16458.51688915028
 30
0.0
  0
VERTEX
  5
B2D5E
  8
0
 10
16529.1298653905
 20
16458.51688915028
 30
0.0
  0
VERTEX
  5
B2D5F
  8
0
 10
16529.1298653905
 20
16418.51687961348
 30
0.0
  0
VERTEX
  5
B2D60
  8
0
 10
16530.1298653905
 20
16418.51687961348
 30
0.0
  0
SEQEND
  5
B34D2
  8
0
  0
POLYLINE
  5
AAEFD
  8
0
 66
     1
 10
0.0
 20
0.0
 30
0.0
 70
     1
  0
VERTEX
  5
B2D61
  8
0
 10
17501.12986539051
 20
13940.51688915023
 30
0.0
  0
VERTEX
  5
B2D62
  8
0
 10
17501.12986539051
 20
16458.51688915028
 30
0.0
  0
VERTEX
  5
B2D63
  8
0
 10
17466.1298653905
 20
16458.51688915028
 30
0.0
  0
VERTEX
  5
B2D64
  8
0
 10
17466.1298653905
 20
13940.51688915023
 30
0.0
  0
SEQEND
  5
B34D3
  8
0
  0
POLYLINE
  5
AAEFE
  8
0
 66
     1
 10
0.0
 20
0.0
 30
0.0
 70
     1
  0
VERTEX
  5
B2D65
  8
0
 10
13550.0
 20
17042.34759251489
 30
0.0
  0
VERTEX
  5
B2D66
  8
0
 10
26550.0
 20
17042.34759251489
 30
0.0
  0
VERTEX
  5
B2D67
  8
0
 10
26550.0
 20
9565.002619770918
 30
0.0
  0
VERTEX
  5
B2D68
  8
0
 10
13550.0
 20
9565.002619770918
 30
0.0
  0
SEQEND
  5
B34D4
  8
0
  0
POLYLINE
  5
AAEFF
  8
0
 66
     1
 10
0.0
 20
0.0
 30
0.0
 70
     1
  0
VERTEX
  5
B2D69
  8
0
 10
24911.29458360715
 20
10202.38139913677
 30
0.0
  0
VERTEX
  5
B2D6A
  8
0
 10
24311.29458360716
 20
10202.38139913677
 30
0.0
  0
VERTEX
  5
B2D6B
  8
0
 10
24311.29458360716
 20
12325.38140867354
 30
0.0
  0
VERTEX
  5
B2D6C
  8
0
 10
24911.29458360715
 20
12325.38140867354
 30
0.0
  0
SEQEND
  5
B34D5
  8
0
  0
POLYLINE
  5
AAF00
  8
0
 66
     1
 10
0.0
 20
0.0
 30
0.0
 70
     1
  0
VERTEX
  5
B2D6D
  8
0
 10
24911.29458360715
 20
13935.51688915023
 30
0.0
  0
VERTEX
  5
B2D6E
  8
0
 10
24311.29458360716
 20
13935.51688915023
 30
0.0
  0
VERTEX
  5
B2D6F
  8
0
 10
24311.29458360716
 20
16058.51689868701
 30
0.0
  0
VERTEX
  5
B2D70
  8
0
 10
24911.29458360715
 20
16058.51689868701
 30
0.0
  0
SEQEND
  5
B34D6
  8
0
  0
POLYLINE
  5
AAF01
  8
0
 66
     1
 10
0.0
 20
0.0
 30
0.0
  0
VERTEX
  5
B2D71
  8
0
 10
25109.50129716488
 20
13918.51688915027
 30
0.0
  0
VERTEX
  5
B2D72
  8
0
 10
24113.08787004944
 20
13918.51688915027
 30
0.0
  0
SEQEND
  5
B34D7
  8
0
  0
POLYLINE
  5
AAF04
  8
0
 66
     1
 10
0.0
 20
0.0
 30
0.0
  0
VERTEX
  5
B2D73
  8
0
 10
25109.50129716488
 20
10185.38139913681
 30
0.0
  0
VERTEX
  5
B2D74
  8
0
 10
24113.08787004944
 20
10185.38139913681
 30
0.0
  0
SEQEND
  5
B34D8
  8
0
  0
POLYLINE
  5
AAF0A
  8
0
 66
     1
 10
0.0
 20
0.0
 30
0.0
  0
VERTEX
  5
B2D75
  8
0
 10
14197.12986539054
 20
10185.38139913681
 30
0.0
  0
VERTEX
  5
B2D76
  8
0
 10
22554.48951026663
 20
10185.38139913681
 30
0.0
  0
SEQEND
  5
B34D9
  8
0
  0
POLYLINE
  5
AAF0B
  8
0
 66
     1
 10
0.0
 20
0.0
 30
0.0
  0
VERTEX
  5
B2D77
  8
0
 10
14197.12986539054
 20
13918.51688915027
 30
0.0
  0
VERTEX
  5
B2D78
  8
0
 10
22554.48951026663
 20
13918.51688915029
 30
0.0
  0
SEQEND
  5
B34DA
  8
0
  0
POLYLINE
  5
AAF0D
  8
0
 66
     1
 10
0.0
 20
0.0
 30
0.0
 70
     1
  0
VERTEX
  5
B2D79
  8
0
 10
20102.1863909405
 20
10225.88139913677
 30
0.0
  0
VERTEX
  5
B2D7A
  8
0
 10
20102.1863909405
 20
10285.38139913677
 30
0.0
  0
VERTEX
  5
B2D7B
  8
0
 10
19166.1863909405
 20
10285.38139913677
 30
0.0
  0
VERTEX
  5
B2D7C
  8
0
 10
19166.1863909405
 20
10225.88139913677
 30
0.0
  0
SEQEND
  5
B34DB
  8
0
  0
POLYLINE
  5
AAF10
  8
0
 66
     1
 10
0.0
 20
0.0
 30
0.0
 70
     1
  0
VERTEX
  5
B2D7D
  8
0
 10
20021.68639094054
 20
10185.38139913681
 30
0.0
  0
VERTEX
  5
B2D7E
  8
0
 10
20021.68639094054
 20
10205.38139913681
 30
0.0
  0
VERTEX
  5
B2D7F
  8
0
 10
20041.68639094054
 20
10205.38139913681
 30
0.0
  0
VERTEX
  5
B2D80
  8
0
 10
20041.68639094054
 20
10185.38139913681
 30
0.0
  0
SEQEND
  5
B34DC
  8
0
  0
POLYLINE
  5
AAF11
  8
0
 66
     1
 10
0.0
 20
0.0
 30
0.0
 70
     1
  0
VERTEX
  5
B2D81
  8
0
 10
19246.68639094052
 20
10185.38139913681
 30
0.0
  0
VERTEX
  5
B2D82
  8
0
 10
19246.68639094052
 20
10205.38139913681
 30
0.0
  0
VERTEX
  5
B2D83
  8
0
 10
19226.68639094052
 20
10205.38139913681
 30
0.0
  0
VERTEX
  5
B2D84
  8
0
 10
19226.68639094052
 20
10185.38139913681
 30
0.0
  0
SEQEND
  5
B34DD
  8
0
  0
POLYLINE
  5
AAF12
  8
0
 66
     1
 10
0.0
 20
0.0
 30
0.0
 70
     1
  0
VERTEX
  5
B2D85
  8
0
 10
20041.68639094054
 20
10205.38139913681
 30
0.0
  0
VERTEX
  5
B2D86
  8
0
 10
20041.68639094054
 20
10185.38139913681
 30
0.0
  0
VERTEX
  5
B2D87
  8
0
 10
19226.68639094052
 20
10185.38139913681
 30
0.0
  0
VERTEX
  5
B2D88
  8
0
 10
19226.68639094052
 20
10205.38139913681
 30
0.0
  0
SEQEND
  5
B34DE
  8
0
  0
POLYLINE
  5
AAF13
  8
0
 66
     1
 10
0.0
 20
0.0
 30
0.0
 70
     1
  0
VERTEX
  5
B2D89
  8
0
 10
19220.18639094052
 20
10225.88139913677
 30
0.0
  0
VERTEX
  5
B2D8A
  8
0
 10
19220.18639094052
 20
10198.98139913697
 30
0.0
  0
VERTEX
  5
B2D8B
  8
0
 10
19221.18639094052
 20
10197.98139913685
 30
0.0
  0
VERTEX
  5
B2D8C
  8
0
 10
19225.18639094054
 20
10197.98139913685
 30
0.0
  0
VERTEX
  5
B2D8D
  8
0
 10
19226.18639094054
 20
10198.98139913697
 30
0.0
  0
VERTEX
  5
B2D8E
  8
0
 10
19226.18639094054
 20
10205.48139913685
 30
0.0
  0
VERTEX
  5
B2D8F
  8
0
 10
19253.16862578368
 20
10205.95237579798
 30
0.0
  0
VERTEX
  5
B2D90
  8
0
 10
19254.18639094052
 20
10206.97014095492
 30
0.0
  0
VERTEX
  5
B2D91
  8
0
 10
19254.18639094052
 20
10225.88139913677
 30
0.0
  0
SEQEND
  5
B34DF
  8
0
  0
POLYLINE
  5
AAF14
  8
0
 66
     1
 10
0.0
 20
0.0
 30
0.0
 70
     1
  0
VERTEX
  5
B2D92
  8
0
 10
20048.1863909405
 20
10225.88139913677
 30
0.0
  0
VERTEX
  5
B2D93
  8
0
 10
20048.1863909405
 20
10198.98139913697
 30
0.0
  0
VERTEX
  5
B2D94
  8
0
 10
20047.18639094054
 20
10197.98139913685
 30
0.0
  0
VERTEX
  5
B2D95
  8
0
 10
20043.1863909405
 20
10197.98139913685
 30
0.0
  0
VERTEX
  5
B2D96
  8
0
 10
20042.18639094054
 20
10198.98139913697
 30
0.0
  0
VERTEX
  5
B2D97
  8
0
 10
20042.18639094054
 20
10205.48139913685
 30
0.0
  0
VERTEX
  5
B2D98
  8
0
 10
20015.2041560974
 20
10205.95237579798
 30
0.0
  0
VERTEX
  5
B2D99
  8
0
 10
20014.18639094054
 20
10206.97014095492
 30
0.0
  0
VERTEX
  5
B2D9A
  8
0
 10
20014.18639094054
 20
10225.88139913677
 30
0.0
  0
SEQEND
  5
B34E0
  8
0
  0
POLYLINE
  5
AAF15
  8
0
 66
     1
 10
0.0
 20
0.0
 30
0.0
 70
     1
  0
VERTEX
  5
B2D9B
  8
0
 10
19165.18639094054
 20
12285.38139913674
 30
0.0
  0
VERTEX
  5
B2D9C
  8
0
 10
19165.18639094054
 20
12325.38140867354
 30
0.0
  0
VERTEX
  5
B2D9D
  8
0
 10
20102.18639094054
 20
12325.38140867354
 30
0.0
  0
VERTEX
  5
B2D9E
  8
0
 10
20102.18639094054
 20
12285.38139913674
 30
0.0
  0
SEQEND
  5
B34E1
  8
0
  0
POLYLINE
  5
AAF16
  8
0
 66
     1
 10
0.0
 20
0.0
 30
0.0
 70
     1
  0
VERTEX
  5
B2D9F
  8
0
 10
19166.18639094054
 20
10202.38139913677
 30
0.0
  0
VERTEX
  5
B2DA0
  8
0
 10
19129.58639094035
 20
10202.38139913677
 30
0.0
  0
VERTEX
  5
B2DA1
  8
0
 10
19129.58639094035
 20
12325.38140867354
 30
0.0
  0
VERTEX
  5
B2DA2
  8
0
 10
19165.18639094054
 20
12325.38140867354
 30
0.0
  0
VERTEX
  5
B2DA3
  8
0
 10
19165.18639094054
 20
12285.38139913674
 30
0.0
  0
VERTEX
  5
B2DA4
  8
0
 10
19166.18639094054
 20
12285.38139913674
 30
0.0
  0
SEQEND
  5
B34E2
  8
0
  0
POLYLINE
  5
AAF17
  8
0
 66
     1
 10
0.0
 20
0.0
 30
0.0
 70
     1
  0
VERTEX
  5
B2DA5
  8
0
 10
20137.18639094054
 20
10207.38139913677
 30
0.0
  0
VERTEX
  5
B2DA6
  8
0
 10
20137.18639094054
 20
12325.38140867354
 30
0.0
  0
VERTEX
  5
B2DA7
  8
0
 10
20102.18639094054
 20
12325.38140867354
 30
0.0
  0
VERTEX
  5
B2DA8
  8
0
 10
20102.18639094054
 20
10207.38139913677
 30
0.0
  0
SEQEND
  5
B34E3
  8
0
  0
POLYLINE
  5
AAF18
  8
0
 66
     1
 10
0.0
 20
0.0
 30
0.0
 70
     1
  0
VERTEX
  5
B2DA9
  8
0
 10
15501.12986539051
 20
13940.51688915023
 30
0.0
  0
VERTEX
  5
B2DAA
  8
0
 10
15501.12986539051
 20
16058.516898687
 30
0.0
  0
VERTEX
  5
B2DAB
  8
0
 10
15466.1298653905
 20
16058.516898687
 30
0.0
  0
VERTEX
  5
B2DAC
  8
0
 10
15466.1298653905
 20
13940.51688915023
 30
0.0
  0
SEQEND
  5
B34E4
  8
0
  0
POLYLINE
  5
AAF19
  8
0
 66
     1
 10
0.0
 20
0.0
 30
0.0
 70
     1
  0
VERTEX
  5
B2DAD
  8
0
 10
14530.1298653905
 20
13935.51688915023
 30
0.0
  0
VERTEX
  5
B2DAE
  8
0
 10
14493.52986539045
 20
13935.51688915023
 30
0.0
  0
VERTEX
  5
B2DAF
  8
0
 10
14493.52986539045
 20
16058.516898687
 30
0.0
  0
VERTEX
  5
B2DB0
  8
0
 10
14529.1298653905
 20
16058.516898687
 30
0.0
  0
VERTEX
  5
B2DB1
  8
0
 10
14529.1298653905
 20
16018.5168891502
 30
0.0
  0
VERTEX
  5
B2DB2
  8
0
 10
14530.1298653905
 20
16018.5168891502
 30
0.0
  0
SEQEND
  5
B34E5
  8
0
  0
POLYLINE
  5
AAF1A
  8
0
 66
     1
 10
0.0
 20
0.0
 30
0.0
 70
     1
  0
VERTEX
  5
B2DB3
  8
0
 10
15466.1298653905
 20
13959.01688915023
 30
0.0
  0
VERTEX
  5
B2DB4
  8
0
 10
15466.1298653905
 20
14018.51688915023
 30
0.0
  0
VERTEX
  5
B2DB5
  8
0
 10
14530.1298653905
 20
14018.51688915023
 30
0.0
  0
VERTEX
  5
B2DB6
  8
0
 10
14530.1298653905
 20
13959.01688915023
 30
0.0
  0
SEQEND
  5
B34E6
  8
0
  0
POLYLINE
  5
AAF1B
  8
0
 66
     1
 10
0.0
 20
0.0
 30
0.0
 70
     1
  0
VERTEX
  5
B2DB7
  8
0
 10
14530.1298653905
 20
14018.51688915023
 30
0.0
  0
VERTEX
  5
B2DB8
  8
0
 10
14530.1298653905
 20
14048.51688915023
 30
0.0
  0
VERTEX
  5
B2DB9
  8
0
 10
15466.1298653905
 20
14048.51688915023
 30
0.0
  0
VERTEX
  5
B2DBA
  8
0
 10
15466.1298653905
 20
14018.51688915023
 30
0.0
  0
SEQEND
  5
B34E7
  8
0
  0
POLYLINE
  5
AAF1C
  8
0
 66
     1
 10
0.0
 20
0.0
 30
0.0
 70
     1
  0
VERTEX
  5
B2DBB
  8
0
 10
14529.1298653905
 20
16018.5168891502
 30
0.0
  0
VERTEX
  5
B2DBC
  8
0
 10
14529.1298653905
 20
16058.516898687
 30
0.0
  0
VERTEX
  5
B2DBD
  8
0
 10
15466.1298653905
 20
16058.516898687
 30
0.0
  0
VERTEX
  5
B2DBE
  8
0
 10
15466.1298653905
 20
16018.5168891502
 30
0.0
  0
SEQEND
  5
B34E8
  8
0
  0
POLYLINE
  5
AAF1D
  8
0
 66
     1
 10
0.0
 20
0.0
 30
0.0
 70
     1
  0
VERTEX
  5
B2DBF
  8
0
 10
15412.1298653905
 20
13959.01688915023
 30
0.0
  0
VERTEX
  5
B2DC0
  8
0
 10
15412.1298653905
 20
13932.11688915042
 30
0.0
  0
VERTEX
  5
B2DC1
  8
0
 10
15411.1298653905
 20
13931.11688915031
 30
0.0
  0
VERTEX
  5
B2DC2
  8
0
 10
15407.1298653905
 20
13931.11688915031
 30
0.0
  0
VERTEX
  5
B2DC3
  8
0
 10
15406.1298653905
 20
13932.11688915042
 30
0.0
  0
VERTEX
  5
B2DC4
  8
0
 10
15406.1298653905
 20
13938.61688915031
 30
0.0
  0
VERTEX
  5
B2DC5
  8
0
 10
15379.14763054741
 20
13939.08786581144
 30
0.0
  0
VERTEX
  5
B2DC6
  8
0
 10
15378.1298653905
 20
13940.10563096838
 30
0.0
  0
VERTEX
  5
B2DC7
  8
0
 10
15378.1298653905
 20
13959.01688915023
 30
0.0
  0
SEQEND
  5
B34E9
  8
0
  0
POLYLINE
  5
AAF1E
  8
0
 66
     1
 10
0.0
 20
0.0
 30
0.0
 70
     1
  0
VERTEX
  5
B2DC8
  8
0
 10
14584.12986539058
 20
13959.01688915023
 30
0.0
  0
VERTEX
  5
B2DC9
  8
0
 10
14584.12986539058
 20
13932.11688915042
 30
0.0
  0
VERTEX
  5
B2DCA
  8
0
 10
14585.1298653905
 20
13931.11688915031
 30
0.0
  0
VERTEX
  5
B2DCB
  8
0
 10
14589.12986539061
 20
13931.11688915031
 30
0.0
  0
VERTEX
  5
B2DCC
  8
0
 10
14590.1298653905
 20
13932.11688915042
 30
0.0
  0
VERTEX
  5
B2DCD
  8
0
 10
14590.1298653905
 20
13938.61688915031
 30
0.0
  0
VERTEX
  5
B2DCE
  8
0
 10
14617.11210023374
 20
13939.08786581144
 30
0.0
  0
VERTEX
  5
B2DCF
  8
0
 10
14618.1298653905
 20
13940.10563096838
 30
0.0
  0
VERTEX
  5
B2DD0
  8
0
 10
14618.1298653905
 20
13959.01688915023
 30
0.0
  0
SEQEND
  5
B34EA
  8
0
  0
POLYLINE
  5
AAF1F
  8
0
 66
     1
 10
0.0
 20
0.0
 30
0.0
 70
     1
  0
VERTEX
  5
B2DD1
  8
0
 10
15405.6298653905
 20
13938.51688915027
 30
0.0
  0
VERTEX
  5
B2DD2
  8
0
 10
15405.6298653905
 20
13918.51688915027
 30
0.0
  0
VERTEX
  5
B2DD3
  8
0
 10
14590.6298653905
 20
13918.51688915027
 30
0.0
  0
VERTEX
  5
B2DD4
  8
0
 10
14590.6298653905
 20
13938.51688915027
 30
0.0
  0
SEQEND
  5
B34EB
  8
0
  0
POLYLINE
  5
AAF20
  8
0
 66
     1
 10
0.0
 20
0.0
 30
0.0
 70
     1
  0
VERTEX
  5
B2DD5
  8
0
 10
14610.6298653905
 20
13918.51688915027
 30
0.0
  0
VERTEX
  5
B2DD6
  8
0
 10
14610.6298653905
 20
13938.51688915027
 30
0.0
  0
VERTEX
  5
B2DD7
  8
0
 10
14590.6298653905
 20
13938.51688915027
 30
0.0
  0
VERTEX
  5
B2DD8
  8
0
 10
14590.6298653905
 20
13918.51688915027
 30
0.0
  0
SEQEND
  5
B34EC
  8
0
  0
POLYLINE
  5
AAF21
  8
0
 66
     1
 10
0.0
 20
0.0
 30
0.0
 70
     1
  0
VERTEX
  5
B2DD9
  8
0
 10
15385.6298653905
 20
13918.51688915027
 30
0.0
  0
VERTEX
  5
B2DDA
  8
0
 10
15385.6298653905
 20
13938.51688915027
 30
0.0
  0
VERTEX
  5
B2DDB
  8
0
 10
15405.6298653905
 20
13938.51688915027
 30
0.0
  0
VERTEX
  5
B2DDC
  8
0
 10
15405.6298653905
 20
13918.51688915027
 30
0.0
  0
SEQEND
  5
B34ED
  8
0
  0
POLYLINE
  5
AAF22
  8
0
 66
     1
 10
0.0
 20
0.0
 30
0.0
 70
     1
  0
VERTEX
  5
B2DDD
  8
0
 10
14530.1298653905
 20
14818.51688915023
 30
0.0
  0
VERTEX
  5
B2DDE
  8
0
 10
14530.1298653905
 20
14848.51688915023
 30
0.0
  0
VERTEX
  5
B2DDF
  8
0
 10
15466.1298653905
 20
14848.51688915023
 30
0.0
  0
VERTEX
  5
B2DE0
  8
0
 10
15466.1298653905
 20
14818.51688915023
 30
0.0
  0
SEQEND
  5
B34EE
  8
0
  0
POLYLINE
  5
AAF23
  8
0
 66
     1
 10
0.0
 20
0.0
 30
0.0
 70
     1
  0
VERTEX
  5
B2DE1
  8
0
 10
15466.1298653905
 20
15218.51688915022
 30
0.0
  0
VERTEX
  5
B2DE2
  8
0
 10
15466.1298653905
 20
15248.51688915022
 30
0.0
  0
VERTEX
  5
B2DE3
  8
0
 10
14530.1298653905
 20
15248.51688915022
 30
0.0
  0
VERTEX
  5
B2DE4
  8
0
 10
14530.1298653905
 20
15218.51688915022
 30
0.0
  0
SEQEND
  5
B34EF
  8
0
  0
POLYLINE
  5
AAF24
  8
0
 66
     1
 10
0.0
 20
0.0
 30
0.0
 70
     1
  0
VERTEX
  5
B2DE5
  8
0
 10
15466.1298653905
 20
14418.51688915023
 30
0.0
  0
VERTEX
  5
B2DE6
  8
0
 10
15466.1298653905
 20
14448.51688915023
 30
0.0
  0
VERTEX
  5
B2DE7
  8
0
 10
14530.1298653905
 20
14448.51688915023
 30
0.0
  0
VERTEX
  5
B2DE8
  8
0
 10
14530.1298653905
 20
14418.51688915023
 30
0.0
  0
SEQEND
  5
B34F0
  8
0
  0
POLYLINE
  5
AAF25
  8
0
 66
     1
 10
0.0
 20
0.0
 30
0.0
 70
     1
  0
VERTEX
  5
B2DE9
  8
0
 10
14530.1298653905
 20
15618.51688915022
 30
0.0
  0
VERTEX
  5
B2DEA
  8
0
 10
14530.1298653905
 20
15648.51688915022
 30
0.0
  0
VERTEX
  5
B2DEB
  8
0
 10
15466.1298653905
 20
15648.51688915022
 30
0.0
  0
VERTEX
  5
B2DEC
  8
0
 10
15466.1298653905
 20
15618.51688915022
 30
0.0
  0
SEQEND
  5
B34F1
  8
0
  0
POLYLINE
  5
AAF26
  8
0
 66
     1
 10
0.0
 20
0.0
 30
0.0
 70
     1
  0
VERTEX
  5
B2DED
  8
0
 10
20137.1863909406
 20
13940.51688915023
 30
0.0
  0
VERTEX
  5
B2DEE
  8
0
 10
20137.1863909406
 20
16058.51689868701
 30
0.0
  0
VERTEX
  5
B2DEF
  8
0
 10
20102.1863909406
 20
16058.51689868701
 30
0.0
  0
VERTEX
  5
B2DF0
  8
0
 10
20102.1863909406
 20
13940.51688915023
 30
0.0
  0
SEQEND
  5
B34F2
  8
0
  0
POLYLINE
  5
AAF27
  8
0
 66
     1
 10
0.0
 20
0.0
 30
0.0
 70
     1
  0
VERTEX
  5
B2DF1
  8
0
 10
19166.1863909406
 20
13935.51688915023
 30
0.0
  0
VERTEX
  5
B2DF2
  8
0
 10
19129.58639094039
 20
13935.51688915023
 30
0.0
  0
VERTEX
  5
B2DF3
  8
0
 10
19129.58639094039
 20
16058.51689868701
 30
0.0
  0
VERTEX
  5
B2DF4
  8
0
 10
19165.1863909406
 20
16058.51689868701
 30
0.0
  0
VERTEX
  5
B2DF5
  8
0
 10
19165.1863909406
 20
16018.5168891502
 30
0.0
  0
VERTEX
  5
B2DF6
  8
0
 10
19166.1863909406
 20
16018.5168891502
 30
0.0
  0
SEQEND
  5
B34F3
  8
0
  0
POLYLINE
  5
AAF28
  8
0
 66
     1
 10
0.0
 20
0.0
 30
0.0
 70
     1
  0
VERTEX
  5
B2DF7
  8
0
 10
20102.1863909406
 20
13959.01688915023
 30
0.0
  0
VERTEX
  5
B2DF8
  8
0
 10
20102.1863909406
 20
14018.51688915023
 30
0.0
  0
VERTEX
  5
B2DF9
  8
0
 10
19166.1863909406
 20
14018.51688915023
 30
0.0
  0
VERTEX
  5
B2DFA
  8
0
 10
19166.1863909406
 20
13959.01688915023
 30
0.0
  0
SEQEND
  5
B34F4
  8
0
  0
POLYLINE
  5
AAF29
  8
0
 66
     1
 10
0.0
 20
0.0
 30
0.0
 70
     1
  0
VERTEX
  5
B2DFB
  8
0
 10
19166.1863909406
 20
14018.51688915023
 30
0.0
  0
VERTEX
  5
B2DFC
  8
0
 10
19166.1863909406
 20
14048.51688915023
 30
0.0
  0
VERTEX
  5
B2DFD
  8
0
 10
20102.1863909406
 20
14048.51688915023
 30
0.0
  0
VERTEX
  5
B2DFE
  8
0
 10
20102.1863909406
 20
14018.51688915023
 30
0.0
  0
SEQEND
  5
B34F5
  8
0
  0
POLYLINE
  5
AAF2A
  8
0
 66
     1
 10
0.0
 20
0.0
 30
0.0
 70
     1
  0
VERTEX
  5
B2DFF
  8
0
 10
19165.1863909406
 20
16018.5168891502
 30
0.0
  0
VERTEX
  5
B2E00
  8
0
 10
19165.1863909406
 20
16058.51689868701
 30
0.0
  0
VERTEX
  5
B2E01
  8
0
 10
20102.1863909406
 20
16058.51689868701
 30
0.0
  0
VERTEX
  5
B2E02
  8
0
 10
20102.1863909406
 20
16018.5168891502
 30
0.0
  0
SEQEND
  5
B34F6
  8
0
  0
POLYLINE
  5
AAF2B
  8
0
 66
     1
 10
0.0
 20
0.0
 30
0.0
 70
     1
  0
VERTEX
  5
B2E03
  8
0
 10
20048.18639094054
 20
13959.01688915023
 30
0.0
  0
VERTEX
  5
B2E04
  8
0
 10
20048.18639094054
 20
13932.11688915042
 30
0.0
  0
VERTEX
  5
B2E05
  8
0
 10
20047.1863909406
 20
13931.11688915031
 30
0.0
  0
VERTEX
  5
B2E06
  8
0
 10
20043.18639094054
 20
13931.11688915031
 30
0.0
  0
VERTEX
  5
B2E07
  8
0
 10
20042.1863909406
 20
13932.11688915042
 30
0.0
  0
VERTEX
  5
B2E08
  8
0
 10
20042.1863909406
 20
13938.61688915031
 30
0.0
  0
VERTEX
  5
B2E09
  8
0
 10
20015.20415609748
 20
13939.08786581144
 30
0.0
  0
VERTEX
  5
B2E0A
  8
0
 10
20014.1863909406
 20
13940.10563096838
 30
0.0
  0
VERTEX
  5
B2E0B
  8
0
 10
20014.1863909406
 20
13959.01688915023
 30
0.0
  0
SEQEND
  5
B34F7
  8
0
  0
POLYLINE
  5
AAF2C
  8
0
 66
     1
 10
0.0
 20
0.0
 30
0.0
 70
     1
  0
VERTEX
  5
B2E0C
  8
0
 10
19220.1863909406
 20
13959.01688915023
 30
0.0
  0
VERTEX
  5
B2E0D
  8
0
 10
19220.1863909406
 20
13932.11688915042
 30
0.0
  0
VERTEX
  5
B2E0E
  8
0
 10
19221.1863909406
 20
13931.11688915031
 30
0.0
  0
VERTEX
  5
B2E0F
  8
0
 10
19225.18639094059
 20
13931.11688915031
 30
0.0
  0
VERTEX
  5
B2E10
  8
0
 10
19226.1863909406
 20
13932.11688915042
 30
0.0
  0
VERTEX
  5
B2E11
  8
0
 10
19226.1863909406
 20
13938.61688915031
 30
0.0
  0
VERTEX
  5
B2E12
  8
0
 10
19253.16862578373
 20
13939.08786581144
 30
0.0
  0
VERTEX
  5
B2E13
  8
0
 10
19254.1863909406
 20
13940.10563096838
 30
0.0
  0
VERTEX
  5
B2E14
  8
0
 10
19254.1863909406
 20
13959.01688915023
 30
0.0
  0
SEQEND
  5
B34F8
  8
0
  0
POLYLINE
  5
AAF2D
  8
0
 66
     1
 10
0.0
 20
0.0
 30
0.0
 70
     1
  0
VERTEX
  5
B2E15
  8
0
 10
20041.6863909406
 20
13938.51688915027
 30
0.0
  0
VERTEX
  5
B2E16
  8
0
 10
20041.6863909406
 20
13918.51688915027
 30
0.0
  0
VERTEX
  5
B2E17
  8
0
 10
19226.6863909406
 20
13918.51688915027
 30
0.0
  0
VERTEX
  5
B2E18
  8
0
 10
19226.6863909406
 20
13938.51688915027
 30
0.0
  0
SEQEND
  5
B34F9
  8
0
  0
POLYLINE
  5
AAF2E
  8
0
 66
     1
 10
0.0
 20
0.0
 30
0.0
 70
     1
  0
VERTEX
  5
B2E19
  8
0
 10
19246.6863909406
 20
13918.51688915027
 30
0.0
  0
VERTEX
  5
B2E1A
  8
0
 10
19246.6863909406
 20
13938.51688915027
 30
0.0
  0
VERTEX
  5
B2E1B
  8
0
 10
19226.6863909406
 20
13938.51688915027
 30
0.0
  0
VERTEX
  5
B2E1C
  8
0
 10
19226.6863909406
 20
13918.51688915027
 30
0.0
  0
SEQEND
  5
B34FA
  8
0
  0
POLYLINE
  5
AAF2F
  8
0
 66
     1
 10
0.0
 20
0.0
 30
0.0
 70
     1
  0
VERTEX
  5
B2E1D
  8
0
 10
20021.6863909406
 20
13918.51688915027
 30
0.0
  0
VERTEX
  5
B2E1E
  8
0
 10
20021.6863909406
 20
13938.51688915027
 30
0.0
  0
VERTEX
  5
B2E1F
  8
0
 10
20041.6863909406
 20
13938.51688915027
 30
0.0
  0
VERTEX
  5
B2E20
  8
0
 10
20041.6863909406
 20
13918.51688915027
 30
0.0
  0
SEQEND
  5
B34FB
  8
0
  0
POLYLINE
  5
AAF30
  8
0
 66
     1
 10
0.0
 20
0.0
 30
0.0
 70
     1
  0
VERTEX
  5
B2E21
  8
0
 10
20102.1863909406
 20
14268.51688915023
 30
0.0
  0
VERTEX
  5
B2E22
  8
0
 10
20102.1863909406
 20
14298.51688915023
 30
0.0
  0
VERTEX
  5
B2E23
  8
0
 10
19166.1863909406
 20
14298.51688915023
 30
0.0
  0
VERTEX
  5
B2E24
  8
0
 10
19166.1863909406
 20
14268.51688915023
 30
0.0
  0
SEQEND
  5
B34FC
  8
0
  0
POLYLINE
  5
AAF31
  8
0
 66
     1
 10
0.0
 20
0.0
 30
0.0
 70
     1
  0
VERTEX
  5
B2E25
  8
0
 10
20102.1863909406
 20
14518.51688915023
 30
0.0
  0
VERTEX
  5
B2E26
  8
0
 10
20102.1863909406
 20
14548.51688915023
 30
0.0
  0
VERTEX
  5
B2E27
  8
0
 10
19166.1863909406
 20
14548.51688915023
 30
0.0
  0
VERTEX
  5
B2E28
  8
0
 10
19166.1863909406
 20
14518.51688915023
 30
0.0
  0
SEQEND
  5
B34FD
  8
0
  0
POLYLINE
  5
AAF32
  8
0
 66
     1
 10
0.0
 20
0.0
 30
0.0
 70
     1
  0
VERTEX
  5
B2E29
  8
0
 10
20102.1863909406
 20
14768.51688915023
 30
0.0
  0
VERTEX
  5
B2E2A
  8
0
 10
20102.1863909406
 20
14798.51688915023
 30
0.0
  0
VERTEX
  5
B2E2B
  8
0
 10
19166.1863909406
 20
14798.51688915023
 30
0.0
  0
VERTEX
  5
B2E2C
  8
0
 10
19166.1863909406
 20
14768.51688915023
 30
0.0
  0
SEQEND
  5
B34FE
  8
0
  0
POLYLINE
  5
AAF33
  8
0
 66
     1
 10
0.0
 20
0.0
 30
0.0
 70
     1
  0
VERTEX
  5
B2E2D
  8
0
 10
20102.1863909406
 20
15018.51688915023
 30
0.0
  0
VERTEX
  5
B2E2E
  8
0
 10
20102.1863909406
 20
15048.51688915022
 30
0.0
  0
VERTEX
  5
B2E2F
  8
0
 10
19166.1863909406
 20
15048.51688915022
 30
0.0
  0
VERTEX
  5
B2E30
  8
0
 10
19166.1863909406
 20
15018.51688915023
 30
0.0
  0
SEQEND
  5
B34FF
  8
0
  0
POLYLINE
  5
AAF34
  8
0
 66
     1
 10
0.0
 20
0.0
 30
0.0
 70
     1
  0
VERTEX
  5
B2E31
  8
0
 10
20102.1863909406
 20
15268.51688915023
 30
0.0
  0
VERTEX
  5
B2E32
  8
0
 10
20102.1863909406
 20
15298.51688915022
 30
0.0
  0
VERTEX
  5
B2E33
  8
0
 10
19166.1863909406
 20
15298.51688915022
 30
0.0
  0
VERTEX
  5
B2E34
  8
0
 10
19166.1863909406
 20
15268.51688915023
 30
0.0
  0
SEQEND
  5
B3500
  8
0
  0
POLYLINE
  5
AAF35
  8
0
 66
     1
 10
0.0
 20
0.0
 30
0.0
 70
     1
  0
VERTEX
  5
B2E35
  8
0
 10
20102.1863909406
 20
15518.51688915023
 30
0.0
  0
VERTEX
  5
B2E36
  8
0
 10
20102.1863909406
 20
15548.51688915022
 30
0.0
  0
VERTEX
  5
B2E37
  8
0
 10
19166.1863909406
 20
15548.51688915022
 30
0.0
  0
VERTEX
  5
B2E38
  8
0
 10
19166.1863909406
 20
15518.51688915023
 30
0.0
  0
SEQEND
  5
B3501
  8
0
  0
POLYLINE
  5
AAF36
  8
0
 66
     1
 10
0.0
 20
0.0
 30
0.0
 70
     1
  0
VERTEX
  5
B2E39
  8
0
 10
20102.1863909406
 20
15768.51688915023
 30
0.0
  0
VERTEX
  5
B2E3A
  8
0
 10
20102.1863909406
 20
15798.51688915022
 30
0.0
  0
VERTEX
  5
B2E3B
  8
0
 10
19166.1863909406
 20
15798.51688915022
 30
0.0
  0
VERTEX
  5
B2E3C
  8
0
 10
19166.1863909406
 20
15768.51688915023
 30
0.0
  0
SEQEND
  5
B3502
  8
0
  0
POLYLINE
  5
AAF37
  8
CLOTHES_RAIL
 66
     1
 10
0.0
 20
0.0
 30
0.0
 70
     1
  0
VERTEX
  5
B2E3D
  8
CLOTHES_RAIL
 10
15466.12986539054
 20
11237.88139913677
 30
0.0
  0
VERTEX
  5
B2E3E
  8
CLOTHES_RAIL
 10
15466.12986539054
 20
11212.88139913676
 30
0.0
  0
VERTEX
  5
B2E3F
  8
CLOTHES_RAIL
 10
14530.12986539054
 20
11212.88139913676
 30
0.0
  0
VERTEX
  5
B2E40
  8
CLOTHES_RAIL
 10
14530.12986539054
 20
11237.88139913677
 30
0.0
  0
SEQEND
  5
B3503
  8
CLOTHES_RAIL
  0
POLYLINE
  5
AAF38
  8
0
 66
     1
 10
0.0
 20
0.0
 30
0.0
 70
     1
  0
VERTEX
  5
B2E41
  8
0
 10
15466.12986539054
 20
11315.38139913676
 30
0.0
  0
VERTEX
  5
B2E42
  8
0
 10
15466.12986539054
 20
11285.38139913676
 30
0.0
  0
VERTEX
  5
B2E43
  8
0
 10
14530.12986539054
 20
11285.38139913676
 30
0.0
  0
VERTEX
  5
B2E44
  8
0
 10
14530.12986539054
 20
11315.38139913676
 30
0.0
  0
SEQEND
  5
B3504
  8
0
  0
POLYLINE
  5
AAF39
  8
0
 66
     1
 10
0.0
 20
0.0
 30
0.0
 70
     1
  0
VERTEX
  5
B2E45
  8
0
 10
15385.62986539054
 20
10185.38139913682
 30
0.0
  0
VERTEX
  5
B2E46
  8
0
 10
15385.62986539054
 20
10205.38139913682
 30
0.0
  0
VERTEX
  5
B2E47
  8
0
 10
15405.62986539054
 20
10205.38139913682
 30
0.0
  0
VERTEX
  5
B2E48
  8
0
 10
15405.62986539054
 20
10185.38139913682
 30
0.0
  0
SEQEND
  5
B3505
  8
0
  0
POLYLINE
  5
AAF3A
  8
0
 66
     1
 10
0.0
 20
0.0
 30
0.0
 70
     1
  0
VERTEX
  5
B2E49
  8
0
 10
14610.62986539054
 20
10185.38139913682
 30
0.0
  0
VERTEX
  5
B2E4A
  8
0
 10
14610.62986539054
 20
10205.38139913682
 30
0.0
  0
VERTEX
  5
B2E4B
  8
0
 10
14590.62986539054
 20
10205.38139913682
 30
0.0
  0
VERTEX
  5
B2E4C
  8
0
 10
14590.62986539054
 20
10185.38139913682
 30
0.0
  0
SEQEND
  5
B3506
  8
0
  0
POLYLINE
  5
AAF3B
  8
0
 66
     1
 10
0.0
 20
0.0
 30
0.0
 70
     1
  0
VERTEX
  5
B2E4D
  8
0
 10
15405.62986539054
 20
10205.38139913682
 30
0.0
  0
VERTEX
  5
B2E4E
  8
0
 10
15405.62986539054
 20
10185.38139913682
 30
0.0
  0
VERTEX
  5
B2E4F
  8
0
 10
14590.62986539054
 20
10185.38139913682
 30
0.0
  0
VERTEX
  5
B2E50
  8
0
 10
14590.62986539054
 20
10205.38139913682
 30
0.0
  0
SEQEND
  5
B3507
  8
0
  0
POLYLINE
  5
AAF3C
  8
0
 66
     1
 10
0.0
 20
0.0
 30
0.0
 70
     1
  0
VERTEX
  5
B2E51
  8
0
 10
14584.1298653906
 20
10225.88139913677
 30
0.0
  0
VERTEX
  5
B2E52
  8
0
 10
14584.1298653906
 20
10198.98139913698
 30
0.0
  0
VERTEX
  5
B2E53
  8
0
 10
14585.12986539054
 20
10197.98139913685
 30
0.0
  0
VERTEX
  5
B2E54
  8
0
 10
14589.12986539059
 20
10197.98139913685
 30
0.0
  0
VERTEX
  5
B2E55
  8
0
 10
14590.12986539054
 20
10198.98139913698
 30
0.0
  0
VERTEX
  5
B2E56
  8
0
 10
14590.12986539054
 20
10205.48139913685
 30
0.0
  0
VERTEX
  5
B2E57
  8
0
 10
14617.11210023366
 20
10205.95237579798
 30
0.0
  0
VERTEX
  5
B2E58
  8
0
 10
14618.12986539054
 20
10206.97014095492
 30
0.0
  0
VERTEX
  5
B2E59
  8
0
 10
14618.12986539054
 20
10225.88139913677
 30
0.0
  0
SEQEND
  5
B3508
  8
0
  0
POLYLINE
  5
AAF3D
  8
0
 66
     1
 10
0.0
 20
0.0
 30
0.0
 70
     1
  0
VERTEX
  5
B2E5A
  8
0
 10
15412.12986539054
 20
10225.88139913677
 30
0.0
  0
VERTEX
  5
B2E5B
  8
0
 10
15412.12986539054
 20
10198.98139913698
 30
0.0
  0
VERTEX
  5
B2E5C
  8
0
 10
15411.12986539054
 20
10197.98139913685
 30
0.0
  0
VERTEX
  5
B2E5D
  8
0
 10
15407.12986539054
 20
10197.98139913685
 30
0.0
  0
VERTEX
  5
B2E5E
  8
0
 10
15406.12986539054
 20
10198.98139913698
 30
0.0
  0
VERTEX
  5
B2E5F
  8
0
 10
15406.12986539054
 20
10205.48139913685
 30
0.0
  0
VERTEX
  5
B2E60
  8
0
 10
15379.1476305474
 20
10205.95237579798
 30
0.0
  0
VERTEX
  5
B2E61
  8
0
 10
15378.12986539054
 20
10206.97014095492
 30
0.0
  0
VERTEX
  5
B2E62
  8
0
 10
15378.12986539054
 20
10225.88139913677
 30
0.0
  0
SEQEND
  5
B3509
  8
0
  0
POLYLINE
  5
AAF3E
  8
0
 66
     1
 10
0.0
 20
0.0
 30
0.0
 70
     1
  0
VERTEX
  5
B2E63
  8
0
 10
14529.12986539054
 20
12285.38139913674
 30
0.0
  0
VERTEX
  5
B2E64
  8
0
 10
14529.12986539054
 20
12325.38140867355
 30
0.0
  0
VERTEX
  5
B2E65
  8
0
 10
15466.12986539054
 20
12325.38140867355
 30
0.0
  0
VERTEX
  5
B2E66
  8
0
 10
15466.12986539054
 20
12285.38139913674
 30
0.0
  0
SEQEND
  5
B350A
  8
0
  0
POLYLINE
  5
AAF3F
  8
CLOTHES_RAIL
 66
     1
 10
0.0
 20
0.0
 30
0.0
 70
     1
  0
VERTEX
  5
B2E67
  8
CLOTHES_RAIL
 10
15466.12986539054
 20
12212.88139913674
 30
0.0
  0
VERTEX
  5
B2E68
  8
CLOTHES_RAIL
 10
15466.12986539054
 20
12237.88139913674
 30
0.0
  0
VERTEX
  5
B2E69
  8
CLOTHES_RAIL
 10
14530.12986539054
 20
12237.88139913674
 30
0.0
  0
VERTEX
  5
B2E6A
  8
CLOTHES_RAIL
 10
14530.12986539054
 20
12212.88139913674
 30
0.0
  0
SEQEND
  5
B350B
  8
CLOTHES_RAIL
  0
POLYLINE
  5
AAF40
  8
0
 66
     1
 10
0.0
 20
0.0
 30
0.0
 70
     1
  0
VERTEX
  5
B2E6B
  8
0
 10
14530.12986539054
 20
10285.38139913677
 30
0.0
  0
VERTEX
  5
B2E6C
  8
0
 10
14530.12986539054
 20
10315.38139913677
 30
0.0
  0
VERTEX
  5
B2E6D
  8
0
 10
15466.12986539054
 20
10315.38139913677
 30
0.0
  0
VERTEX
  5
B2E6E
  8
0
 10
15466.12986539054
 20
10285.38139913677
 30
0.0
  0
SEQEND
  5
B350C
  8
0
  0
POLYLINE
  5
AAF41
  8
0
 66
     1
 10
0.0
 20
0.0
 30
0.0
 70
     1
  0
VERTEX
  5
B2E6F
  8
0
 10
15466.12986539054
 20
10225.88139913677
 30
0.0
  0
VERTEX
  5
B2E70
  8
0
 10
15466.12986539054
 20
10285.38139913677
 30
0.0
  0
VERTEX
  5
B2E71
  8
0
 10
14530.12986539054
 20
10285.38139913677
 30
0.0
  0
VERTEX
  5
B2E72
  8
0
 10
14530.12986539054
 20
10225.88139913677
 30
0.0
  0
SEQEND
  5
B350D
  8
0
  0
POLYLINE
  5
AAF42
  8
0
 66
     1
 10
0.0
 20
0.0
 30
0.0
 70
     1
  0
VERTEX
  5
B2E73
  8
0
 10
14530.12986539054
 20
10202.38139913677
 30
0.0
  0
VERTEX
  5
B2E74
  8
0
 10
14493.52986539044
 20
10202.38139913677
 30
0.0
  0
VERTEX
  5
B2E75
  8
0
 10
14493.52986539044
 20
12325.38140867355
 30
0.0
  0
VERTEX
  5
B2E76
  8
0
 10
14529.12986539054
 20
12325.38140867355
 30
0.0
  0
VERTEX
  5
B2E77
  8
0
 10
14529.12986539054
 20
12285.38139913674
 30
0.0
  0
VERTEX
  5
B2E78
  8
0
 10
14530.12986539054
 20
12285.38139913674
 30
0.0
  0
SEQEND
  5
B350E
  8
0
  0
POLYLINE
  5
AAF43
  8
0
 66
     1
 10
0.0
 20
0.0
 30
0.0
 70
     1
  0
VERTEX
  5
B2E79
  8
0
 10
15501.12986539054
 20
10207.38139913677
 30
0.0
  0
VERTEX
  5
B2E7A
  8
0
 10
15501.12986539054
 20
12325.38140867355
 30
0.0
  0
VERTEX
  5
B2E7B
  8
0
 10
15466.12986539054
 20
12325.38140867355
 30
0.0
  0
VERTEX
  5
B2E7C
  8
0
 10
15466.12986539054
 20
10207.38139913677
 30
0.0
  0
SEQEND
  5
B350F
  8
0
  0
POLYLINE
  5
AAF44
  8
0
 66
     1
 10
0.0
 20
0.0
 30
0.0
 70
     1
  0
VERTEX
  5
B2E7D
  8
0
 10
14463.52986539045
 20
16058.516898687
 30
0.0
  0
VERTEX
  5
B2E7E
  8
0
 10
14463.52986539045
 20
13935.51688915023
 30
0.0
  0
VERTEX
  5
B2E7F
  8
0
 10
14433.52986539045
 20
13935.51688915023
 30
0.0
  0
VERTEX
  5
B2E80
  8
0
 10
14433.52986539045
 20
16058.516898687
 30
0.0
  0
SEQEND
  5
B3510
  8
0
  0
POLYLINE
  5
AAF45
  8
0
 66
     1
 10
0.0
 20
0.0
 30
0.0
 70
     1
  0
VERTEX
  5
B2E81
  8
0
 10
19099.58639094058
 20
16058.51689868701
 30
0.0
  0
VERTEX
  5
B2E82
  8
0
 10
19099.58639094058
 20
13935.51688915023
 30
0.0
  0
VERTEX
  5
B2E83
  8
0
 10
19069.58639094058
 20
13935.51688915023
 30
0.0
  0
VERTEX
  5
B2E84
  8
0
 10
19069.58639094058
 20
16058.51689868701
 30
0.0
  0
SEQEND
  5
B3511
  8
0
  0
POLYLINE
  5
AAF46
  8
0
 66
     1
 10
0.0
 20
0.0
 30
0.0
 70
     1
  0
VERTEX
  5
B2E85
  8
0
 10
14463.52986539044
 20
12325.38140867354
 30
0.0
  0
VERTEX
  5
B2E86
  8
0
 10
14463.52986539044
 20
10202.38139913677
 30
0.0
  0
VERTEX
  5
B2E87
  8
0
 10
14433.52986539045
 20
10202.38139913677
 30
0.0
  0
VERTEX
  5
B2E88
  8
0
 10
14433.52986539045
 20
12325.38140867354
 30
0.0
  0
SEQEND
  5
B3512
  8
0
  0
POLYLINE
  5
AAF47
  8
0
 66
     1
 10
0.0
 20
0.0
 30
0.0
 70
     1
  0
VERTEX
  5
B2E89
  8
0
 10
19099.58639094051
 20
12325.38140867354
 30
0.0
  0
VERTEX
  5
B2E8A
  8
0
 10
19099.58639094051
 20
10202.38139913677
 30
0.0
  0
VERTEX
  5
B2E8B
  8
0
 10
19069.58639094051
 20
10202.38139913677
 30
0.0
  0
VERTEX
  5
B2E8C
  8
0
 10
19069.58639094051
 20
12325.38140867354
 30
0.0
  0
SEQEND
  5
B3513
  8
0
  0
TEXT
  5
AAF48
  8
0
 10
14147.61208006504
 20
9662.812398013786
 30
0.0
 40
125.0
  1
Modular Combinations (L=100 cm) / Componibilità moduli (L=100 cm) / Zusammensetzbarkeit Module (L=100 cm)
  7
STILE1
 72
     1
 11
19939.27874673171
 21
9662.812398013786
 31
0.0
  0
POLYLINE
  5
AAF49
  8
0
 66
     1
 10
0.0
 20
0.0
 30
0.0
 70
     1
  0
VERTEX
  5
B2E8D
  8
0
 10
13550.0
 20
9565.002619770918
 30
0.0
  0
VERTEX
  5
B2E8E
  8
0
 10
26550.0
 20
9565.002619770918
 30
0.0
  0
VERTEX
  5
B2E8F
  8
0
 10
26550.0
 20
9865.002619770918
 30
0.0
  0
VERTEX
  5
B2E90
  8
0
 10
13550.0
 20
9865.002619770918
 30
0.0
  0
SEQEND
  5
B3514
  8
0
  0
POLYLINE
  5
AAF4A
  8
0
 66
     1
 10
0.0
 20
0.0
 30
0.0
 70
     1
  0
VERTEX
  5
B2E91
  8
0
 10
13550.0
 20
17592.34759251489
 30
0.0
  0
VERTEX
  5
B2E92
  8
0
 10
26550.0
 20
17592.34759251489
 30
0.0
  0
VERTEX
  5
B2E93
  8
0
 10
26550.0
 20
17892.34759251489
 30
0.0
  0
VERTEX
  5
B2E94
  8
0
 10
13550.0
 20
17892.34759251489
 30
0.0
  0
SEQEND
  5
B3515
  8
0
  0
TEXT
  5
AAF4B
  8
0
 10
14179.85348037868
 20
17690.15737075776
 30
0.0
 40
125.0
  1
Modular Combinations (L=120 cm) / Componibilità moduli (L=120 cm) / Zusammensetzbarkeit Module (L=120 cm)
  7
STILE1
 72
     1
 11
19971.52014704535
 21
17690.15737075776
 31
0.0
  0
POLYLINE
  5
AAF4C
  8
0
 66
     1
 10
0.0
 20
0.0
 30
0.0
 70
     1
  0
VERTEX
  5
B2E95
  8
0
 10
19099.58639094051
 20
20352.72638141752
 30
0.0
  0
VERTEX
  5
B2E96
  8
0
 10
19099.58639094051
 20
18229.72637188075
 30
0.0
  0
VERTEX
  5
B2E97
  8
0
 10
19069.58639094051
 20
18229.72637188075
 30
0.0
  0
VERTEX
  5
B2E98
  8
0
 10
19069.58639094051
 20
20352.72638141752
 30
0.0
  0
SEQEND
  5
B3516
  8
0
  0
POLYLINE
  5
AAF4D
  8
0
 66
     1
 10
0.0
 20
0.0
 30
0.0
 70
     1
  0
VERTEX
  5
B2E99
  8
0
 10
14463.52986539044
 20
20352.72638141752
 30
0.0
  0
VERTEX
  5
B2E9A
  8
0
 10
14463.52986539044
 20
18229.72637188075
 30
0.0
  0
VERTEX
  5
B2E9B
  8
0
 10
14433.52986539045
 20
18229.72637188075
 30
0.0
  0
VERTEX
  5
B2E9C
  8
0
 10
14433.52986539045
 20
20352.72638141752
 30
0.0
  0
SEQEND
  5
B3517
  8
0
  0
POLYLINE
  5
AAF4E
  8
0
 66
     1
 10
0.0
 20
0.0
 30
0.0
 70
     1
  0
VERTEX
  5
B2E9D
  8
0
 10
19099.58639094058
 20
24085.86187143098
 30
0.0
  0
VERTEX
  5
B2E9E
  8
0
 10
19099.58639094058
 20
21962.86186189421
 30
0.0
  0
VERTEX
  5
B2E9F
  8
0
 10
19069.58639094058
 20
21962.86186189421
 30
0.0
  0
VERTEX
  5
B2EA0
  8
0
 10
19069.58639094058
 20
24085.86187143098
 30
0.0
  0
SEQEND
  5
B3518
  8
0
  0
POLYLINE
  5
AAF4F
  8
0
 66
     1
 10
0.0
 20
0.0
 30
0.0
 70
     1
  0
VERTEX
  5
B2EA1
  8
0
 10
14463.52986539045
 20
24085.86187143098
 30
0.0
  0
VERTEX
  5
B2EA2
  8
0
 10
14463.52986539045
 20
21962.86186189421
 30
0.0
  0
VERTEX
  5
B2EA3
  8
0
 10
14433.52986539045
 20
21962.86186189421
 30
0.0
  0
VERTEX
  5
B2EA4
  8
0
 10
14433.52986539045
 20
24085.86187143098
 30
0.0
  0
SEQEND
  5
B3519
  8
0
  0
POLYLINE
  5
AAF50
  8
0
 66
     1
 10
0.0
 20
0.0
 30
0.0
 70
     1
  0
VERTEX
  5
B2EA5
  8
0
 10
15701.12986539054
 20
18234.72637188075
 30
0.0
  0
VERTEX
  5
B2EA6
  8
0
 10
15701.12986539054
 20
20352.72638141753
 30
0.0
  0
VERTEX
  5
B2EA7
  8
0
 10
15666.12986539054
 20
20352.72638141753
 30
0.0
  0
VERTEX
  5
B2EA8
  8
0
 10
15666.12986539054
 20
18234.72637188075
 30
0.0
  0
SEQEND
  5
B351A
  8
0
  0
POLYLINE
  5
AAF51
  8
0
 66
     1
 10
0.0
 20
0.0
 30
0.0
 70
     1
  0
VERTEX
  5
B2EA9
  8
0
 10
14530.12986539054
 20
18229.72637188075
 30
0.0
  0
VERTEX
  5
B2EAA
  8
0
 10
14493.52986539044
 20
18229.72637188075
 30
0.0
  0
VERTEX
  5
B2EAB
  8
0
 10
14493.52986539044
 20
20352.72638141753
 30
0.0
  0
VERTEX
  5
B2EAC
  8
0
 10
14529.12986539054
 20
20352.72638141753
 30
0.0
  0
VERTEX
  5
B2EAD
  8
0
 10
14529.12986539054
 20
20312.72637188072
 30
0.0
  0
VERTEX
  5
B2EAE
  8
0
 10
14530.12986539054
 20
20312.72637188072
 30
0.0
  0
SEQEND
  5
B351B
  8
0
  0
POLYLINE
  5
AAF52
  8
0
 66
     1
 10
0.0
 20
0.0
 30
0.0
 70
     1
  0
VERTEX
  5
B2EAF
  8
0
 10
15666.12986539054
 20
18253.22637188075
 30
0.0
  0
VERTEX
  5
B2EB0
  8
0
 10
15666.12986539054
 20
18312.72637188075
 30
0.0
  0
VERTEX
  5
B2EB1
  8
0
 10
14530.12986539054
 20
18312.72637188075
 30
0.0
  0
VERTEX
  5
B2EB2
  8
0
 10
14530.12986539054
 20
18253.22637188075
 30
0.0
  0
SEQEND
  5
B351C
  8
0
  0
POLYLINE
  5
AAF53
  8
0
 66
     1
 10
0.0
 20
0.0
 30
0.0
 70
     1
  0
VERTEX
  5
B2EB3
  8
0
 10
14530.12986539054
 20
18312.72637188075
 30
0.0
  0
VERTEX
  5
B2EB4
  8
0
 10
14530.12986539054
 20
18342.72637188075
 30
0.0
  0
VERTEX
  5
B2EB5
  8
0
 10
15666.12986539054
 20
18342.72637188075
 30
0.0
  0
VERTEX
  5
B2EB6
  8
0
 10
15666.12986539054
 20
18312.72637188075
 30
0.0
  0
SEQEND
  5
B351D
  8
0
  0
POLYLINE
  5
AAF54
  8
CLOTHES_RAIL
 66
     1
 10
0.0
 20
0.0
 30
0.0
 70
     1
  0
VERTEX
  5
B2EB7
  8
CLOTHES_RAIL
 10
15666.12986539054
 20
20240.22637188072
 30
0.0
  0
VERTEX
  5
B2EB8
  8
CLOTHES_RAIL
 10
15666.12986539054
 20
20265.22637188072
 30
0.0
  0
VERTEX
  5
B2EB9
  8
CLOTHES_RAIL
 10
14530.12986539054
 20
20265.22637188072
 30
0.0
  0
VERTEX
  5
B2EBA
  8
CLOTHES_RAIL
 10
14530.12986539054
 20
20240.22637188072
 30
0.0
  0
SEQEND
  5
B351E
  8
CLOTHES_RAIL
  0
POLYLINE
  5
AAF55
  8
0
 66
     1
 10
0.0
 20
0.0
 30
0.0
 70
     1
  0
VERTEX
  5
B2EBB
  8
0
 10
14529.12986539054
 20
20312.72637188072
 30
0.0
  0
VERTEX
  5
B2EBC
  8
0
 10
14529.12986539054
 20
20352.72638141753
 30
0.0
  0
VERTEX
  5
B2EBD
  8
0
 10
15666.12986539054
 20
20352.72638141753
 30
0.0
  0
VERTEX
  5
B2EBE
  8
0
 10
15666.12986539054
 20
20312.72637188072
 30
0.0
  0
SEQEND
  5
B351F
  8
0
  0
POLYLINE
  5
AAF56
  8
0
 66
     1
 10
0.0
 20
0.0
 30
0.0
 70
     1
  0
VERTEX
  5
B2EBF
  8
0
 10
15612.12986539054
 20
18253.22637188075
 30
0.0
  0
VERTEX
  5
B2EC0
  8
0
 10
15612.12986539054
 20
18226.32637188096
 30
0.0
  0
VERTEX
  5
B2EC1
  8
0
 10
15611.12986539054
 20
18225.32637188083
 30
0.0
  0
VERTEX
  5
B2EC2
  8
0
 10
15607.12986539054
 20
18225.32637188083
 30
0.0
  0
VERTEX
  5
B2EC3
  8
0
 10
15606.12986539054
 20
18226.32637188096
 30
0.0
  0
VERTEX
  5
B2EC4
  8
0
 10
15606.12986539054
 20
18232.82637188083
 30
0.0
  0
VERTEX
  5
B2EC5
  8
0
 10
15579.1476305474
 20
18233.29734854196
 30
0.0
  0
VERTEX
  5
B2EC6
  8
0
 10
15578.12986539054
 20
18234.3151136989
 30
0.0
  0
VERTEX
  5
B2EC7
  8
0
 10
15578.12986539054
 20
18253.22637188075
 30
0.0
  0
SEQEND
  5
B3520
  8
0
  0
POLYLINE
  5
AAF57
  8
0
 66
     1
 10
0.0
 20
0.0
 30
0.0
 70
     1
  0
VERTEX
  5
B2EC8
  8
0
 10
14584.1298653906
 20
18253.22637188075
 30
0.0
  0
VERTEX
  5
B2EC9
  8
0
 10
14584.1298653906
 20
18226.32637188096
 30
0.0
  0
VERTEX
  5
B2ECA
  8
0
 10
14585.12986539054
 20
18225.32637188083
 30
0.0
  0
VERTEX
  5
B2ECB
  8
0
 10
14589.12986539059
 20
18225.32637188083
 30
0.0
  0
VERTEX
  5
B2ECC
  8
0
 10
14590.12986539054
 20
18226.32637188096
 30
0.0
  0
VERTEX
  5
B2ECD
  8
0
 10
14590.12986539054
 20
18232.82637188083
 30
0.0
  0
VERTEX
  5
B2ECE
  8
0
 10
14617.11210023366
 20
18233.29734854196
 30
0.0
  0
VERTEX
  5
B2ECF
  8
0
 10
14618.12986539054
 20
18234.3151136989
 30
0.0
  0
VERTEX
  5
B2ED0
  8
0
 10
14618.12986539054
 20
18253.22637188075
 30
0.0
  0
SEQEND
  5
B3521
  8
0
  0
POLYLINE
  5
AAF58
  8
0
 66
     1
 10
0.0
 20
0.0
 30
0.0
 70
     1
  0
VERTEX
  5
B2ED1
  8
0
 10
15605.62986539054
 20
18232.7263718808
 30
0.0
  0
VERTEX
  5
B2ED2
  8
0
 10
15605.62986539054
 20
18212.7263718808
 30
0.0
  0
VERTEX
  5
B2ED3
  8
0
 10
14590.62986539054
 20
18212.7263718808
 30
0.0
  0
VERTEX
  5
B2ED4
  8
0
 10
14590.62986539054
 20
18232.7263718808
 30
0.0
  0
SEQEND
  5
B3522
  8
0
  0
POLYLINE
  5
AAF59
  8
0
 66
     1
 10
0.0
 20
0.0
 30
0.0
 70
     1
  0
VERTEX
  5
B2ED5
  8
0
 10
14610.62986539054
 20
18212.7263718808
 30
0.0
  0
VERTEX
  5
B2ED6
  8
0
 10
14610.62986539054
 20
18232.7263718808
 30
0.0
  0
VERTEX
  5
B2ED7
  8
0
 10
14590.62986539054
 20
18232.7263718808
 30
0.0
  0
VERTEX
  5
B2ED8
  8
0
 10
14590.62986539054
 20
18212.7263718808
 30
0.0
  0
SEQEND
  5
B3523
  8
0
  0
POLYLINE
  5
AAF5A
  8
0
 66
     1
 10
0.0
 20
0.0
 30
0.0
 70
     1
  0
VERTEX
  5
B2ED9
  8
0
 10
15585.62986539054
 20
18212.7263718808
 30
0.0
  0
VERTEX
  5
B2EDA
  8
0
 10
15585.62986539054
 20
18232.7263718808
 30
0.0
  0
VERTEX
  5
B2EDB
  8
0
 10
15605.62986539054
 20
18232.7263718808
 30
0.0
  0
VERTEX
  5
B2EDC
  8
0
 10
15605.62986539054
 20
18212.7263718808
 30
0.0
  0
SEQEND
  5
B3524
  8
0
  0
POLYLINE
  5
AAF5B
  8
0
 66
     1
 10
0.0
 20
0.0
 30
0.0
 70
     1
  0
VERTEX
  5
B2EDD
  8
0
 10
15666.12986539054
 20
19342.72637188074
 30
0.0
  0
VERTEX
  5
B2EDE
  8
0
 10
15666.12986539054
 20
19312.72637188074
 30
0.0
  0
VERTEX
  5
B2EDF
  8
0
 10
14530.12986539054
 20
19312.72637188074
 30
0.0
  0
VERTEX
  5
B2EE0
  8
0
 10
14530.12986539054
 20
19342.72637188074
 30
0.0
  0
SEQEND
  5
B3525
  8
0
  0
POLYLINE
  5
AAF5C
  8
CLOTHES_RAIL
 66
     1
 10
0.0
 20
0.0
 30
0.0
 70
     1
  0
VERTEX
  5
B2EE1
  8
CLOTHES_RAIL
 10
15666.12986539054
 20
19265.22637188075
 30
0.0
  0
VERTEX
  5
B2EE2
  8
CLOTHES_RAIL
 10
15666.12986539054
 20
19240.22637188074
 30
0.0
  0
VERTEX
  5
B2EE3
  8
CLOTHES_RAIL
 10
14530.12986539054
 20
19240.22637188074
 30
0.0
  0
VERTEX
  5
B2EE4
  8
CLOTHES_RAIL
 10
14530.12986539054
 20
19265.22637188075
 30
0.0
  0
SEQEND
  5
B3526
  8
CLOTHES_RAIL
  0
POLYLINE
  5
AAF5D
  8
0
 66
     1
 10
0.0
 20
0.0
 30
0.0
 70
     1
  0
VERTEX
  5
B2EE5
  8
0
 10
20302.1863909406
 20
23795.86186189421
 30
0.0
  0
VERTEX
  5
B2EE6
  8
0
 10
20302.1863909406
 20
23825.86186189421
 30
0.0
  0
VERTEX
  5
B2EE7
  8
0
 10
19166.1863909406
 20
23825.86186189421
 30
0.0
  0
VERTEX
  5
B2EE8
  8
0
 10
19166.1863909406
 20
23795.86186189421
 30
0.0
  0
SEQEND
  5
B3527
  8
0
  0
POLYLINE
  5
AAF5E
  8
0
 66
     1
 10
0.0
 20
0.0
 30
0.0
 70
     1
  0
VERTEX
  5
B2EE9
  8
0
 10
20302.1863909406
 20
23545.86186189421
 30
0.0
  0
VERTEX
  5
B2EEA
  8
0
 10
20302.1863909406
 20
23575.86186189421
 30
0.0
  0
VERTEX
  5
B2EEB
  8
0
 10
19166.1863909406
 20
23575.86186189421
 30
0.0
  0
VERTEX
  5
B2EEC
  8
0
 10
19166.1863909406
 20
23545.86186189421
 30
0.0
  0
SEQEND
  5
B3528
  8
0
  0
POLYLINE
  5
AAF5F
  8
0
 66
     1
 10
0.0
 20
0.0
 30
0.0
 70
     1
  0
VERTEX
  5
B2EED
  8
0
 10
20302.1863909406
 20
23295.86186189422
 30
0.0
  0
VERTEX
  5
B2EEE
  8
0
 10
20302.1863909406
 20
23325.86186189421
 30
0.0
  0
VERTEX
  5
B2EEF
  8
0
 10
19166.1863909406
 20
23325.86186189421
 30
0.0
  0
VERTEX
  5
B2EF0
  8
0
 10
19166.1863909406
 20
23295.86186189422
 30
0.0
  0
SEQEND
  5
B3529
  8
0
  0
POLYLINE
  5
AAF60
  8
0
 66
     1
 10
0.0
 20
0.0
 30
0.0
 70
     1
  0
VERTEX
  5
B2EF1
  8
0
 10
20302.1863909406
 20
23045.86186189421
 30
0.0
  0
VERTEX
  5
B2EF2
  8
0
 10
20302.1863909406
 20
23075.8618618942
 30
0.0
  0
VERTEX
  5
B2EF3
  8
0
 10
19166.1863909406
 20
23075.8618618942
 30
0.0
  0
VERTEX
  5
B2EF4
  8
0
 10
19166.1863909406
 20
23045.86186189421
 30
0.0
  0
SEQEND
  5
B352A
  8
0
  0
POLYLINE
  5
AAF61
  8
0
 66
     1
 10
0.0
 20
0.0
 30
0.0
 70
     1
  0
VERTEX
  5
B2EF5
  8
0
 10
20302.1863909406
 20
22795.86186189421
 30
0.0
  0
VERTEX
  5
B2EF6
  8
0
 10
20302.1863909406
 20
22825.86186189421
 30
0.0
  0
VERTEX
  5
B2EF7
  8
0
 10
19166.1863909406
 20
22825.86186189421
 30
0.0
  0
VERTEX
  5
B2EF8
  8
0
 10
19166.1863909406
 20
22795.86186189421
 30
0.0
  0
SEQEND
  5
B352B
  8
0
  0
POLYLINE
  5
AAF62
  8
0
 66
     1
 10
0.0
 20
0.0
 30
0.0
 70
     1
  0
VERTEX
  5
B2EF9
  8
0
 10
20302.1863909406
 20
22545.86186189421
 30
0.0
  0
VERTEX
  5
B2EFA
  8
0
 10
20302.1863909406
 20
22575.86186189421
 30
0.0
  0
VERTEX
  5
B2EFB
  8
0
 10
19166.1863909406
 20
22575.86186189421
 30
0.0
  0
VERTEX
  5
B2EFC
  8
0
 10
19166.1863909406
 20
22545.86186189421
 30
0.0
  0
SEQEND
  5
B352C
  8
0
  0
POLYLINE
  5
AAF63
  8
0
 66
     1
 10
0.0
 20
0.0
 30
0.0
 70
     1
  0
VERTEX
  5
B2EFD
  8
0
 10
20302.1863909406
 20
22295.86186189421
 30
0.0
  0
VERTEX
  5
B2EFE
  8
0
 10
20302.1863909406
 20
22325.86186189421
 30
0.0
  0
VERTEX
  5
B2EFF
  8
0
 10
19166.1863909406
 20
22325.86186189421
 30
0.0
  0
VERTEX
  5
B2F00
  8
0
 10
19166.1863909406
 20
22295.86186189421
 30
0.0
  0
SEQEND
  5
B352D
  8
0
  0
POLYLINE
  5
AAF64
  8
0
 66
     1
 10
0.0
 20
0.0
 30
0.0
 70
     1
  0
VERTEX
  5
B2F01
  8
0
 10
20221.6863909406
 20
21945.86186189426
 30
0.0
  0
VERTEX
  5
B2F02
  8
0
 10
20221.6863909406
 20
21965.86186189426
 30
0.0
  0
VERTEX
  5
B2F03
  8
0
 10
20241.6863909406
 20
21965.86186189426
 30
0.0
  0
VERTEX
  5
B2F04
  8
0
 10
20241.6863909406
 20
21945.86186189426
 30
0.0
  0
SEQEND
  5
B352E
  8
0
  0
POLYLINE
  5
AAF65
  8
0
 66
     1
 10
0.0
 20
0.0
 30
0.0
 70
     1
  0
VERTEX
  5
B2F05
  8
0
 10
19246.6863909406
 20
21945.86186189426
 30
0.0
  0
VERTEX
  5
B2F06
  8
0
 10
19246.6863909406
 20
21965.86186189426
 30
0.0
  0
VERTEX
  5
B2F07
  8
0
 10
19226.6863909406
 20
21965.86186189426
 30
0.0
  0
VERTEX
  5
B2F08
  8
0
 10
19226.6863909406
 20
21945.86186189426
 30
0.0
  0
SEQEND
  5
B352F
  8
0
  0
POLYLINE
  5
AAF66
  8
0
 66
     1
 10
0.0
 20
0.0
 30
0.0
 70
     1
  0
VERTEX
  5
B2F09
  8
0
 10
20241.6863909406
 20
21965.86186189426
 30
0.0
  0
VERTEX
  5
B2F0A
  8
0
 10
20241.6863909406
 20
21945.86186189426
 30
0.0
  0
VERTEX
  5
B2F0B
  8
0
 10
19226.6863909406
 20
21945.86186189426
 30
0.0
  0
VERTEX
  5
B2F0C
  8
0
 10
19226.6863909406
 20
21965.86186189426
 30
0.0
  0
SEQEND
  5
B3530
  8
0
  0
POLYLINE
  5
AAF67
  8
0
 66
     1
 10
0.0
 20
0.0
 30
0.0
 70
     1
  0
VERTEX
  5
B2F0D
  8
0
 10
19220.1863909406
 20
21986.36186189421
 30
0.0
  0
VERTEX
  5
B2F0E
  8
0
 10
19220.1863909406
 20
21959.46186189442
 30
0.0
  0
VERTEX
  5
B2F0F
  8
0
 10
19221.1863909406
 20
21958.46186189429
 30
0.0
  0
VERTEX
  5
B2F10
  8
0
 10
19225.18639094059
 20
21958.46186189429
 30
0.0
  0
VERTEX
  5
B2F11
  8
0
 10
19226.1863909406
 20
21959.46186189442
 30
0.0
  0
VERTEX
  5
B2F12
  8
0
 10
19226.1863909406
 20
21965.96186189429
 30
0.0
  0
VERTEX
  5
B2F13
  8
0
 10
19253.16862578373
 20
21966.43283855542
 30
0.0
  0
VERTEX
  5
B2F14
  8
0
 10
19254.1863909406
 20
21967.45060371236
 30
0.0
  0
VERTEX
  5
B2F15
  8
0
 10
19254.1863909406
 20
21986.36186189421
 30
0.0
  0
SEQEND
  5
B3531
  8
0
  0
POLYLINE
  5
AAF68
  8
0
 66
     1
 10
0.0
 20
0.0
 30
0.0
 70
     1
  0
VERTEX
  5
B2F16
  8
0
 10
20248.18639094054
 20
21986.36186189421
 30
0.0
  0
VERTEX
  5
B2F17
  8
0
 10
20248.18639094054
 20
21959.46186189442
 30
0.0
  0
VERTEX
  5
B2F18
  8
0
 10
20247.1863909406
 20
21958.46186189429
 30
0.0
  0
VERTEX
  5
B2F19
  8
0
 10
20243.18639094054
 20
21958.46186189429
 30
0.0
  0
VERTEX
  5
B2F1A
  8
0
 10
20242.1863909406
 20
21959.46186189442
 30
0.0
  0
VERTEX
  5
B2F1B
  8
0
 10
20242.1863909406
 20
21965.96186189429
 30
0.0
  0
VERTEX
  5
B2F1C
  8
0
 10
20215.20415609748
 20
21966.43283855542
 30
0.0
  0
VERTEX
  5
B2F1D
  8
0
 10
20214.1863909406
 20
21967.45060371236
 30
0.0
  0
VERTEX
  5
B2F1E
  8
0
 10
20214.1863909406
 20
21986.36186189421
 30
0.0
  0
SEQEND
  5
B3532
  8
0
  0
POLYLINE
  5
AAF69
  8
0
 66
     1
 10
0.0
 20
0.0
 30
0.0
 70
     1
  0
VERTEX
  5
B2F1F
  8
0
 10
19165.1863909406
 20
24045.86186189419
 30
0.0
  0
VERTEX
  5
B2F20
  8
0
 10
19165.1863909406
 20
24085.86187143098
 30
0.0
  0
VERTEX
  5
B2F21
  8
0
 10
20302.1863909406
 20
24085.86187143098
 30
0.0
  0
VERTEX
  5
B2F22
  8
0
 10
20302.1863909406
 20
24045.86186189419
 30
0.0
  0
SEQEND
  5
B3533
  8
0
  0
POLYLINE
  5
AAF6A
  8
0
 66
     1
 10
0.0
 20
0.0
 30
0.0
 70
     1
  0
VERTEX
  5
B2F23
  8
0
 10
19166.1863909406
 20
22045.86186189422
 30
0.0
  0
VERTEX
  5
B2F24
  8
0
 10
19166.1863909406
 20
22075.86186189421
 30
0.0
  0
VERTEX
  5
B2F25
  8
0
 10
20302.1863909406
 20
22075.86186189421
 30
0.0
  0
VERTEX
  5
B2F26
  8
0
 10
20302.1863909406
 20
22045.86186189422
 30
0.0
  0
SEQEND
  5
B3534
  8
0
  0
POLYLINE
  5
AAF6B
  8
0
 66
     1
 10
0.0
 20
0.0
 30
0.0
 70
     1
  0
VERTEX
  5
B2F27
  8
0
 10
20302.1863909406
 20
21986.36186189421
 30
0.0
  0
VERTEX
  5
B2F28
  8
0
 10
20302.1863909406
 20
22045.86186189422
 30
0.0
  0
VERTEX
  5
B2F29
  8
0
 10
19166.1863909406
 20
22045.86186189422
 30
0.0
  0
VERTEX
  5
B2F2A
  8
0
 10
19166.1863909406
 20
21986.36186189421
 30
0.0
  0
SEQEND
  5
B3535
  8
0
  0
POLYLINE
  5
AAF6C
  8
0
 66
     1
 10
0.0
 20
0.0
 30
0.0
 70
     1
  0
VERTEX
  5
B2F2B
  8
0
 10
19166.1863909406
 20
21962.86186189421
 30
0.0
  0
VERTEX
  5
B2F2C
  8
0
 10
19129.58639094039
 20
21962.86186189421
 30
0.0
  0
VERTEX
  5
B2F2D
  8
0
 10
19129.58639094039
 20
24085.86187143098
 30
0.0
  0
VERTEX
  5
B2F2E
  8
0
 10
19165.1863909406
 20
24085.86187143098
 30
0.0
  0
VERTEX
  5
B2F2F
  8
0
 10
19165.1863909406
 20
24045.86186189419
 30
0.0
  0
VERTEX
  5
B2F30
  8
0
 10
19166.1863909406
 20
24045.86186189419
 30
0.0
  0
SEQEND
  5
B3536
  8
0
  0
POLYLINE
  5
AAF6D
  8
0
 66
     1
 10
0.0
 20
0.0
 30
0.0
 70
     1
  0
VERTEX
  5
B2F31
  8
0
 10
20337.1863909406
 20
21967.86186189422
 30
0.0
  0
VERTEX
  5
B2F32
  8
0
 10
20337.1863909406
 20
24085.86187143098
 30
0.0
  0
VERTEX
  5
B2F33
  8
0
 10
20302.1863909406
 20
24085.86187143098
 30
0.0
  0
VERTEX
  5
B2F34
  8
0
 10
20302.1863909406
 20
21967.86186189422
 30
0.0
  0
SEQEND
  5
B3537
  8
0
  0
POLYLINE
  5
AAF6E
  8
0
 66
     1
 10
0.0
 20
0.0
 30
0.0
 70
     1
  0
VERTEX
  5
B2F35
  8
0
 10
14530.1298653905
 20
23645.86186189421
 30
0.0
  0
VERTEX
  5
B2F36
  8
0
 10
14530.1298653905
 20
23675.8618618942
 30
0.0
  0
VERTEX
  5
B2F37
  8
0
 10
15666.1298653905
 20
23675.8618618942
 30
0.0
  0
VERTEX
  5
B2F38
  8
0
 10
15666.1298653905
 20
23645.86186189421
 30
0.0
  0
SEQEND
  5
B3538
  8
0
  0
POLYLINE
  5
AAF6F
  8
0
 66
     1
 10
0.0
 20
0.0
 30
0.0
 70
     1
  0
VERTEX
  5
B2F39
  8
0
 10
15666.1298653905
 20
22445.86186189421
 30
0.0
  0
VERTEX
  5
B2F3A
  8
0
 10
15666.1298653905
 20
22475.86186189421
 30
0.0
  0
VERTEX
  5
B2F3B
  8
0
 10
14530.1298653905
 20
22475.86186189421
 30
0.0
  0
VERTEX
  5
B2F3C
  8
0
 10
14530.1298653905
 20
22445.86186189421
 30
0.0
  0
SEQEND
  5
B3539
  8
0
  0
POLYLINE
  5
AAF70
  8
0
 66
     1
 10
0.0
 20
0.0
 30
0.0
 70
     1
  0
VERTEX
  5
B2F3D
  8
0
 10
15666.1298653905
 20
23245.86186189421
 30
0.0
  0
VERTEX
  5
B2F3E
  8
0
 10
15666.1298653905
 20
23275.8618618942
 30
0.0
  0
VERTEX
  5
B2F3F
  8
0
 10
14530.1298653905
 20
23275.8618618942
 30
0.0
  0
VERTEX
  5
B2F40
  8
0
 10
14530.1298653905
 20
23245.86186189421
 30
0.0
  0
SEQEND
  5
B353A
  8
0
  0
POLYLINE
  5
AAF71
  8
0
 66
     1
 10
0.0
 20
0.0
 30
0.0
 70
     1
  0
VERTEX
  5
B2F41
  8
0
 10
14530.1298653905
 20
22845.86186189421
 30
0.0
  0
VERTEX
  5
B2F42
  8
0
 10
14530.1298653905
 20
22875.86186189421
 30
0.0
  0
VERTEX
  5
B2F43
  8
0
 10
15666.1298653905
 20
22875.86186189421
 30
0.0
  0
VERTEX
  5
B2F44
  8
0
 10
15666.1298653905
 20
22845.86186189421
 30
0.0
  0
SEQEND
  5
B353B
  8
0
  0
POLYLINE
  5
AAF72
  8
0
 66
     1
 10
0.0
 20
0.0
 30
0.0
 70
     1
  0
VERTEX
  5
B2F45
  8
0
 10
15585.6298653905
 20
21945.86186189426
 30
0.0
  0
VERTEX
  5
B2F46
  8
0
 10
15585.6298653905
 20
21965.86186189426
 30
0.0
  0
VERTEX
  5
B2F47
  8
0
 10
15605.6298653905
 20
21965.86186189426
 30
0.0
  0
VERTEX
  5
B2F48
  8
0
 10
15605.6298653905
 20
21945.86186189426
 30
0.0
  0
SEQEND
  5
B353C
  8
0
  0
POLYLINE
  5
AAF73
  8
0
 66
     1
 10
0.0
 20
0.0
 30
0.0
 70
     1
  0
VERTEX
  5
B2F49
  8
0
 10
14610.6298653905
 20
21945.86186189426
 30
0.0
  0
VERTEX
  5
B2F4A
  8
0
 10
14610.6298653905
 20
21965.86186189426
 30
0.0
  0
VERTEX
  5
B2F4B
  8
0
 10
14590.6298653905
 20
21965.86186189426
 30
0.0
  0
VERTEX
  5
B2F4C
  8
0
 10
14590.6298653905
 20
21945.86186189426
 30
0.0
  0
SEQEND
  5
B353D
  8
0
  0
POLYLINE
  5
AAF74
  8
0
 66
     1
 10
0.0
 20
0.0
 30
0.0
 70
     1
  0
VERTEX
  5
B2F4D
  8
0
 10
15605.6298653905
 20
21965.86186189426
 30
0.0
  0
VERTEX
  5
B2F4E
  8
0
 10
15605.6298653905
 20
21945.86186189426
 30
0.0
  0
VERTEX
  5
B2F4F
  8
0
 10
14590.6298653905
 20
21945.86186189426
 30
0.0
  0
VERTEX
  5
B2F50
  8
0
 10
14590.6298653905
 20
21965.86186189426
 30
0.0
  0
SEQEND
  5
B353E
  8
0
  0
POLYLINE
  5
AAF75
  8
0
 66
     1
 10
0.0
 20
0.0
 30
0.0
 70
     1
  0
VERTEX
  5
B2F51
  8
0
 10
14584.12986539058
 20
21986.36186189421
 30
0.0
  0
VERTEX
  5
B2F52
  8
0
 10
14584.12986539058
 20
21959.46186189442
 30
0.0
  0
VERTEX
  5
B2F53
  8
0
 10
14585.1298653905
 20
21958.46186189429
 30
0.0
  0
VERTEX
  5
B2F54
  8
0
 10
14589.12986539061
 20
21958.46186189429
 30
0.0
  0
VERTEX
  5
B2F55
  8
0
 10
14590.1298653905
 20
21959.46186189442
 30
0.0
  0
VERTEX
  5
B2F56
  8
0
 10
14590.1298653905
 20
21965.96186189429
 30
0.0
  0
VERTEX
  5
B2F57
  8
0
 10
14617.11210023374
 20
21966.43283855542
 30
0.0
  0
VERTEX
  5
B2F58
  8
0
 10
14618.1298653905
 20
21967.45060371236
 30
0.0
  0
VERTEX
  5
B2F59
  8
0
 10
14618.1298653905
 20
21986.36186189421
 30
0.0
  0
SEQEND
  5
B353F
  8
0
  0
POLYLINE
  5
AAF76
  8
0
 66
     1
 10
0.0
 20
0.0
 30
0.0
 70
     1
  0
VERTEX
  5
B2F5A
  8
0
 10
15612.1298653905
 20
21986.36186189421
 30
0.0
  0
VERTEX
  5
B2F5B
  8
0
 10
15612.1298653905
 20
21959.46186189442
 30
0.0
  0
VERTEX
  5
B2F5C
  8
0
 10
15611.1298653905
 20
21958.46186189429
 30
0.0
  0
VERTEX
  5
B2F5D
  8
0
 10
15607.1298653905
 20
21958.46186189429
 30
0.0
  0
VERTEX
  5
B2F5E
  8
0
 10
15606.1298653905
 20
21959.46186189442
 30
0.0
  0
VERTEX
  5
B2F5F
  8
0
 10
15606.1298653905
 20
21965.96186189429
 30
0.0
  0
VERTEX
  5
B2F60
  8
0
 10
15579.14763054741
 20
21966.43283855542
 30
0.0
  0
VERTEX
  5
B2F61
  8
0
 10
15578.1298653905
 20
21967.45060371236
 30
0.0
  0
VERTEX
  5
B2F62
  8
0
 10
15578.1298653905
 20
21986.36186189421
 30
0.0
  0
SEQEND
  5
B3540
  8
0
  0
POLYLINE
  5
AAF77
  8
0
 66
     1
 10
0.0
 20
0.0
 30
0.0
 70
     1
  0
VERTEX
  5
B2F63
  8
0
 10
14529.1298653905
 20
24045.86186189418
 30
0.0
  0
VERTEX
  5
B2F64
  8
0
 10
14529.1298653905
 20
24085.86187143098
 30
0.0
  0
VERTEX
  5
B2F65
  8
0
 10
15666.1298653905
 20
24085.86187143098
 30
0.0
  0
VERTEX
  5
B2F66
  8
0
 10
15666.1298653905
 20
24045.86186189418
 30
0.0
  0
SEQEND
  5
B3541
  8
0
  0
POLYLINE
  5
AAF78
  8
0
 66
     1
 10
0.0
 20
0.0
 30
0.0
 70
     1
  0
VERTEX
  5
B2F67
  8
0
 10
14530.1298653905
 20
22045.86186189422
 30
0.0
  0
VERTEX
  5
B2F68
  8
0
 10
14530.1298653905
 20
22075.86186189421
 30
0.0
  0
VERTEX
  5
B2F69
  8
0
 10
15666.1298653905
 20
22075.86186189421
 30
0.0
  0
VERTEX
  5
B2F6A
  8
0
 10
15666.1298653905
 20
22045.86186189422
 30
0.0
  0
SEQEND
  5
B3542
  8
0
  0
POLYLINE
  5
AAF79
  8
0
 66
     1
 10
0.0
 20
0.0
 30
0.0
 70
     1
  0
VERTEX
  5
B2F6B
  8
0
 10
15666.1298653905
 20
21986.36186189421
 30
0.0
  0
VERTEX
  5
B2F6C
  8
0
 10
15666.1298653905
 20
22045.86186189422
 30
0.0
  0
VERTEX
  5
B2F6D
  8
0
 10
14530.1298653905
 20
22045.86186189422
 30
0.0
  0
VERTEX
  5
B2F6E
  8
0
 10
14530.1298653905
 20
21986.36186189421
 30
0.0
  0
SEQEND
  5
B3543
  8
0
  0
POLYLINE
  5
AAF7A
  8
0
 66
     1
 10
0.0
 20
0.0
 30
0.0
 70
     1
  0
VERTEX
  5
B2F6F
  8
0
 10
14530.1298653905
 20
21962.86186189421
 30
0.0
  0
VERTEX
  5
B2F70
  8
0
 10
14493.52986539045
 20
21962.86186189421
 30
0.0
  0
VERTEX
  5
B2F71
  8
0
 10
14493.52986539045
 20
24085.86187143098
 30
0.0
  0
VERTEX
  5
B2F72
  8
0
 10
14529.1298653905
 20
24085.86187143098
 30
0.0
  0
VERTEX
  5
B2F73
  8
0
 10
14529.1298653905
 20
24045.86186189418
 30
0.0
  0
VERTEX
  5
B2F74
  8
0
 10
14530.1298653905
 20
24045.86186189418
 30
0.0
  0
SEQEND
  5
B3544
  8
0
  0
POLYLINE
  5
AAF7B
  8
0
 66
     1
 10
0.0
 20
0.0
 30
0.0
 70
     1
  0
VERTEX
  5
B2F75
  8
0
 10
15701.12986539051
 20
21967.86186189422
 30
0.0
  0
VERTEX
  5
B2F76
  8
0
 10
15701.12986539051
 20
24085.86187143098
 30
0.0
  0
VERTEX
  5
B2F77
  8
0
 10
15666.1298653905
 20
24085.86187143098
 30
0.0
  0
VERTEX
  5
B2F78
  8
0
 10
15666.1298653905
 20
21967.86186189422
 30
0.0
  0
SEQEND
  5
B3545
  8
0
  0
POLYLINE
  5
AAF7C
  8
0
 66
     1
 10
0.0
 20
0.0
 30
0.0
 70
     1
  0
VERTEX
  5
B2F79
  8
0
 10
20337.18639094054
 20
18234.72637188075
 30
0.0
  0
VERTEX
  5
B2F7A
  8
0
 10
20337.18639094054
 20
20352.72638141752
 30
0.0
  0
VERTEX
  5
B2F7B
  8
0
 10
20302.18639094054
 20
20352.72638141752
 30
0.0
  0
VERTEX
  5
B2F7C
  8
0
 10
20302.18639094054
 20
18234.72637188075
 30
0.0
  0
SEQEND
  5
B3546
  8
0
  0
POLYLINE
  5
AAF7D
  8
0
 66
     1
 10
0.0
 20
0.0
 30
0.0
 70
     1
  0
VERTEX
  5
B2F7D
  8
0
 10
19166.18639094054
 20
18229.72637188075
 30
0.0
  0
VERTEX
  5
B2F7E
  8
0
 10
19129.58639094035
 20
18229.72637188075
 30
0.0
  0
VERTEX
  5
B2F7F
  8
0
 10
19129.58639094035
 20
20352.72638141752
 30
0.0
  0
VERTEX
  5
B2F80
  8
0
 10
19165.18639094054
 20
20352.72638141752
 30
0.0
  0
VERTEX
  5
B2F81
  8
0
 10
19165.18639094054
 20
20312.72637188072
 30
0.0
  0
VERTEX
  5
B2F82
  8
0
 10
19166.18639094054
 20
20312.72637188072
 30
0.0
  0
SEQEND
  5
B3547
  8
0
  0
POLYLINE
  5
AAF7E
  8
0
 66
     1
 10
0.0
 20
0.0
 30
0.0
 70
     1
  0
VERTEX
  5
B2F83
  8
0
 10
19165.18639094054
 20
20312.72637188072
 30
0.0
  0
VERTEX
  5
B2F84
  8
0
 10
19165.18639094054
 20
20352.72638141752
 30
0.0
  0
VERTEX
  5
B2F85
  8
0
 10
20302.18639094054
 20
20352.72638141752
 30
0.0
  0
VERTEX
  5
B2F86
  8
0
 10
20302.18639094054
 20
20312.72637188072
 30
0.0
  0
SEQEND
  5
B3548
  8
0
  0
POLYLINE
  5
AAF7F
  8
0
 66
     1
 10
0.0
 20
0.0
 30
0.0
 70
     1
  0
VERTEX
  5
B2F87
  8
0
 10
20248.1863909405
 20
18253.22637188075
 30
0.0
  0
VERTEX
  5
B2F88
  8
0
 10
20248.1863909405
 20
18226.32637188095
 30
0.0
  0
VERTEX
  5
B2F89
  8
0
 10
20247.18639094054
 20
18225.32637188083
 30
0.0
  0
VERTEX
  5
B2F8A
  8
0
 10
20243.1863909405
 20
18225.32637188083
 30
0.0
  0
VERTEX
  5
B2F8B
  8
0
 10
20242.18639094053
 20
18226.32637188095
 30
0.0
  0
VERTEX
  5
B2F8C
  8
0
 10
20242.18639094053
 20
18232.82637188083
 30
0.0
  0
VERTEX
  5
B2F8D
  8
0
 10
20215.2041560974
 20
18233.29734854196
 30
0.0
  0
VERTEX
  5
B2F8E
  8
0
 10
20214.18639094054
 20
18234.3151136989
 30
0.0
  0
VERTEX
  5
B2F8F
  8
0
 10
20214.18639094054
 20
18253.22637188075
 30
0.0
  0
SEQEND
  5
B3549
  8
0
  0
POLYLINE
  5
AAF80
  8
0
 66
     1
 10
0.0
 20
0.0
 30
0.0
 70
     1
  0
VERTEX
  5
B2F90
  8
0
 10
19220.18639094052
 20
18253.22637188075
 30
0.0
  0
VERTEX
  5
B2F91
  8
0
 10
19220.18639094052
 20
18226.32637188095
 30
0.0
  0
VERTEX
  5
B2F92
  8
0
 10
19221.18639094052
 20
18225.32637188083
 30
0.0
  0
VERTEX
  5
B2F93
  8
0
 10
19225.18639094054
 20
18225.32637188083
 30
0.0
  0
VERTEX
  5
B2F94
  8
0
 10
19226.18639094054
 20
18226.32637188095
 30
0.0
  0
VERTEX
  5
B2F95
  8
0
 10
19226.18639094054
 20
18232.82637188083
 30
0.0
  0
VERTEX
  5
B2F96
  8
0
 10
19253.16862578368
 20
18233.29734854196
 30
0.0
  0
VERTEX
  5
B2F97
  8
0
 10
19254.18639094052
 20
18234.3151136989
 30
0.0
  0
VERTEX
  5
B2F98
  8
0
 10
19254.18639094052
 20
18253.22637188075
 30
0.0
  0
SEQEND
  5
B354A
  8
0
  0
POLYLINE
  5
AAF81
  8
0
 66
     1
 10
0.0
 20
0.0
 30
0.0
 70
     1
  0
VERTEX
  5
B2F99
  8
0
 10
20241.68639094054
 20
18232.72637188079
 30
0.0
  0
VERTEX
  5
B2F9A
  8
0
 10
20241.68639094054
 20
18212.72637188079
 30
0.0
  0
VERTEX
  5
B2F9B
  8
0
 10
19226.68639094052
 20
18212.72637188079
 30
0.0
  0
VERTEX
  5
B2F9C
  8
0
 10
19226.68639094052
 20
18232.72637188079
 30
0.0
  0
SEQEND
  5
B354B
  8
0
  0
POLYLINE
  5
AAF82
  8
0
 66
     1
 10
0.0
 20
0.0
 30
0.0
 70
     1
  0
VERTEX
  5
B2F9D
  8
0
 10
19246.68639094052
 20
18212.72637188079
 30
0.0
  0
VERTEX
  5
B2F9E
  8
0
 10
19246.68639094052
 20
18232.72637188079
 30
0.0
  0
VERTEX
  5
B2F9F
  8
0
 10
19226.68639094052
 20
18232.72637188079
 30
0.0
  0
VERTEX
  5
B2FA0
  8
0
 10
19226.68639094052
 20
18212.72637188079
 30
0.0
  0
SEQEND
  5
B354C
  8
0
  0
POLYLINE
  5
AAF83
  8
0
 66
     1
 10
0.0
 20
0.0
 30
0.0
 70
     1
  0
VERTEX
  5
B2FA1
  8
0
 10
20221.68639094054
 20
18212.72637188079
 30
0.0
  0
VERTEX
  5
B2FA2
  8
0
 10
20221.68639094054
 20
18232.72637188079
 30
0.0
  0
VERTEX
  5
B2FA3
  8
0
 10
20241.68639094054
 20
18232.72637188079
 30
0.0
  0
VERTEX
  5
B2FA4
  8
0
 10
20241.68639094054
 20
18212.72637188079
 30
0.0
  0
SEQEND
  5
B354D
  8
0
  0
POLYLINE
  5
AAF86
  8
0
 66
     1
 10
0.0
 20
0.0
 30
0.0
 70
     1
  0
VERTEX
  5
B2FA5
  8
0
 10
20302.1863909405
 20
18253.22637188075
 30
0.0
  0
VERTEX
  5
B2FA6
  8
0
 10
20302.1863909405
 20
18312.72637188075
 30
0.0
  0
VERTEX
  5
B2FA7
  8
0
 10
19166.1863909405
 20
18312.72637188075
 30
0.0
  0
VERTEX
  5
B2FA8
  8
0
 10
19166.1863909405
 20
18253.22637188075
 30
0.0
  0
SEQEND
  5
B354E
  8
0
  0
POLYLINE
  5
AAF88
  8
0
 66
     1
 10
0.0
 20
0.0
 30
0.0
  0
VERTEX
  5
B2FA9
  8
0
 10
14197.12986539054
 20
21945.86186189426
 30
0.0
  0
VERTEX
  5
B2FAA
  8
0
 10
22554.48951026663
 20
21945.86186189427
 30
0.0
  0
SEQEND
  5
B354F
  8
0
  0
POLYLINE
  5
AAF89
  8
0
 66
     1
 10
0.0
 20
0.0
 30
0.0
  0
VERTEX
  5
B2FAB
  8
0
 10
14197.12986539054
 20
18212.72637188079
 30
0.0
  0
VERTEX
  5
B2FAC
  8
0
 10
22554.48951026663
 20
18212.72637188079
 30
0.0
  0
SEQEND
  5
B3550
  8
0
  0
POLYLINE
  5
AAF8F
  8
0
 66
     1
 10
0.0
 20
0.0
 30
0.0
  0
VERTEX
  5
B2FAD
  8
0
 10
25109.50129716488
 20
18212.72637188079
 30
0.0
  0
VERTEX
  5
B2FAE
  8
0
 10
24113.08787004944
 20
18212.72637188079
 30
0.0
  0
SEQEND
  5
B3551
  8
0
  0
POLYLINE
  5
AAF92
  8
0
 66
     1
 10
0.0
 20
0.0
 30
0.0
  0
VERTEX
  5
B2FAF
  8
0
 10
25109.50129716488
 20
21945.86186189426
 30
0.0
  0
VERTEX
  5
B2FB0
  8
0
 10
24113.08787004944
 20
21945.86186189426
 30
0.0
  0
SEQEND
  5
B3552
  8
0
  0
POLYLINE
  5
AAF93
  8
0
 66
     1
 10
0.0
 20
0.0
 30
0.0
 70
     1
  0
VERTEX
  5
B2FB1
  8
0
 10
24911.29458360715
 20
21962.86186189421
 30
0.0
  0
VERTEX
  5
B2FB2
  8
0
 10
24311.29458360716
 20
21962.86186189421
 30
0.0
  0
VERTEX
  5
B2FB3
  8
0
 10
24311.29458360716
 20
24085.86187143098
 30
0.0
  0
VERTEX
  5
B2FB4
  8
0
 10
24911.29458360715
 20
24085.86187143098
 30
0.0
  0
SEQEND
  5
B3553
  8
0
  0
POLYLINE
  5
AAF94
  8
0
 66
     1
 10
0.0
 20
0.0
 30
0.0
 70
     1
  0
VERTEX
  5
B2FB5
  8
0
 10
24911.29458360715
 20
18229.72637188075
 30
0.0
  0
VERTEX
  5
B2FB6
  8
0
 10
24311.29458360716
 20
18229.72637188075
 30
0.0
  0
VERTEX
  5
B2FB7
  8
0
 10
24311.29458360716
 20
20352.72638141752
 30
0.0
  0
VERTEX
  5
B2FB8
  8
0
 10
24911.29458360715
 20
20352.72638141752
 30
0.0
  0
SEQEND
  5
B3554
  8
0
  0
POLYLINE
  5
AAF95
  8
0
 66
     1
 10
0.0
 20
0.0
 30
0.0
 70
     1
  0
VERTEX
  5
B2FB9
  8
0
 10
13550.0
 20
25069.69256525888
 30
0.0
  0
VERTEX
  5
B2FBA
  8
0
 10
26550.0
 20
25069.69256525888
 30
0.0
  0
VERTEX
  5
B2FBB
  8
0
 10
26550.0
 20
17592.34759251489
 30
0.0
  0
VERTEX
  5
B2FBC
  8
0
 10
13550.0
 20
17592.34759251489
 30
0.0
  0
SEQEND
  5
B3555
  8
0
  0
POLYLINE
  5
AAF96
  8
0
 66
     1
 10
0.0
 20
0.0
 30
0.0
 70
     1
  0
VERTEX
  5
B2FBD
  8
0
 10
17701.12986539051
 20
21967.86186189422
 30
0.0
  0
VERTEX
  5
B2FBE
  8
0
 10
17701.12986539051
 20
24485.86186189427
 30
0.0
  0
VERTEX
  5
B2FBF
  8
0
 10
17666.1298653905
 20
24485.86186189427
 30
0.0
  0
VERTEX
  5
B2FC0
  8
0
 10
17666.1298653905
 20
21967.86186189422
 30
0.0
  0
SEQEND
  5
B3556
  8
0
  0
POLYLINE
  5
AAF97
  8
0
 66
     1
 10
0.0
 20
0.0
 30
0.0
 70
     1
  0
VERTEX
  5
B2FC1
  8
0
 10
16530.1298653905
 20
21962.86186189421
 30
0.0
  0
VERTEX
  5
B2FC2
  8
0
 10
16493.52986539045
 20
21962.86186189421
 30
0.0
  0
VERTEX
  5
B2FC3
  8
0
 10
16493.52986539045
 20
24485.86186189427
 30
0.0
  0
VERTEX
  5
B2FC4
  8
0
 10
16529.1298653905
 20
24485.86186189427
 30
0.0
  0
VERTEX
  5
B2FC5
  8
0
 10
16529.1298653905
 20
24445.86185235746
 30
0.0
  0
VERTEX
  5
B2FC6
  8
0
 10
16530.1298653905
 20
24445.86185235746
 30
0.0
  0
SEQEND
  5
B3557
  8
0
  0
POLYLINE
  5
AAF98
  8
0
 66
     1
 10
0.0
 20
0.0
 30
0.0
 70
     1
  0
VERTEX
  5
B2FC7
  8
0
 10
17666.1298653905
 20
21986.36186189421
 30
0.0
  0
VERTEX
  5
B2FC8
  8
0
 10
17666.1298653905
 20
22045.86186189422
 30
0.0
  0
VERTEX
  5
B2FC9
  8
0
 10
16530.1298653905
 20
22045.86186189422
 30
0.0
  0
VERTEX
  5
B2FCA
  8
0
 10
16530.1298653905
 20
21986.36186189421
 30
0.0
  0
SEQEND
  5
B3558
  8
0
  0
POLYLINE
  5
AAF99
  8
0
 66
     1
 10
0.0
 20
0.0
 30
0.0
 70
     1
  0
VERTEX
  5
B2FCB
  8
0
 10
16530.1298653905
 20
22045.86186189422
 30
0.0
  0
VERTEX
  5
B2FCC
  8
0
 10
16530.1298653905
 20
22075.86186189421
 30
0.0
  0
VERTEX
  5
B2FCD
  8
0
 10
17666.1298653905
 20
22075.86186189421
 30
0.0
  0
VERTEX
  5
B2FCE
  8
0
 10
17666.1298653905
 20
22045.86186189422
 30
0.0
  0
SEQEND
  5
B3559
  8
0
  0
POLYLINE
  5
AAF9A
  8
0
 66
     1
 10
0.0
 20
0.0
 30
0.0
 70
     1
  0
VERTEX
  5
B2FCF
  8
0
 10
16529.1298653905
 20
24445.86185235746
 30
0.0
  0
VERTEX
  5
B2FD0
  8
0
 10
16529.1298653905
 20
24485.86186189427
 30
0.0
  0
VERTEX
  5
B2FD1
  8
0
 10
17666.1298653905
 20
24485.86186189427
 30
0.0
  0
VERTEX
  5
B2FD2
  8
0
 10
17666.1298653905
 20
24445.86185235746
 30
0.0
  0
SEQEND
  5
B355A
  8
0
  0
POLYLINE
  5
AAF9B
  8
0
 66
     1
 10
0.0
 20
0.0
 30
0.0
 70
     1
  0
VERTEX
  5
B2FD3
  8
0
 10
17612.1298653905
 20
21986.36186189421
 30
0.0
  0
VERTEX
  5
B2FD4
  8
0
 10
17612.1298653905
 20
21959.46186189442
 30
0.0
  0
VERTEX
  5
B2FD5
  8
0
 10
17611.1298653905
 20
21958.46186189429
 30
0.0
  0
VERTEX
  5
B2FD6
  8
0
 10
17607.1298653905
 20
21958.46186189429
 30
0.0
  0
VERTEX
  5
B2FD7
  8
0
 10
17606.1298653905
 20
21959.46186189442
 30
0.0
  0
VERTEX
  5
B2FD8
  8
0
 10
17606.1298653905
 20
21965.96186189429
 30
0.0
  0
VERTEX
  5
B2FD9
  8
0
 10
17579.14763054741
 20
21966.43283855542
 30
0.0
  0
VERTEX
  5
B2FDA
  8
0
 10
17578.1298653905
 20
21967.45060371236
 30
0.0
  0
VERTEX
  5
B2FDB
  8
0
 10
17578.1298653905
 20
21986.36186189421
 30
0.0
  0
SEQEND
  5
B355B
  8
0
  0
POLYLINE
  5
AAF9C
  8
0
 66
     1
 10
0.0
 20
0.0
 30
0.0
 70
     1
  0
VERTEX
  5
B2FDC
  8
0
 10
16584.12986539058
 20
21986.36186189421
 30
0.0
  0
VERTEX
  5
B2FDD
  8
0
 10
16584.12986539058
 20
21959.46186189442
 30
0.0
  0
VERTEX
  5
B2FDE
  8
0
 10
16585.1298653905
 20
21958.46186189429
 30
0.0
  0
VERTEX
  5
B2FDF
  8
0
 10
16589.12986539061
 20
21958.46186189429
 30
0.0
  0
VERTEX
  5
B2FE0
  8
0
 10
16590.1298653905
 20
21959.46186189442
 30
0.0
  0
VERTEX
  5
B2FE1
  8
0
 10
16590.1298653905
 20
21965.96186189429
 30
0.0
  0
VERTEX
  5
B2FE2
  8
0
 10
16617.11210023374
 20
21966.43283855542
 30
0.0
  0
VERTEX
  5
B2FE3
  8
0
 10
16618.1298653905
 20
21967.45060371236
 30
0.0
  0
VERTEX
  5
B2FE4
  8
0
 10
16618.1298653905
 20
21986.36186189421
 30
0.0
  0
SEQEND
  5
B355C
  8
0
  0
POLYLINE
  5
AAF9D
  8
0
 66
     1
 10
0.0
 20
0.0
 30
0.0
 70
     1
  0
VERTEX
  5
B2FE5
  8
0
 10
17605.6298653905
 20
21965.86186189426
 30
0.0
  0
VERTEX
  5
B2FE6
  8
0
 10
17605.6298653905
 20
21945.86186189426
 30
0.0
  0
VERTEX
  5
B2FE7
  8
0
 10
16590.6298653905
 20
21945.86186189426
 30
0.0
  0
VERTEX
  5
B2FE8
  8
0
 10
16590.6298653905
 20
21965.86186189426
 30
0.0
  0
SEQEND
  5
B355D
  8
0
  0
POLYLINE
  5
AAF9E
  8
0
 66
     1
 10
0.0
 20
0.0
 30
0.0
 70
     1
  0
VERTEX
  5
B2FE9
  8
0
 10
16610.6298653905
 20
21945.86186189426
 30
0.0
  0
VERTEX
  5
B2FEA
  8
0
 10
16610.6298653905
 20
21965.86186189426
 30
0.0
  0
VERTEX
  5
B2FEB
  8
0
 10
16590.6298653905
 20
21965.86186189426
 30
0.0
  0
VERTEX
  5
B2FEC
  8
0
 10
16590.6298653905
 20
21945.86186189426
 30
0.0
  0
SEQEND
  5
B355E
  8
0
  0
POLYLINE
  5
AAF9F
  8
0
 66
     1
 10
0.0
 20
0.0
 30
0.0
 70
     1
  0
VERTEX
  5
B2FED
  8
0
 10
17585.6298653905
 20
21945.86186189426
 30
0.0
  0
VERTEX
  5
B2FEE
  8
0
 10
17585.6298653905
 20
21965.86186189426
 30
0.0
  0
VERTEX
  5
B2FEF
  8
0
 10
17605.6298653905
 20
21965.86186189426
 30
0.0
  0
VERTEX
  5
B2FF0
  8
0
 10
17605.6298653905
 20
21945.86186189426
 30
0.0
  0
SEQEND
  5
B355F
  8
0
  0
POLYLINE
  5
AAFA0
  8
0
 66
     1
 10
0.0
 20
0.0
 30
0.0
 70
     1
  0
VERTEX
  5
B2FF1
  8
0
 10
16530.1298653905
 20
22845.86186189421
 30
0.0
  0
VERTEX
  5
B2FF2
  8
0
 10
16530.1298653905
 20
22875.86186189421
 30
0.0
  0
VERTEX
  5
B2FF3
  8
0
 10
17666.1298653905
 20
22875.86186189421
 30
0.0
  0
VERTEX
  5
B2FF4
  8
0
 10
17666.1298653905
 20
22845.86186189421
 30
0.0
  0
SEQEND
  5
B3560
  8
0
  0
POLYLINE
  5
AAFA1
  8
0
 66
     1
 10
0.0
 20
0.0
 30
0.0
 70
     1
  0
VERTEX
  5
B2FF5
  8
0
 10
17666.1298653905
 20
23245.86186189421
 30
0.0
  0
VERTEX
  5
B2FF6
  8
0
 10
17666.1298653905
 20
23275.8618618942
 30
0.0
  0
VERTEX
  5
B2FF7
  8
0
 10
16530.1298653905
 20
23275.8618618942
 30
0.0
  0
VERTEX
  5
B2FF8
  8
0
 10
16530.1298653905
 20
23245.86186189421
 30
0.0
  0
SEQEND
  5
B3561
  8
0
  0
POLYLINE
  5
AAFA2
  8
0
 66
     1
 10
0.0
 20
0.0
 30
0.0
 70
     1
  0
VERTEX
  5
B2FF9
  8
0
 10
17666.1298653905
 20
22445.86186189421
 30
0.0
  0
VERTEX
  5
B2FFA
  8
0
 10
17666.1298653905
 20
22475.86186189421
 30
0.0
  0
VERTEX
  5
B2FFB
  8
0
 10
16530.1298653905
 20
22475.86186189421
 30
0.0
  0
VERTEX
  5
B2FFC
  8
0
 10
16530.1298653905
 20
22445.86186189421
 30
0.0
  0
SEQEND
  5
B3562
  8
0
  0
POLYLINE
  5
AAFA3
  8
0
 66
     1
 10
0.0
 20
0.0
 30
0.0
 70
     1
  0
VERTEX
  5
B2FFD
  8
0
 10
16530.1298653905
 20
23645.86186189421
 30
0.0
  0
VERTEX
  5
B2FFE
  8
0
 10
16530.1298653905
 20
23675.8618618942
 30
0.0
  0
VERTEX
  5
B2FFF
  8
0
 10
17666.1298653905
 20
23675.8618618942
 30
0.0
  0
VERTEX
  5
B3000
  8
0
 10
17666.1298653905
 20
23645.86186189421
 30
0.0
  0
SEQEND
  5
B3563
  8
0
  0
POLYLINE
  5
AAFA4
  8
CLOTHES_RAIL
 66
     1
 10
0.0
 20
0.0
 30
0.0
 70
     1
  0
VERTEX
  5
B3001
  8
CLOTHES_RAIL
 10
17666.12986539054
 20
19265.22637188075
 30
0.0
  0
VERTEX
  5
B3002
  8
CLOTHES_RAIL
 10
17666.12986539054
 20
19240.22637188074
 30
0.0
  0
VERTEX
  5
B3003
  8
CLOTHES_RAIL
 10
16530.12986539054
 20
19240.22637188074
 30
0.0
  0
VERTEX
  5
B3004
  8
CLOTHES_RAIL
 10
16530.12986539054
 20
19265.22637188075
 30
0.0
  0
SEQEND
  5
B3564
  8
CLOTHES_RAIL
  0
POLYLINE
  5
AAFA5
  8
0
 66
     1
 10
0.0
 20
0.0
 30
0.0
 70
     1
  0
VERTEX
  5
B3005
  8
0
 10
17666.12986539054
 20
19342.72637188074
 30
0.0
  0
VERTEX
  5
B3006
  8
0
 10
17666.12986539054
 20
19312.72637188074
 30
0.0
  0
VERTEX
  5
B3007
  8
0
 10
16530.12986539054
 20
19312.72637188074
 30
0.0
  0
VERTEX
  5
B3008
  8
0
 10
16530.12986539054
 20
19342.72637188074
 30
0.0
  0
SEQEND
  5
B3565
  8
0
  0
POLYLINE
  5
AAFA6
  8
0
 66
     1
 10
0.0
 20
0.0
 30
0.0
 70
     1
  0
VERTEX
  5
B3009
  8
0
 10
17585.62986539054
 20
18212.7263718808
 30
0.0
  0
VERTEX
  5
B300A
  8
0
 10
17585.62986539054
 20
18232.7263718808
 30
0.0
  0
VERTEX
  5
B300B
  8
0
 10
17605.62986539054
 20
18232.7263718808
 30
0.0
  0
VERTEX
  5
B300C
  8
0
 10
17605.62986539054
 20
18212.7263718808
 30
0.0
  0
SEQEND
  5
B3566
  8
0
  0
POLYLINE
  5
AAFA7
  8
0
 66
     1
 10
0.0
 20
0.0
 30
0.0
 70
     1
  0
VERTEX
  5
B300D
  8
0
 10
16610.62986539054
 20
18212.7263718808
 30
0.0
  0
VERTEX
  5
B300E
  8
0
 10
16610.62986539054
 20
18232.7263718808
 30
0.0
  0
VERTEX
  5
B300F
  8
0
 10
16590.62986539054
 20
18232.7263718808
 30
0.0
  0
VERTEX
  5
B3010
  8
0
 10
16590.62986539054
 20
18212.7263718808
 30
0.0
  0
SEQEND
  5
B3567
  8
0
  0
POLYLINE
  5
AAFA8
  8
0
 66
     1
 10
0.0
 20
0.0
 30
0.0
 70
     1
  0
VERTEX
  5
B3011
  8
0
 10
17605.62986539054
 20
18232.7263718808
 30
0.0
  0
VERTEX
  5
B3012
  8
0
 10
17605.62986539054
 20
18212.7263718808
 30
0.0
  0
VERTEX
  5
B3013
  8
0
 10
16590.62986539054
 20
18212.7263718808
 30
0.0
  0
VERTEX
  5
B3014
  8
0
 10
16590.62986539054
 20
18232.7263718808
 30
0.0
  0
SEQEND
  5
B3568
  8
0
  0
POLYLINE
  5
AAFA9
  8
0
 66
     1
 10
0.0
 20
0.0
 30
0.0
 70
     1
  0
VERTEX
  5
B3015
  8
0
 10
16584.1298653906
 20
18253.22637188075
 30
0.0
  0
VERTEX
  5
B3016
  8
0
 10
16584.1298653906
 20
18226.32637188096
 30
0.0
  0
VERTEX
  5
B3017
  8
0
 10
16585.12986539054
 20
18225.32637188083
 30
0.0
  0
VERTEX
  5
B3018
  8
0
 10
16589.12986539059
 20
18225.32637188083
 30
0.0
  0
VERTEX
  5
B3019
  8
0
 10
16590.12986539054
 20
18226.32637188096
 30
0.0
  0
VERTEX
  5
B301A
  8
0
 10
16590.12986539054
 20
18232.82637188083
 30
0.0
  0
VERTEX
  5
B301B
  8
0
 10
16617.11210023366
 20
18233.29734854196
 30
0.0
  0
VERTEX
  5
B301C
  8
0
 10
16618.12986539054
 20
18234.3151136989
 30
0.0
  0
VERTEX
  5
B301D
  8
0
 10
16618.12986539054
 20
18253.22637188075
 30
0.0
  0
SEQEND
  5
B3569
  8
0
  0
POLYLINE
  5
AAFAA
  8
0
 66
     1
 10
0.0
 20
0.0
 30
0.0
 70
     1
  0
VERTEX
  5
B301E
  8
0
 10
17612.12986539054
 20
18253.22637188075
 30
0.0
  0
VERTEX
  5
B301F
  8
0
 10
17612.12986539054
 20
18226.32637188096
 30
0.0
  0
VERTEX
  5
B3020
  8
0
 10
17611.12986539054
 20
18225.32637188083
 30
0.0
  0
VERTEX
  5
B3021
  8
0
 10
17607.12986539054
 20
18225.32637188083
 30
0.0
  0
VERTEX
  5
B3022
  8
0
 10
17606.12986539054
 20
18226.32637188096
 30
0.0
  0
VERTEX
  5
B3023
  8
0
 10
17606.12986539054
 20
18232.82637188083
 30
0.0
  0
VERTEX
  5
B3024
  8
0
 10
17579.1476305474
 20
18233.29734854196
 30
0.0
  0
VERTEX
  5
B3025
  8
0
 10
17578.12986539054
 20
18234.3151136989
 30
0.0
  0
VERTEX
  5
B3026
  8
0
 10
17578.12986539054
 20
18253.22637188075
 30
0.0
  0
SEQEND
  5
B356A
  8
0
  0
POLYLINE
  5
AAFAB
  8
0
 66
     1
 10
0.0
 20
0.0
 30
0.0
 70
     1
  0
VERTEX
  5
B3027
  8
0
 10
16529.12986539054
 20
20712.72636234399
 30
0.0
  0
VERTEX
  5
B3028
  8
0
 10
16529.12986539054
 20
20752.7263718808
 30
0.0
  0
VERTEX
  5
B3029
  8
0
 10
17666.12986539054
 20
20752.7263718808
 30
0.0
  0
VERTEX
  5
B302A
  8
0
 10
17666.12986539054
 20
20712.72636234399
 30
0.0
  0
SEQEND
  5
B356B
  8
0
  0
POLYLINE
  5
AAFAC
  8
CLOTHES_RAIL
 66
     1
 10
0.0
 20
0.0
 30
0.0
 70
     1
  0
VERTEX
  5
B302B
  8
CLOTHES_RAIL
 10
17666.12986539054
 20
20240.22637188072
 30
0.0
  0
VERTEX
  5
B302C
  8
CLOTHES_RAIL
 10
17666.12986539054
 20
20265.22637188072
 30
0.0
  0
VERTEX
  5
B302D
  8
CLOTHES_RAIL
 10
16530.12986539054
 20
20265.22637188072
 30
0.0
  0
VERTEX
  5
B302E
  8
CLOTHES_RAIL
 10
16530.12986539054
 20
20240.22637188072
 30
0.0
  0
SEQEND
  5
B356C
  8
CLOTHES_RAIL
  0
POLYLINE
  5
AAFAD
  8
0
 66
     1
 10
0.0
 20
0.0
 30
0.0
 70
     1
  0
VERTEX
  5
B302F
  8
0
 10
16530.12986539054
 20
18312.72637188075
 30
0.0
  0
VERTEX
  5
B3030
  8
0
 10
16530.12986539054
 20
18342.72637188075
 30
0.0
  0
VERTEX
  5
B3031
  8
0
 10
17666.12986539054
 20
18342.72637188075
 30
0.0
  0
VERTEX
  5
B3032
  8
0
 10
17666.12986539054
 20
18312.72637188075
 30
0.0
  0
SEQEND
  5
B356D
  8
0
  0
POLYLINE
  5
AAFAE
  8
0
 66
     1
 10
0.0
 20
0.0
 30
0.0
 70
     1
  0
VERTEX
  5
B3033
  8
0
 10
17666.12986539054
 20
18253.22637188075
 30
0.0
  0
VERTEX
  5
B3034
  8
0
 10
17666.12986539054
 20
18312.72637188075
 30
0.0
  0
VERTEX
  5
B3035
  8
0
 10
16530.12986539054
 20
18312.72637188075
 30
0.0
  0
VERTEX
  5
B3036
  8
0
 10
16530.12986539054
 20
18253.22637188075
 30
0.0
  0
SEQEND
  5
B356E
  8
0
  0
POLYLINE
  5
AAFAF
  8
0
 66
     1
 10
0.0
 20
0.0
 30
0.0
 70
     1
  0
VERTEX
  5
B3037
  8
0
 10
16530.12986539054
 20
18229.72637188075
 30
0.0
  0
VERTEX
  5
B3038
  8
0
 10
16493.52986539044
 20
18229.72637188075
 30
0.0
  0
VERTEX
  5
B3039
  8
0
 10
16493.52986539044
 20
20752.7263718808
 30
0.0
  0
VERTEX
  5
B303A
  8
0
 10
16529.12986539054
 20
20752.7263718808
 30
0.0
  0
VERTEX
  5
B303B
  8
0
 10
16529.12986539054
 20
20712.72636234399
 30
0.0
  0
VERTEX
  5
B303C
  8
0
 10
16530.12986539054
 20
20712.72636234399
 30
0.0
  0
SEQEND
  5
B356F
  8
0
  0
POLYLINE
  5
AAFB0
  8
0
 66
     1
 10
0.0
 20
0.0
 30
0.0
 70
     1
  0
VERTEX
  5
B303D
  8
0
 10
17701.12986539054
 20
18234.72637188075
 30
0.0
  0
VERTEX
  5
B303E
  8
0
 10
17701.12986539054
 20
20752.7263718808
 30
0.0
  0
VERTEX
  5
B303F
  8
0
 10
17666.12986539054
 20
20752.7263718808
 30
0.0
  0
VERTEX
  5
B3040
  8
0
 10
17666.12986539054
 20
18234.72637188075
 30
0.0
  0
SEQEND
  5
B3570
  8
0
  0
POLYLINE
  5
AAFB1
  8
0
 66
     1
 10
0.0
 20
0.0
 30
0.0
 70
     1
  0
VERTEX
  5
B3041
  8
0
 10
16463.52986539044
 20
24485.86186189427
 30
0.0
  0
VERTEX
  5
B3042
  8
0
 10
16463.52986539044
 20
21962.86186189421
 30
0.0
  0
VERTEX
  5
B3043
  8
0
 10
16433.52986539045
 20
21962.86186189421
 30
0.0
  0
VERTEX
  5
B3044
  8
0
 10
16433.52986539045
 20
24485.86186189427
 30
0.0
  0
SEQEND
  5
B3571
  8
0
  0
POLYLINE
  5
AAFB2
  8
0
 66
     1
 10
0.0
 20
0.0
 30
0.0
 70
     1
  0
VERTEX
  5
B3045
  8
0
 10
16463.52986539044
 20
20752.72637188079
 30
0.0
  0
VERTEX
  5
B3046
  8
0
 10
16463.52986539044
 20
18229.72637188075
 30
0.0
  0
VERTEX
  5
B3047
  8
0
 10
16433.52986539045
 20
18229.72637188075
 30
0.0
  0
VERTEX
  5
B3048
  8
0
 10
16433.52986539045
 20
20752.72637188079
 30
0.0
  0
SEQEND
  5
B3572
  8
0
  0
POLYLINE
  5
AAFB9
  8
0
 66
     1
 10
0.0
 20
0.0
 30
0.0
 70
     1
  0
VERTEX
  5
B3049
  8
0
 10
22302.1863909405
 20
18253.22637188075
 30
0.0
  0
VERTEX
  5
B304A
  8
0
 10
22302.1863909405
 20
18312.72637188075
 30
0.0
  0
VERTEX
  5
B304B
  8
0
 10
21166.1863909405
 20
18312.72637188075
 30
0.0
  0
VERTEX
  5
B304C
  8
0
 10
21166.1863909405
 20
18253.22637188075
 30
0.0
  0
SEQEND
  5
B3573
  8
0
  0
POLYLINE
  5
AAFBC
  8
0
 66
     1
 10
0.0
 20
0.0
 30
0.0
 70
     1
  0
VERTEX
  5
B304D
  8
0
 10
22221.68639094054
 20
18212.72637188079
 30
0.0
  0
VERTEX
  5
B304E
  8
0
 10
22221.68639094054
 20
18232.72637188079
 30
0.0
  0
VERTEX
  5
B304F
  8
0
 10
22241.68639094054
 20
18232.72637188079
 30
0.0
  0
VERTEX
  5
B3050
  8
0
 10
22241.68639094054
 20
18212.72637188079
 30
0.0
  0
SEQEND
  5
B3574
  8
0
  0
POLYLINE
  5
AAFBD
  8
0
 66
     1
 10
0.0
 20
0.0
 30
0.0
 70
     1
  0
VERTEX
  5
B3051
  8
0
 10
21246.68639094054
 20
18212.72637188079
 30
0.0
  0
VERTEX
  5
B3052
  8
0
 10
21246.68639094054
 20
18232.72637188079
 30
0.0
  0
VERTEX
  5
B3053
  8
0
 10
21226.68639094054
 20
18232.72637188079
 30
0.0
  0
VERTEX
  5
B3054
  8
0
 10
21226.68639094054
 20
18212.72637188079
 30
0.0
  0
SEQEND
  5
B3575
  8
0
  0
POLYLINE
  5
AAFBE
  8
0
 66
     1
 10
0.0
 20
0.0
 30
0.0
 70
     1
  0
VERTEX
  5
B3055
  8
0
 10
22241.68639094054
 20
18232.72637188079
 30
0.0
  0
VERTEX
  5
B3056
  8
0
 10
22241.68639094054
 20
18212.72637188079
 30
0.0
  0
VERTEX
  5
B3057
  8
0
 10
21226.68639094054
 20
18212.72637188079
 30
0.0
  0
VERTEX
  5
B3058
  8
0
 10
21226.68639094054
 20
18232.72637188079
 30
0.0
  0
SEQEND
  5
B3576
  8
0
  0
POLYLINE
  5
AAFBF
  8
0
 66
     1
 10
0.0
 20
0.0
 30
0.0
 70
     1
  0
VERTEX
  5
B3059
  8
0
 10
21220.18639094054
 20
18253.22637188075
 30
0.0
  0
VERTEX
  5
B305A
  8
0
 10
21220.18639094054
 20
18226.32637188095
 30
0.0
  0
VERTEX
  5
B305B
  8
0
 10
21221.18639094054
 20
18225.32637188083
 30
0.0
  0
VERTEX
  5
B305C
  8
0
 10
21225.18639094054
 20
18225.32637188083
 30
0.0
  0
VERTEX
  5
B305D
  8
0
 10
21226.18639094054
 20
18226.32637188095
 30
0.0
  0
VERTEX
  5
B305E
  8
0
 10
21226.18639094054
 20
18232.82637188083
 30
0.0
  0
VERTEX
  5
B305F
  8
0
 10
21253.16862578368
 20
18233.29734854196
 30
0.0
  0
VERTEX
  5
B3060
  8
0
 10
21254.18639094054
 20
18234.3151136989
 30
0.0
  0
VERTEX
  5
B3061
  8
0
 10
21254.18639094054
 20
18253.22637188075
 30
0.0
  0
SEQEND
  5
B3577
  8
0
  0
POLYLINE
  5
AAFC0
  8
0
 66
     1
 10
0.0
 20
0.0
 30
0.0
 70
     1
  0
VERTEX
  5
B3062
  8
0
 10
22248.1863909405
 20
18253.22637188075
 30
0.0
  0
VERTEX
  5
B3063
  8
0
 10
22248.1863909405
 20
18226.32637188095
 30
0.0
  0
VERTEX
  5
B3064
  8
0
 10
22247.18639094054
 20
18225.32637188083
 30
0.0
  0
VERTEX
  5
B3065
  8
0
 10
22243.1863909405
 20
18225.32637188083
 30
0.0
  0
VERTEX
  5
B3066
  8
0
 10
22242.18639094055
 20
18226.32637188095
 30
0.0
  0
VERTEX
  5
B3067
  8
0
 10
22242.18639094055
 20
18232.82637188083
 30
0.0
  0
VERTEX
  5
B3068
  8
0
 10
22215.2041560974
 20
18233.29734854196
 30
0.0
  0
VERTEX
  5
B3069
  8
0
 10
22214.18639094054
 20
18234.3151136989
 30
0.0
  0
VERTEX
  5
B306A
  8
0
 10
22214.18639094054
 20
18253.22637188075
 30
0.0
  0
SEQEND
  5
B3578
  8
0
  0
POLYLINE
  5
AAFC1
  8
0
 66
     1
 10
0.0
 20
0.0
 30
0.0
 70
     1
  0
VERTEX
  5
B306B
  8
0
 10
21165.18639094054
 20
20712.72636234399
 30
0.0
  0
VERTEX
  5
B306C
  8
0
 10
21165.18639094054
 20
20752.7263718808
 30
0.0
  0
VERTEX
  5
B306D
  8
0
 10
22302.18639094054
 20
20752.7263718808
 30
0.0
  0
VERTEX
  5
B306E
  8
0
 10
22302.18639094054
 20
20712.72636234399
 30
0.0
  0
SEQEND
  5
B3579
  8
0
  0
POLYLINE
  5
AAFC2
  8
0
 66
     1
 10
0.0
 20
0.0
 30
0.0
 70
     1
  0
VERTEX
  5
B306F
  8
0
 10
21166.18639094054
 20
18229.72637188075
 30
0.0
  0
VERTEX
  5
B3070
  8
0
 10
21129.58639094035
 20
18229.72637188075
 30
0.0
  0
VERTEX
  5
B3071
  8
0
 10
21129.58639094035
 20
20752.7263718808
 30
0.0
  0
VERTEX
  5
B3072
  8
0
 10
21165.18639094054
 20
20752.7263718808
 30
0.0
  0
VERTEX
  5
B3073
  8
0
 10
21165.18639094054
 20
20712.72636234399
 30
0.0
  0
VERTEX
  5
B3074
  8
0
 10
21166.18639094054
 20
20712.72636234399
 30
0.0
  0
SEQEND
  5
B357A
  8
0
  0
POLYLINE
  5
AAFC3
  8
0
 66
     1
 10
0.0
 20
0.0
 30
0.0
 70
     1
  0
VERTEX
  5
B3075
  8
0
 10
22337.18639094055
 20
18234.72637188075
 30
0.0
  0
VERTEX
  5
B3076
  8
0
 10
22337.18639094055
 20
20752.7263718808
 30
0.0
  0
VERTEX
  5
B3077
  8
0
 10
22302.18639094054
 20
20752.7263718808
 30
0.0
  0
VERTEX
  5
B3078
  8
0
 10
22302.18639094054
 20
18234.72637188075
 30
0.0
  0
SEQEND
  5
B357B
  8
0
  0
POLYLINE
  5
AAFC4
  8
0
 66
     1
 10
0.0
 20
0.0
 30
0.0
 70
     1
  0
VERTEX
  5
B3079
  8
0
 10
22337.1863909406
 20
21967.86186189422
 30
0.0
  0
VERTEX
  5
B307A
  8
0
 10
22337.1863909406
 20
24485.86186189427
 30
0.0
  0
VERTEX
  5
B307B
  8
0
 10
22302.1863909406
 20
24485.86186189427
 30
0.0
  0
VERTEX
  5
B307C
  8
0
 10
22302.1863909406
 20
21967.86186189422
 30
0.0
  0
SEQEND
  5
B357C
  8
0
  0
POLYLINE
  5
AAFC5
  8
0
 66
     1
 10
0.0
 20
0.0
 30
0.0
 70
     1
  0
VERTEX
  5
B307D
  8
0
 10
21166.1863909406
 20
21962.86186189421
 30
0.0
  0
VERTEX
  5
B307E
  8
0
 10
21129.58639094039
 20
21962.86186189421
 30
0.0
  0
VERTEX
  5
B307F
  8
0
 10
21129.58639094039
 20
24485.86186189427
 30
0.0
  0
VERTEX
  5
B3080
  8
0
 10
21165.1863909406
 20
24485.86186189427
 30
0.0
  0
VERTEX
  5
B3081
  8
0
 10
21165.1863909406
 20
24445.86185235746
 30
0.0
  0
VERTEX
  5
B3082
  8
0
 10
21166.1863909406
 20
24445.86185235746
 30
0.0
  0
SEQEND
  5
B357D
  8
0
  0
POLYLINE
  5
AAFC6
  8
0
 66
     1
 10
0.0
 20
0.0
 30
0.0
 70
     1
  0
VERTEX
  5
B3083
  8
0
 10
22302.1863909406
 20
21986.36186189421
 30
0.0
  0
VERTEX
  5
B3084
  8
0
 10
22302.1863909406
 20
22045.86186189422
 30
0.0
  0
VERTEX
  5
B3085
  8
0
 10
21166.1863909406
 20
22045.86186189422
 30
0.0
  0
VERTEX
  5
B3086
  8
0
 10
21166.1863909406
 20
21986.36186189421
 30
0.0
  0
SEQEND
  5
B357E
  8
0
  0
POLYLINE
  5
AAFC7
  8
0
 66
     1
 10
0.0
 20
0.0
 30
0.0
 70
     1
  0
VERTEX
  5
B3087
  8
0
 10
21166.1863909406
 20
22045.86186189422
 30
0.0
  0
VERTEX
  5
B3088
  8
0
 10
21166.1863909406
 20
22075.86186189421
 30
0.0
  0
VERTEX
  5
B3089
  8
0
 10
22302.1863909406
 20
22075.86186189421
 30
0.0
  0
VERTEX
  5
B308A
  8
0
 10
22302.1863909406
 20
22045.86186189422
 30
0.0
  0
SEQEND
  5
B357F
  8
0
  0
POLYLINE
  5
AAFC8
  8
0
 66
     1
 10
0.0
 20
0.0
 30
0.0
 70
     1
  0
VERTEX
  5
B308B
  8
0
 10
21165.1863909406
 20
24445.86185235746
 30
0.0
  0
VERTEX
  5
B308C
  8
0
 10
21165.1863909406
 20
24485.86186189427
 30
0.0
  0
VERTEX
  5
B308D
  8
0
 10
22302.1863909406
 20
24485.86186189427
 30
0.0
  0
VERTEX
  5
B308E
  8
0
 10
22302.1863909406
 20
24445.86185235746
 30
0.0
  0
SEQEND
  5
B3580
  8
0
  0
POLYLINE
  5
AAFC9
  8
0
 66
     1
 10
0.0
 20
0.0
 30
0.0
 70
     1
  0
VERTEX
  5
B308F
  8
0
 10
22248.18639094054
 20
21986.36186189421
 30
0.0
  0
VERTEX
  5
B3090
  8
0
 10
22248.18639094054
 20
21959.46186189442
 30
0.0
  0
VERTEX
  5
B3091
  8
0
 10
22247.1863909406
 20
21958.46186189429
 30
0.0
  0
VERTEX
  5
B3092
  8
0
 10
22243.18639094054
 20
21958.46186189429
 30
0.0
  0
VERTEX
  5
B3093
  8
0
 10
22242.1863909406
 20
21959.46186189442
 30
0.0
  0
VERTEX
  5
B3094
  8
0
 10
22242.1863909406
 20
21965.96186189429
 30
0.0
  0
VERTEX
  5
B3095
  8
0
 10
22215.20415609748
 20
21966.43283855542
 30
0.0
  0
VERTEX
  5
B3096
  8
0
 10
22214.1863909406
 20
21967.45060371236
 30
0.0
  0
VERTEX
  5
B3097
  8
0
 10
22214.1863909406
 20
21986.36186189421
 30
0.0
  0
SEQEND
  5
B3581
  8
0
  0
POLYLINE
  5
AAFCA
  8
0
 66
     1
 10
0.0
 20
0.0
 30
0.0
 70
     1
  0
VERTEX
  5
B3098
  8
0
 10
21220.1863909406
 20
21986.36186189421
 30
0.0
  0
VERTEX
  5
B3099
  8
0
 10
21220.1863909406
 20
21959.46186189442
 30
0.0
  0
VERTEX
  5
B309A
  8
0
 10
21221.1863909406
 20
21958.46186189429
 30
0.0
  0
VERTEX
  5
B309B
  8
0
 10
21225.1863909406
 20
21958.46186189429
 30
0.0
  0
VERTEX
  5
B309C
  8
0
 10
21226.1863909406
 20
21959.46186189442
 30
0.0
  0
VERTEX
  5
B309D
  8
0
 10
21226.1863909406
 20
21965.96186189429
 30
0.0
  0
VERTEX
  5
B309E
  8
0
 10
21253.16862578373
 20
21966.43283855542
 30
0.0
  0
VERTEX
  5
B309F
  8
0
 10
21254.1863909406
 20
21967.45060371236
 30
0.0
  0
VERTEX
  5
B30A0
  8
0
 10
21254.1863909406
 20
21986.36186189421
 30
0.0
  0
SEQEND
  5
B3582
  8
0
  0
POLYLINE
  5
AAFCB
  8
0
 66
     1
 10
0.0
 20
0.0
 30
0.0
 70
     1
  0
VERTEX
  5
B30A1
  8
0
 10
22241.6863909406
 20
21965.86186189426
 30
0.0
  0
VERTEX
  5
B30A2
  8
0
 10
22241.6863909406
 20
21945.86186189426
 30
0.0
  0
VERTEX
  5
B30A3
  8
0
 10
21226.6863909406
 20
21945.86186189426
 30
0.0
  0
VERTEX
  5
B30A4
  8
0
 10
21226.6863909406
 20
21965.86186189426
 30
0.0
  0
SEQEND
  5
B3583
  8
0
  0
POLYLINE
  5
AAFCC
  8
0
 66
     1
 10
0.0
 20
0.0
 30
0.0
 70
     1
  0
VERTEX
  5
B30A5
  8
0
 10
21246.6863909406
 20
21945.86186189426
 30
0.0
  0
VERTEX
  5
B30A6
  8
0
 10
21246.6863909406
 20
21965.86186189426
 30
0.0
  0
VERTEX
  5
B30A7
  8
0
 10
21226.6863909406
 20
21965.86186189426
 30
0.0
  0
VERTEX
  5
B30A8
  8
0
 10
21226.6863909406
 20
21945.86186189426
 30
0.0
  0
SEQEND
  5
B3584
  8
0
  0
POLYLINE
  5
AAFCD
  8
0
 66
     1
 10
0.0
 20
0.0
 30
0.0
 70
     1
  0
VERTEX
  5
B30A9
  8
0
 10
22221.6863909406
 20
21945.86186189426
 30
0.0
  0
VERTEX
  5
B30AA
  8
0
 10
22221.6863909406
 20
21965.86186189426
 30
0.0
  0
VERTEX
  5
B30AB
  8
0
 10
22241.6863909406
 20
21965.86186189426
 30
0.0
  0
VERTEX
  5
B30AC
  8
0
 10
22241.6863909406
 20
21945.86186189426
 30
0.0
  0
SEQEND
  5
B3585
  8
0
  0
POLYLINE
  5
AAFCE
  8
0
 66
     1
 10
0.0
 20
0.0
 30
0.0
 70
     1
  0
VERTEX
  5
B30AD
  8
0
 10
22301.6863909406
 20
22445.86185235747
 30
0.0
  0
VERTEX
  5
B30AE
  8
0
 10
22301.6863909406
 20
22475.86185235747
 30
0.0
  0
VERTEX
  5
B30AF
  8
0
 10
21165.6863909406
 20
22475.86185235747
 30
0.0
  0
VERTEX
  5
B30B0
  8
0
 10
21165.6863909406
 20
22445.86185235747
 30
0.0
  0
SEQEND
  5
B3586
  8
0
  0
POLYLINE
  5
AAFCF
  8
0
 66
     1
 10
0.0
 20
0.0
 30
0.0
 70
     1
  0
VERTEX
  5
B30B1
  8
0
 10
22301.6863909406
 20
22695.86185235747
 30
0.0
  0
VERTEX
  5
B30B2
  8
0
 10
22301.6863909406
 20
22725.86185235747
 30
0.0
  0
VERTEX
  5
B30B3
  8
0
 10
21165.6863909406
 20
22725.86185235747
 30
0.0
  0
VERTEX
  5
B30B4
  8
0
 10
21165.6863909406
 20
22695.86185235747
 30
0.0
  0
SEQEND
  5
B3587
  8
0
  0
POLYLINE
  5
AAFD0
  8
0
 66
     1
 10
0.0
 20
0.0
 30
0.0
 70
     1
  0
VERTEX
  5
B30B5
  8
0
 10
22301.6863909406
 20
22945.86185235746
 30
0.0
  0
VERTEX
  5
B30B6
  8
0
 10
22301.6863909406
 20
22975.86185235747
 30
0.0
  0
VERTEX
  5
B30B7
  8
0
 10
21165.6863909406
 20
22975.86185235747
 30
0.0
  0
VERTEX
  5
B30B8
  8
0
 10
21165.6863909406
 20
22945.86185235746
 30
0.0
  0
SEQEND
  5
B3588
  8
0
  0
POLYLINE
  5
AAFD1
  8
0
 66
     1
 10
0.0
 20
0.0
 30
0.0
 70
     1
  0
VERTEX
  5
B30B9
  8
0
 10
22301.6863909406
 20
23195.86185235747
 30
0.0
  0
VERTEX
  5
B30BA
  8
0
 10
22301.6863909406
 20
23225.86185235746
 30
0.0
  0
VERTEX
  5
B30BB
  8
0
 10
21165.6863909406
 20
23225.86185235746
 30
0.0
  0
VERTEX
  5
B30BC
  8
0
 10
21165.6863909406
 20
23195.86185235747
 30
0.0
  0
SEQEND
  5
B3589
  8
0
  0
POLYLINE
  5
AAFD2
  8
0
 66
     1
 10
0.0
 20
0.0
 30
0.0
 70
     1
  0
VERTEX
  5
B30BD
  8
0
 10
22301.6863909406
 20
23445.86185235748
 30
0.0
  0
VERTEX
  5
B30BE
  8
0
 10
22301.6863909406
 20
23475.86185235747
 30
0.0
  0
VERTEX
  5
B30BF
  8
0
 10
21165.6863909406
 20
23475.86185235747
 30
0.0
  0
VERTEX
  5
B30C0
  8
0
 10
21165.6863909406
 20
23445.86185235748
 30
0.0
  0
SEQEND
  5
B358A
  8
0
  0
POLYLINE
  5
AAFD3
  8
0
 66
     1
 10
0.0
 20
0.0
 30
0.0
 70
     1
  0
VERTEX
  5
B30C1
  8
0
 10
22301.6863909406
 20
23695.86185235747
 30
0.0
  0
VERTEX
  5
B30C2
  8
0
 10
22301.6863909406
 20
23725.86185235747
 30
0.0
  0
VERTEX
  5
B30C3
  8
0
 10
21165.6863909406
 20
23725.86185235747
 30
0.0
  0
VERTEX
  5
B30C4
  8
0
 10
21165.6863909406
 20
23695.86185235747
 30
0.0
  0
SEQEND
  5
B358B
  8
0
  0
POLYLINE
  5
AAFD4
  8
0
 66
     1
 10
0.0
 20
0.0
 30
0.0
 70
     1
  0
VERTEX
  5
B30C5
  8
0
 10
22301.6863909406
 20
23945.86185235747
 30
0.0
  0
VERTEX
  5
B30C6
  8
0
 10
22301.6863909406
 20
23975.86185235747
 30
0.0
  0
VERTEX
  5
B30C7
  8
0
 10
21165.6863909406
 20
23975.86185235747
 30
0.0
  0
VERTEX
  5
B30C8
  8
0
 10
21165.6863909406
 20
23945.86185235747
 30
0.0
  0
SEQEND
  5
B358C
  8
0
  0
POLYLINE
  5
AAFD5
  8
0
 66
     1
 10
0.0
 20
0.0
 30
0.0
 70
     1
  0
VERTEX
  5
B30C9
  8
0
 10
21099.58639094059
 20
24485.86186189427
 30
0.0
  0
VERTEX
  5
B30CA
  8
0
 10
21099.58639094059
 20
21962.86186189421
 30
0.0
  0
VERTEX
  5
B30CB
  8
0
 10
21069.58639094059
 20
21962.86186189421
 30
0.0
  0
VERTEX
  5
B30CC
  8
0
 10
21069.58639094059
 20
24485.86186189427
 30
0.0
  0
SEQEND
  5
B358D
  8
0
  0
POLYLINE
  5
AAFD6
  8
0
 66
     1
 10
0.0
 20
0.0
 30
0.0
 70
     1
  0
VERTEX
  5
B30CD
  8
0
 10
21099.58639094052
 20
20752.7263718808
 30
0.0
  0
VERTEX
  5
B30CE
  8
0
 10
21099.58639094052
 20
18229.72637188075
 30
0.0
  0
VERTEX
  5
B30CF
  8
0
 10
21069.58639094052
 20
18229.72637188075
 30
0.0
  0
VERTEX
  5
B30D0
  8
0
 10
21069.58639094052
 20
20752.7263718808
 30
0.0
  0
SEQEND
  5
B358E
  8
0
  0
POLYLINE
  5
AAFD8
  8
0
 66
     1
 10
0.0
 20
0.0
 30
0.0
 70
     1
  0
VERTEX
  5
B30D1
  8
0
 10
25307.7080107226
 20
18229.72637188075
 30
0.0
  0
VERTEX
  5
B30D2
  8
0
 10
25907.70801072259
 20
18229.72637188075
 30
0.0
  0
VERTEX
  5
B30D3
  8
0
 10
25907.70801072259
 20
20752.7263718808
 30
0.0
  0
VERTEX
  5
B30D4
  8
0
 10
25307.7080107226
 20
20752.7263718808
 30
0.0
  0
SEQEND
  5
B358F
  8
0
  0
POLYLINE
  5
AAFD9
  8
0
 66
     1
 10
0.0
 20
0.0
 30
0.0
 70
     1
  0
VERTEX
  5
B30D5
  8
0
 10
25307.7080107226
 20
21962.86186189421
 30
0.0
  0
VERTEX
  5
B30D6
  8
0
 10
25907.70801072259
 20
21962.86186189421
 30
0.0
  0
VERTEX
  5
B30D7
  8
0
 10
25907.70801072259
 20
24485.86186189427
 30
0.0
  0
VERTEX
  5
B30D8
  8
0
 10
25307.7080107226
 20
24485.86186189427
 30
0.0
  0
SEQEND
  5
B3590
  8
0
  0
POLYLINE
  5
AAFDA
  8
0
 66
     1
 10
0.0
 20
0.0
 30
0.0
  0
VERTEX
  5
B30D9
  8
0
 10
25109.50129716488
 20
21945.86186189426
 30
0.0
  0
VERTEX
  5
B30DA
  8
0
 10
26105.91472428031
 20
21945.86186189426
 30
0.0
  0
SEQEND
  5
B3591
  8
0
  0
POLYLINE
  5
AAFDD
  8
0
 66
     1
 10
0.0
 20
0.0
 30
0.0
  0
VERTEX
  5
B30DB
  8
0
 10
25109.50129716488
 20
18212.72637188079
 30
0.0
  0
VERTEX
  5
B30DC
  8
0
 10
26105.91472428031
 20
18212.72637188079
 30
0.0
  0
SEQEND
  5
B3592
  8
0
  0
POLYLINE
  5
AAFDE
  8
0
 66
     1
 10
0.0
 20
0.0
 30
0.0
 70
     1
  0
VERTEX
  5
B30DD
  8
0
 10
22301.6863909406
 20
24195.86185235746
 30
0.0
  0
VERTEX
  5
B30DE
  8
0
 10
22301.6863909406
 20
24225.86185235746
 30
0.0
  0
VERTEX
  5
B30DF
  8
0
 10
21165.6863909406
 20
24225.86185235746
 30
0.0
  0
VERTEX
  5
B30E0
  8
0
 10
21165.6863909406
 20
24195.86185235746
 30
0.0
  0
SEQEND
  5
B3593
  8
0
  0
POLYLINE
  5
AAFDF
  8
0
 66
     1
 10
0.0
 20
0.0
 30
0.0
 70
     1
  0
VERTEX
  5
B30E1
  8
0
 10
17666.1298653905
 20
24045.8618618942
 30
0.0
  0
VERTEX
  5
B30E2
  8
0
 10
17666.1298653905
 20
24075.8618618942
 30
0.0
  0
VERTEX
  5
B30E3
  8
0
 10
16530.1298653905
 20
24075.8618618942
 30
0.0
  0
VERTEX
  5
B30E4
  8
0
 10
16530.1298653905
 20
24045.8618618942
 30
0.0
  0
SEQEND
  5
B3594
  8
0
  0
POLYLINE
  5
AAFE0
  8
0
 66
     1
 10
0.0
 20
0.0
 30
0.0
 70
     1
  0
VERTEX
  5
B30E5
  8
0
 10
17666.12986539054
 20
20342.72637188072
 30
0.0
  0
VERTEX
  5
B30E6
  8
0
 10
17666.12986539054
 20
20312.72637188072
 30
0.0
  0
VERTEX
  5
B30E7
  8
0
 10
16530.12986539054
 20
20312.72637188072
 30
0.0
  0
VERTEX
  5
B30E8
  8
0
 10
16530.12986539054
 20
20342.72637188072
 30
0.0
  0
SEQEND
  5
B3595
  8
0
  0
POLYLINE
  5
ABC0B
  8
0
 66
     1
 10
0.0
 20
0.0
 30
0.0
 70
     1
  0
VERTEX
  5
B30E9
  8
0
 10
9251.813258470216
 20
4908.171916406232
 30
0.0
  0
VERTEX
  5
B30EA
  8
0
 10
8651.813258470218
 20
4908.171916406232
 30
0.0
  0
VERTEX
  5
B30EB
  8
0
 10
8651.813258470218
 20
7431.171925943011
 30
0.0
  0
VERTEX
  5
B30EC
  8
0
 10
9251.813258470216
 20
7431.171925943011
 30
0.0
  0
SEQEND
  5
B3596
  8
0
  0
POLYLINE
  5
ABC0C
  8
0
 66
     1
 10
0.0
 20
0.0
 30
0.0
 70
     1
  0
VERTEX
  5
B30ED
  8
0
 10
8936.813258470218
 20
7431.171925943011
 30
0.0
  0
VERTEX
  5
B30EE
  8
0
 10
8936.813258470218
 20
4908.171916406232
 30
0.0
  0
VERTEX
  5
B30EF
  8
0
 10
8966.813258470216
 20
4908.171916406232
 30
0.0
  0
VERTEX
  5
B30F0
  8
0
 10
8966.813258470216
 20
7431.171925943011
 30
0.0
  0
SEQEND
  5
B3597
  8
0
  0
POLYLINE
  5
ABC0D
  8
0
 66
     1
 10
0.0
 20
0.0
 30
0.0
  0
VERTEX
  5
B30F1
  8
0
 10
9450.019972027914
 20
4891.171916406282
 30
0.0
  0
VERTEX
  5
B30F2
  8
0
 10
8453.606544912507
 20
4891.171916406282
 30
0.0
  0
SEQEND
  5
B3598
  8
0
  0
POLYLINE
  5
ABC0E
  8
0
 66
     1
 10
0.0
 20
0.0
 30
0.0
  0
VERTEX
  5
B30F3
  8
0
 10
9450.019972027914
 20
2158.036426392835
 30
0.0
  0
VERTEX
  5
B30F4
  8
0
 10
8453.606544912507
 20
2158.036426392835
 30
0.0
  0
SEQEND
  5
B3599
  8
0
  0
POLYLINE
  5
ABC0F
  8
0
 66
     1
 10
0.0
 20
0.0
 30
0.0
 70
     1
  0
VERTEX
  5
B30F5
  8
0
 10
8936.813258470218
 20
4298.036435929563
 30
0.0
  0
VERTEX
  5
B30F6
  8
0
 10
8936.813258470218
 20
2175.036426392791
 30
0.0
  0
VERTEX
  5
B30F7
  8
0
 10
8966.813258470216
 20
2175.036426392791
 30
0.0
  0
VERTEX
  5
B30F8
  8
0
 10
8966.813258470216
 20
4298.036435929563
 30
0.0
  0
SEQEND
  5
B359A
  8
0
  0
POLYLINE
  5
ABC10
  8
0
 66
     1
 10
0.0
 20
0.0
 30
0.0
 70
     1
  0
VERTEX
  5
B30F9
  8
0
 10
9251.813258470216
 20
2175.036426392791
 30
0.0
  0
VERTEX
  5
B30FA
  8
0
 10
8651.813258470218
 20
2175.036426392791
 30
0.0
  0
VERTEX
  5
B30FB
  8
0
 10
8651.813258470218
 20
4298.036435929563
 30
0.0
  0
VERTEX
  5
B30FC
  8
0
 10
9251.813258470216
 20
4298.036435929563
 30
0.0
  0
SEQEND
  5
B359B
  8
0
  0
POLYLINE
  5
ABC11
  8
0
 66
     1
 10
0.0
 20
0.0
 30
0.0
 70
     1
  0
VERTEX
  5
B30FD
  8
0
 10
31985.00000000001
 20
4298.036435929559
 30
0.0
  0
VERTEX
  5
B30FE
  8
0
 10
31985.00000000001
 20
2175.036426392789
 30
0.0
  0
VERTEX
  5
B30FF
  8
0
 10
32015.00000000001
 20
2175.036426392789
 30
0.0
  0
VERTEX
  5
B3100
  8
0
 10
32015.00000000001
 20
4298.036435929559
 30
0.0
  0
SEQEND
  5
B359C
  8
0
  0
POLYLINE
  5
ABC12
  8
0
 66
     1
 10
0.0
 20
0.0
 30
0.0
 70
     1
  0
VERTEX
  5
B3101
  8
0
 10
33385.00000000001
 20
4298.036435929559
 30
0.0
  0
VERTEX
  5
B3102
  8
0
 10
33385.00000000001
 20
2175.036426392789
 30
0.0
  0
VERTEX
  5
B3103
  8
0
 10
33415.00000000001
 20
2175.036426392789
 30
0.0
  0
VERTEX
  5
B3104
  8
0
 10
33415.00000000001
 20
4298.036435929559
 30
0.0
  0
SEQEND
  5
B359D
  8
0
  0
POLYLINE
  5
ABC13
  8
0
 66
     1
 10
0.0
 20
0.0
 30
0.0
 70
     1
  0
VERTEX
  5
B3105
  8
0
 10
33984.99999999999
 20
4298.036435929559
 30
0.0
  0
VERTEX
  5
B3106
  8
0
 10
33984.99999999999
 20
2175.036426392789
 30
0.0
  0
VERTEX
  5
B3107
  8
0
 10
34014.99999999999
 20
2175.036426392789
 30
0.0
  0
VERTEX
  5
B3108
  8
0
 10
34014.99999999999
 20
4298.036435929559
 30
0.0
  0
SEQEND
  5
B359E
  8
0
  0
POLYLINE
  5
ABC14
  8
0
 66
     1
 10
0.0
 20
0.0
 30
0.0
 70
     1
  0
VERTEX
  5
B3109
  8
0
 10
34584.99999999999
 20
4298.036435929559
 30
0.0
  0
VERTEX
  5
B310A
  8
0
 10
34584.99999999999
 20
2175.036426392789
 30
0.0
  0
VERTEX
  5
B310B
  8
0
 10
34615.0
 20
2175.036426392789
 30
0.0
  0
VERTEX
  5
B310C
  8
0
 10
34615.0
 20
4298.036435929559
 30
0.0
  0
SEQEND
  5
B359F
  8
0
  0
POLYLINE
  5
ABC15
  8
0
 66
     1
 10
0.0
 20
0.0
 30
0.0
 70
     1
  0
VERTEX
  5
B310D
  8
0
 10
35185.00000000001
 20
8431.1719164063
 30
0.0
  0
VERTEX
  5
B310E
  8
0
 10
35185.00000000001
 20
5908.171916406253
 30
0.0
  0
VERTEX
  5
B310F
  8
0
 10
35215.00000000001
 20
5908.171916406253
 30
0.0
  0
VERTEX
  5
B3110
  8
0
 10
35215.00000000001
 20
8431.1719164063
 30
0.0
  0
SEQEND
  5
B35A0
  8
0
  0
POLYLINE
  5
ABC18
  8
0
 66
     1
 10
0.0
 20
0.0
 30
0.0
 70
     1
  0
VERTEX
  5
B3111
  8
0
 10
34585.00000000001
 20
8431.1719164063
 30
0.0
  0
VERTEX
  5
B3112
  8
0
 10
34585.00000000001
 20
5908.171916406253
 30
0.0
  0
VERTEX
  5
B3113
  8
0
 10
34615.00000000001
 20
5908.171916406253
 30
0.0
  0
VERTEX
  5
B3114
  8
0
 10
34615.00000000001
 20
8431.1719164063
 30
0.0
  0
SEQEND
  5
B35A1
  8
0
  0
POLYLINE
  5
ABC19
  8
0
 66
     1
 10
0.0
 20
0.0
 30
0.0
 70
     1
  0
VERTEX
  5
B3115
  8
0
 10
33985.00000000001
 20
8431.1719164063
 30
0.0
  0
VERTEX
  5
B3116
  8
0
 10
33985.00000000001
 20
5908.171916406253
 30
0.0
  0
VERTEX
  5
B3117
  8
0
 10
34015.00000000001
 20
5908.171916406253
 30
0.0
  0
VERTEX
  5
B3118
  8
0
 10
34015.00000000001
 20
8431.1719164063
 30
0.0
  0
SEQEND
  5
B35A2
  8
0
  0
POLYLINE
  5
ABC1A
  8
0
 66
     1
 10
0.0
 20
0.0
 30
0.0
 70
     1
  0
VERTEX
  5
B3119
  8
0
 10
33385.00000000001
 20
8431.1719164063
 30
0.0
  0
VERTEX
  5
B311A
  8
0
 10
33385.00000000001
 20
5908.171916406253
 30
0.0
  0
VERTEX
  5
B311B
  8
0
 10
33415.00000000001
 20
5908.171916406253
 30
0.0
  0
VERTEX
  5
B311C
  8
0
 10
33415.00000000001
 20
8431.1719164063
 30
0.0
  0
SEQEND
  5
B35A3
  8
0
  0
POLYLINE
  5
ABC1B
  8
0
 66
     1
 10
0.0
 20
0.0
 30
0.0
 70
     1
  0
VERTEX
  5
B311D
  8
0
 10
31985.00000000001
 20
8431.1719164063
 30
0.0
  0
VERTEX
  5
B311E
  8
0
 10
31985.00000000001
 20
5908.171916406253
 30
0.0
  0
VERTEX
  5
B311F
  8
0
 10
32015.00000000001
 20
5908.171916406253
 30
0.0
  0
VERTEX
  5
B3120
  8
0
 10
32015.00000000001
 20
8431.1719164063
 30
0.0
  0
SEQEND
  5
B35A4
  8
0
  0
POLYLINE
  5
ABC1C
  8
0
 66
     1
 10
0.0
 20
0.0
 30
0.0
 70
     1
  0
VERTEX
  5
B3121
  8
0
 10
25592.70801072259
 20
24485.86186189427
 30
0.0
  0
VERTEX
  5
B3122
  8
0
 10
25592.70801072259
 20
21962.86186189421
 30
0.0
  0
VERTEX
  5
B3123
  8
0
 10
25622.70801072259
 20
21962.86186189421
 30
0.0
  0
VERTEX
  5
B3124
  8
0
 10
25622.70801072259
 20
24485.86186189427
 30
0.0
  0
SEQEND
  5
B35A5
  8
0
  0
POLYLINE
  5
ABC1D
  8
0
 66
     1
 10
0.0
 20
0.0
 30
0.0
 70
     1
  0
VERTEX
  5
B3125
  8
0
 10
24596.29458360716
 20
24085.86187143098
 30
0.0
  0
VERTEX
  5
B3126
  8
0
 10
24596.29458360716
 20
21962.86186189422
 30
0.0
  0
VERTEX
  5
B3127
  8
0
 10
24626.29458360716
 20
21962.86186189422
 30
0.0
  0
VERTEX
  5
B3128
  8
0
 10
24626.29458360716
 20
24085.86187143098
 30
0.0
  0
SEQEND
  5
B35A6
  8
0
  0
POLYLINE
  5
ABC1E
  8
0
 66
     1
 10
0.0
 20
0.0
 30
0.0
 70
     1
  0
VERTEX
  5
B3129
  8
0
 10
25592.70801072259
 20
20752.7263718808
 30
0.0
  0
VERTEX
  5
B312A
  8
0
 10
25592.70801072259
 20
18229.72637188074
 30
0.0
  0
VERTEX
  5
B312B
  8
0
 10
25622.70801072259
 20
18229.72637188074
 30
0.0
  0
VERTEX
  5
B312C
  8
0
 10
25622.70801072259
 20
20752.7263718808
 30
0.0
  0
SEQEND
  5
B35A7
  8
0
  0
POLYLINE
  5
ABC1F
  8
0
 66
     1
 10
0.0
 20
0.0
 30
0.0
 70
     1
  0
VERTEX
  5
B312D
  8
0
 10
24596.29458360716
 20
20352.72638141752
 30
0.0
  0
VERTEX
  5
B312E
  8
0
 10
24596.29458360716
 20
18229.72637188075
 30
0.0
  0
VERTEX
  5
B312F
  8
0
 10
24626.29458360716
 20
18229.72637188075
 30
0.0
  0
VERTEX
  5
B3130
  8
0
 10
24626.29458360716
 20
20352.72638141752
 30
0.0
  0
SEQEND
  5
B35A8
  8
0
  0
POLYLINE
  5
ABC20
  8
0
 66
     1
 10
0.0
 20
0.0
 30
0.0
 70
     1
  0
VERTEX
  5
B3131
  8
0
 10
25592.70801072259
 20
12725.38139913682
 30
0.0
  0
VERTEX
  5
B3132
  8
0
 10
25592.70801072259
 20
10202.38139913677
 30
0.0
  0
VERTEX
  5
B3133
  8
0
 10
25622.70801072259
 20
10202.38139913677
 30
0.0
  0
VERTEX
  5
B3134
  8
0
 10
25622.70801072259
 20
12725.38139913682
 30
0.0
  0
SEQEND
  5
B35A9
  8
0
  0
POLYLINE
  5
ABC21
  8
0
 66
     1
 10
0.0
 20
0.0
 30
0.0
 70
     1
  0
VERTEX
  5
B3135
  8
0
 10
24596.29458360716
 20
12325.38140867354
 30
0.0
  0
VERTEX
  5
B3136
  8
0
 10
24596.29458360716
 20
10202.38139913677
 30
0.0
  0
VERTEX
  5
B3137
  8
0
 10
24626.29458360716
 20
10202.38139913677
 30
0.0
  0
VERTEX
  5
B3138
  8
0
 10
24626.29458360716
 20
12325.38140867354
 30
0.0
  0
SEQEND
  5
B35AA
  8
0
  0
POLYLINE
  5
ABC22
  8
0
 66
     1
 10
0.0
 20
0.0
 30
0.0
 70
     1
  0
VERTEX
  5
B3139
  8
0
 10
24596.29458360716
 20
16058.51689868701
 30
0.0
  0
VERTEX
  5
B313A
  8
0
 10
24596.29458360716
 20
13935.51688915023
 30
0.0
  0
VERTEX
  5
B313B
  8
0
 10
24626.29458360716
 20
13935.51688915023
 30
0.0
  0
VERTEX
  5
B313C
  8
0
 10
24626.29458360716
 20
16058.51689868701
 30
0.0
  0
SEQEND
  5
B35AB
  8
0
  0
POLYLINE
  5
ABC23
  8
0
 66
     1
 10
0.0
 20
0.0
 30
0.0
 70
     1
  0
VERTEX
  5
B313D
  8
0
 10
25592.70801072259
 20
16458.51688915028
 30
0.0
  0
VERTEX
  5
B313E
  8
0
 10
25592.70801072259
 20
13935.51688915023
 30
0.0
  0
VERTEX
  5
B313F
  8
0
 10
25622.70801072259
 20
13935.51688915023
 30
0.0
  0
VERTEX
  5
B3140
  8
0
 10
25622.70801072259
 20
16458.51688915028
 30
0.0
  0
SEQEND
  5
B35AC
  8
0
  0
POLYLINE
  5
ABC24
  8
0
 66
     1
 10
0.0
 20
0.0
 30
0.0
 70
     1
  0
VERTEX
  5
B3141
  8
0
 10
24596.29458360716
 20
8031.171925943024
 30
0.0
  0
VERTEX
  5
B3142
  8
0
 10
24596.29458360716
 20
5908.171916406253
 30
0.0
  0
VERTEX
  5
B3143
  8
0
 10
24626.29458360716
 20
5908.171916406253
 30
0.0
  0
VERTEX
  5
B3144
  8
0
 10
24626.29458360716
 20
8031.171925943024
 30
0.0
  0
SEQEND
  5
B35AD
  8
0
  0
POLYLINE
  5
ABC25
  8
0
 66
     1
 10
0.0
 20
0.0
 30
0.0
 70
     1
  0
VERTEX
  5
B3145
  8
0
 10
25592.70801072259
 20
8431.171916406302
 30
0.0
  0
VERTEX
  5
B3146
  8
0
 10
25592.70801072259
 20
5908.171916406249
 30
0.0
  0
VERTEX
  5
B3147
  8
0
 10
25622.70801072259
 20
5908.171916406249
 30
0.0
  0
VERTEX
  5
B3148
  8
0
 10
25622.70801072259
 20
8431.171916406302
 30
0.0
  0
SEQEND
  5
B35AE
  8
0
  0
POLYLINE
  5
ABC26
  8
0
 66
     1
 10
0.0
 20
0.0
 30
0.0
 70
     1
  0
VERTEX
  5
B3149
  8
0
 10
24596.29458360716
 20
4298.036435929562
 30
0.0
  0
VERTEX
  5
B314A
  8
0
 10
24596.29458360716
 20
2175.036426392789
 30
0.0
  0
VERTEX
  5
B314B
  8
0
 10
24626.29458360716
 20
2175.036426392789
 30
0.0
  0
VERTEX
  5
B314C
  8
0
 10
24626.29458360716
 20
4298.036435929562
 30
0.0
  0
SEQEND
  5
B35AF
  8
0
  0
POLYLINE
  5
ABC27
  8
0
 66
     1
 10
0.0
 20
0.0
 30
0.0
 70
     1
  0
VERTEX
  5
B314D
  8
0
 10
25592.70801072259
 20
4698.036426392837
 30
0.0
  0
VERTEX
  5
B314E
  8
0
 10
25592.70801072259
 20
2175.036426392786
 30
0.0
  0
VERTEX
  5
B314F
  8
0
 10
25622.70801072259
 20
2175.036426392786
 30
0.0
  0
VERTEX
  5
B3150
  8
0
 10
25622.70801072259
 20
4698.036426392837
 30
0.0
  0
SEQEND
  5
B35B0
  8
0
  0
POLYLINE
  5
ABC37
  8
0
 66
     1
 10
0.0
 20
0.0
 30
0.0
  0
VERTEX
  5
B3151
  8
0
 10
14463.52986539045
 20
24085.86187143098
 30
0.0
  0
VERTEX
  5
B3152
  8
0
 10
14493.52986539045
 20
24085.86187143098
 30
0.0
  0
VERTEX
  5
B3153
  8
0
 10
14493.52986539045
 20
24075.86187143099
 30
0.0
  0
VERTEX
  5
B3154
  8
0
 10
14463.52986539045
 20
24075.86187143099
 30
0.0
  0
VERTEX
  5
B3155
  8
0
 10
14463.52986539045
 20
24085.86187143098
 30
0.0
  0
SEQEND
  5
B35B1
  8
0
  0
POLYLINE
  5
ABC38
  8
0
 66
     1
 10
0.0
 20
0.0
 30
0.0
  0
VERTEX
  5
B3156
  8
0
 10
14463.52986539045
 20
21962.86186189421
 30
0.0
  0
VERTEX
  5
B3157
  8
0
 10
14493.52986539045
 20
21962.86186189421
 30
0.0
  0
VERTEX
  5
B3158
  8
0
 10
14493.52986539045
 20
21972.86186189421
 30
0.0
  0
VERTEX
  5
B3159
  8
0
 10
14463.52986539045
 20
21972.86186189421
 30
0.0
  0
VERTEX
  5
B315A
  8
0
 10
14463.52986539045
 20
21962.86186189421
 30
0.0
  0
SEQEND
  5
B35B2
  8
0
  0
POLYLINE
  5
ABC48
  8
0
 66
     1
 10
0.0
 20
0.0
 30
0.0
  0
VERTEX
  5
B315B
  8
0
 10
16463.52986539044
 20
24485.86186189427
 30
0.0
  0
VERTEX
  5
B315C
  8
0
 10
16493.52986539045
 20
24485.86186189427
 30
0.0
  0
VERTEX
  5
B315D
  8
0
 10
16493.52986539045
 20
24475.86186189426
 30
0.0
  0
VERTEX
  5
B315E
  8
0
 10
16463.52986539044
 20
24475.86186189426
 30
0.0
  0
VERTEX
  5
B315F
  8
0
 10
16463.52986539044
 20
24485.86186189427
 30
0.0
  0
SEQEND
  5
B35B3
  8
0
  0
POLYLINE
  5
ABC49
  8
0
 66
     1
 10
0.0
 20
0.0
 30
0.0
  0
VERTEX
  5
B3160
  8
0
 10
16463.52986539044
 20
21962.86186189421
 30
0.0
  0
VERTEX
  5
B3161
  8
0
 10
16493.52986539045
 20
21962.86186189421
 30
0.0
  0
VERTEX
  5
B3162
  8
0
 10
16493.52986539045
 20
21972.86186189421
 30
0.0
  0
VERTEX
  5
B3163
  8
0
 10
16463.52986539044
 20
21972.86186189421
 30
0.0
  0
VERTEX
  5
B3164
  8
0
 10
16463.52986539044
 20
21962.86186189421
 30
0.0
  0
SEQEND
  5
B35B4
  8
0
  0
POLYLINE
  5
ABC4A
  8
0
 66
     1
 10
0.0
 20
0.0
 30
0.0
  0
VERTEX
  5
B3165
  8
0
 10
21099.58639094055
 20
24485.86186189427
 30
0.0
  0
VERTEX
  5
B3166
  8
0
 10
21129.58639094054
 20
24485.86186189427
 30
0.0
  0
VERTEX
  5
B3167
  8
0
 10
21129.58639094054
 20
24475.86186189426
 30
0.0
  0
VERTEX
  5
B3168
  8
0
 10
21099.58639094055
 20
24475.86186189426
 30
0.0
  0
VERTEX
  5
B3169
  8
0
 10
21099.58639094055
 20
24485.86186189427
 30
0.0
  0
SEQEND
  5
B35B5
  8
0
  0
POLYLINE
  5
ABC4B
  8
0
 66
     1
 10
0.0
 20
0.0
 30
0.0
  0
VERTEX
  5
B316A
  8
0
 10
19099.58639094054
 20
24085.86187143098
 30
0.0
  0
VERTEX
  5
B316B
  8
0
 10
19129.58639094054
 20
24085.86187143098
 30
0.0
  0
VERTEX
  5
B316C
  8
0
 10
19129.58639094054
 20
24075.86187143099
 30
0.0
  0
VERTEX
  5
B316D
  8
0
 10
19099.58639094054
 20
24075.86187143099
 30
0.0
  0
VERTEX
  5
B316E
  8
0
 10
19099.58639094054
 20
24085.86187143098
 30
0.0
  0
SEQEND
  5
B35B6
  8
0
  0
POLYLINE
  5
ABC4C
  8
0
 66
     1
 10
0.0
 20
0.0
 30
0.0
  0
VERTEX
  5
B316F
  8
0
 10
19099.58639094054
 20
21962.86186189421
 30
0.0
  0
VERTEX
  5
B3170
  8
0
 10
19129.58639094054
 20
21962.86186189421
 30
0.0
  0
VERTEX
  5
B3171
  8
0
 10
19129.58639094054
 20
21972.86186189421
 30
0.0
  0
VERTEX
  5
B3172
  8
0
 10
19099.58639094054
 20
21972.86186189421
 30
0.0
  0
VERTEX
  5
B3173
  8
0
 10
19099.58639094054
 20
21962.86186189421
 30
0.0
  0
SEQEND
  5
B35B7
  8
0
  0
POLYLINE
  5
ABC4D
  8
0
 66
     1
 10
0.0
 20
0.0
 30
0.0
  0
VERTEX
  5
B3174
  8
0
 10
21099.58639094055
 20
21962.86186189421
 30
0.0
  0
VERTEX
  5
B3175
  8
0
 10
21129.58639094054
 20
21962.86186189421
 30
0.0
  0
VERTEX
  5
B3176
  8
0
 10
21129.58639094054
 20
21972.86186189421
 30
0.0
  0
VERTEX
  5
B3177
  8
0
 10
21099.58639094055
 20
21972.86186189421
 30
0.0
  0
VERTEX
  5
B3178
  8
0
 10
21099.58639094055
 20
21962.86186189421
 30
0.0
  0
SEQEND
  5
B35B8
  8
0
  0
POLYLINE
  5
ABC4E
  8
0
 66
     1
 10
0.0
 20
0.0
 30
0.0
  0
VERTEX
  5
B3179
  8
0
 10
14463.52986539045
 20
20352.72638141752
 30
0.0
  0
VERTEX
  5
B317A
  8
0
 10
14493.52986539045
 20
20352.72638141752
 30
0.0
  0
VERTEX
  5
B317B
  8
0
 10
14493.52986539045
 20
20342.72638141752
 30
0.0
  0
VERTEX
  5
B317C
  8
0
 10
14463.52986539045
 20
20342.72638141752
 30
0.0
  0
VERTEX
  5
B317D
  8
0
 10
14463.52986539045
 20
20352.72638141752
 30
0.0
  0
SEQEND
  5
B35B9
  8
0
  0
POLYLINE
  5
ABC4F
  8
0
 66
     1
 10
0.0
 20
0.0
 30
0.0
  0
VERTEX
  5
B317E
  8
0
 10
16463.52986539044
 20
20752.7263718808
 30
0.0
  0
VERTEX
  5
B317F
  8
0
 10
16493.52986539045
 20
20752.7263718808
 30
0.0
  0
VERTEX
  5
B3180
  8
0
 10
16493.52986539045
 20
20742.7263718808
 30
0.0
  0
VERTEX
  5
B3181
  8
0
 10
16463.52986539044
 20
20742.7263718808
 30
0.0
  0
VERTEX
  5
B3182
  8
0
 10
16463.52986539044
 20
20752.7263718808
 30
0.0
  0
SEQEND
  5
B35BA
  8
0
  0
POLYLINE
  5
ABC50
  8
0
 66
     1
 10
0.0
 20
0.0
 30
0.0
  0
VERTEX
  5
B3183
  8
0
 10
19099.58639094054
 20
20352.72638141752
 30
0.0
  0
VERTEX
  5
B3184
  8
0
 10
19129.58639094054
 20
20352.72638141752
 30
0.0
  0
VERTEX
  5
B3185
  8
0
 10
19129.58639094054
 20
20342.72638141752
 30
0.0
  0
VERTEX
  5
B3186
  8
0
 10
19099.58639094054
 20
20342.72638141752
 30
0.0
  0
VERTEX
  5
B3187
  8
0
 10
19099.58639094054
 20
20352.72638141752
 30
0.0
  0
SEQEND
  5
B35BB
  8
0
  0
POLYLINE
  5
ABC51
  8
0
 66
     1
 10
0.0
 20
0.0
 30
0.0
  0
VERTEX
  5
B3188
  8
0
 10
21099.58639094055
 20
20752.7263718808
 30
0.0
  0
VERTEX
  5
B3189
  8
0
 10
21129.58639094054
 20
20752.7263718808
 30
0.0
  0
VERTEX
  5
B318A
  8
0
 10
21129.58639094054
 20
20742.7263718808
 30
0.0
  0
VERTEX
  5
B318B
  8
0
 10
21099.58639094055
 20
20742.7263718808
 30
0.0
  0
VERTEX
  5
B318C
  8
0
 10
21099.58639094055
 20
20752.7263718808
 30
0.0
  0
SEQEND
  5
B35BC
  8
0
  0
POLYLINE
  5
ABC52
  8
0
 66
     1
 10
0.0
 20
0.0
 30
0.0
  0
VERTEX
  5
B318D
  8
0
 10
21099.58639094055
 20
18229.72637188074
 30
0.0
  0
VERTEX
  5
B318E
  8
0
 10
21129.58639094054
 20
18229.72637188074
 30
0.0
  0
VERTEX
  5
B318F
  8
0
 10
21129.58639094054
 20
18239.72637188074
 30
0.0
  0
VERTEX
  5
B3190
  8
0
 10
21099.58639094055
 20
18239.72637188074
 30
0.0
  0
VERTEX
  5
B3191
  8
0
 10
21099.58639094055
 20
18229.72637188074
 30
0.0
  0
SEQEND
  5
B35BD
  8
0
  0
POLYLINE
  5
ABC53
  8
0
 66
     1
 10
0.0
 20
0.0
 30
0.0
  0
VERTEX
  5
B3192
  8
0
 10
19099.58639094054
 20
18229.72637188074
 30
0.0
  0
VERTEX
  5
B3193
  8
0
 10
19129.58639094054
 20
18229.72637188074
 30
0.0
  0
VERTEX
  5
B3194
  8
0
 10
19129.58639094054
 20
18239.72637188075
 30
0.0
  0
VERTEX
  5
B3195
  8
0
 10
19099.58639094054
 20
18239.72637188075
 30
0.0
  0
VERTEX
  5
B3196
  8
0
 10
19099.58639094054
 20
18229.72637188074
 30
0.0
  0
SEQEND
  5
B35BE
  8
0
  0
POLYLINE
  5
ABC54
  8
0
 66
     1
 10
0.0
 20
0.0
 30
0.0
  0
VERTEX
  5
B3197
  8
0
 10
16463.52986539044
 20
18229.72637188074
 30
0.0
  0
VERTEX
  5
B3198
  8
0
 10
16493.52986539045
 20
18229.72637188074
 30
0.0
  0
VERTEX
  5
B3199
  8
0
 10
16493.52986539045
 20
18239.72637188074
 30
0.0
  0
VERTEX
  5
B319A
  8
0
 10
16463.52986539044
 20
18239.72637188074
 30
0.0
  0
VERTEX
  5
B319B
  8
0
 10
16463.52986539044
 20
18229.72637188074
 30
0.0
  0
SEQEND
  5
B35BF
  8
0
  0
POLYLINE
  5
ABC55
  8
0
 66
     1
 10
0.0
 20
0.0
 30
0.0
  0
VERTEX
  5
B319C
  8
0
 10
14463.52986539045
 20
18229.72637188074
 30
0.0
  0
VERTEX
  5
B319D
  8
0
 10
14493.52986539045
 20
18229.72637188074
 30
0.0
  0
VERTEX
  5
B319E
  8
0
 10
14493.52986539045
 20
18239.72637188075
 30
0.0
  0
VERTEX
  5
B319F
  8
0
 10
14463.52986539045
 20
18239.72637188075
 30
0.0
  0
VERTEX
  5
B31A0
  8
0
 10
14463.52986539045
 20
18229.72637188074
 30
0.0
  0
SEQEND
  5
B35C0
  8
0
  0
POLYLINE
  5
ABC5B
  8
0
 66
     1
 10
0.0
 20
0.0
 30
0.0
  0
VERTEX
  5
B31A1
  8
0
 10
21099.58639094055
 20
17668.65237916369
 30
0.0
  0
VERTEX
  5
B31A2
  8
0
 10
21129.58639094054
 20
17668.65237916369
 30
0.0
  0
VERTEX
  5
B31A3
  8
0
 10
21129.58639094054
 20
17678.65237916369
 30
0.0
  0
VERTEX
  5
B31A4
  8
0
 10
21099.58639094055
 20
17678.65237916369
 30
0.0
  0
VERTEX
  5
B31A5
  8
0
 10
21099.58639094055
 20
17668.65237916369
 30
0.0
  0
SEQEND
  5
B35C1
  8
0
  0
POLYLINE
  5
ABC5C
  8
0
 66
     1
 10
0.0
 20
0.0
 30
0.0
  0
VERTEX
  5
B31A6
  8
0
 10
19099.58639094054
 20
17668.6523791637
 30
0.0
  0
VERTEX
  5
B31A7
  8
0
 10
19129.58639094054
 20
17668.6523791637
 30
0.0
  0
VERTEX
  5
B31A8
  8
0
 10
19129.58639094054
 20
17678.65237916369
 30
0.0
  0
VERTEX
  5
B31A9
  8
0
 10
19099.58639094054
 20
17678.65237916369
 30
0.0
  0
VERTEX
  5
B31AA
  8
0
 10
19099.58639094054
 20
17668.6523791637
 30
0.0
  0
SEQEND
  5
B35C2
  8
0
  0
POLYLINE
  5
ABC5D
  8
0
 66
     1
 10
0.0
 20
0.0
 30
0.0
  0
VERTEX
  5
B31AB
  8
0
 10
16463.52986539044
 20
17668.65237916369
 30
0.0
  0
VERTEX
  5
B31AC
  8
0
 10
16493.52986539045
 20
17668.65237916369
 30
0.0
  0
VERTEX
  5
B31AD
  8
0
 10
16493.52986539045
 20
17678.65237916369
 30
0.0
  0
VERTEX
  5
B31AE
  8
0
 10
16463.52986539044
 20
17678.65237916369
 30
0.0
  0
VERTEX
  5
B31AF
  8
0
 10
16463.52986539044
 20
17668.65237916369
 30
0.0
  0
SEQEND
  5
B35C3
  8
0
  0
POLYLINE
  5
ABC5E
  8
0
 66
     1
 10
0.0
 20
0.0
 30
0.0
  0
VERTEX
  5
B31B0
  8
0
 10
14463.52986539045
 20
17668.6523791637
 30
0.0
  0
VERTEX
  5
B31B1
  8
0
 10
14493.52986539045
 20
17668.6523791637
 30
0.0
  0
VERTEX
  5
B31B2
  8
0
 10
14493.52986539045
 20
17678.65237916369
 30
0.0
  0
VERTEX
  5
B31B3
  8
0
 10
14463.52986539045
 20
17678.65237916369
 30
0.0
  0
VERTEX
  5
B31B4
  8
0
 10
14463.52986539045
 20
17668.6523791637
 30
0.0
  0
SEQEND
  5
B35C4
  8
0
  0
POLYLINE
  5
ABC5F
  8
0
 66
     1
 10
0.0
 20
0.0
 30
0.0
  0
VERTEX
  5
B31B5
  8
0
 10
14463.52986539045
 20
16058.516898687
 30
0.0
  0
VERTEX
  5
B31B6
  8
0
 10
14493.52986539045
 20
16058.516898687
 30
0.0
  0
VERTEX
  5
B31B7
  8
0
 10
14493.52986539045
 20
16048.516898687
 30
0.0
  0
VERTEX
  5
B31B8
  8
0
 10
14463.52986539045
 20
16048.516898687
 30
0.0
  0
VERTEX
  5
B31B9
  8
0
 10
14463.52986539045
 20
16058.516898687
 30
0.0
  0
SEQEND
  5
B35C5
  8
0
  0
POLYLINE
  5
ABC60
  8
0
 66
     1
 10
0.0
 20
0.0
 30
0.0
  0
VERTEX
  5
B31BA
  8
0
 10
16463.52986539044
 20
16458.51688915028
 30
0.0
  0
VERTEX
  5
B31BB
  8
0
 10
16493.52986539045
 20
16458.51688915028
 30
0.0
  0
VERTEX
  5
B31BC
  8
0
 10
16493.52986539045
 20
16448.51688915028
 30
0.0
  0
VERTEX
  5
B31BD
  8
0
 10
16463.52986539044
 20
16448.51688915028
 30
0.0
  0
VERTEX
  5
B31BE
  8
0
 10
16463.52986539044
 20
16458.51688915028
 30
0.0
  0
SEQEND
  5
B35C6
  8
0
  0
POLYLINE
  5
ABC61
  8
0
 66
     1
 10
0.0
 20
0.0
 30
0.0
  0
VERTEX
  5
B31BF
  8
0
 10
19099.58639094054
 20
16058.516898687
 30
0.0
  0
VERTEX
  5
B31C0
  8
0
 10
19129.58639094054
 20
16058.516898687
 30
0.0
  0
VERTEX
  5
B31C1
  8
0
 10
19129.58639094054
 20
16048.516898687
 30
0.0
  0
VERTEX
  5
B31C2
  8
0
 10
19099.58639094054
 20
16048.516898687
 30
0.0
  0
VERTEX
  5
B31C3
  8
0
 10
19099.58639094054
 20
16058.516898687
 30
0.0
  0
SEQEND
  5
B35C7
  8
0
  0
POLYLINE
  5
ABC62
  8
0
 66
     1
 10
0.0
 20
0.0
 30
0.0
  0
VERTEX
  5
B31C4
  8
0
 10
21099.58639094055
 20
16458.51688915028
 30
0.0
  0
VERTEX
  5
B31C5
  8
0
 10
21129.58639094054
 20
16458.51688915028
 30
0.0
  0
VERTEX
  5
B31C6
  8
0
 10
21129.58639094054
 20
16448.51688915028
 30
0.0
  0
VERTEX
  5
B31C7
  8
0
 10
21099.58639094055
 20
16448.51688915028
 30
0.0
  0
VERTEX
  5
B31C8
  8
0
 10
21099.58639094055
 20
16458.51688915028
 30
0.0
  0
SEQEND
  5
B35C8
  8
0
  0
POLYLINE
  5
ABC63
  8
0
 66
     1
 10
0.0
 20
0.0
 30
0.0
  0
VERTEX
  5
B31C9
  8
0
 10
21099.58639094055
 20
13935.51688915023
 30
0.0
  0
VERTEX
  5
B31CA
  8
0
 10
21129.58639094054
 20
13935.51688915023
 30
0.0
  0
VERTEX
  5
B31CB
  8
0
 10
21129.58639094054
 20
13945.51688915023
 30
0.0
  0
VERTEX
  5
B31CC
  8
0
 10
21099.58639094055
 20
13945.51688915023
 30
0.0
  0
VERTEX
  5
B31CD
  8
0
 10
21099.58639094055
 20
13935.51688915023
 30
0.0
  0
SEQEND
  5
B35C9
  8
0
  0
POLYLINE
  5
ABC64
  8
0
 66
     1
 10
0.0
 20
0.0
 30
0.0
  0
VERTEX
  5
B31CE
  8
0
 10
19099.58639094054
 20
13935.51688915023
 30
0.0
  0
VERTEX
  5
B31CF
  8
0
 10
19129.58639094054
 20
13935.51688915023
 30
0.0
  0
VERTEX
  5
B31D0
  8
0
 10
19129.58639094054
 20
13945.51688915023
 30
0.0
  0
VERTEX
  5
B31D1
  8
0
 10
19099.58639094054
 20
13945.51688915023
 30
0.0
  0
VERTEX
  5
B31D2
  8
0
 10
19099.58639094054
 20
13935.51688915023
 30
0.0
  0
SEQEND
  5
B35CA
  8
0
  0
POLYLINE
  5
ABC65
  8
0
 66
     1
 10
0.0
 20
0.0
 30
0.0
  0
VERTEX
  5
B31D3
  8
0
 10
16463.52986539044
 20
13935.51688915023
 30
0.0
  0
VERTEX
  5
B31D4
  8
0
 10
16493.52986539045
 20
13935.51688915023
 30
0.0
  0
VERTEX
  5
B31D5
  8
0
 10
16493.52986539045
 20
13945.51688915023
 30
0.0
  0
VERTEX
  5
B31D6
  8
0
 10
16463.52986539044
 20
13945.51688915023
 30
0.0
  0
VERTEX
  5
B31D7
  8
0
 10
16463.52986539044
 20
13935.51688915023
 30
0.0
  0
SEQEND
  5
B35CB
  8
0
  0
POLYLINE
  5
ABC66
  8
0
 66
     1
 10
0.0
 20
0.0
 30
0.0
  0
VERTEX
  5
B31D8
  8
0
 10
14463.52986539045
 20
13935.51688915023
 30
0.0
  0
VERTEX
  5
B31D9
  8
0
 10
14493.52986539045
 20
13935.51688915023
 30
0.0
  0
VERTEX
  5
B31DA
  8
0
 10
14493.52986539045
 20
13945.51688915023
 30
0.0
  0
VERTEX
  5
B31DB
  8
0
 10
14463.52986539045
 20
13945.51688915023
 30
0.0
  0
VERTEX
  5
B31DC
  8
0
 10
14463.52986539045
 20
13935.51688915023
 30
0.0
  0
SEQEND
  5
B35CC
  8
0
  0
POLYLINE
  5
ABC6B
  8
0
 66
     1
 10
0.0
 20
0.0
 30
0.0
  0
VERTEX
  5
B31DD
  8
0
 10
14463.52986539045
 20
12325.38140867354
 30
0.0
  0
VERTEX
  5
B31DE
  8
0
 10
14493.52986539045
 20
12325.38140867354
 30
0.0
  0
VERTEX
  5
B31DF
  8
0
 10
14493.52986539045
 20
12315.38140867354
 30
0.0
  0
VERTEX
  5
B31E0
  8
0
 10
14463.52986539045
 20
12315.38140867354
 30
0.0
  0
VERTEX
  5
B31E1
  8
0
 10
14463.52986539045
 20
12325.38140867354
 30
0.0
  0
SEQEND
  5
B35CD
  8
0
  0
POLYLINE
  5
ABC6C
  8
0
 66
     1
 10
0.0
 20
0.0
 30
0.0
  0
VERTEX
  5
B31E2
  8
0
 10
16463.52986539044
 20
12725.38139913682
 30
0.0
  0
VERTEX
  5
B31E3
  8
0
 10
16493.52986539045
 20
12725.38139913682
 30
0.0
  0
VERTEX
  5
B31E4
  8
0
 10
16493.52986539045
 20
12715.38139913682
 30
0.0
  0
VERTEX
  5
B31E5
  8
0
 10
16463.52986539044
 20
12715.38139913682
 30
0.0
  0
VERTEX
  5
B31E6
  8
0
 10
16463.52986539044
 20
12725.38139913682
 30
0.0
  0
SEQEND
  5
B35CE
  8
0
  0
POLYLINE
  5
ABC6D
  8
0
 66
     1
 10
0.0
 20
0.0
 30
0.0
  0
VERTEX
  5
B31E7
  8
0
 10
19099.58639094054
 20
12325.38140867354
 30
0.0
  0
VERTEX
  5
B31E8
  8
0
 10
19129.58639094054
 20
12325.38140867354
 30
0.0
  0
VERTEX
  5
B31E9
  8
0
 10
19129.58639094054
 20
12315.38140867354
 30
0.0
  0
VERTEX
  5
B31EA
  8
0
 10
19099.58639094054
 20
12315.38140867354
 30
0.0
  0
VERTEX
  5
B31EB
  8
0
 10
19099.58639094054
 20
12325.38140867354
 30
0.0
  0
SEQEND
  5
B35CF
  8
0
  0
POLYLINE
  5
ABC6E
  8
0
 66
     1
 10
0.0
 20
0.0
 30
0.0
  0
VERTEX
  5
B31EC
  8
0
 10
21099.58639094055
 20
12725.38139913682
 30
0.0
  0
VERTEX
  5
B31ED
  8
0
 10
21129.58639094054
 20
12725.38139913682
 30
0.0
  0
VERTEX
  5
B31EE
  8
0
 10
21129.58639094054
 20
12715.38139913682
 30
0.0
  0
VERTEX
  5
B31EF
  8
0
 10
21099.58639094055
 20
12715.38139913682
 30
0.0
  0
VERTEX
  5
B31F0
  8
0
 10
21099.58639094055
 20
12725.38139913682
 30
0.0
  0
SEQEND
  5
B35D0
  8
0
  0
POLYLINE
  5
ABC6F
  8
0
 66
     1
 10
0.0
 20
0.0
 30
0.0
  0
VERTEX
  5
B31F1
  8
0
 10
14463.52986539045
 20
10202.38139913677
 30
0.0
  0
VERTEX
  5
B31F2
  8
0
 10
14493.52986539045
 20
10202.38139913677
 30
0.0
  0
VERTEX
  5
B31F3
  8
0
 10
14493.52986539045
 20
10212.38139913676
 30
0.0
  0
VERTEX
  5
B31F4
  8
0
 10
14463.52986539045
 20
10212.38139913676
 30
0.0
  0
VERTEX
  5
B31F5
  8
0
 10
14463.52986539045
 20
10202.38139913677
 30
0.0
  0
SEQEND
  5
B35D1
  8
0
  0
POLYLINE
  5
ABC70
  8
0
 66
     1
 10
0.0
 20
0.0
 30
0.0
  0
VERTEX
  5
B31F6
  8
0
 10
16463.52986539044
 20
10202.38139913676
 30
0.0
  0
VERTEX
  5
B31F7
  8
0
 10
16493.52986539045
 20
10202.38139913676
 30
0.0
  0
VERTEX
  5
B31F8
  8
0
 10
16493.52986539045
 20
10212.38139913676
 30
0.0
  0
VERTEX
  5
B31F9
  8
0
 10
16463.52986539044
 20
10212.38139913676
 30
0.0
  0
VERTEX
  5
B31FA
  8
0
 10
16463.52986539044
 20
10202.38139913676
 30
0.0
  0
SEQEND
  5
B35D2
  8
0
  0
POLYLINE
  5
ABC71
  8
0
 66
     1
 10
0.0
 20
0.0
 30
0.0
  0
VERTEX
  5
B31FB
  8
0
 10
19099.58639094054
 20
10202.38139913677
 30
0.0
  0
VERTEX
  5
B31FC
  8
0
 10
19129.58639094054
 20
10202.38139913677
 30
0.0
  0
VERTEX
  5
B31FD
  8
0
 10
19129.58639094054
 20
10212.38139913676
 30
0.0
  0
VERTEX
  5
B31FE
  8
0
 10
19099.58639094054
 20
10212.38139913676
 30
0.0
  0
VERTEX
  5
B31FF
  8
0
 10
19099.58639094054
 20
10202.38139913677
 30
0.0
  0
SEQEND
  5
B35D3
  8
0
  0
POLYLINE
  5
ABC72
  8
0
 66
     1
 10
0.0
 20
0.0
 30
0.0
  0
VERTEX
  5
B3200
  8
0
 10
21099.58639094055
 20
10202.38139913676
 30
0.0
  0
VERTEX
  5
B3201
  8
0
 10
21129.58639094054
 20
10202.38139913676
 30
0.0
  0
VERTEX
  5
B3202
  8
0
 10
21129.58639094054
 20
10212.38139913676
 30
0.0
  0
VERTEX
  5
B3203
  8
0
 10
21099.58639094055
 20
10212.38139913676
 30
0.0
  0
VERTEX
  5
B3204
  8
0
 10
21099.58639094055
 20
10202.38139913676
 30
0.0
  0
SEQEND
  5
B35D4
  8
0
  0
POLYLINE
  5
ABC73
  8
0
 66
     1
 10
0.0
 20
0.0
 30
0.0
  0
VERTEX
  5
B3205
  8
0
 10
14463.52986539045
 20
8031.171925943024
 30
0.0
  0
VERTEX
  5
B3206
  8
0
 10
14493.52986539045
 20
8031.171925943024
 30
0.0
  0
VERTEX
  5
B3207
  8
0
 10
14493.52986539045
 20
8021.171925943022
 30
0.0
  0
VERTEX
  5
B3208
  8
0
 10
14463.52986539045
 20
8021.171925943022
 30
0.0
  0
VERTEX
  5
B3209
  8
0
 10
14463.52986539045
 20
8031.171925943024
 30
0.0
  0
SEQEND
  5
B35D5
  8
0
  0
POLYLINE
  5
ABC74
  8
0
 66
     1
 10
0.0
 20
0.0
 30
0.0
  0
VERTEX
  5
B320A
  8
0
 10
16463.52986539044
 20
8431.171916406302
 30
0.0
  0
VERTEX
  5
B320B
  8
0
 10
16493.52986539045
 20
8431.171916406302
 30
0.0
  0
VERTEX
  5
B320C
  8
0
 10
16493.52986539045
 20
8421.171916406302
 30
0.0
  0
VERTEX
  5
B320D
  8
0
 10
16463.52986539044
 20
8421.171916406302
 30
0.0
  0
VERTEX
  5
B320E
  8
0
 10
16463.52986539044
 20
8431.171916406302
 30
0.0
  0
SEQEND
  5
B35D6
  8
0
  0
POLYLINE
  5
ABC75
  8
0
 66
     1
 10
0.0
 20
0.0
 30
0.0
  0
VERTEX
  5
B320F
  8
0
 10
19099.58639094054
 20
8031.171925943024
 30
0.0
  0
VERTEX
  5
B3210
  8
0
 10
19129.58639094054
 20
8031.171925943024
 30
0.0
  0
VERTEX
  5
B3211
  8
0
 10
19129.58639094054
 20
8021.171925943022
 30
0.0
  0
VERTEX
  5
B3212
  8
0
 10
19099.58639094054
 20
8021.171925943022
 30
0.0
  0
VERTEX
  5
B3213
  8
0
 10
19099.58639094054
 20
8031.171925943024
 30
0.0
  0
SEQEND
  5
B35D7
  8
0
  0
POLYLINE
  5
ABC76
  8
0
 66
     1
 10
0.0
 20
0.0
 30
0.0
  0
VERTEX
  5
B3214
  8
0
 10
21099.58639094055
 20
8431.171916406302
 30
0.0
  0
VERTEX
  5
B3215
  8
0
 10
21129.58639094054
 20
8431.171916406302
 30
0.0
  0
VERTEX
  5
B3216
  8
0
 10
21129.58639094054
 20
8421.171916406302
 30
0.0
  0
VERTEX
  5
B3217
  8
0
 10
21099.58639094055
 20
8421.171916406302
 30
0.0
  0
VERTEX
  5
B3218
  8
0
 10
21099.58639094055
 20
8431.171916406302
 30
0.0
  0
SEQEND
  5
B35D8
  8
0
  0
POLYLINE
  5
ABC77
  8
0
 66
     1
 10
0.0
 20
0.0
 30
0.0
  0
VERTEX
  5
B3219
  8
0
 10
14463.52986539045
 20
5908.171916406249
 30
0.0
  0
VERTEX
  5
B321A
  8
0
 10
14493.52986539045
 20
5908.171916406249
 30
0.0
  0
VERTEX
  5
B321B
  8
0
 10
14493.52986539045
 20
5918.17191640625
 30
0.0
  0
VERTEX
  5
B321C
  8
0
 10
14463.52986539045
 20
5918.17191640625
 30
0.0
  0
VERTEX
  5
B321D
  8
0
 10
14463.52986539045
 20
5908.171916406249
 30
0.0
  0
SEQEND
  5
B35D9
  8
0
  0
POLYLINE
  5
ABC78
  8
0
 66
     1
 10
0.0
 20
0.0
 30
0.0
  0
VERTEX
  5
B321E
  8
0
 10
16463.52986539044
 20
5908.171916406248
 30
0.0
  0
VERTEX
  5
B321F
  8
0
 10
16493.52986539045
 20
5908.171916406248
 30
0.0
  0
VERTEX
  5
B3220
  8
0
 10
16493.52986539045
 20
5918.171916406247
 30
0.0
  0
VERTEX
  5
B3221
  8
0
 10
16463.52986539044
 20
5918.171916406247
 30
0.0
  0
VERTEX
  5
B3222
  8
0
 10
16463.52986539044
 20
5908.171916406248
 30
0.0
  0
SEQEND
  5
B35DA
  8
0
  0
POLYLINE
  5
ABC79
  8
0
 66
     1
 10
0.0
 20
0.0
 30
0.0
  0
VERTEX
  5
B3223
  8
0
 10
19099.58639094054
 20
5908.171916406249
 30
0.0
  0
VERTEX
  5
B3224
  8
0
 10
19129.58639094054
 20
5908.171916406249
 30
0.0
  0
VERTEX
  5
B3225
  8
0
 10
19129.58639094054
 20
5918.17191640625
 30
0.0
  0
VERTEX
  5
B3226
  8
0
 10
19099.58639094054
 20
5918.17191640625
 30
0.0
  0
VERTEX
  5
B3227
  8
0
 10
19099.58639094054
 20
5908.171916406249
 30
0.0
  0
SEQEND
  5
B35DB
  8
0
  0
POLYLINE
  5
ABC7A
  8
0
 66
     1
 10
0.0
 20
0.0
 30
0.0
  0
VERTEX
  5
B3228
  8
0
 10
21099.58639094055
 20
5908.171916406248
 30
0.0
  0
VERTEX
  5
B3229
  8
0
 10
21129.58639094054
 20
5908.171916406248
 30
0.0
  0
VERTEX
  5
B322A
  8
0
 10
21129.58639094054
 20
5918.171916406247
 30
0.0
  0
VERTEX
  5
B322B
  8
0
 10
21099.58639094055
 20
5918.171916406247
 30
0.0
  0
VERTEX
  5
B322C
  8
0
 10
21099.58639094055
 20
5908.171916406248
 30
0.0
  0
SEQEND
  5
B35DC
  8
0
  0
POLYLINE
  5
ABC7B
  8
0
 66
     1
 10
0.0
 20
0.0
 30
0.0
  0
VERTEX
  5
B322D
  8
0
 10
14463.52986539045
 20
4298.036435929559
 30
0.0
  0
VERTEX
  5
B322E
  8
0
 10
14493.52986539045
 20
4298.036435929559
 30
0.0
  0
VERTEX
  5
B322F
  8
0
 10
14493.52986539045
 20
4288.036435929559
 30
0.0
  0
VERTEX
  5
B3230
  8
0
 10
14463.52986539045
 20
4288.036435929559
 30
0.0
  0
VERTEX
  5
B3231
  8
0
 10
14463.52986539045
 20
4298.036435929559
 30
0.0
  0
SEQEND
  5
B35DD
  8
0
  0
POLYLINE
  5
ABC7C
  8
0
 66
     1
 10
0.0
 20
0.0
 30
0.0
  0
VERTEX
  5
B3232
  8
0
 10
16463.52986539044
 20
4698.036426392838
 30
0.0
  0
VERTEX
  5
B3233
  8
0
 10
16493.52986539045
 20
4698.036426392838
 30
0.0
  0
VERTEX
  5
B3234
  8
0
 10
16493.52986539045
 20
4688.036426392836
 30
0.0
  0
VERTEX
  5
B3235
  8
0
 10
16463.52986539044
 20
4688.036426392836
 30
0.0
  0
VERTEX
  5
B3236
  8
0
 10
16463.52986539044
 20
4698.036426392838
 30
0.0
  0
SEQEND
  5
B35DE
  8
0
  0
POLYLINE
  5
ABC7D
  8
0
 66
     1
 10
0.0
 20
0.0
 30
0.0
  0
VERTEX
  5
B3237
  8
0
 10
19099.58639094054
 20
4298.036435929559
 30
0.0
  0
VERTEX
  5
B3238
  8
0
 10
19129.58639094054
 20
4298.036435929559
 30
0.0
  0
VERTEX
  5
B3239
  8
0
 10
19129.58639094054
 20
4288.036435929559
 30
0.0
  0
VERTEX
  5
B323A
  8
0
 10
19099.58639094054
 20
4288.036435929559
 30
0.0
  0
VERTEX
  5
B323B
  8
0
 10
19099.58639094054
 20
4298.036435929559
 30
0.0
  0
SEQEND
  5
B35DF
  8
0
  0
POLYLINE
  5
ABC7E
  8
0
 66
     1
 10
0.0
 20
0.0
 30
0.0
  0
VERTEX
  5
B323C
  8
0
 10
21099.58639094055
 20
4698.036426392838
 30
0.0
  0
VERTEX
  5
B323D
  8
0
 10
21129.58639094054
 20
4698.036426392838
 30
0.0
  0
VERTEX
  5
B323E
  8
0
 10
21129.58639094054
 20
4688.036426392836
 30
0.0
  0
VERTEX
  5
B323F
  8
0
 10
21099.58639094055
 20
4688.036426392836
 30
0.0
  0
VERTEX
  5
B3240
  8
0
 10
21099.58639094055
 20
4698.036426392838
 30
0.0
  0
SEQEND
  5
B35E0
  8
0
  0
POLYLINE
  5
ABC7F
  8
0
 66
     1
 10
0.0
 20
0.0
 30
0.0
  0
VERTEX
  5
B3241
  8
0
 10
14463.52986539045
 20
2175.036426392788
 30
0.0
  0
VERTEX
  5
B3242
  8
0
 10
14493.52986539045
 20
2175.036426392788
 30
0.0
  0
VERTEX
  5
B3243
  8
0
 10
14493.52986539045
 20
2185.036426392787
 30
0.0
  0
VERTEX
  5
B3244
  8
0
 10
14463.52986539045
 20
2185.036426392787
 30
0.0
  0
VERTEX
  5
B3245
  8
0
 10
14463.52986539045
 20
2175.036426392788
 30
0.0
  0
SEQEND
  5
B35E1
  8
0
  0
POLYLINE
  5
ABC80
  8
0
 66
     1
 10
0.0
 20
0.0
 30
0.0
  0
VERTEX
  5
B3246
  8
0
 10
16463.52986539044
 20
2175.036426392784
 30
0.0
  0
VERTEX
  5
B3247
  8
0
 10
16493.52986539045
 20
2175.036426392784
 30
0.0
  0
VERTEX
  5
B3248
  8
0
 10
16493.52986539045
 20
2185.036426392784
 30
0.0
  0
VERTEX
  5
B3249
  8
0
 10
16463.52986539044
 20
2185.036426392784
 30
0.0
  0
VERTEX
  5
B324A
  8
0
 10
16463.52986539044
 20
2175.036426392784
 30
0.0
  0
SEQEND
  5
B35E2
  8
0
  0
POLYLINE
  5
ABC81
  8
0
 66
     1
 10
0.0
 20
0.0
 30
0.0
  0
VERTEX
  5
B324B
  8
0
 10
19099.58639094054
 20
2175.036426392788
 30
0.0
  0
VERTEX
  5
B324C
  8
0
 10
19129.58639094054
 20
2175.036426392788
 30
0.0
  0
VERTEX
  5
B324D
  8
0
 10
19129.58639094054
 20
2185.036426392787
 30
0.0
  0
VERTEX
  5
B324E
  8
0
 10
19099.58639094054
 20
2185.036426392787
 30
0.0
  0
VERTEX
  5
B324F
  8
0
 10
19099.58639094054
 20
2175.036426392788
 30
0.0
  0
SEQEND
  5
B35E3
  8
0
  0
POLYLINE
  5
ABC82
  8
0
 66
     1
 10
0.0
 20
0.0
 30
0.0
  0
VERTEX
  5
B3250
  8
0
 10
21099.58639094055
 20
2175.036426392784
 30
0.0
  0
VERTEX
  5
B3251
  8
0
 10
21129.58639094054
 20
2175.036426392784
 30
0.0
  0
VERTEX
  5
B3252
  8
0
 10
21129.58639094054
 20
2185.036426392784
 30
0.0
  0
VERTEX
  5
B3253
  8
0
 10
21099.58639094055
 20
2185.036426392784
 30
0.0
  0
VERTEX
  5
B3254
  8
0
 10
21099.58639094055
 20
2175.036426392784
 30
0.0
  0
SEQEND
  5
B35E4
  8
0
  0
POLYLINE
  5
AE5CF
  8
0
 66
     1
 10
0.0
 20
0.0
 30
0.0
 70
     1
  0
VERTEX
  5
B3255
  8
0
 10
19166.1863909405
 20
2258.036426392791
 30
0.0
  0
VERTEX
  5
B3256
  8
0
 10
19166.1863909405
 20
2288.036426392791
 30
0.0
  0
VERTEX
  5
B3257
  8
0
 10
19902.18639094052
 20
2288.036426392791
 30
0.0
  0
VERTEX
  5
B3258
  8
0
 10
19902.18639094052
 20
2258.036426392791
 30
0.0
  0
SEQEND
  5
B35E5
  8
0
  0
POLYLINE
  5
AE5D0
  8
0
 66
     1
 10
0.0
 20
0.0
 30
0.0
 70
     1
  0
VERTEX
  5
B3259
  8
0
 10
19902.18639094051
 20
2508.036426392792
 30
0.0
  0
VERTEX
  5
B325A
  8
0
 10
19902.18639094051
 20
2538.036426392791
 30
0.0
  0
VERTEX
  5
B325B
  8
0
 10
19166.18639094049
 20
2538.036426392791
 30
0.0
  0
VERTEX
  5
B325C
  8
0
 10
19166.18639094049
 20
2508.036426392792
 30
0.0
  0
SEQEND
  5
B35E6
  8
0
  0
POLYLINE
  5
AE5D1
  8
0
 66
     1
 10
0.0
 20
0.0
 30
0.0
 70
     1
  0
VERTEX
  5
B325D
  8
0
 10
19902.18639094056
 20
3008.036426392783
 30
0.0
  0
VERTEX
  5
B325E
  8
0
 10
19902.18639094056
 20
3038.036426392781
 30
0.0
  0
VERTEX
  5
B325F
  8
0
 10
19166.18639094054
 20
3038.036426392781
 30
0.0
  0
VERTEX
  5
B3260
  8
0
 10
19166.18639094054
 20
3008.036426392783
 30
0.0
  0
SEQEND
  5
B35E7
  8
0
  0
POLYLINE
  5
AE5D2
  8
CLOTHES_RAIL
 66
     1
 10
0.0
 20
0.0
 30
0.0
 70
     1
  0
VERTEX
  5
B3261
  8
CLOTHES_RAIL
 10
19902.18639094056
 20
3960.536426392783
 30
0.0
  0
VERTEX
  5
B3262
  8
CLOTHES_RAIL
 10
19902.18639094056
 20
3935.536426392783
 30
0.0
  0
VERTEX
  5
B3263
  8
CLOTHES_RAIL
 10
19166.18639094054
 20
3935.536426392783
 30
0.0
  0
VERTEX
  5
B3264
  8
CLOTHES_RAIL
 10
19166.18639094054
 20
3960.536426392783
 30
0.0
  0
SEQEND
  5
B35E8
  8
CLOTHES_RAIL
  0
POLYLINE
  5
AE5D3
  8
0
 66
     1
 10
0.0
 20
0.0
 30
0.0
 70
     1
  0
VERTEX
  5
B3265
  8
0
 10
19902.18639094056
 20
4038.036426392781
 30
0.0
  0
VERTEX
  5
B3266
  8
0
 10
19902.18639094056
 20
4008.036426392783
 30
0.0
  0
VERTEX
  5
B3267
  8
0
 10
19166.18639094054
 20
4008.036426392783
 30
0.0
  0
VERTEX
  5
B3268
  8
0
 10
19166.18639094054
 20
4038.036426392781
 30
0.0
  0
SEQEND
  5
B35E9
  8
0
  0
POLYLINE
  5
AE5D4
  8
0
 66
     1
 10
0.0
 20
0.0
 30
0.0
 70
     1
  0
VERTEX
  5
B3269
  8
0
 10
19902.18639094056
 20
2758.036426392792
 30
0.0
  0
VERTEX
  5
B326A
  8
0
 10
19902.18639094056
 20
2788.036426392791
 30
0.0
  0
VERTEX
  5
B326B
  8
0
 10
19166.18639094054
 20
2788.036426392791
 30
0.0
  0
VERTEX
  5
B326C
  8
0
 10
19166.18639094054
 20
2758.036426392792
 30
0.0
  0
SEQEND
  5
B35EA
  8
0
  0
POLYLINE
  5
AE5D5
  8
0
 66
     1
 10
0.0
 20
0.0
 30
0.0
 70
     1
  0
VERTEX
  5
B326D
  8
0
 10
21902.18639094055
 20
4038.036426392781
 30
0.0
  0
VERTEX
  5
B326E
  8
0
 10
21902.18639094055
 20
4008.036426392783
 30
0.0
  0
VERTEX
  5
B326F
  8
0
 10
21166.18639094054
 20
4008.036426392783
 30
0.0
  0
VERTEX
  5
B3270
  8
0
 10
21166.18639094054
 20
4038.036426392781
 30
0.0
  0
SEQEND
  5
B35EB
  8
0
  0
POLYLINE
  5
AE5D6
  8
0
 66
     1
 10
0.0
 20
0.0
 30
0.0
 70
     1
  0
VERTEX
  5
B3271
  8
0
 10
21166.1863909405
 20
2258.036426392791
 30
0.0
  0
VERTEX
  5
B3272
  8
0
 10
21166.1863909405
 20
2288.036426392791
 30
0.0
  0
VERTEX
  5
B3273
  8
0
 10
21902.1863909405
 20
2288.036426392791
 30
0.0
  0
VERTEX
  5
B3274
  8
0
 10
21902.1863909405
 20
2258.036426392791
 30
0.0
  0
SEQEND
  5
B35EC
  8
0
  0
POLYLINE
  5
AE5D7
  8
0
 66
     1
 10
0.0
 20
0.0
 30
0.0
 70
     1
  0
VERTEX
  5
B3275
  8
0
 10
21902.18639094049
 20
2508.036426392792
 30
0.0
  0
VERTEX
  5
B3276
  8
0
 10
21902.18639094049
 20
2538.036426392791
 30
0.0
  0
VERTEX
  5
B3277
  8
0
 10
21166.18639094049
 20
2538.036426392791
 30
0.0
  0
VERTEX
  5
B3278
  8
0
 10
21166.18639094049
 20
2508.036426392792
 30
0.0
  0
SEQEND
  5
B35ED
  8
0
  0
POLYLINE
  5
AE5D8
  8
0
 66
     1
 10
0.0
 20
0.0
 30
0.0
 70
     1
  0
VERTEX
  5
B3279
  8
0
 10
21902.18639094055
 20
3008.036426392783
 30
0.0
  0
VERTEX
  5
B327A
  8
0
 10
21902.18639094055
 20
3038.036426392781
 30
0.0
  0
VERTEX
  5
B327B
  8
0
 10
21166.18639094054
 20
3038.036426392781
 30
0.0
  0
VERTEX
  5
B327C
  8
0
 10
21166.18639094054
 20
3008.036426392783
 30
0.0
  0
SEQEND
  5
B35EE
  8
0
  0
POLYLINE
  5
AE5D9
  8
CLOTHES_RAIL
 66
     1
 10
0.0
 20
0.0
 30
0.0
 70
     1
  0
VERTEX
  5
B327D
  8
CLOTHES_RAIL
 10
21902.18639094055
 20
3960.536426392783
 30
0.0
  0
VERTEX
  5
B327E
  8
CLOTHES_RAIL
 10
21902.18639094055
 20
3935.536426392783
 30
0.0
  0
VERTEX
  5
B327F
  8
CLOTHES_RAIL
 10
21166.18639094054
 20
3935.536426392783
 30
0.0
  0
VERTEX
  5
B3280
  8
CLOTHES_RAIL
 10
21166.18639094054
 20
3960.536426392783
 30
0.0
  0
SEQEND
  5
B35EF
  8
CLOTHES_RAIL
  0
POLYLINE
  5
AE5DA
  8
0
 66
     1
 10
0.0
 20
0.0
 30
0.0
 70
     1
  0
VERTEX
  5
B3281
  8
0
 10
21902.18639094055
 20
2758.036426392792
 30
0.0
  0
VERTEX
  5
B3282
  8
0
 10
21902.18639094055
 20
2788.036426392791
 30
0.0
  0
VERTEX
  5
B3283
  8
0
 10
21166.18639094054
 20
2788.036426392791
 30
0.0
  0
VERTEX
  5
B3284
  8
0
 10
21166.18639094054
 20
2758.036426392792
 30
0.0
  0
SEQEND
  5
B35F0
  8
0
  0
POLYLINE
  5
AE5DB
  8
0
 66
     1
 10
0.0
 20
0.0
 30
0.0
 70
     1
  0
VERTEX
  5
B3285
  8
0
 10
21902.18639094055
 20
4258.036426392771
 30
0.0
  0
VERTEX
  5
B3286
  8
0
 10
21902.18639094055
 20
4288.036426392782
 30
0.0
  0
VERTEX
  5
B3287
  8
0
 10
21166.18639094054
 20
4288.036426392782
 30
0.0
  0
VERTEX
  5
B3288
  8
0
 10
21166.18639094054
 20
4258.036426392771
 30
0.0
  0
SEQEND
  5
B35F1
  8
0
  0
POLYLINE
  5
AE5DC
  8
0
 66
     1
 10
0.0
 20
0.0
 30
0.0
 70
     1
  0
VERTEX
  5
B3289
  8
0
 10
19166.1863909405
 20
10285.38139913677
 30
0.0
  0
VERTEX
  5
B328A
  8
0
 10
19166.1863909405
 20
10315.38139913677
 30
0.0
  0
VERTEX
  5
B328B
  8
0
 10
20102.1863909405
 20
10315.38139913677
 30
0.0
  0
VERTEX
  5
B328C
  8
0
 10
20102.1863909405
 20
10285.38139913677
 30
0.0
  0
SEQEND
  5
B35F2
  8
0
  0
POLYLINE
  5
AE5DD
  8
0
 66
     1
 10
0.0
 20
0.0
 30
0.0
 70
     1
  0
VERTEX
  5
B328D
  8
0
 10
20102.18639094049
 20
10535.38139913677
 30
0.0
  0
VERTEX
  5
B328E
  8
0
 10
20102.18639094049
 20
10565.38139913677
 30
0.0
  0
VERTEX
  5
B328F
  8
0
 10
19166.18639094049
 20
10565.38139913677
 30
0.0
  0
VERTEX
  5
B3290
  8
0
 10
19166.18639094049
 20
10535.38139913677
 30
0.0
  0
SEQEND
  5
B35F3
  8
0
  0
POLYLINE
  5
AE5DE
  8
0
 66
     1
 10
0.0
 20
0.0
 30
0.0
 70
     1
  0
VERTEX
  5
B3291
  8
0
 10
20102.18639094054
 20
11035.38139913676
 30
0.0
  0
VERTEX
  5
B3292
  8
0
 10
20102.18639094054
 20
11065.38139913676
 30
0.0
  0
VERTEX
  5
B3293
  8
0
 10
19166.18639094054
 20
11065.38139913676
 30
0.0
  0
VERTEX
  5
B3294
  8
0
 10
19166.18639094054
 20
11035.38139913676
 30
0.0
  0
SEQEND
  5
B35F4
  8
0
  0
POLYLINE
  5
AE5DF
  8
CLOTHES_RAIL
 66
     1
 10
0.0
 20
0.0
 30
0.0
 70
     1
  0
VERTEX
  5
B3295
  8
CLOTHES_RAIL
 10
20102.18639094054
 20
11987.88139913676
 30
0.0
  0
VERTEX
  5
B3296
  8
CLOTHES_RAIL
 10
20102.18639094054
 20
11962.88139913676
 30
0.0
  0
VERTEX
  5
B3297
  8
CLOTHES_RAIL
 10
19166.18639094054
 20
11962.88139913676
 30
0.0
  0
VERTEX
  5
B3298
  8
CLOTHES_RAIL
 10
19166.18639094054
 20
11987.88139913676
 30
0.0
  0
SEQEND
  5
B35F5
  8
CLOTHES_RAIL
  0
POLYLINE
  5
AE5E0
  8
0
 66
     1
 10
0.0
 20
0.0
 30
0.0
 70
     1
  0
VERTEX
  5
B3299
  8
0
 10
20102.18639094054
 20
12065.38139913676
 30
0.0
  0
VERTEX
  5
B329A
  8
0
 10
20102.18639094054
 20
12035.38139913676
 30
0.0
  0
VERTEX
  5
B329B
  8
0
 10
19166.18639094054
 20
12035.38139913676
 30
0.0
  0
VERTEX
  5
B329C
  8
0
 10
19166.18639094054
 20
12065.38139913676
 30
0.0
  0
SEQEND
  5
B35F6
  8
0
  0
POLYLINE
  5
AE5E1
  8
0
 66
     1
 10
0.0
 20
0.0
 30
0.0
 70
     1
  0
VERTEX
  5
B329D
  8
0
 10
20102.18639094054
 20
10785.38139913677
 30
0.0
  0
VERTEX
  5
B329E
  8
0
 10
20102.18639094054
 20
10815.38139913677
 30
0.0
  0
VERTEX
  5
B329F
  8
0
 10
19166.18639094054
 20
10815.38139913677
 30
0.0
  0
VERTEX
  5
B32A0
  8
0
 10
19166.18639094054
 20
10785.38139913677
 30
0.0
  0
SEQEND
  5
B35F7
  8
0
  0
POLYLINE
  5
AE5E2
  8
0
 66
     1
 10
0.0
 20
0.0
 30
0.0
 70
     1
  0
VERTEX
  5
B32A1
  8
0
 10
22102.18639094054
 20
12065.38139913676
 30
0.0
  0
VERTEX
  5
B32A2
  8
0
 10
22102.18639094054
 20
12035.38139913676
 30
0.0
  0
VERTEX
  5
B32A3
  8
0
 10
21166.18639094054
 20
12035.38139913676
 30
0.0
  0
VERTEX
  5
B32A4
  8
0
 10
21166.18639094054
 20
12065.38139913676
 30
0.0
  0
SEQEND
  5
B35F8
  8
0
  0
POLYLINE
  5
AE5E3
  8
0
 66
     1
 10
0.0
 20
0.0
 30
0.0
 70
     1
  0
VERTEX
  5
B32A5
  8
0
 10
21166.1863909405
 20
10285.38139913677
 30
0.0
  0
VERTEX
  5
B32A6
  8
0
 10
21166.1863909405
 20
10315.38139913677
 30
0.0
  0
VERTEX
  5
B32A7
  8
0
 10
22102.1863909405
 20
10315.38139913677
 30
0.0
  0
VERTEX
  5
B32A8
  8
0
 10
22102.1863909405
 20
10285.38139913677
 30
0.0
  0
SEQEND
  5
B35F9
  8
0
  0
POLYLINE
  5
AE5E4
  8
0
 66
     1
 10
0.0
 20
0.0
 30
0.0
 70
     1
  0
VERTEX
  5
B32A9
  8
0
 10
22102.18639094049
 20
10535.38139913677
 30
0.0
  0
VERTEX
  5
B32AA
  8
0
 10
22102.18639094049
 20
10565.38139913677
 30
0.0
  0
VERTEX
  5
B32AB
  8
0
 10
21166.18639094049
 20
10565.38139913677
 30
0.0
  0
VERTEX
  5
B32AC
  8
0
 10
21166.18639094049
 20
10535.38139913677
 30
0.0
  0
SEQEND
  5
B35FA
  8
0
  0
POLYLINE
  5
AE5E5
  8
0
 66
     1
 10
0.0
 20
0.0
 30
0.0
 70
     1
  0
VERTEX
  5
B32AD
  8
0
 10
22102.18639094054
 20
11035.38139913676
 30
0.0
  0
VERTEX
  5
B32AE
  8
0
 10
22102.18639094054
 20
11065.38139913676
 30
0.0
  0
VERTEX
  5
B32AF
  8
0
 10
21166.18639094054
 20
11065.38139913676
 30
0.0
  0
VERTEX
  5
B32B0
  8
0
 10
21166.18639094054
 20
11035.38139913676
 30
0.0
  0
SEQEND
  5
B35FB
  8
0
  0
POLYLINE
  5
AE5E6
  8
CLOTHES_RAIL
 66
     1
 10
0.0
 20
0.0
 30
0.0
 70
     1
  0
VERTEX
  5
B32B1
  8
CLOTHES_RAIL
 10
22102.18639094054
 20
11987.88139913676
 30
0.0
  0
VERTEX
  5
B32B2
  8
CLOTHES_RAIL
 10
22102.18639094054
 20
11962.88139913676
 30
0.0
  0
VERTEX
  5
B32B3
  8
CLOTHES_RAIL
 10
21166.18639094054
 20
11962.88139913676
 30
0.0
  0
VERTEX
  5
B32B4
  8
CLOTHES_RAIL
 10
21166.18639094054
 20
11987.88139913676
 30
0.0
  0
SEQEND
  5
B35FC
  8
CLOTHES_RAIL
  0
POLYLINE
  5
AE5E7
  8
0
 66
     1
 10
0.0
 20
0.0
 30
0.0
 70
     1
  0
VERTEX
  5
B32B5
  8
0
 10
22102.18639094054
 20
10785.38139913677
 30
0.0
  0
VERTEX
  5
B32B6
  8
0
 10
22102.18639094054
 20
10815.38139913677
 30
0.0
  0
VERTEX
  5
B32B7
  8
0
 10
21166.18639094054
 20
10815.38139913677
 30
0.0
  0
VERTEX
  5
B32B8
  8
0
 10
21166.18639094054
 20
10785.38139913677
 30
0.0
  0
SEQEND
  5
B35FD
  8
0
  0
POLYLINE
  5
AE5E8
  8
0
 66
     1
 10
0.0
 20
0.0
 30
0.0
 70
     1
  0
VERTEX
  5
B32B9
  8
0
 10
22102.18639094054
 20
12285.38139913675
 30
0.0
  0
VERTEX
  5
B32BA
  8
0
 10
22102.18639094054
 20
12315.38139913676
 30
0.0
  0
VERTEX
  5
B32BB
  8
0
 10
21166.18639094054
 20
12315.38139913676
 30
0.0
  0
VERTEX
  5
B32BC
  8
0
 10
21166.18639094054
 20
12285.38139913675
 30
0.0
  0
SEQEND
  5
B35FE
  8
0
  0
POLYLINE
  5
AE5E9
  8
0
 66
     1
 10
0.0
 20
0.0
 30
0.0
 70
     1
  0
VERTEX
  5
B32BD
  8
0
 10
19166.1863909405
 20
18312.72637188075
 30
0.0
  0
VERTEX
  5
B32BE
  8
0
 10
19166.1863909405
 20
18342.72637188075
 30
0.0
  0
VERTEX
  5
B32BF
  8
0
 10
20302.1863909405
 20
18342.72637188075
 30
0.0
  0
VERTEX
  5
B32C0
  8
0
 10
20302.1863909405
 20
18312.72637188075
 30
0.0
  0
SEQEND
  5
B35FF
  8
0
  0
POLYLINE
  5
AE5EA
  8
0
 66
     1
 10
0.0
 20
0.0
 30
0.0
 70
     1
  0
VERTEX
  5
B32C1
  8
0
 10
20302.18639094049
 20
18562.72637188075
 30
0.0
  0
VERTEX
  5
B32C2
  8
0
 10
20302.18639094049
 20
18592.72637188075
 30
0.0
  0
VERTEX
  5
B32C3
  8
0
 10
19166.18639094049
 20
18592.72637188075
 30
0.0
  0
VERTEX
  5
B32C4
  8
0
 10
19166.18639094049
 20
18562.72637188075
 30
0.0
  0
SEQEND
  5
B3600
  8
0
  0
POLYLINE
  5
AE5EB
  8
0
 66
     1
 10
0.0
 20
0.0
 30
0.0
 70
     1
  0
VERTEX
  5
B32C5
  8
0
 10
20302.18639094054
 20
19062.72637188074
 30
0.0
  0
VERTEX
  5
B32C6
  8
0
 10
20302.18639094054
 20
19092.72637188074
 30
0.0
  0
VERTEX
  5
B32C7
  8
0
 10
19166.18639094054
 20
19092.72637188074
 30
0.0
  0
VERTEX
  5
B32C8
  8
0
 10
19166.18639094054
 20
19062.72637188074
 30
0.0
  0
SEQEND
  5
B3601
  8
0
  0
POLYLINE
  5
AE5EC
  8
CLOTHES_RAIL
 66
     1
 10
0.0
 20
0.0
 30
0.0
 70
     1
  0
VERTEX
  5
B32C9
  8
CLOTHES_RAIL
 10
20302.18639094054
 20
20015.22637188074
 30
0.0
  0
VERTEX
  5
B32CA
  8
CLOTHES_RAIL
 10
20302.18639094054
 20
19990.22637188074
 30
0.0
  0
VERTEX
  5
B32CB
  8
CLOTHES_RAIL
 10
19166.18639094054
 20
19990.22637188074
 30
0.0
  0
VERTEX
  5
B32CC
  8
CLOTHES_RAIL
 10
19166.18639094054
 20
20015.22637188074
 30
0.0
  0
SEQEND
  5
B3602
  8
CLOTHES_RAIL
  0
POLYLINE
  5
AE5ED
  8
0
 66
     1
 10
0.0
 20
0.0
 30
0.0
 70
     1
  0
VERTEX
  5
B32CD
  8
0
 10
20302.18639094054
 20
20092.72637188074
 30
0.0
  0
VERTEX
  5
B32CE
  8
0
 10
20302.18639094054
 20
20062.72637188074
 30
0.0
  0
VERTEX
  5
B32CF
  8
0
 10
19166.18639094054
 20
20062.72637188074
 30
0.0
  0
VERTEX
  5
B32D0
  8
0
 10
19166.18639094054
 20
20092.72637188074
 30
0.0
  0
SEQEND
  5
B3603
  8
0
  0
POLYLINE
  5
AE5EE
  8
0
 66
     1
 10
0.0
 20
0.0
 30
0.0
 70
     1
  0
VERTEX
  5
B32D1
  8
0
 10
20302.18639094054
 20
18812.72637188075
 30
0.0
  0
VERTEX
  5
B32D2
  8
0
 10
20302.18639094054
 20
18842.72637188075
 30
0.0
  0
VERTEX
  5
B32D3
  8
0
 10
19166.18639094054
 20
18842.72637188075
 30
0.0
  0
VERTEX
  5
B32D4
  8
0
 10
19166.18639094054
 20
18812.72637188075
 30
0.0
  0
SEQEND
  5
B3604
  8
0
  0
POLYLINE
  5
AE5EF
  8
0
 66
     1
 10
0.0
 20
0.0
 30
0.0
 70
     1
  0
VERTEX
  5
B32D5
  8
0
 10
22302.18639094054
 20
20092.72637188074
 30
0.0
  0
VERTEX
  5
B32D6
  8
0
 10
22302.18639094054
 20
20062.72637188074
 30
0.0
  0
VERTEX
  5
B32D7
  8
0
 10
21166.18639094054
 20
20062.72637188074
 30
0.0
  0
VERTEX
  5
B32D8
  8
0
 10
21166.18639094054
 20
20092.72637188074
 30
0.0
  0
SEQEND
  5
B3605
  8
0
  0
POLYLINE
  5
AE5F0
  8
0
 66
     1
 10
0.0
 20
0.0
 30
0.0
 70
     1
  0
VERTEX
  5
B32D9
  8
0
 10
21166.1863909405
 20
18312.72637188075
 30
0.0
  0
VERTEX
  5
B32DA
  8
0
 10
21166.1863909405
 20
18342.72637188075
 30
0.0
  0
VERTEX
  5
B32DB
  8
0
 10
22302.1863909405
 20
18342.72637188075
 30
0.0
  0
VERTEX
  5
B32DC
  8
0
 10
22302.1863909405
 20
18312.72637188075
 30
0.0
  0
SEQEND
  5
B3606
  8
0
  0
POLYLINE
  5
AE5F1
  8
0
 66
     1
 10
0.0
 20
0.0
 30
0.0
 70
     1
  0
VERTEX
  5
B32DD
  8
0
 10
22302.18639094049
 20
18562.72637188075
 30
0.0
  0
VERTEX
  5
B32DE
  8
0
 10
22302.18639094049
 20
18592.72637188075
 30
0.0
  0
VERTEX
  5
B32DF
  8
0
 10
21166.18639094049
 20
18592.72637188075
 30
0.0
  0
VERTEX
  5
B32E0
  8
0
 10
21166.18639094049
 20
18562.72637188075
 30
0.0
  0
SEQEND
  5
B3607
  8
0
  0
POLYLINE
  5
AE5F2
  8
0
 66
     1
 10
0.0
 20
0.0
 30
0.0
 70
     1
  0
VERTEX
  5
B32E1
  8
0
 10
22302.18639094054
 20
19062.72637188074
 30
0.0
  0
VERTEX
  5
B32E2
  8
0
 10
22302.18639094054
 20
19092.72637188074
 30
0.0
  0
VERTEX
  5
B32E3
  8
0
 10
21166.18639094054
 20
19092.72637188074
 30
0.0
  0
VERTEX
  5
B32E4
  8
0
 10
21166.18639094054
 20
19062.72637188074
 30
0.0
  0
SEQEND
  5
B3608
  8
0
  0
POLYLINE
  5
AE5F3
  8
CLOTHES_RAIL
 66
     1
 10
0.0
 20
0.0
 30
0.0
 70
     1
  0
VERTEX
  5
B32E5
  8
CLOTHES_RAIL
 10
22302.18639094054
 20
20015.22637188074
 30
0.0
  0
VERTEX
  5
B32E6
  8
CLOTHES_RAIL
 10
22302.18639094054
 20
19990.22637188074
 30
0.0
  0
VERTEX
  5
B32E7
  8
CLOTHES_RAIL
 10
21166.18639094054
 20
19990.22637188074
 30
0.0
  0
VERTEX
  5
B32E8
  8
CLOTHES_RAIL
 10
21166.18639094054
 20
20015.22637188074
 30
0.0
  0
SEQEND
  5
B3609
  8
CLOTHES_RAIL
  0
POLYLINE
  5
AE5F4
  8
0
 66
     1
 10
0.0
 20
0.0
 30
0.0
 70
     1
  0
VERTEX
  5
B32E9
  8
0
 10
22302.18639094054
 20
18812.72637188075
 30
0.0
  0
VERTEX
  5
B32EA
  8
0
 10
22302.18639094054
 20
18842.72637188075
 30
0.0
  0
VERTEX
  5
B32EB
  8
0
 10
21166.18639094054
 20
18842.72637188075
 30
0.0
  0
VERTEX
  5
B32EC
  8
0
 10
21166.18639094054
 20
18812.72637188075
 30
0.0
  0
SEQEND
  5
B360A
  8
0
  0
POLYLINE
  5
AE5F5
  8
0
 66
     1
 10
0.0
 20
0.0
 30
0.0
 70
     1
  0
VERTEX
  5
B32ED
  8
0
 10
22302.18639094054
 20
20312.72637188073
 30
0.0
  0
VERTEX
  5
B32EE
  8
0
 10
22302.18639094054
 20
20342.72637188074
 30
0.0
  0
VERTEX
  5
B32EF
  8
0
 10
21166.18639094054
 20
20342.72637188074
 30
0.0
  0
VERTEX
  5
B32F0
  8
0
 10
21166.18639094054
 20
20312.72637188073
 30
0.0
  0
SEQEND
  5
B360B
  8
0
  0
VIEWPORT
  5
4E
 67
     1
  8
0
 10
0.0
 20
0.0
 30
0.0
 40
851.2853464419466
 41
428.7008504942788
 68
     1
 69
     1
1001
ACAD
1000
MVIEW
1002
{
1070
    16
1010
0.0
1020
0.0
1030
0.0
1010
0.0
1020
0.0
1030
1.0
1040
0.0
1040
428.7008504942788
1040
5438.728388405139
1040
103.0511397757678
1040
50.0
1040
0.0
1040
0.0
1070
    16
1070
   100
1070
     1
1070
     1
1070
     0
1070
     0
1070
     0
1070
     0
1040
0.0
1040
0.0
1040
0.0
1040
1.0
1040
1.0
1040
0.0
1040
0.0
1070
     0
1002
{
1002
}
1002
}
  0
TEXT
  5
6A0D
 67
     1
  8
CLOTHES_RAIL
 10
1166.029996061232
 20
36.51875448083099
 30
0.0
 40
1.6
  1

  7
STILE1
 72
     1
 11
1166.029996061232
 21
36.51875448083099
 31
0.0
  0
TEXT
  5
220D4
 67
     1
  8
CLOTHES_RAIL
 10
1075.854083628048
 20
54.2187253812249
 30
0.0
 40
1.504
  1

  7
STILE4
  0
TEXT
  5
220D5
 67
     1
  8
0
 10
1099.486943584454
 20
54.27519572975143
 30
0.0
 40
1.296
  1

  7
STILE1
 72
     1
 11
1099.486943584454
 21
54.27519572975143
 31
0.0
  0
TEXT
  5
220D7
 67
     1
  8
0
 10
1163.382376406764
 20
54.27519572975143
 30
0.0
 40
1.296
  1

  7
STILE1
 72
     1
 11
1163.382376406764
 21
54.27519572975143
 31
0.0
  0
VIEWPORT
  5
7996C
 67
     1
  8
RETE
 10
5724.75813952323
 20
94.80832444904343
 30
0.0
 40
191.5
 41
236.132465228796
 68
     2
 69
     2
1001
ACAD
1000
MVIEW
1002
{
1070
    16
1010
167108.1207671265
1020
-11328.71929700901
1030
0.0
1010
0.0
1020
0.0
1030
1.0
1040
0.0
1040
5903.311630719954
1040
215823.6079317253
1040
34568.76605440148
1040
50.0
1040
0.0
1040
0.0
1070
    16
1070
   100
1070
     1
1070
     1
1070
     0
1070
     0
1070
     0
1070
     0
1040
0.0
1040
0.0
1040
0.0
1040
1.0
1040
1.0
1040
0.0
1040
0.0
1070
     0
1002
{
1002
}
1002
}
  0
LINE
  5
97E00
 67
     1
  8
RIPIANI
 10
5820.50813952323
 20
24.42642567457204
 30
0.0
 11
5820.50813952323
 21
-45.57357432542768
 31
0.0
  0
LINE
  5
97E05
 67
     1
  8
0
 10
5650.50813952323
 20
-38.07357432542761
 30
0.0
 11
5673.88152325309
 21
-38.07357432542762
 31
0.0
  0
LINE
  5
97E06
 67
     1
  8
RIPIANI
 10
5650.50813952323
 20
-45.57357432542761
 30
0.0
 11
5820.50813952323
 21
-45.57357432542768
 31
0.0
  0
TEXT
  5
97E0E
 67
     1
  8
0
 10
5660.24129088937
 20
-44.53779677976007
 30
0.0
 40
1.689599999999999
  1
.DWG
  7
STILE4
  0
LINE
  5
97E3C
 67
     1
  8
RIPIANI
 10
5628.50813952323
 20
-41.82357432542767
 30
0.0
 11
5673.88152325309
 21
-41.82357432542771
 31
0.0
  0
TEXT
  5
97E47
 67
     1
  8
CLOTHES_RAIL
 10
5702.521198378377
 20
-33.21312498230677
 30
0.0
 40
2.5
  1
MOBILE SHELVING SYSTEM MODEL "VELA/BINARIA"
  7
STILE1
 72
     1
 11
5750.257433497425
 21
-33.21312498230677
 31
0.0
  0
TEXT
  5
97E48
 67
     1
  8
CLOTHES_RAIL
 10
5723.58890671171
 20
-40.71312498230677
 30
0.0
 40
2.5
  1
WARDROBE CONFIGURATIONS
  7
STILE1
 72
     1
 11
5750.257433497425
 21
-40.71312498230677
 31
0.0
  0
TEXT
  5
97E56
 67
     1
  8
0
 10
5635.619679721409
 20
-44.53779677976007
 30
0.0
 40
1.689599999999999
  1
BINARIA-VELA-WR
  7
STILE4
  0
POLYLINE
  5
97E5B
 67
     1
  8
CLOTHES_RAIL
  6
CONTINUOUS
 66
     1
 10
0.0
 20
0.0
 30
0.0
 70
   128
  0
VERTEX
  5
B32F1
 67
     1
  8
CLOTHES_RAIL
  6
CONTINUOUS
 10
5664.319098491812
 20
-36.22039648048771
 30
0.0
  0
VERTEX
  5
B32F2
 67
     1
  8
CLOTHES_RAIL
  6
CONTINUOUS
 10
5664.319098491812
 20
-28.46717463803993
 30
0.0
  0
VERTEX
  5
B32F3
 67
     1
  8
CLOTHES_RAIL
  6
CONTINUOUS
 10
5666.346089322976
 20
-28.46717463803993
 30
0.0
 42
-0.316444976687396
  0
VERTEX
  5
B32F4
 67
     1
  8
CLOTHES_RAIL
  6
CONTINUOUS
 10
5667.365045214904
 20
-29.03206694489745
 30
0.0
  0
VERTEX
  5
B32F5
 67
     1
  8
CLOTHES_RAIL
  6
CONTINUOUS
 10
5669.380908387647
 20
-32.43244509159917
 30
0.0
  0
VERTEX
  5
B32F6
 67
     1
  8
CLOTHES_RAIL
  6
CONTINUOUS
 10
5669.436271072108
 20
-32.43244509159917
 30
0.0
  0
VERTEX
  5
B32F7
 67
     1
  8
CLOTHES_RAIL
  6
CONTINUOUS
 10
5669.436271072108
 20
-28.46717463803993
 30
0.0
  0
VERTEX
  5
B32F8
 67
     1
  8
CLOTHES_RAIL
  6
CONTINUOUS
 10
5671.684747092073
 20
-28.46717463803993
 30
0.0
  0
VERTEX
  5
B32F9
 67
     1
  8
CLOTHES_RAIL
  6
CONTINUOUS
 10
5671.684747092073
 20
-36.22039648048771
 30
0.0
  0
VERTEX
  5
B32FA
 67
     1
  8
CLOTHES_RAIL
  6
CONTINUOUS
 10
5670.034305197542
 20
-36.22039648048771
 30
0.0
 42
-0.312959769389874
  0
VERTEX
  5
B32FB
 67
     1
  8
CLOTHES_RAIL
  6
CONTINUOUS
 10
5669.015349305614
 20
-35.65553862458513
 30
0.0
  0
VERTEX
  5
B32FC
 67
     1
  8
CLOTHES_RAIL
  6
CONTINUOUS
 10
5666.62293719624
 20
-31.7900036853489
 30
0.0
  0
VERTEX
  5
B32FD
 67
     1
  8
CLOTHES_RAIL
  6
CONTINUOUS
 10
5666.567643413688
 20
-31.7900036853489
 30
0.0
  0
VERTEX
  5
B32FE
 67
     1
  8
CLOTHES_RAIL
  6
CONTINUOUS
 10
5666.567643413688
 20
-36.22039648048771
 30
0.0
  0
VERTEX
  5
B32FF
 67
     1
  8
CLOTHES_RAIL
  6
CONTINUOUS
 10
5664.319098491812
 20
-36.22039648048771
 30
0.0
  0
SEQEND
  5
B360C
 67
     1
  8
CLOTHES_RAIL
  6
CONTINUOUS
  0
POLYLINE
  5
97E5C
 67
     1
  8
CLOTHES_RAIL
  6
CONTINUOUS
 66
     1
 10
0.0
 20
0.0
 30
0.0
 70
   128
  0
VERTEX
  5
B3300
 67
     1
  8
CLOTHES_RAIL
  6
CONTINUOUS
 10
5644.791849414121
 20
-36.22039648048771
 30
0.0
  0
VERTEX
  5
B3301
 67
     1
  8
CLOTHES_RAIL
  6
CONTINUOUS
 10
5644.791849414121
 20
-28.46717463803993
 30
0.0
  0
VERTEX
  5
B3302
 67
     1
  8
CLOTHES_RAIL
  6
CONTINUOUS
 10
5646.818840245284
 20
-28.46717463803993
 30
0.0
 42
-0.316444976687396
  0
VERTEX
  5
B3303
 67
     1
  8
CLOTHES_RAIL
  6
CONTINUOUS
 10
5647.837796137212
 20
-29.03206694489745
 30
0.0
  0
VERTEX
  5
B3304
 67
     1
  8
CLOTHES_RAIL
  6
CONTINUOUS
 10
5649.853659309954
 20
-32.43244509159917
 30
0.0
  0
VERTEX
  5
B3305
 67
     1
  8
CLOTHES_RAIL
  6
CONTINUOUS
 10
5649.909021994417
 20
-32.43244509159917
 30
0.0
  0
VERTEX
  5
B3306
 67
     1
  8
CLOTHES_RAIL
  6
CONTINUOUS
 10
5649.909021994417
 20
-28.46717463803993
 30
0.0
  0
VERTEX
  5
B3307
 67
     1
  8
CLOTHES_RAIL
  6
CONTINUOUS
 10
5652.157498014382
 20
-28.46717463803993
 30
0.0
  0
VERTEX
  5
B3308
 67
     1
  8
CLOTHES_RAIL
  6
CONTINUOUS
 10
5652.157498014382
 20
-36.22039648048771
 30
0.0
  0
VERTEX
  5
B3309
 67
     1
  8
CLOTHES_RAIL
  6
CONTINUOUS
 10
5650.50705611985
 20
-36.22039648048771
 30
0.0
 42
-0.312959769389874
  0
VERTEX
  5
B330A
 67
     1
  8
CLOTHES_RAIL
  6
CONTINUOUS
 10
5649.488100227923
 20
-35.65553862458513
 30
0.0
  0
VERTEX
  5
B330B
 67
     1
  8
CLOTHES_RAIL
  6
CONTINUOUS
 10
5647.095688118549
 20
-31.7900036853489
 30
0.0
  0
VERTEX
  5
B330C
 67
     1
  8
CLOTHES_RAIL
  6
CONTINUOUS
 10
5647.040394335996
 20
-31.7900036853489
 30
0.0
  0
VERTEX
  5
B330D
 67
     1
  8
CLOTHES_RAIL
  6
CONTINUOUS
 10
5647.040394335996
 20
-36.22039648048771
 30
0.0
  0
VERTEX
  5
B330E
 67
     1
  8
CLOTHES_RAIL
  6
CONTINUOUS
 10
5644.791849414121
 20
-36.22039648048771
 30
0.0
  0
SEQEND
  5
B360D
 67
     1
  8
CLOTHES_RAIL
  6
CONTINUOUS
  0
POLYLINE
  5
97E5D
 67
     1
  8
CLOTHES_RAIL
  6
CONTINUOUS
 66
     1
 10
0.0
 20
0.0
 30
0.0
 70
   128
  0
VERTEX
  5
B330F
 67
     1
  8
CLOTHES_RAIL
  6
CONTINUOUS
 10
5659.844332866811
 20
-28.46720908899488
 30
0.0
  0
VERTEX
  5
B3310
 67
     1
  8
CLOTHES_RAIL
  6
CONTINUOUS
 10
5659.844332866811
 20
-30.28367013500196
 30
0.0
  0
VERTEX
  5
B3311
 67
     1
  8
CLOTHES_RAIL
  6
CONTINUOUS
 10
5657.518411100318
 20
-30.28367013500196
 30
0.0
  0
VERTEX
  5
B3312
 67
     1
  8
CLOTHES_RAIL
  6
CONTINUOUS
 10
5657.518411100318
 20
-36.22039648048771
 30
0.0
  0
VERTEX
  5
B3313
 67
     1
  8
CLOTHES_RAIL
  6
CONTINUOUS
 10
5655.1370232965
 20
-36.22039648048771
 30
0.0
  0
VERTEX
  5
B3314
 67
     1
  8
CLOTHES_RAIL
  6
CONTINUOUS
 10
5655.1370232965
 20
-30.28367013500196
 30
0.0
  0
VERTEX
  5
B3315
 67
     1
  8
CLOTHES_RAIL
  6
CONTINUOUS
 10
5652.866360861604
 20
-30.28367013500196
 30
0.0
  0
VERTEX
  5
B3316
 67
     1
  8
CLOTHES_RAIL
  6
CONTINUOUS
 10
5652.866360861604
 20
-28.46720908899488
 30
0.0
  0
VERTEX
  5
B3317
 67
     1
  8
CLOTHES_RAIL
  6
CONTINUOUS
 10
5659.844332866811
 20
-28.46720908899488
 30
0.0
  0
SEQEND
  5
B360E
 67
     1
  8
CLOTHES_RAIL
  6
CONTINUOUS
  0
POLYLINE
  5
97E5E
 67
     1
  8
CLOTHES_RAIL
  6
CONTINUOUS
 66
     1
 10
0.0
 20
0.0
 30
0.0
 70
     1
  0
VERTEX
  5
B3318
 67
     1
  8
CLOTHES_RAIL
  6
CONTINUOUS
 10
5660.586406434521
 20
-28.46720908899488
 30
0.0
  0
VERTEX
  5
B3319
 67
     1
  8
CLOTHES_RAIL
  6
CONTINUOUS
 10
5662.967794238341
 20
-28.46720908899488
 30
0.0
  0
VERTEX
  5
B331A
 67
     1
  8
CLOTHES_RAIL
  6
CONTINUOUS
 10
5662.967794238341
 20
-36.22039648048771
 30
0.0
  0
VERTEX
  5
B331B
 67
     1
  8
CLOTHES_RAIL
  6
CONTINUOUS
 10
5660.586406434521
 20
-36.22039648048771
 30
0.0
  0
SEQEND
  5
B360F
 67
     1
  8
CLOTHES_RAIL
  6
CONTINUOUS
  0
POLYLINE
  5
97E5F
 67
     1
  8
CLOTHES_RAIL
  6
CONTINUOUS
 66
     1
 10
0.0
 20
0.0
 30
0.0
 70
   128
  0
VERTEX
  5
B331C
 67
     1
  8
CLOTHES_RAIL
  6
CONTINUOUS
 10
5636.28518518886
 20
-28.46724353994973
 30
0.0
  0
VERTEX
  5
B331D
 67
     1
  8
CLOTHES_RAIL
  6
CONTINUOUS
 10
5636.28518518886
 20
-30.25045941451572
 30
0.0
  0
VERTEX
  5
B331E
 67
     1
  8
CLOTHES_RAIL
  6
CONTINUOUS
 10
5632.563655240943
 20
-30.25045941451572
 30
0.0
  0
VERTEX
  5
B331F
 67
     1
  8
CLOTHES_RAIL
  6
CONTINUOUS
 10
5632.563655240943
 20
-31.78996923439411
 30
0.0
  0
VERTEX
  5
B3320
 67
     1
  8
CLOTHES_RAIL
  6
CONTINUOUS
 10
5635.166528233565
 20
-31.78996923439411
 30
0.0
  0
VERTEX
  5
B3321
 67
     1
  8
CLOTHES_RAIL
  6
CONTINUOUS
 10
5635.166528233565
 20
-33.45143543448086
 30
0.0
  0
VERTEX
  5
B3322
 67
     1
  8
CLOTHES_RAIL
  6
CONTINUOUS
 10
5632.563655240943
 20
-33.45143543448086
 30
0.0
  0
VERTEX
  5
B3323
 67
     1
  8
CLOTHES_RAIL
  6
CONTINUOUS
 10
5632.563655240943
 20
-36.22039648048771
 30
0.0
  0
VERTEX
  5
B3324
 67
     1
  8
CLOTHES_RAIL
  6
CONTINUOUS
 10
5630.182267437125
 20
-36.22039648048771
 30
0.0
  0
VERTEX
  5
B3325
 67
     1
  8
CLOTHES_RAIL
  6
CONTINUOUS
 10
5630.182267437125
 20
-28.46724353994973
 30
0.0
  0
VERTEX
  5
B3326
 67
     1
  8
CLOTHES_RAIL
  6
CONTINUOUS
 10
5636.28518518886
 20
-28.46724353994973
 30
0.0
  0
SEQEND
  5
B3610
 67
     1
  8
CLOTHES_RAIL
  6
CONTINUOUS
  0
POLYLINE
  5
97E60
 67
     1
  8
CLOTHES_RAIL
  6
CONTINUOUS
 66
     1
 10
0.0
 20
0.0
 30
0.0
 70
   128
  0
VERTEX
  5
B3327
 67
     1
  8
CLOTHES_RAIL
  6
CONTINUOUS
 10
5640.006887391551
 20
-30.60482193621716
 30
0.0
  0
VERTEX
  5
B3328
 67
     1
  8
CLOTHES_RAIL
  6
CONTINUOUS
 10
5640.671446310823
 20
-32.88657757857812
 30
0.0
  0
VERTEX
  5
B3329
 67
     1
  8
CLOTHES_RAIL
  6
CONTINUOUS
 10
5639.220475444938
 20
-32.88657757857812
 30
0.0
  0
VERTEX
  5
B332A
 67
     1
  8
CLOTHES_RAIL
  6
CONTINUOUS
 10
5639.885034364208
 20
-30.60482193621716
 30
0.0
  0
VERTEX
  5
B332B
 67
     1
  8
CLOTHES_RAIL
  6
CONTINUOUS
 10
5640.006887391551
 20
-30.60482193621716
 30
0.0
  0
SEQEND
  5
B3611
 67
     1
  8
CLOTHES_RAIL
  6
CONTINUOUS
  0
POLYLINE
  5
97E61
 67
     1
  8
CLOTHES_RAIL
  6
CONTINUOUS
 66
     1
 10
0.0
 20
0.0
 30
0.0
 70
   129
  0
VERTEX
  5
B332C
 67
     1
  8
CLOTHES_RAIL
  6
CONTINUOUS
 10
5641.136720660441
 20
-34.54794042580057
 30
0.0
  0
VERTEX
  5
B332D
 67
     1
  8
CLOTHES_RAIL
  6
CONTINUOUS
 10
5641.136720660441
 20
-34.54794042580057
 30
0.0
  0
VERTEX
  5
B332E
 67
     1
  8
CLOTHES_RAIL
  6
CONTINUOUS
 10
5641.623946310821
 20
-36.22039648048771
 30
0.0
  0
VERTEX
  5
B332F
 67
     1
  8
CLOTHES_RAIL
  6
CONTINUOUS
 10
5644.13828034945
 20
-36.22039648048771
 30
0.0
  0
VERTEX
  5
B3330
 67
     1
  8
CLOTHES_RAIL
  6
CONTINUOUS
 10
5641.790103266118
 20
-29.16490982684213
 30
0.0
 42
0.1089385125692126
  0
VERTEX
  5
B3331
 67
     1
  8
CLOTHES_RAIL
  6
CONTINUOUS
 10
5641.535266069767
 20
-28.61148707243616
 30
0.0
 42
0.1589313772246072
  0
VERTEX
  5
B3332
 67
     1
  8
CLOTHES_RAIL
  6
CONTINUOUS
 10
5641.295349565985
 20
-28.46578963330632
 30
0.0
 42
0.058673645385263
  0
VERTEX
  5
B3333
 67
     1
  8
CLOTHES_RAIL
  6
CONTINUOUS
 10
5640.970446148061
 20
-28.43396391755392
 30
0.0
  0
VERTEX
  5
B3334
 67
     1
  8
CLOTHES_RAIL
  6
CONTINUOUS
 10
5640.970446148061
 20
-28.43396391755392
 30
0.0
  0
VERTEX
  5
B3335
 67
     1
  8
CLOTHES_RAIL
  6
CONTINUOUS
 10
5639.065480599017
 20
-28.43396391755392
 30
0.0
 42
0.058673645385263
  0
VERTEX
  5
B3336
 67
     1
  8
CLOTHES_RAIL
  6
CONTINUOUS
 10
5638.740577181096
 20
-28.46578963330632
 30
0.0
 42
0.1589313772246072
  0
VERTEX
  5
B3337
 67
     1
  8
CLOTHES_RAIL
  6
CONTINUOUS
 10
5638.500660677312
 20
-28.61148707243616
 30
0.0
 42
0.1089385125692126
  0
VERTEX
  5
B3338
 67
     1
  8
CLOTHES_RAIL
  6
CONTINUOUS
 10
5638.245823480962
 20
-29.16490982684213
 30
0.0
  0
VERTEX
  5
B3339
 67
     1
  8
CLOTHES_RAIL
  6
CONTINUOUS
 10
5635.89764639763
 20
-36.22039648048771
 30
0.0
  0
VERTEX
  5
B333A
 67
     1
  8
CLOTHES_RAIL
  6
CONTINUOUS
 10
5638.278965299539
 20
-36.22039648048771
 30
0.0
  0
VERTEX
  5
B333B
 67
     1
  8
CLOTHES_RAIL
  6
CONTINUOUS
 10
5638.755215299539
 20
-34.54794042580057
 30
0.0
  0
SEQEND
  5
B3612
 67
     1
  8
CLOTHES_RAIL
  6
CONTINUOUS
  0
POLYLINE
  5
9F317
 67
     1
  8
RIPIANI
 66
     1
 10
0.0
 20
0.0
 30
0.0
 70
     1
  0
VERTEX
  5
B333C
 67
     1
  8
RIPIANI
 10
5628.50813952323
 20
-45.57357432542768
 30
0.0
  0
VERTEX
  5
B333D
 67
     1
  8
RIPIANI
 10
5628.50813952323
 20
216.4264256745723
 30
0.0
  0
VERTEX
  5
B333E
 67
     1
  8
RIPIANI
 10
5820.50813952323
 20
216.4264256745723
 30
0.0
  0
VERTEX
  5
B333F
 67
     1
  8
RIPIANI
 10
5820.50813952323
 20
-45.57357432542768
 30
0.0
  0
SEQEND
  5
B3613
 67
     1
  8
RIPIANI
  0
LINE
  5
9F31B
 67
     1
  8
0
 10
5628.50813952323
 20
-38.07357432542767
 30
0.0
 11
5670.588191806098
 21
-38.07357432542771
 31
0.0
  0
TEXT
  5
9F31D
 67
     1
  8
0
 10
5643.254368161313
 20
-40.82492040620856
 30
0.0
 40
2.0
  1
02.03.2015
  7
STILE4
  0
LINE
  5
9F31E
 67
     1
  8
0
 10
5628.50813952323
 20
-26.25196840229718
 30
0.0
 11
5670.588191806098
 21
-26.25196840229721
 31
0.0
  0
POLYLINE
  5
9F320
 67
     1
  8
RIPIANI
 66
     1
 10
0.0
 20
0.0
 30
0.0
 70
     1
  0
VERTEX
  5
B3340
 67
     1
  8
RIPIANI
 10
5628.50813952323
 20
-26.25196840229718
 30
0.0
  0
VERTEX
  5
B3341
 67
     1
  8
RIPIANI
 10
5628.50813952323
 20
-38.07357432542761
 30
0.0
  0
VERTEX
  5
B3342
 67
     1
  8
RIPIANI
 10
5673.88152325309
 20
-38.07357432542761
 30
0.0
  0
VERTEX
  5
B3343
 67
     1
  8
RIPIANI
 10
5673.88152325309
 20
-26.25196840229718
 30
0.0
  0
SEQEND
  5
B3614
 67
     1
  8
RIPIANI
  0
POLYLINE
  5
9F321
 67
     1
  8
RIPIANI
 66
     1
 10
0.0
 20
0.0
 30
0.0
 70
     1
  0
VERTEX
  5
B3344
 67
     1
  8
RIPIANI
 10
5628.50813952323
 20
-38.07357432542761
 30
0.0
  0
VERTEX
  5
B3345
 67
     1
  8
RIPIANI
 10
5628.50813952323
 20
-45.57357432542768
 30
0.0
  0
VERTEX
  5
B3346
 67
     1
  8
RIPIANI
 10
5673.88152325309
 20
-45.57357432542768
 30
0.0
  0
VERTEX
  5
B3347
 67
     1
  8
RIPIANI
 10
5673.88152325309
 20
-38.07357432542761
 30
0.0
  0
SEQEND
  5
B3615
 67
     1
  8
RIPIANI
  0
LINE
  5
9F322
 67
     1
  8
RIPIANI
 10
5673.88152325309
 20
-26.25196840229718
 30
0.0
 11
5820.50813952323
 21
-26.25196840229718
 31
0.0
  0
VIEWPORT
  5
A0224
 67
     1
  8
RETE
 10
5526.66357023484
 20
94.80832444904343
 30
0.0
 40
191.5
 41
236.132465228796
 68
     3
 69
     3
1001
ACAD
1000
MVIEW
1002
{
1070
    16
1010
176664.735461242
1020
-9778.968366194693
1030
0.0
1010
0.0
1020
0.0
1030
1.0
1040
0.0
1040
5274.119454668937
1040
215823.6079317253
1040
34568.76605440148
1040
50.0
1040
0.0
1040
0.0
1070
    16
1070
   100
1070
     1
1070
     1
1070
     0
1070
     0
1070
     0
1070
     0
1040
0.0
1040
0.0
1040
0.0
1040
1.0
1040
1.0
1040
0.0
1040
0.0
1070
     0
1002
{
1002
}
1002
}
  0
LINE
  5
A0226
 67
     1
  8
RIPIANI
 10
5622.41357023484
 20
24.42642567457204
 30
0.0
 11
5622.41357023484
 21
-45.57357432542768
 31
0.0
  0
POLYLINE
  5
A0235
 67
     1
  8
RIPIANI
 66
     1
 10
0.0
 20
0.0
 30
0.0
 70
     1
  0
VERTEX
  5
B3348
 67
     1
  8
RIPIANI
 10
5430.41357023484
 20
-45.57357432542768
 30
0.0
  0
VERTEX
  5
B3349
 67
     1
  8
RIPIANI
 10
5430.41357023484
 20
216.4264256745723
 30
0.0
  0
VERTEX
  5
B334A
 67
     1
  8
RIPIANI
 10
5622.41357023484
 20
216.4264256745723
 30
0.0
  0
VERTEX
  5
B334B
 67
     1
  8
RIPIANI
 10
5622.41357023484
 20
-45.57357432542768
 30
0.0
  0
SEQEND
  5
B3616
 67
     1
  8
RIPIANI
  0
LINE
  5
A0552
 67
     1
  8
0
 10
5452.41357023484
 20
-38.07357432542761
 30
0.0
 11
5475.786953964698
 21
-38.07357432542762
 31
0.0
  0
LINE
  5
A0553
 67
     1
  8
RIPIANI
 10
5452.41357023484
 20
-45.57357432542761
 30
0.0
 11
5622.41357023484
 21
-45.57357432542768
 31
0.0
  0
TEXT
  5
A0554
 67
     1
  8
0
 10
5462.14672160098
 20
-44.53779677976007
 30
0.0
 40
1.689599999999999
  1
.DWG
  7
STILE4
  0
LINE
  5
A0555
 67
     1
  8
RIPIANI
 10
5430.41357023484
 20
-41.82357432542767
 30
0.0
 11
5475.786953964698
 21
-41.82357432542771
 31
0.0
  0
TEXT
  5
A0556
 67
     1
  8
CLOTHES_RAIL
 10
5504.426629089988
 20
-33.21312498230677
 30
0.0
 40
2.5
  1
MOBILE SHELVING SYSTEM MODEL "VELA/BINARIA"
  7
STILE1
 72
     1
 11
5552.162864209035
 21
-33.21312498230677
 31
0.0
  0
TEXT
  5
A0557
 67
     1
  8
CLOTHES_RAIL
 10
5525.494337423321
 20
-40.71312498230677
 30
0.0
 40
2.5
  1
WARDROBE CONFIGURATIONS
  7
STILE1
 72
     1
 11
5552.162864209035
 21
-40.71312498230677
 31
0.0
  0
TEXT
  5
A0558
 67
     1
  8
0
 10
5437.525110433019
 20
-44.53779677976007
 30
0.0
 40
1.689599999999999
  1
BINARIA-VELA-WR
  7
STILE4
  0
POLYLINE
  5
A0559
 67
     1
  8
CLOTHES_RAIL
  6
CONTINUOUS
 66
     1
 10
0.0
 20
0.0
 30
0.0
 70
   128
  0
VERTEX
  5
B334C
 67
     1
  8
CLOTHES_RAIL
  6
CONTINUOUS
 10
5466.224529203422
 20
-36.22039648048771
 30
0.0
  0
VERTEX
  5
B334D
 67
     1
  8
CLOTHES_RAIL
  6
CONTINUOUS
 10
5466.224529203422
 20
-28.46717463803993
 30
0.0
  0
VERTEX
  5
B334E
 67
     1
  8
CLOTHES_RAIL
  6
CONTINUOUS
 10
5468.251520034586
 20
-28.46717463803993
 30
0.0
 42
-0.316444976687396
  0
VERTEX
  5
B334F
 67
     1
  8
CLOTHES_RAIL
  6
CONTINUOUS
 10
5469.270475926514
 20
-29.03206694489745
 30
0.0
  0
VERTEX
  5
B3350
 67
     1
  8
CLOTHES_RAIL
  6
CONTINUOUS
 10
5471.286339099256
 20
-32.43244509159917
 30
0.0
  0
VERTEX
  5
B3351
 67
     1
  8
CLOTHES_RAIL
  6
CONTINUOUS
 10
5471.341701783718
 20
-32.43244509159917
 30
0.0
  0
VERTEX
  5
B3352
 67
     1
  8
CLOTHES_RAIL
  6
CONTINUOUS
 10
5471.341701783718
 20
-28.46717463803993
 30
0.0
  0
VERTEX
  5
B3353
 67
     1
  8
CLOTHES_RAIL
  6
CONTINUOUS
 10
5473.590177803683
 20
-28.46717463803993
 30
0.0
  0
VERTEX
  5
B3354
 67
     1
  8
CLOTHES_RAIL
  6
CONTINUOUS
 10
5473.590177803683
 20
-36.22039648048771
 30
0.0
  0
VERTEX
  5
B3355
 67
     1
  8
CLOTHES_RAIL
  6
CONTINUOUS
 10
5471.939735909153
 20
-36.22039648048771
 30
0.0
 42
-0.312959769389874
  0
VERTEX
  5
B3356
 67
     1
  8
CLOTHES_RAIL
  6
CONTINUOUS
 10
5470.920780017224
 20
-35.65553862458513
 30
0.0
  0
VERTEX
  5
B3357
 67
     1
  8
CLOTHES_RAIL
  6
CONTINUOUS
 10
5468.52836790785
 20
-31.7900036853489
 30
0.0
  0
VERTEX
  5
B3358
 67
     1
  8
CLOTHES_RAIL
  6
CONTINUOUS
 10
5468.473074125298
 20
-31.7900036853489
 30
0.0
  0
VERTEX
  5
B3359
 67
     1
  8
CLOTHES_RAIL
  6
CONTINUOUS
 10
5468.473074125298
 20
-36.22039648048771
 30
0.0
  0
VERTEX
  5
B335A
 67
     1
  8
CLOTHES_RAIL
  6
CONTINUOUS
 10
5466.224529203422
 20
-36.22039648048771
 30
0.0
  0
SEQEND
  5
B3617
 67
     1
  8
CLOTHES_RAIL
  6
CONTINUOUS
  0
POLYLINE
  5
A055A
 67
     1
  8
CLOTHES_RAIL
  6
CONTINUOUS
 66
     1
 10
0.0
 20
0.0
 30
0.0
 70
   128
  0
VERTEX
  5
B335B
 67
     1
  8
CLOTHES_RAIL
  6
CONTINUOUS
 10
5446.697280125732
 20
-36.22039648048771
 30
0.0
  0
VERTEX
  5
B335C
 67
     1
  8
CLOTHES_RAIL
  6
CONTINUOUS
 10
5446.697280125732
 20
-28.46717463803993
 30
0.0
  0
VERTEX
  5
B335D
 67
     1
  8
CLOTHES_RAIL
  6
CONTINUOUS
 10
5448.724270956895
 20
-28.46717463803993
 30
0.0
 42
-0.316444976687396
  0
VERTEX
  5
B335E
 67
     1
  8
CLOTHES_RAIL
  6
CONTINUOUS
 10
5449.743226848822
 20
-29.03206694489745
 30
0.0
  0
VERTEX
  5
B335F
 67
     1
  8
CLOTHES_RAIL
  6
CONTINUOUS
 10
5451.759090021564
 20
-32.43244509159917
 30
0.0
  0
VERTEX
  5
B3360
 67
     1
  8
CLOTHES_RAIL
  6
CONTINUOUS
 10
5451.814452706026
 20
-32.43244509159917
 30
0.0
  0
VERTEX
  5
B3361
 67
     1
  8
CLOTHES_RAIL
  6
CONTINUOUS
 10
5451.814452706026
 20
-28.46717463803993
 30
0.0
  0
VERTEX
  5
B3362
 67
     1
  8
CLOTHES_RAIL
  6
CONTINUOUS
 10
5454.062928725992
 20
-28.46717463803993
 30
0.0
  0
VERTEX
  5
B3363
 67
     1
  8
CLOTHES_RAIL
  6
CONTINUOUS
 10
5454.062928725992
 20
-36.22039648048771
 30
0.0
  0
VERTEX
  5
B3364
 67
     1
  8
CLOTHES_RAIL
  6
CONTINUOUS
 10
5452.412486831462
 20
-36.22039648048771
 30
0.0
 42
-0.312959769389874
  0
VERTEX
  5
B3365
 67
     1
  8
CLOTHES_RAIL
  6
CONTINUOUS
 10
5451.393530939535
 20
-35.65553862458513
 30
0.0
  0
VERTEX
  5
B3366
 67
     1
  8
CLOTHES_RAIL
  6
CONTINUOUS
 10
5449.001118830159
 20
-31.7900036853489
 30
0.0
  0
VERTEX
  5
B3367
 67
     1
  8
CLOTHES_RAIL
  6
CONTINUOUS
 10
5448.945825047606
 20
-31.7900036853489
 30
0.0
  0
VERTEX
  5
B3368
 67
     1
  8
CLOTHES_RAIL
  6
CONTINUOUS
 10
5448.945825047606
 20
-36.22039648048771
 30
0.0
  0
VERTEX
  5
B3369
 67
     1
  8
CLOTHES_RAIL
  6
CONTINUOUS
 10
5446.697280125732
 20
-36.22039648048771
 30
0.0
  0
SEQEND
  5
B3618
 67
     1
  8
CLOTHES_RAIL
  6
CONTINUOUS
  0
POLYLINE
  5
A055B
 67
     1
  8
CLOTHES_RAIL
  6
CONTINUOUS
 66
     1
 10
0.0
 20
0.0
 30
0.0
 70
   128
  0
VERTEX
  5
B336A
 67
     1
  8
CLOTHES_RAIL
  6
CONTINUOUS
 10
5461.749763578423
 20
-28.46720908899488
 30
0.0
  0
VERTEX
  5
B336B
 67
     1
  8
CLOTHES_RAIL
  6
CONTINUOUS
 10
5461.749763578423
 20
-30.28367013500196
 30
0.0
  0
VERTEX
  5
B336C
 67
     1
  8
CLOTHES_RAIL
  6
CONTINUOUS
 10
5459.42384181193
 20
-30.28367013500196
 30
0.0
  0
VERTEX
  5
B336D
 67
     1
  8
CLOTHES_RAIL
  6
CONTINUOUS
 10
5459.42384181193
 20
-36.22039648048771
 30
0.0
  0
VERTEX
  5
B336E
 67
     1
  8
CLOTHES_RAIL
  6
CONTINUOUS
 10
5457.042454008109
 20
-36.22039648048771
 30
0.0
  0
VERTEX
  5
B336F
 67
     1
  8
CLOTHES_RAIL
  6
CONTINUOUS
 10
5457.042454008109
 20
-30.28367013500196
 30
0.0
  0
VERTEX
  5
B3370
 67
     1
  8
CLOTHES_RAIL
  6
CONTINUOUS
 10
5454.771791573215
 20
-30.28367013500196
 30
0.0
  0
VERTEX
  5
B3371
 67
     1
  8
CLOTHES_RAIL
  6
CONTINUOUS
 10
5454.771791573215
 20
-28.46720908899488
 30
0.0
  0
VERTEX
  5
B3372
 67
     1
  8
CLOTHES_RAIL
  6
CONTINUOUS
 10
5461.749763578423
 20
-28.46720908899488
 30
0.0
  0
SEQEND
  5
B3619
 67
     1
  8
CLOTHES_RAIL
  6
CONTINUOUS
  0
POLYLINE
  5
A055C
 67
     1
  8
CLOTHES_RAIL
  6
CONTINUOUS
 66
     1
 10
0.0
 20
0.0
 30
0.0
 70
     1
  0
VERTEX
  5
B3373
 67
     1
  8
CLOTHES_RAIL
  6
CONTINUOUS
 10
5462.49183714613
 20
-28.46720908899488
 30
0.0
  0
VERTEX
  5
B3374
 67
     1
  8
CLOTHES_RAIL
  6
CONTINUOUS
 10
5464.87322494995
 20
-28.46720908899488
 30
0.0
  0
VERTEX
  5
B3375
 67
     1
  8
CLOTHES_RAIL
  6
CONTINUOUS
 10
5464.87322494995
 20
-36.22039648048771
 30
0.0
  0
VERTEX
  5
B3376
 67
     1
  8
CLOTHES_RAIL
  6
CONTINUOUS
 10
5462.49183714613
 20
-36.22039648048771
 30
0.0
  0
SEQEND
  5
B361A
 67
     1
  8
CLOTHES_RAIL
  6
CONTINUOUS
  0
POLYLINE
  5
A055D
 67
     1
  8
CLOTHES_RAIL
  6
CONTINUOUS
 66
     1
 10
0.0
 20
0.0
 30
0.0
 70
   128
  0
VERTEX
  5
B3377
 67
     1
  8
CLOTHES_RAIL
  6
CONTINUOUS
 10
5438.190615900471
 20
-28.46724353994973
 30
0.0
  0
VERTEX
  5
B3378
 67
     1
  8
CLOTHES_RAIL
  6
CONTINUOUS
 10
5438.190615900471
 20
-30.25045941451572
 30
0.0
  0
VERTEX
  5
B3379
 67
     1
  8
CLOTHES_RAIL
  6
CONTINUOUS
 10
5434.469085952553
 20
-30.25045941451572
 30
0.0
  0
VERTEX
  5
B337A
 67
     1
  8
CLOTHES_RAIL
  6
CONTINUOUS
 10
5434.469085952553
 20
-31.78996923439411
 30
0.0
  0
VERTEX
  5
B337B
 67
     1
  8
CLOTHES_RAIL
  6
CONTINUOUS
 10
5437.071958945176
 20
-31.78996923439411
 30
0.0
  0
VERTEX
  5
B337C
 67
     1
  8
CLOTHES_RAIL
  6
CONTINUOUS
 10
5437.071958945176
 20
-33.45143543448086
 30
0.0
  0
VERTEX
  5
B337D
 67
     1
  8
CLOTHES_RAIL
  6
CONTINUOUS
 10
5434.469085952553
 20
-33.45143543448086
 30
0.0
  0
VERTEX
  5
B337E
 67
     1
  8
CLOTHES_RAIL
  6
CONTINUOUS
 10
5434.469085952553
 20
-36.22039648048771
 30
0.0
  0
VERTEX
  5
B337F
 67
     1
  8
CLOTHES_RAIL
  6
CONTINUOUS
 10
5432.087698148734
 20
-36.22039648048771
 30
0.0
  0
VERTEX
  5
B3380
 67
     1
  8
CLOTHES_RAIL
  6
CONTINUOUS
 10
5432.087698148734
 20
-28.46724353994973
 30
0.0
  0
VERTEX
  5
B3381
 67
     1
  8
CLOTHES_RAIL
  6
CONTINUOUS
 10
5438.190615900471
 20
-28.46724353994973
 30
0.0
  0
SEQEND
  5
B361B
 67
     1
  8
CLOTHES_RAIL
  6
CONTINUOUS
  0
POLYLINE
  5
A055E
 67
     1
  8
CLOTHES_RAIL
  6
CONTINUOUS
 66
     1
 10
0.0
 20
0.0
 30
0.0
 70
   128
  0
VERTEX
  5
B3382
 67
     1
  8
CLOTHES_RAIL
  6
CONTINUOUS
 10
5441.912318103162
 20
-30.60482193621716
 30
0.0
  0
VERTEX
  5
B3383
 67
     1
  8
CLOTHES_RAIL
  6
CONTINUOUS
 10
5442.576877022433
 20
-32.88657757857812
 30
0.0
  0
VERTEX
  5
B3384
 67
     1
  8
CLOTHES_RAIL
  6
CONTINUOUS
 10
5441.125906156548
 20
-32.88657757857812
 30
0.0
  0
VERTEX
  5
B3385
 67
     1
  8
CLOTHES_RAIL
  6
CONTINUOUS
 10
5441.790465075818
 20
-30.60482193621716
 30
0.0
  0
VERTEX
  5
B3386
 67
     1
  8
CLOTHES_RAIL
  6
CONTINUOUS
 10
5441.912318103162
 20
-30.60482193621716
 30
0.0
  0
SEQEND
  5
B361C
 67
     1
  8
CLOTHES_RAIL
  6
CONTINUOUS
  0
POLYLINE
  5
A055F
 67
     1
  8
CLOTHES_RAIL
  6
CONTINUOUS
 66
     1
 10
0.0
 20
0.0
 30
0.0
 70
   129
  0
VERTEX
  5
B3387
 67
     1
  8
CLOTHES_RAIL
  6
CONTINUOUS
 10
5443.042151372053
 20
-34.54794042580057
 30
0.0
  0
VERTEX
  5
B3388
 67
     1
  8
CLOTHES_RAIL
  6
CONTINUOUS
 10
5443.042151372053
 20
-34.54794042580057
 30
0.0
  0
VERTEX
  5
B3389
 67
     1
  8
CLOTHES_RAIL
  6
CONTINUOUS
 10
5443.529377022432
 20
-36.22039648048771
 30
0.0
  0
VERTEX
  5
B338A
 67
     1
  8
CLOTHES_RAIL
  6
CONTINUOUS
 10
5446.043711061061
 20
-36.22039648048771
 30
0.0
  0
VERTEX
  5
B338B
 67
     1
  8
CLOTHES_RAIL
  6
CONTINUOUS
 10
5443.695533977728
 20
-29.16490982684213
 30
0.0
 42
0.1089385125692126
  0
VERTEX
  5
B338C
 67
     1
  8
CLOTHES_RAIL
  6
CONTINUOUS
 10
5443.440696781376
 20
-28.61148707243616
 30
0.0
 42
0.1589313772246072
  0
VERTEX
  5
B338D
 67
     1
  8
CLOTHES_RAIL
  6
CONTINUOUS
 10
5443.200780277596
 20
-28.46578963330632
 30
0.0
 42
0.058673645385263
  0
VERTEX
  5
B338E
 67
     1
  8
CLOTHES_RAIL
  6
CONTINUOUS
 10
5442.875876859673
 20
-28.43396391755392
 30
0.0
  0
VERTEX
  5
B338F
 67
     1
  8
CLOTHES_RAIL
  6
CONTINUOUS
 10
5442.875876859673
 20
-28.43396391755392
 30
0.0
  0
VERTEX
  5
B3390
 67
     1
  8
CLOTHES_RAIL
  6
CONTINUOUS
 10
5440.970911310627
 20
-28.43396391755392
 30
0.0
 42
0.058673645385263
  0
VERTEX
  5
B3391
 67
     1
  8
CLOTHES_RAIL
  6
CONTINUOUS
 10
5440.646007892707
 20
-28.46578963330632
 30
0.0
 42
0.1589313772246072
  0
VERTEX
  5
B3392
 67
     1
  8
CLOTHES_RAIL
  6
CONTINUOUS
 10
5440.406091388922
 20
-28.61148707243616
 30
0.0
 42
0.1089385125692126
  0
VERTEX
  5
B3393
 67
     1
  8
CLOTHES_RAIL
  6
CONTINUOUS
 10
5440.151254192572
 20
-29.16490982684213
 30
0.0
  0
VERTEX
  5
B3394
 67
     1
  8
CLOTHES_RAIL
  6
CONTINUOUS
 10
5437.803077109239
 20
-36.22039648048771
 30
0.0
  0
VERTEX
  5
B3395
 67
     1
  8
CLOTHES_RAIL
  6
CONTINUOUS
 10
5440.184396011148
 20
-36.22039648048771
 30
0.0
  0
VERTEX
  5
B3396
 67
     1
  8
CLOTHES_RAIL
  6
CONTINUOUS
 10
5440.660646011148
 20
-34.54794042580057
 30
0.0
  0
SEQEND
  5
B361D
 67
     1
  8
CLOTHES_RAIL
  6
CONTINUOUS
  0
LINE
  5
A0560
 67
     1
  8
0
 10
5430.41357023484
 20
-38.07357432542767
 30
0.0
 11
5472.493622517709
 21
-38.07357432542771
 31
0.0
  0
TEXT
  5
A0561
 67
     1
  8
0
 10
5445.159798872925
 20
-40.82492040620856
 30
0.0
 40
2.0
  1
02.03.2015
  7
STILE4
  0
LINE
  5
A0562
 67
     1
  8
0
 10
5430.41357023484
 20
-26.25196840229718
 30
0.0
 11
5472.493622517709
 21
-26.25196840229721
 31
0.0
  0
POLYLINE
  5
A0563
 67
     1
  8
RIPIANI
 66
     1
 10
0.0
 20
0.0
 30
0.0
 70
     1
  0
VERTEX
  5
B3397
 67
     1
  8
RIPIANI
 10
5430.41357023484
 20
-26.25196840229718
 30
0.0
  0
VERTEX
  5
B3398
 67
     1
  8
RIPIANI
 10
5430.41357023484
 20
-38.07357432542761
 30
0.0
  0
VERTEX
  5
B3399
 67
     1
  8
RIPIANI
 10
5475.786953964698
 20
-38.07357432542761
 30
0.0
  0
VERTEX
  5
B339A
 67
     1
  8
RIPIANI
 10
5475.786953964698
 20
-26.25196840229718
 30
0.0
  0
SEQEND
  5
B361E
 67
     1
  8
RIPIANI
  0
POLYLINE
  5
A0564
 67
     1
  8
RIPIANI
 66
     1
 10
0.0
 20
0.0
 30
0.0
 70
     1
  0
VERTEX
  5
B339B
 67
     1
  8
RIPIANI
 10
5430.41357023484
 20
-38.07357432542761
 30
0.0
  0
VERTEX
  5
B339C
 67
     1
  8
RIPIANI
 10
5430.41357023484
 20
-45.57357432542768
 30
0.0
  0
VERTEX
  5
B339D
 67
     1
  8
RIPIANI
 10
5475.786953964698
 20
-45.57357432542768
 30
0.0
  0
VERTEX
  5
B339E
 67
     1
  8
RIPIANI
 10
5475.786953964698
 20
-38.07357432542761
 30
0.0
  0
SEQEND
  5
B361F
 67
     1
  8
RIPIANI
  0
LINE
  5
A0565
 67
     1
  8
RIPIANI
 10
5475.786953964698
 20
-26.25196840229718
 30
0.0
 11
5622.41357023484
 21
-26.25196840229718
 31
0.0
  0
LINE
  5
A05D1
 67
     1
  8
RIPIANI
 10
5403.971933088409
 20
23.52456288579168
 30
0.0
 11
5403.971933088409
 21
-46.47543711420802
 31
0.0
  0
POLYLINE
  5
A05D2
 67
     1
  8
RIPIANI
 66
     1
 10
0.0
 20
0.0
 30
0.0
 70
     1
  0
VERTEX
  5
B339F
 67
     1
  8
RIPIANI
 10
5211.97193308841
 20
-46.47543711420802
 30
0.0
  0
VERTEX
  5
B33A0
 67
     1
  8
RIPIANI
 10
5211.97193308841
 20
215.524562885792
 30
0.0
  0
VERTEX
  5
B33A1
 67
     1
  8
RIPIANI
 10
5403.971933088409
 20
215.524562885792
 30
0.0
  0
VERTEX
  5
B33A2
 67
     1
  8
RIPIANI
 10
5403.971933088409
 20
-46.47543711420802
 30
0.0
  0
SEQEND
  5
B3620
 67
     1
  8
RIPIANI
  0
LINE
  5
A05D3
 67
     1
  8
0
 10
5233.971933088409
 20
-38.97543711420798
 30
0.0
 11
5257.345316818266
 21
-38.97543711420798
 31
0.0
  0
LINE
  5
A05D4
 67
     1
  8
RIPIANI
 10
5233.971933088409
 20
-46.47543711420797
 30
0.0
 11
5403.971933088409
 21
-46.47543711420802
 31
0.0
  0
TEXT
  5
A05D5
 67
     1
  8
0
 10
5243.70508445455
 20
-45.43965956854042
 30
0.0
 40
1.689599999999999
  1
.DWG
  7
STILE4
  0
LINE
  5
A05D6
 67
     1
  8
RIPIANI
 10
5211.97193308841
 20
-42.72543711420802
 30
0.0
 11
5257.345316818266
 21
-42.72543711420806
 31
0.0
  0
TEXT
  5
A05D7
 67
     1
  8
CLOTHES_RAIL
 10
5285.984991943557
 20
-34.11498777108713
 30
0.0
 40
2.5
  1
MOBILE SHELVING SYSTEM MODEL "VELA/BINARIA"
  7
STILE1
 72
     1
 11
5333.721227062605
 21
-34.11498777108713
 31
0.0
  0
TEXT
  5
A05D8
 67
     1
  8
CLOTHES_RAIL
 10
5307.05270027689
 20
-41.61498777108713
 30
0.0
 40
2.5
  1
WARDROBE CONFIGURATIONS
  7
STILE1
 72
     1
 11
5333.721227062605
 21
-41.61498777108713
 31
0.0
  0
TEXT
  5
A05D9
 67
     1
  8
0
 10
5219.083473286588
 20
-45.43965956854042
 30
0.0
 40
1.689599999999999
  1
BINARIA-VELA-WR
  7
STILE4
  0
POLYLINE
  5
A05DA
 67
     1
  8
CLOTHES_RAIL
  6
CONTINUOUS
 66
     1
 10
0.0
 20
0.0
 30
0.0
 70
   128
  0
VERTEX
  5
B33A3
 67
     1
  8
CLOTHES_RAIL
  6
CONTINUOUS
 10
5247.782892056991
 20
-37.12225926926806
 30
0.0
  0
VERTEX
  5
B33A4
 67
     1
  8
CLOTHES_RAIL
  6
CONTINUOUS
 10
5247.782892056991
 20
-29.36903742682029
 30
0.0
  0
VERTEX
  5
B33A5
 67
     1
  8
CLOTHES_RAIL
  6
CONTINUOUS
 10
5249.809882888154
 20
-29.36903742682029
 30
0.0
 42
-0.316444976687396
  0
VERTEX
  5
B33A6
 67
     1
  8
CLOTHES_RAIL
  6
CONTINUOUS
 10
5250.828838780082
 20
-29.93392973367783
 30
0.0
  0
VERTEX
  5
B33A7
 67
     1
  8
CLOTHES_RAIL
  6
CONTINUOUS
 10
5252.844701952825
 20
-33.33430788037953
 30
0.0
  0
VERTEX
  5
B33A8
 67
     1
  8
CLOTHES_RAIL
  6
CONTINUOUS
 10
5252.900064637286
 20
-33.33430788037953
 30
0.0
  0
VERTEX
  5
B33A9
 67
     1
  8
CLOTHES_RAIL
  6
CONTINUOUS
 10
5252.900064637286
 20
-29.36903742682029
 30
0.0
  0
VERTEX
  5
B33AA
 67
     1
  8
CLOTHES_RAIL
  6
CONTINUOUS
 10
5255.148540657252
 20
-29.36903742682029
 30
0.0
  0
VERTEX
  5
B33AB
 67
     1
  8
CLOTHES_RAIL
  6
CONTINUOUS
 10
5255.148540657252
 20
-37.12225926926806
 30
0.0
  0
VERTEX
  5
B33AC
 67
     1
  8
CLOTHES_RAIL
  6
CONTINUOUS
 10
5253.498098762722
 20
-37.12225926926806
 30
0.0
 42
-0.312959769389874
  0
VERTEX
  5
B33AD
 67
     1
  8
CLOTHES_RAIL
  6
CONTINUOUS
 10
5252.479142870793
 20
-36.55740141336549
 30
0.0
  0
VERTEX
  5
B33AE
 67
     1
  8
CLOTHES_RAIL
  6
CONTINUOUS
 10
5250.086730761418
 20
-32.69186647412927
 30
0.0
  0
VERTEX
  5
B33AF
 67
     1
  8
CLOTHES_RAIL
  6
CONTINUOUS
 10
5250.031436978869
 20
-32.69186647412927
 30
0.0
  0
VERTEX
  5
B33B0
 67
     1
  8
CLOTHES_RAIL
  6
CONTINUOUS
 10
5250.031436978869
 20
-37.12225926926806
 30
0.0
  0
VERTEX
  5
B33B1
 67
     1
  8
CLOTHES_RAIL
  6
CONTINUOUS
 10
5247.782892056991
 20
-37.12225926926806
 30
0.0
  0
SEQEND
  5
B3621
 67
     1
  8
CLOTHES_RAIL
  6
CONTINUOUS
  0
POLYLINE
  5
A05DB
 67
     1
  8
CLOTHES_RAIL
  6
CONTINUOUS
 66
     1
 10
0.0
 20
0.0
 30
0.0
 70
   128
  0
VERTEX
  5
B33B2
 67
     1
  8
CLOTHES_RAIL
  6
CONTINUOUS
 10
5228.2556429793
 20
-37.12225926926806
 30
0.0
  0
VERTEX
  5
B33B3
 67
     1
  8
CLOTHES_RAIL
  6
CONTINUOUS
 10
5228.2556429793
 20
-29.36903742682029
 30
0.0
  0
VERTEX
  5
B33B4
 67
     1
  8
CLOTHES_RAIL
  6
CONTINUOUS
 10
5230.282633810464
 20
-29.36903742682029
 30
0.0
 42
-0.316444976687396
  0
VERTEX
  5
B33B5
 67
     1
  8
CLOTHES_RAIL
  6
CONTINUOUS
 10
5231.301589702391
 20
-29.93392973367783
 30
0.0
  0
VERTEX
  5
B33B6
 67
     1
  8
CLOTHES_RAIL
  6
CONTINUOUS
 10
5233.317452875134
 20
-33.33430788037953
 30
0.0
  0
VERTEX
  5
B33B7
 67
     1
  8
CLOTHES_RAIL
  6
CONTINUOUS
 10
5233.372815559595
 20
-33.33430788037953
 30
0.0
  0
VERTEX
  5
B33B8
 67
     1
  8
CLOTHES_RAIL
  6
CONTINUOUS
 10
5233.372815559595
 20
-29.36903742682029
 30
0.0
  0
VERTEX
  5
B33B9
 67
     1
  8
CLOTHES_RAIL
  6
CONTINUOUS
 10
5235.621291579558
 20
-29.36903742682029
 30
0.0
  0
VERTEX
  5
B33BA
 67
     1
  8
CLOTHES_RAIL
  6
CONTINUOUS
 10
5235.621291579558
 20
-37.12225926926806
 30
0.0
  0
VERTEX
  5
B33BB
 67
     1
  8
CLOTHES_RAIL
  6
CONTINUOUS
 10
5233.97084968503
 20
-37.12225926926806
 30
0.0
 42
-0.312959769389874
  0
VERTEX
  5
B33BC
 67
     1
  8
CLOTHES_RAIL
  6
CONTINUOUS
 10
5232.951893793102
 20
-36.55740141336549
 30
0.0
  0
VERTEX
  5
B33BD
 67
     1
  8
CLOTHES_RAIL
  6
CONTINUOUS
 10
5230.559481683728
 20
-32.69186647412927
 30
0.0
  0
VERTEX
  5
B33BE
 67
     1
  8
CLOTHES_RAIL
  6
CONTINUOUS
 10
5230.504187901175
 20
-32.69186647412927
 30
0.0
  0
VERTEX
  5
B33BF
 67
     1
  8
CLOTHES_RAIL
  6
CONTINUOUS
 10
5230.504187901175
 20
-37.12225926926806
 30
0.0
  0
VERTEX
  5
B33C0
 67
     1
  8
CLOTHES_RAIL
  6
CONTINUOUS
 10
5228.2556429793
 20
-37.12225926926806
 30
0.0
  0
SEQEND
  5
B3622
 67
     1
  8
CLOTHES_RAIL
  6
CONTINUOUS
  0
POLYLINE
  5
A05DC
 67
     1
  8
CLOTHES_RAIL
  6
CONTINUOUS
 66
     1
 10
0.0
 20
0.0
 30
0.0
 70
   128
  0
VERTEX
  5
B33C1
 67
     1
  8
CLOTHES_RAIL
  6
CONTINUOUS
 10
5243.308126431992
 20
-29.36907187777525
 30
0.0
  0
VERTEX
  5
B33C2
 67
     1
  8
CLOTHES_RAIL
  6
CONTINUOUS
 10
5243.308126431992
 20
-31.18553292378233
 30
0.0
  0
VERTEX
  5
B33C3
 67
     1
  8
CLOTHES_RAIL
  6
CONTINUOUS
 10
5240.982204665498
 20
-31.18553292378233
 30
0.0
  0
VERTEX
  5
B33C4
 67
     1
  8
CLOTHES_RAIL
  6
CONTINUOUS
 10
5240.982204665498
 20
-37.12225926926806
 30
0.0
  0
VERTEX
  5
B33C5
 67
     1
  8
CLOTHES_RAIL
  6
CONTINUOUS
 10
5238.600816861679
 20
-37.12225926926806
 30
0.0
  0
VERTEX
  5
B33C6
 67
     1
  8
CLOTHES_RAIL
  6
CONTINUOUS
 10
5238.600816861679
 20
-31.18553292378233
 30
0.0
  0
VERTEX
  5
B33C7
 67
     1
  8
CLOTHES_RAIL
  6
CONTINUOUS
 10
5236.330154426783
 20
-31.18553292378233
 30
0.0
  0
VERTEX
  5
B33C8
 67
     1
  8
CLOTHES_RAIL
  6
CONTINUOUS
 10
5236.330154426783
 20
-29.36907187777525
 30
0.0
  0
VERTEX
  5
B33C9
 67
     1
  8
CLOTHES_RAIL
  6
CONTINUOUS
 10
5243.308126431992
 20
-29.36907187777525
 30
0.0
  0
SEQEND
  5
B3623
 67
     1
  8
CLOTHES_RAIL
  6
CONTINUOUS
  0
POLYLINE
  5
A05DD
 67
     1
  8
CLOTHES_RAIL
  6
CONTINUOUS
 66
     1
 10
0.0
 20
0.0
 30
0.0
 70
     1
  0
VERTEX
  5
B33CA
 67
     1
  8
CLOTHES_RAIL
  6
CONTINUOUS
 10
5244.050199999701
 20
-29.36907187777525
 30
0.0
  0
VERTEX
  5
B33CB
 67
     1
  8
CLOTHES_RAIL
  6
CONTINUOUS
 10
5246.431587803519
 20
-29.36907187777525
 30
0.0
  0
VERTEX
  5
B33CC
 67
     1
  8
CLOTHES_RAIL
  6
CONTINUOUS
 10
5246.431587803519
 20
-37.12225926926806
 30
0.0
  0
VERTEX
  5
B33CD
 67
     1
  8
CLOTHES_RAIL
  6
CONTINUOUS
 10
5244.050199999701
 20
-37.12225926926806
 30
0.0
  0
SEQEND
  5
B3624
 67
     1
  8
CLOTHES_RAIL
  6
CONTINUOUS
  0
POLYLINE
  5
A05DE
 67
     1
  8
CLOTHES_RAIL
  6
CONTINUOUS
 66
     1
 10
0.0
 20
0.0
 30
0.0
 70
   128
  0
VERTEX
  5
B33CE
 67
     1
  8
CLOTHES_RAIL
  6
CONTINUOUS
 10
5219.74897875404
 20
-29.36910632873009
 30
0.0
  0
VERTEX
  5
B33CF
 67
     1
  8
CLOTHES_RAIL
  6
CONTINUOUS
 10
5219.74897875404
 20
-31.15232220329609
 30
0.0
  0
VERTEX
  5
B33D0
 67
     1
  8
CLOTHES_RAIL
  6
CONTINUOUS
 10
5216.027448806123
 20
-31.15232220329609
 30
0.0
  0
VERTEX
  5
B33D1
 67
     1
  8
CLOTHES_RAIL
  6
CONTINUOUS
 10
5216.027448806123
 20
-32.69183202317448
 30
0.0
  0
VERTEX
  5
B33D2
 67
     1
  8
CLOTHES_RAIL
  6
CONTINUOUS
 10
5218.630321798745
 20
-32.69183202317448
 30
0.0
  0
VERTEX
  5
B33D3
 67
     1
  8
CLOTHES_RAIL
  6
CONTINUOUS
 10
5218.630321798745
 20
-34.35329822326123
 30
0.0
  0
VERTEX
  5
B33D4
 67
     1
  8
CLOTHES_RAIL
  6
CONTINUOUS
 10
5216.027448806123
 20
-34.35329822326123
 30
0.0
  0
VERTEX
  5
B33D5
 67
     1
  8
CLOTHES_RAIL
  6
CONTINUOUS
 10
5216.027448806123
 20
-37.12225926926806
 30
0.0
  0
VERTEX
  5
B33D6
 67
     1
  8
CLOTHES_RAIL
  6
CONTINUOUS
 10
5213.646061002304
 20
-37.12225926926806
 30
0.0
  0
VERTEX
  5
B33D7
 67
     1
  8
CLOTHES_RAIL
  6
CONTINUOUS
 10
5213.646061002304
 20
-29.36910632873009
 30
0.0
  0
VERTEX
  5
B33D8
 67
     1
  8
CLOTHES_RAIL
  6
CONTINUOUS
 10
5219.74897875404
 20
-29.36910632873009
 30
0.0
  0
SEQEND
  5
B3625
 67
     1
  8
CLOTHES_RAIL
  6
CONTINUOUS
  0
POLYLINE
  5
A05DF
 67
     1
  8
CLOTHES_RAIL
  6
CONTINUOUS
 66
     1
 10
0.0
 20
0.0
 30
0.0
 70
   128
  0
VERTEX
  5
B33D9
 67
     1
  8
CLOTHES_RAIL
  6
CONTINUOUS
 10
5223.470680956729
 20
-31.50668472499752
 30
0.0
  0
VERTEX
  5
B33DA
 67
     1
  8
CLOTHES_RAIL
  6
CONTINUOUS
 10
5224.135239876002
 20
-33.78844036735848
 30
0.0
  0
VERTEX
  5
B33DB
 67
     1
  8
CLOTHES_RAIL
  6
CONTINUOUS
 10
5222.684269010118
 20
-33.78844036735848
 30
0.0
  0
VERTEX
  5
B33DC
 67
     1
  8
CLOTHES_RAIL
  6
CONTINUOUS
 10
5223.348827929387
 20
-31.50668472499752
 30
0.0
  0
VERTEX
  5
B33DD
 67
     1
  8
CLOTHES_RAIL
  6
CONTINUOUS
 10
5223.470680956729
 20
-31.50668472499752
 30
0.0
  0
SEQEND
  5
B3626
 67
     1
  8
CLOTHES_RAIL
  6
CONTINUOUS
  0
POLYLINE
  5
A05E0
 67
     1
  8
CLOTHES_RAIL
  6
CONTINUOUS
 66
     1
 10
0.0
 20
0.0
 30
0.0
 70
   129
  0
VERTEX
  5
B33DE
 67
     1
  8
CLOTHES_RAIL
  6
CONTINUOUS
 10
5224.60051422562
 20
-35.44980321458093
 30
0.0
  0
VERTEX
  5
B33DF
 67
     1
  8
CLOTHES_RAIL
  6
CONTINUOUS
 10
5224.60051422562
 20
-35.44980321458093
 30
0.0
  0
VERTEX
  5
B33E0
 67
     1
  8
CLOTHES_RAIL
  6
CONTINUOUS
 10
5225.087739876001
 20
-37.12225926926806
 30
0.0
  0
VERTEX
  5
B33E1
 67
     1
  8
CLOTHES_RAIL
  6
CONTINUOUS
 10
5227.60207391463
 20
-37.12225926926806
 30
0.0
  0
VERTEX
  5
B33E2
 67
     1
  8
CLOTHES_RAIL
  6
CONTINUOUS
 10
5225.253896831298
 20
-30.06677261562249
 30
0.0
 42
0.1089385125692126
  0
VERTEX
  5
B33E3
 67
     1
  8
CLOTHES_RAIL
  6
CONTINUOUS
 10
5224.999059634946
 20
-29.51334986121652
 30
0.0
 42
0.1589313772246072
  0
VERTEX
  5
B33E4
 67
     1
  8
CLOTHES_RAIL
  6
CONTINUOUS
 10
5224.759143131164
 20
-29.36765242208669
 30
0.0
 42
0.058673645385263
  0
VERTEX
  5
B33E5
 67
     1
  8
CLOTHES_RAIL
  6
CONTINUOUS
 10
5224.434239713242
 20
-29.33582670633428
 30
0.0
  0
VERTEX
  5
B33E6
 67
     1
  8
CLOTHES_RAIL
  6
CONTINUOUS
 10
5224.434239713242
 20
-29.33582670633428
 30
0.0
  0
VERTEX
  5
B33E7
 67
     1
  8
CLOTHES_RAIL
  6
CONTINUOUS
 10
5222.529274164196
 20
-29.33582670633428
 30
0.0
 42
0.058673645385263
  0
VERTEX
  5
B33E8
 67
     1
  8
CLOTHES_RAIL
  6
CONTINUOUS
 10
5222.204370746274
 20
-29.36765242208669
 30
0.0
 42
0.1589313772246072
  0
VERTEX
  5
B33E9
 67
     1
  8
CLOTHES_RAIL
  6
CONTINUOUS
 10
5221.964454242492
 20
-29.51334986121652
 30
0.0
 42
0.1089385125692126
  0
VERTEX
  5
B33EA
 67
     1
  8
CLOTHES_RAIL
  6
CONTINUOUS
 10
5221.709617046141
 20
-30.06677261562249
 30
0.0
  0
VERTEX
  5
B33EB
 67
     1
  8
CLOTHES_RAIL
  6
CONTINUOUS
 10
5219.361439962809
 20
-37.12225926926806
 30
0.0
  0
VERTEX
  5
B33EC
 67
     1
  8
CLOTHES_RAIL
  6
CONTINUOUS
 10
5221.742758864717
 20
-37.12225926926806
 30
0.0
  0
VERTEX
  5
B33ED
 67
     1
  8
CLOTHES_RAIL
  6
CONTINUOUS
 10
5222.219008864716
 20
-35.44980321458093
 30
0.0
  0
SEQEND
  5
B3627
 67
     1
  8
CLOTHES_RAIL
  6
CONTINUOUS
  0
LINE
  5
A05E1
 67
     1
  8
0
 10
5211.97193308841
 20
-38.97543711420802
 30
0.0
 11
5254.051985371278
 21
-38.97543711420806
 31
0.0
  0
TEXT
  5
A05E2
 67
     1
  8
0
 10
5226.718161726491
 20
-41.72678319498892
 30
0.0
 40
2.0
  1
02.03.2015
  7
STILE4
  0
LINE
  5
A05E3
 67
     1
  8
0
 10
5211.97193308841
 20
-27.15383119107754
 30
0.0
 11
5254.051985371278
 21
-27.15383119107757
 31
0.0
  0
POLYLINE
  5
A05E4
 67
     1
  8
RIPIANI
 66
     1
 10
0.0
 20
0.0
 30
0.0
 70
     1
  0
VERTEX
  5
B33EE
 67
     1
  8
RIPIANI
 10
5211.97193308841
 20
-27.15383119107754
 30
0.0
  0
VERTEX
  5
B33EF
 67
     1
  8
RIPIANI
 10
5211.97193308841
 20
-38.97543711420798
 30
0.0
  0
VERTEX
  5
B33F0
 67
     1
  8
RIPIANI
 10
5257.345316818266
 20
-38.97543711420798
 30
0.0
  0
VERTEX
  5
B33F1
 67
     1
  8
RIPIANI
 10
5257.345316818266
 20
-27.15383119107754
 30
0.0
  0
SEQEND
  5
B3628
 67
     1
  8
RIPIANI
  0
POLYLINE
  5
A05E5
 67
     1
  8
RIPIANI
 66
     1
 10
0.0
 20
0.0
 30
0.0
 70
     1
  0
VERTEX
  5
B33F2
 67
     1
  8
RIPIANI
 10
5211.97193308841
 20
-38.97543711420798
 30
0.0
  0
VERTEX
  5
B33F3
 67
     1
  8
RIPIANI
 10
5211.97193308841
 20
-46.47543711420804
 30
0.0
  0
VERTEX
  5
B33F4
 67
     1
  8
RIPIANI
 10
5257.345316818266
 20
-46.47543711420804
 30
0.0
  0
VERTEX
  5
B33F5
 67
     1
  8
RIPIANI
 10
5257.345316818266
 20
-38.97543711420798
 30
0.0
  0
SEQEND
  5
B3629
 67
     1
  8
RIPIANI
  0
LINE
  5
A05E6
 67
     1
  8
RIPIANI
 10
5257.345316818266
 20
-27.15383119107754
 30
0.0
 11
5403.971933088409
 21
-27.15383119107754
 31
0.0
  0
VIEWPORT
  5
A05EA
 67
     1
  8
RETE
 10
5308.221933088409
 20
93.90646166026305
 30
0.0
 40
191.5
 41
236.132465228796
 68
     4
 69
     4
1001
ACAD
1000
MVIEW
1002
{
1070
    16
1010
183262.9885359334
1020
-9667.563718929574
1030
0.0
1010
0.0
1020
0.0
1030
1.0
1040
0.0
1040
5700.595139329438
1040
215823.6079317253
1040
34568.76605440148
1040
50.0
1040
0.0
1040
0.0
1070
    16
1070
   100
1070
     1
1070
     1
1070
     0
1070
     0
1070
     0
1070
     0
1040
0.0
1040
0.0
1040
0.0
1040
1.0
1040
1.0
1040
0.0
1040
0.0
1070
     0
1002
{
1002
}
1002
}
  0
ENDSEC
  0
EOF
