  0
SECTION
  2
HEADER
  9
$ACADVER
  1
AC1032
  9
$ACADMAINTVER
 90
       55
  9
$DWGCODEPAGE
  3
ANSI_1252
  9
$LASTSAVEDBY
  1
ucom07
  9
$REQUIREDVERSIONS
160
                 0
  9
$INSBASE
 10
0.0
 20
0.0
 30
0.0
  9
$EXTMIN
 10
-0.000000000007276
 20
0.0
 30
0.0
  9
$EXTMAX
 10
40100.0
 20
25069.69256525888
 30
0.0
  9
$LIMMIN
 10
0.0
 20
0.0
  9
$LIMMAX
 10
12.0
 20
9.0
  9
$ORTHOMODE
 70
     1
  9
$REGENMODE
 70
     1
  9
$FILLMODE
 70
     1
  9
$QTEXTMODE
 70
     0
  9
$MIRRTEXT
 70
     0
  9
$LTSCALE
 40
5.0
  9
$ATTMODE
 70
     2
  9
$TEXTSIZE
 40
19.0
  9
$TRACEWID
 40
0.05
  9
$TEXTSTYLE
  7
STILE1
  9
$CLAYER
  8
0
  9
$CELTYPE
  6
ByLayer
  9
$CECOLOR
 62
   256
  9
$CELTSCALE
 40
1.0
  9
$DISPSILH
 70
     0
  9
$DIMSCALE
 40
20.0
  9
$DIMASZ
 40
2.5
  9
$DIMEXO
 40
1.0
  9
$DIMDLI
 40
0.0
  9
$DIMRND
 40
0.0
  9
$DIMDLE
 40
0.0
  9
$DIMEXE
 40
1.0
  9
$DIMTP
 40
0.0
  9
$DIMTM
 40
0.0
  9
$DIMTXT
 40
2.5
  9
$DIMCEN
 40
1.0
  9
$DIMTSZ
 40
0.0
  9
$DIMTOL
 70
     0
  9
$DIMLIM
 70
     0
  9
$DIMTIH
 70
     0
  9
$DIMTOH
 70
     0
  9
$DIMSE1
 70
     0
  9
$DIMSE2
 70
     0
  9
$DIMTAD
 70
     1
  9
$DIMZIN
 70
     8
  9
$DIMBLK
  1

  9
$DIMASO
 70
     1
  9
$DIMSHO
 70
     0
  9
$DIMPOST
  1

  9
$DIMAPOST
  1

  9
$DIMALT
 70
     0
  9
$DIMALTD
 70
     2
  9
$DIMALTF
 40
25.4
  9
$DIMLFAC
 40
1.0
  9
$DIMTOFL
 70
     1
  9
$DIMTVP
 40
0.0
  9
$DIMTIX
 70
     1
  9
$DIMSOXD
 70
     0
  9
$DIMSAH
 70
     0
  9
$DIMBLK1
  1

  9
$DIMBLK2
  1

  9
$DIMSTYLE
  2
STANDARD
  9
$DIMCLRD
 70
     0
  9
$DIMCLRE
 70
     0
  9
$DIMCLRT
 70
     0
  9
$DIMTFAC
 40
1.0
  9
$DIMGAP
 40
1.5
  9
$DIMJUST
 70
     0
  9
$DIMSD1
 70
     0
  9
$DIMSD2
 70
     0
  9
$DIMTOLJ
 70
     1
  9
$DIMTZIN
 70
     0
  9
$DIMALTZ
 70
     0
  9
$DIMALTTZ
 70
     0
  9
$DIMUPT
 70
     0
  9
$DIMDEC
 70
     4
  9
$DIMTDEC
 70
     4
  9
$DIMALTU
 70
     2
  9
$DIMALTTD
 70
     2
  9
$DIMTXSTY
  7
STANDARD
  9
$DIMAUNIT
 70
     0
  9
$DIMADEC
 70
     0
  9
$DIMALTRND
 40
0.0
  9
$DIMAZIN
 70
     0
  9
$DIMDSEP
 70
    46
  9
$DIMATFIT
 70
     3
  9
$DIMFRAC
 70
     0
  9
$DIMLDRBLK
  1

  9
$DIMLUNIT
 70
     2
  9
$DIMLWD
 70
    -2
  9
$DIMLWE
 70
    -2
  9
$DIMTMOVE
 70
     2
  9
$DIMFXL
 40
1.0
  9
$DIMFXLON
 70
     0
  9
$DIMJOGANG
 40
0.7853981633974483
  9
$DIMTFILL
 70
     0
  9
$DIMTFILLCLR
 70
     0
  9
$DIMARCSYM
 70
     0
  9
$DIMLTYPE
  6

  9
$DIMLTEX1
  6

  9
$DIMLTEX2
  6

  9
$DIMTXTDIRECTION
 70
     0
  9
$LUNITS
 70
     2
  9
$LUPREC
 70
     4
  9
$SKETCHINC
 40
0.1
  9
$FILLETRAD
 40
500.0
  9
$AUNITS
 70
     0
  9
$AUPREC
 70
     0
  9
$MENU
  1
acad
  9
$ELEVATION
 40
0.0
  9
$PELEVATION
 40
0.0
  9
$THICKNESS
 40
0.0
  9
$LIMCHECK
 70
     0
  9
$CHAMFERA
 40
0.0
  9
$CHAMFERB
 40
0.0
  9
$CHAMFERC
 40
0.0
  9
$CHAMFERD
 40
0.0
  9
$SKPOLY
 70
     0
  9
$TDCREATE
 40
2450277.54597441
  9
$TDUCREATE
 40
2450277.462641076
  9
$TDUPDATE
 40
2460453.617961655
  9
$TDUUPDATE
 40
2460453.534628322
  9
$TDINDWG
 40
23.5184610301
  9
$TDUSRTIMER
 40
0.0002142477
  9
$USRTIMER
 70
     1
  9
$ANGBASE
 50
0.0
  9
$ANGDIR
 70
     0
  9
$PDMODE
 70
     0
  9
$PDSIZE
 40
0.0
  9
$PLINEWID
 40
0.0
  9
$SPLFRAME
 70
     0
  9
$SPLINETYPE
 70
     6
  9
$SPLINESEGS
 70
     8
  9
$HANDSEED
  5
B4419
  9
$SURFTAB1
 70
     6
  9
$SURFTAB2
 70
     6
  9
$SURFTYPE
 70
     6
  9
$SURFU
 70
     6
  9
$SURFV
 70
     6
  9
$UCSBASE
  2

  9
$UCSNAME
  2

  9
$UCSORG
 10
0.0
 20
0.0
 30
0.0
  9
$UCSXDIR
 10
1.0
 20
0.0
 30
0.0
  9
$UCSYDIR
 10
0.0
 20
1.0
 30
0.0
  9
$UCSORTHOREF
  2

  9
$UCSORTHOVIEW
 70
     0
  9
$UCSORGTOP
 10
0.0
 20
0.0
 30
0.0
  9
$UCSORGBOTTOM
 10
0.0
 20
0.0
 30
0.0
  9
$UCSORGLEFT
 10
0.0
 20
0.0
 30
0.0
  9
$UCSORGRIGHT
 10
0.0
 20
0.0
 30
0.0
  9
$UCSORGFRONT
 10
0.0
 20
0.0
 30
0.0
  9
$UCSORGBACK
 10
0.0
 20
0.0
 30
0.0
  9
$PUCSBASE
  2

  9
$PUCSNAME
  2

  9
$PUCSORG
 10
0.0
 20
0.0
 30
0.0
  9
$PUCSXDIR
 10
1.0
 20
0.0
 30
0.0
  9
$PUCSYDIR
 10
0.0
 20
1.0
 30
0.0
  9
$PUCSORTHOREF
  2

  9
$PUCSORTHOVIEW
 70
     0
  9
$PUCSORGTOP
 10
0.0
 20
0.0
 30
0.0
  9
$PUCSORGBOTTOM
 10
0.0
 20
0.0
 30
0.0
  9
$PUCSORGLEFT
 10
0.0
 20
0.0
 30
0.0
  9
$PUCSORGRIGHT
 10
0.0
 20
0.0
 30
0.0
  9
$PUCSORGFRONT
 10
0.0
 20
0.0
 30
0.0
  9
$PUCSORGBACK
 10
0.0
 20
0.0
 30
0.0
  9
$USERI1
 70
     0
  9
$USERI2
 70
     0
  9
$USERI3
 70
     0
  9
$USERI4
 70
     0
  9
$USERI5
 70
     0
  9
$USERR1
 40
0.0
  9
$USERR2
 40
0.0
  9
$USERR3
 40
0.0
  9
$USERR4
 40
0.0
  9
$USERR5
 40
0.0
  9
$WORLDVIEW
 70
     1
  9
$SHADEDGE
 70
     3
  9
$SHADEDIF
 70
    70
  9
$TILEMODE
 70
     1
  9
$MAXACTVP
 70
    16
  9
$PINSBASE
 10
0.0
 20
0.0
 30
0.0
  9
$PLIMCHECK
 70
     0
  9
$PEXTMIN
 10
5211.97193308841
 20
-46.47543711420804
 30
0.0
  9
$PEXTMAX
 10
5820.50813952323
 20
216.4264256745723
 30
0.0
  9
$PLIMMIN
 10
0.0
 20
0.0
  9
$PLIMMAX
 10
0.0
 20
0.0
  9
$UNITMODE
 70
     0
  9
$VISRETAIN
 70
     0
  9
$PLINEGEN
 70
     0
  9
$PSLTSCALE
 70
     1
  9
$TREEDEPTH
 70
  3020
  9
$CMLSTYLE
  2
Standard
  9
$CMLJUST
 70
     0
  9
$CMLSCALE
 40
1.0
  9
$PROXYGRAPHICS
 70
     1
  9
$MEASUREMENT
 70
     0
  9
$CELWEIGHT
370
    -1
  9
$ENDCAPS
280
     0
  9
$JOINSTYLE
280
     0
  9
$LWDISPLAY
290
     0
  9
$INSUNITS
 70
     0
  9
$HYPERLINKBASE
  1

  9
$STYLESHEET
  1

  9
$XEDIT
290
     1
  9
$CEPSNTYPE
380
     0
  9
$PSTYLEMODE
290
     1
  9
$FINGERPRINTGUID
  2
{8ee2ed25-a946-4f43-a364-dba7ed62c237}
  9
$VERSIONGUID
  2
{FAEB1C32-E019-11D5-929B-00C0DF256EC4}
  9
$EXTNAMES
290
     1
  9
$PSVPSCALE
 40
0.0
  9
$OLESTARTUP
290
     0
  9
$SORTENTS
280
   127
  9
$INDEXCTL
280
     0
  9
$HIDETEXT
280
     1
  9
$XCLIPFRAME
280
     2
  9
$HALOGAP
280
     0
  9
$OBSCOLOR
 70
   257
  9
$OBSLTYPE
280
     0
  9
$INTERSECTIONDISPLAY
280
     0
  9
$INTERSECTIONCOLOR
 70
   257
  9
$DIMASSOC
280
     2
  9
$PROJECTNAME
  1

  9
$CAMERADISPLAY
290
     0
  9
$LENSLENGTH
 40
50.0
  9
$CAMERAHEIGHT
 40
0.0
  9
$STEPSPERSEC
 40
2.0
  9
$STEPSIZE
 40
6.0
  9
$3DDWFPREC
 40
2.0
  9
$PSOLWIDTH
 40
0.25
  9
$PSOLHEIGHT
 40
4.0
  9
$LOFTANG1
 40
1.570796326794897
  9
$LOFTANG2
 40
1.570796326794897
  9
$LOFTMAG1
 40
0.0
  9
$LOFTMAG2
 40
0.0
  9
$LOFTPARAM
 70
     7
  9
$LOFTNORMALS
280
     1
  9
$LATITUDE
 40
37.795
  9
$LONGITUDE
 40
-122.394
  9
$NORTHDIRECTION
 40
0.0
  9
$TIMEZONE
 70
 -8000
  9
$LIGHTGLYPHDISPLAY
280
     1
  9
$TILEMODELIGHTSYNCH
280
     1
  9
$SOLIDHIST
280
     0
  9
$SHOWHIST
280
     1
  9
$DWFFRAME
280
     2
  9
$DGNFRAME
280
     2
  9
$REALWORLDSCALE
290
     1
  9
$INTERFERECOLOR
 62
   256
  9
$CSHADOW
280
     0
  9
$SHADOWPLANELOCATION
 40
0.0
  0
ENDSEC
  0
SECTION
  2
CLASSES
  0
CLASS
  1
ACDBDICTIONARYWDFLT
  2
AcDbDictionaryWithDefault
  3
ObjectDBX Classes
 90
        0
 91
        3
280
     0
281
     0
  0
CLASS
  1
MATERIAL
  2
AcDbMaterial
  3
ObjectDBX Classes
 90
     1153
 91
        3
280
     0
281
     0
  0
CLASS
  1
SCALE
  2
AcDbScale
  3
ObjectDBX Classes
 90
     1153
 91
        3
280
     0
281
     0
  0
CLASS
  1
VISUALSTYLE
  2
AcDbVisualStyle
  3
ObjectDBX Classes
 90
     4095
 91
        3
280
     0
281
     0
  0
CLASS
  1
TABLESTYLE
  2
AcDbTableStyle
  3
ObjectDBX Classes
 90
     4095
 91
        3
280
     0
281
     0
  0
CLASS
  1
MLEADERSTYLE
  2
AcDbMLeaderStyle
  3
ACDB_MLEADERSTYLE_CLASS
 90
     4095
 91
        3
280
     0
281
     0
  0
CLASS
  1
DICTIONARYVAR
  2
AcDbDictionaryVar
  3
ObjectDBX Classes
 90
        0
 91
        3
280
     0
281
     0
  0
CLASS
  1
SUN
  2
AcDbSun
  3
SCENEOE
 90
     1153
 91
        3
280
     0
281
     0
  0
CLASS
  1
CELLSTYLEMAP
  2
AcDbCellStyleMap
  3
ObjectDBX Classes
 90
     1152
 91
        3
280
     0
281
     0
  0
ENDSEC
  0
SECTION
  2
TABLES
  0
TABLE
  2
VPORT
  5
B4391
330
0
100
AcDbSymbolTable
 70
     1
  0
VPORT
  5
B43A8
330
B4391
100
AcDbSymbolTableRecord
100
AcDbViewportTableRecord
  2
*ACTIVE
 70
     0
 10
0.0
 20
0.0
 11
1.0
 21
1.0
 12
20050.0
 22
12534.84628262944
 13
0.0
 23
0.0
 14
1.0
 24
1.0
 15
0.0
 25
0.0
 16
0.0
 26
0.0
 36
1.0
 17
0.0
 27
0.0
 37
0.0
 40
25571.08641656406
 41
1.944065484311051
 42
50.0
 43
0.0
 44
0.0
 50
0.0
 51
0.0
 71
    16
 72
   100
 73
     1
 74
     1
 75
     0
 76
     0
 77
     0
 78
     0
281
     0
 65
     0
110
0.0
120
0.0
130
0.0
111
1.0
121
0.0
131
0.0
112
0.0
122
1.0
132
0.0
 79
     0
146
0.0
348
B43F1
 60
     3
 61
     5
292
     1
282
     1
141
0.0
142
0.0
 63
   256
361
B4414
  0
ENDTAB
  0
TABLE
  2
LTYPE
  5
B438E
330
0
100
AcDbSymbolTable
 70
     1
  0
LTYPE
  5
B439C
330
B438E
100
AcDbSymbolTableRecord
100
AcDbLinetypeTableRecord
  2
ByBlock
 70
     0
  3

 72
    65
 73
     0
 40
0.0
  0
LTYPE
  5
B439D
330
B438E
100
AcDbSymbolTableRecord
100
AcDbLinetypeTableRecord
  2
ByLayer
 70
     0
  3

 72
    65
 73
     0
 40
0.0
  0
LTYPE
  5
B439E
330
B438E
100
AcDbSymbolTableRecord
100
AcDbLinetypeTableRecord
  2
CONTINUOUS
 70
     0
  3
Solid line
 72
    65
 73
     0
 40
0.0
  0
ENDTAB
  0
TABLE
  2
LAYER
  5
B438C
330
0
100
AcDbSymbolTable
 70
     4
  0
LAYER
  5
B4399
330
B438C
100
AcDbSymbolTableRecord
100
AcDbLayerTableRecord
  2
0
 70
     0
 62
     7
  6
CONTINUOUS
370
    -3
390
B4398
347
B43AE
348
0
  0
LAYER
  5
B43AF
330
B438C
100
AcDbSymbolTableRecord
100
AcDbLayerTableRecord
  2
CLOTHES_RAIL
 70
     0
 62
     3
  6
CONTINUOUS
370
    -3
390
B4398
347
B43AE
348
0
  0
LAYER
  5
B43B0
330
B438C
100
AcDbSymbolTableRecord
100
AcDbLayerTableRecord
  2
RIPIANI
 70
     0
 62
     2
  6
CONTINUOUS
370
    -3
390
B4398
347
B43AE
348
0
  0
LAYER
  5
B43B1
330
B438C
100
AcDbSymbolTableRecord
100
AcDbLayerTableRecord
  2
RETE
 70
     0
 62
     4
  6
CONTINUOUS
370
    -3
390
B4398
347
B43AE
348
0
  0
ENDTAB
  0
TABLE
  2
STYLE
  5
B438D
330
0
100
AcDbSymbolTable
 70
     3
  0
STYLE
  5
B439A
330
B438D
100
AcDbSymbolTableRecord
100
AcDbTextStyleTableRecord
  2
STANDARD
 70
     0
 40
0.0
 41
1.0
 50
0.0
 71
     0
 42
2.5
  3
txt
  4

  0
STYLE
  5
B43B3
330
B438D
100
AcDbSymbolTableRecord
100
AcDbTextStyleTableRecord
  2
STILE1
 70
     0
 40
0.0
 41
1.0
 50
0.0
 71
     0
 42
19.0
  3
ROMANS.SHX
  4

  0
STYLE
  5
B43B4
330
B438D
100
AcDbSymbolTableRecord
100
AcDbTextStyleTableRecord
  2
STILE4
 70
     0
 40
0.0
 41
1.0
 50
0.0
 71
     0
 42
2.5
  3
ROMANS.SHX
  4

  0
ENDTAB
  0
TABLE
  2
VIEW
  5
B438F
330
0
100
AcDbSymbolTable
 70
     0
  0
ENDTAB
  0
TABLE
  2
UCS
  5
B4390
330
0
100
AcDbSymbolTable
 70
     0
  0
ENDTAB
  0
TABLE
  2
APPID
  5
B4392
330
0
100
AcDbSymbolTable
 70
    18
  0
APPID
  5
B439B
330
B4392
100
AcDbSymbolTableRecord
100
AcDbRegAppTableRecord
  2
ACAD
 70
     0
  0
APPID
  5
B43B6
330
B4392
100
AcDbSymbolTableRecord
100
AcDbRegAppTableRecord
  2
DCO15
 70
     0
  0
APPID
  5
B43B7
330
B4392
100
AcDbSymbolTableRecord
100
AcDbRegAppTableRecord
  2
ACAD_PSEXT
 70
     0
  0
APPID
  5
B43B8
330
B4392
100
AcDbSymbolTableRecord
100
AcDbRegAppTableRecord
  2
ACAECLAYERSTANDARD
 70
     0
  0
APPID
  5
B43B9
330
B4392
100
AcDbSymbolTableRecord
100
AcDbRegAppTableRecord
  2
ACDBDYNAMICBLOCKGUID
 70
     0
  0
APPID
  5
B43BA
330
B4392
100
AcDbSymbolTableRecord
100
AcDbRegAppTableRecord
  2
ACDBBLOCKREPETAG
 70
     0
  0
APPID
  5
B43BB
330
B4392
100
AcDbSymbolTableRecord
100
AcDbRegAppTableRecord
  2
ACAD_DSTYLE_DIMEXT_ENABLED
 70
     0
  0
APPID
  5
B43BC
330
B4392
100
AcDbSymbolTableRecord
100
AcDbRegAppTableRecord
  2
ACAD_DSTYLE_DIMEXT_LENGTH
 70
     0
  0
APPID
  5
B43BD
330
B4392
100
AcDbSymbolTableRecord
100
AcDbRegAppTableRecord
  2
ACAD_DSTYLE_DIMJOGGED_JOGA
 70
     0
  0
APPID
  5
B43BE
330
B4392
100
AcDbSymbolTableRecord
100
AcDbRegAppTableRecord
  2
ACAD_DSTYLE_DIMJOGGED_JOG0
 70
     0
  0
APPID
  5
B43BF
330
B4392
100
AcDbSymbolTableRecord
100
AcDbRegAppTableRecord
  2
$DDT_AUDIT_GENERATED__2CAF
 70
     0
  0
APPID
  5
B43C0
330
B4392
100
AcDbSymbolTableRecord
100
AcDbRegAppTableRecord
  2
ACCMTRANSPARENCY
 70
     0
  0
APPID
  5
B43C1
330
B4392
100
AcDbSymbolTableRecord
100
AcDbRegAppTableRecord
  2
ACAD_NAV_VCDISPLAY
 70
     0
  0
APPID
  5
B43C2
330
B4392
100
AcDbSymbolTableRecord
100
AcDbRegAppTableRecord
  2
GRADIENTCOLOR1ACI
 70
     0
  0
APPID
  5
B43C3
330
B4392
100
AcDbSymbolTableRecord
100
AcDbRegAppTableRecord
  2
GRADIENTCOLOR2ACI
 70
     0
  0
APPID
  5
B43C4
330
B4392
100
AcDbSymbolTableRecord
100
AcDbRegAppTableRecord
  2
RAK
 70
     0
  0
APPID
  5
B43C5
330
B4392
100
AcDbSymbolTableRecord
100
AcDbRegAppTableRecord
  2
ACAD_DSTYLE_DIMRADIAL_EXTE
 70
     0
  0
APPID
  5
B43C6
330
B4392
100
AcDbSymbolTableRecord
100
AcDbRegAppTableRecord
  2
ACAD_MLEADERVER
 70
     0
  0
ENDTAB
  0
TABLE
  2
DIMSTYLE
  5
B4393
330
0
100
AcDbSymbolTable
 70
     1
100
AcDbDimStyleTable
  0
DIMSTYLE
105
B43C7
330
B4393
100
AcDbSymbolTableRecord
100
AcDbDimStyleTableRecord
  2
STANDARD
 70
     0
140
300.0
178
     0
340
B43B3
  0
ENDTAB
  0
TABLE
  2
BLOCK_RECORD
  5
B438B
330
0
100
AcDbSymbolTable
 70
     0
  0
BLOCK_RECORD
  5
B43A5
102
{ACAD_XDICTIONARY
360
B440B
102
}
330
B438B
100
AcDbSymbolTableRecord
100
AcDbBlockTableRecord
  2
*Model_Space
340
B43A6
 70
     0
280
     1
281
     0
  0
BLOCK_RECORD
  5
B43A3
330
B438B
100
AcDbSymbolTableRecord
100
AcDbBlockTableRecord
  2
*Paper_Space
340
B43A4
 70
     0
280
     1
281
     0
  0
ENDTAB
  0
ENDSEC
  0
SECTION
  2
BLOCKS
  0
BLOCK
  5
B43C8
330
B43A5
100
AcDbEntity
  8
0
100
AcDbBlockBegin
  2
*Model_Space
 70
     0
 10
0.0
 20
0.0
 30
0.0
  3
*Model_Space
  1

  0
ENDBLK
  5
B1BAB
330
B43A5
100
AcDbEntity
  8
0
100
AcDbBlockEnd
  0
BLOCK
  5
B43C9
330
B43A3
100
AcDbEntity
 67
     1
  8
0
100
AcDbBlockBegin
  2
*Paper_Space
 70
     0
 10
0.0
 20
0.0
 30
0.0
  3
*Paper_Space
  1

  0
ENDBLK
  5
B1BA7
330
B43A3
100
AcDbEntity
 67
     1
  8
0
100
AcDbBlockEnd
  0
ENDSEC
  0
SECTION
  2
ENTITIES
  0
TEXT
  5
3C998
330
B43A5
100
AcDbEntity
  8
0
  6
ByBlock
100
AcDbText
 10
54216.23091534142
 20
19413.99999809511
 30
0.0
 40
137.5
  1

  7
STILE1
100
AcDbText
  0
TEXT
  5
3E8B6
330
B43A5
100
AcDbEntity
  8
0
  6
ByBlock
100
AcDbText
 10
41890.34487605011
 20
15396.05051007833
 30
0.0
 40
85.0
  1

 50
90.0
  7
STILE1
100
AcDbText
  0
TEXT
  5
3E8B9
330
B43A5
100
AcDbEntity
  8
0
  6
ByBlock
100
AcDbText
 10
39397.05051007832
 20
14327.65512394988
 30
0.0
 40
85.0
  1

  7
STILE1
100
AcDbText
  0
TEXT
  5
75F3B
330
B43A5
100
AcDbEntity
  8
0
  6
ByBlock
100
AcDbText
 10
201181.4559518903
 20
28290.99290028673
 30
0.0
 40
112.8125
  1

  7
STILE1
100
AcDbText
  0
TEXT
  5
76002
330
B43A5
100
AcDbEntity
  8
0
  6
ByBlock
100
AcDbText
 10
201181.4559518903
 20
30150.99290028673
 30
0.0
 40
112.8125
  1

  7
STILE1
100
AcDbText
  0
TEXT
  5
76061
330
B43A5
100
AcDbEntity
  8
0
  6
ByBlock
100
AcDbText
 10
201181.4559518903
 20
32010.99290028673
 30
0.0
 40
112.8125
  1

  7
STILE1
100
AcDbText
  0
TEXT
  5
760C0
330
B43A5
100
AcDbEntity
  8
0
  6
ByBlock
100
AcDbText
 10
201181.4559518904
 20
33870.99290028674
 30
0.0
 40
112.8125
  1

  7
STILE1
100
AcDbText
  0
TEXT
  5
7611D
330
B43A5
100
AcDbEntity
  8
0
  6
ByBlock
100
AcDbText
 10
201181.4559518904
 20
35730.99290028673
 30
0.0
 40
112.8125
  1

  7
STILE1
100
AcDbText
  0
TEXT
  5
79EA0
330
B43A5
100
AcDbEntity
  8
0
  6
ByBlock
100
AcDbText
 10
184385.7047872411
 20
38170.01720615364
 30
0.0
 40
72.0
  1

  7
STILE1
100
AcDbText
  0
LWPOLYLINE
  5
A98A4
330
B43A5
100
AcDbEntity
  8
0
  6
ByBlock
100
AcDbPolyline
 90
        4
 70
     1
 43
0.0
 10
0.0
 20
9015.002619770916
 10
13000.0
 20
9015.002619770916
 10
13000.0
 20
1537.657647026935
 10
0.0
 20
1537.657647026935
  0
LWPOLYLINE
  5
A98A6
330
B43A5
100
AcDbEntity
  8
0
  6
ByBlock
100
AcDbPolyline
 90
        4
 70
     1
 43
0.0
 10
27100.0
 20
1537.657647026934
 10
40100.0
 20
1537.657647026934
 10
40100.0
 20
9015.002619770908
 10
27100.0
 20
9015.002619770908
  0
LWPOLYLINE
  5
A98D6
330
B43A5
100
AcDbEntity
  8
0
  6
ByBlock
100
AcDbPolyline
 90
        4
 70
     1
 43
0.0
 10
13550.0
 20
1537.657647026935
 10
26550.0
 20
1537.657647026935
 10
26550.0
 20
1837.657647026935
 10
13550.0
 20
1837.657647026935
  0
LWPOLYLINE
  5
A98D7
330
B43A5
100
AcDbEntity
  8
0
  6
ByBlock
100
AcDbPolyline
 90
        4
 70
     1
 43
0.0
 10
27100.0
 20
1537.657647026934
 10
40100.0
 20
1537.657647026934
 10
40100.0
 20
1837.657647026935
 10
27100.0
 20
1837.657647026935
  0
LWPOLYLINE
  5
A9926
330
B43A5
100
AcDbEntity
  8
0
  6
ByBlock
100
AcDbPolyline
 90
        4
 70
     1
 43
0.0
 10
-0.000000000007276
 20
1537.657647026935
 10
13000.0
 20
1537.657647026935
 10
13000.0
 20
1837.657647026935
 10
-0.000000000007276
 20
1837.657647026935
  0
TEXT
  5
A9927
330
B43A5
100
AcDbEntity
  8
0
  6
ByBlock
100
AcDbText
 10
3173.906836621409
 20
432.2479967307316
 30
0.0
 40
125.0
  1
Questo disegno è di proprietà di Fantin S.r.l.   
  7
STILE1
 72
     1
 11
5596.525884240456
 21
432.2479967307316
 31
0.0
100
AcDbText
  0
TEXT
  5
A9928
330
B43A5
100
AcDbEntity
  8
0
  6
ByBlock
100
AcDbText
 10
3852.932680910111
 20
778.7322304035334
 30
0.0
 40
125.0
  1
Vela
  7
STILE1
 72
     1
 11
4032.062145195825
 21
778.7322304035334
 31
0.0
100
AcDbText
  0
LWPOLYLINE
  5
A9929
330
B43A5
100
AcDbEntity
  8
0
  6
ByBlock
100
AcDbPolyline
 90
       15
 70
     0
 43
0.0
 10
2006.841552732512
 20
299.9999999999997
 10
2006.841552732512
 20
687.661092123016
 10
2108.191094296053
 20
687.661092123016
 42
-0.316444976687396
 10
2159.138888884337
 20
659.4164767791514
 10
2259.932047529146
 20
489.3975694442633
 10
2262.700181747787
 20
489.3975694442633
 10
2262.700181747787
 20
687.661092123016
 10
2375.123982746154
 20
687.661092123016
 10
2375.123982746154
 20
299.9999999999997
 10
2292.601888021454
 20
299.9999999999997
 42
-0.312959769389874
 10
2241.654093428515
 20
328.2428927952421
 10
2122.033487958833
 20
521.5196397574612
 10
2119.268798828125
 20
521.5196397574612
 10
2119.268798828125
 20
299.9999999999997
 10
2006.841552732512
 20
299.9999999999997
  0
LWPOLYLINE
  5
A992A
330
B43A5
100
AcDbEntity
  8
0
  6
ByBlock
100
AcDbPolyline
 90
       15
 70
     0
 43
0.0
 10
1030.479098847136
 20
299.9999999999997
 10
1030.479098847136
 20
687.661092123016
 10
1131.828640410675
 20
687.661092123016
 42
-0.316444976687396
 10
1182.776435003616
 20
659.4164767791514
 10
1283.569593643768
 20
489.3975694442633
 10
1286.337727867066
 20
489.3975694442633
 10
1286.337727867066
 20
687.661092123016
 10
1398.761528860777
 20
687.661092123016
 10
1398.761528860777
 20
299.9999999999997
 10
1316.239434136078
 20
299.9999999999997
 42
-0.312959769389874
 10
1265.29163953848
 20
328.2428927952421
 10
1145.671034073457
 20
521.5196397574612
 10
1142.906344942748
 20
521.5196397574612
 10
1142.906344942748
 20
299.9999999999997
 10
1030.479098847136
 20
299.9999999999997
  0
LWPOLYLINE
  5
A992B
330
B43A5
100
AcDbEntity
  8
0
  6
ByBlock
100
AcDbPolyline
 90
        9
 70
     0
 43
0.0
 10
1783.103271485306
 20
687.6593695743937
 10
1783.103271485306
 20
596.8363172747192
 10
1666.80718316231
 20
596.8363172747192
 10
1666.80718316231
 20
299.9999999999997
 10
1547.737792972475
 20
299.9999999999997
 10
1547.737792972475
 20
596.8363172747192
 10
1434.204671224579
 20
596.8363172747192
 10
1434.204671224579
 20
687.6593695743937
 10
1783.103271485306
 20
687.6593695743937
  0
LWPOLYLINE
  5
A992C
330
B43A5
100
AcDbEntity
  8
0
  6
ByBlock
100
AcDbPolyline
 90
        4
 70
     1
 43
0.0
 10
1820.206949869171
 20
687.6593695743937
 10
1939.276340059005
 20
687.6593695743937
 10
1939.276340059005
 20
299.9999999999997
 10
1820.206949869171
 20
299.9999999999997
  0
LWPOLYLINE
  5
A992D
330
B43A5
100
AcDbEntity
  8
0
  6
ByBlock
100
AcDbPolyline
 90
       11
 70
     0
 43
0.0
 10
605.1458875834936
 20
687.6576470269353
 10
605.1458875834936
 20
598.4968532994384
 10
419.0693901898336
 20
598.4968532994384
 10
419.0693901898336
 20
521.52136230492
 10
549.2130398191512
 20
521.52136230492
 10
549.2130398191512
 20
438.4480523003727
 10
419.0693901898336
 20
438.4480523003727
 10
419.0693901898336
 20
299.9999999999997
 10
300.0
 20
299.9999999999997
 10
300.0
 20
687.6576470269353
 10
605.1458875834936
 20
687.6576470269353
  0
LWPOLYLINE
  5
A992E
330
B43A5
100
AcDbEntity
  8
0
  6
ByBlock
100
AcDbPolyline
 90
        5
 70
     0
 43
0.0
 10
791.2309977225952
 20
580.7787272136192
 10
824.458943684584
 20
466.6909450956151
 10
751.9104003906241
 20
466.6909450956151
 10
785.13834635727
 20
580.7787272136192
 10
791.2309977225952
 20
580.7787272136192
  0
LWPOLYLINE
  5
A992F
330
B43A5
100
AcDbEntity
  8
0
  6
ByBlock
100
AcDbPolyline
 90
       16
 70
     1
 43
0.0
 10
847.7226611692438
 20
383.6228027346076
 10
847.7226611692438
 20
383.6228027346076
 10
872.0839436817907
 20
299.9999999999997
 10
997.8006456140432
 20
299.9999999999997
 10
880.3917914489284
 20
652.7743326826017
 42
0.1089385125692126
 10
867.6499316329131
 20
680.4454704024826
 42
0.1589313772246072
 10
855.6541064428161
 20
687.7303423592817
 42
0.058673645385263
 10
839.4089355459447
 20
689.3216281465718
 10
839.4089355459447
 20
689.3216281465718
 10
744.1606580931694
 20
689.3216281465718
 42
0.058673645385263
 10
727.9154871962947
 20
687.7303423592817
 42
0.1589313772246072
 10
715.9196620061985
 20
680.4454704024826
 42
0.1089385125692126
 10
703.1778021901849
 20
652.7743326826017
 10
585.768948029726
 20
299.9999999999997
 10
704.8348931223154
 20
299.9999999999997
 10
728.6473931185901
 20
383.6228027346076
  0
TEXT
  5
A9930
330
B43A5
100
AcDbEntity
  8
0
  6
ByBlock
100
AcDbText
 10
3484.840736835664
 20
170.1637904425171
 30
0.0
 40
125.0
  1
This drawing is property of Fantin S.r.l. 
  7
STILE1
 72
     1
 11
5499.721689216617
 21
170.1637904425171
 31
0.0
100
AcDbText
  0
LWPOLYLINE
  5
A9931
330
B43A5
100
AcDbEntity
  8
0
  6
ByBlock
100
AcDbPolyline
 90
        2
 70
     0
 43
0.0
 10
2675.123982746154
 20
687.661092123016
 10
8025.371948238463
 20
687.6610921230168
  0
LWPOLYLINE
  5
A9932
330
B43A5
100
AcDbEntity
  8
0
  6
ByBlock
100
AcDbPolyline
 90
        4
 70
     1
 43
0.0
 10
0.0
 20
987.6576470269353
 10
8025.371948238463
 20
987.6576470269353
 10
8025.371948238463
 20
0.0
 10
0.0
 20
0.0
  0
LINE
  5
A9933
330
B43A5
100
AcDbEntity
  8
0
  6
ByBlock
100
AcDbLine
 10
2675.123982746154
 20
987.6576470269353
 30
0.0
 11
2675.123982746154
 21
0.0
 31
0.0
  0
LINE
  5
A9934
330
B43A5
100
AcDbEntity
  8
0
  6
ByBlock
100
AcDbLine
 10
5350.247965492308
 20
687.661092123016
 30
0.0
 11
5350.247965492308
 21
987.6576470269353
 31
0.0
  0
TEXT
  5
A9935
330
B43A5
100
AcDbEntity
  8
0
  6
ByBlock
100
AcDbText
 10
6252.7084966879
 20
778.7322304035334
 30
0.0
 40
125.0
  1
2024-06
  7
STILE1
 72
     1
 11
6687.604330021233
 21
778.7322304035334
 31
0.0
100
AcDbText
  0
LINE
  5
A9936
330
B43A5
100
AcDbEntity
  8
0
  6
ByBlock
100
AcDbLine
 10
8025.371948238463
 20
987.6576470269353
 30
0.0
 11
8025.371948238463
 21
0.0
 31
0.0
  0
TEXT
  5
A9944
330
B43A5
100
AcDbEntity
  8
0
  6
ByBlock
100
AcDbText
 10
455.5941790745374
 20
1635.467425269804
 30
0.0
 40
125.0
  1
Static modules / Moduli fissi / Feste Module
  7
STILE1
 72
     1
 11
2714.987780265014
 21
1635.467425269804
 31
0.0
100
AcDbText
  0
TEXT
  5
A9945
330
B43A5
100
AcDbEntity
  8
0
  6
ByBlock
100
AcDbText
 10
6435.285829406143
 20
1635.467425269804
 30
0.0
 40
125.0
  1
Sliding modules / Moduli mobili / Bewegliche Module
  7
STILE1
 72
     1
 11
9075.631811549
 21
1635.467425269804
 31
0.0
100
AcDbText
  0
TEXT
  5
A9946
330
B43A5
100
AcDbEntity
  8
0
  6
ByBlock
100
AcDbText
 10
14200.88162072467
 20
1635.467425269804
 30
0.0
 40
125.0
  1
Modular Combinations (L=80 cm) / Componibilità moduli (L=80 cm) / Zusammensetzbarkeit Module (L=80 cm)
  7
STILE1
 72
     1
 11
19813.97685881991
 21
1635.467425269804
 31
0.0
100
AcDbText
  0
TEXT
  5
A9947
330
B43A5
100
AcDbEntity
  8
0
  6
ByBlock
100
AcDbText
 10
27319.31746728745
 20
1635.467425269805
 30
0.0
 40
125.0
  1
Examples of compositions / Esempi di composizioni / Kompositionsbeispiele
  7
STILE1
 72
     1
 11
31117.02952085888
 21
1635.467425269805
 31
0.0
100
AcDbText
  0
LWPOLYLINE
  5
A9955
330
B43A5
100
AcDbEntity
  8
0
  6
ByBlock
100
AcDbPolyline
 90
        4
 70
     1
 43
0.0
 10
27100.0
 20
1537.657647026934
 10
40100.0
 20
1537.657647026934
 10
40100.0
 20
1837.657647026935
 10
27100.0
 20
1837.657647026935
  0
LWPOLYLINE
  5
A995F
330
B43A5
100
AcDbEntity
  8
0
  6
ByBlock
100
AcDbPolyline
 90
        4
 70
     1
 43
0.0
 10
34899.99999999999
 20
2175.036426392789
 10
34300.00000000001
 20
2175.036426392789
 10
34300.00000000001
 20
4298.036435929559
 10
34899.99999999999
 20
4298.036435929559
  0
LWPOLYLINE
  5
A9960
330
B43A5
100
AcDbEntity
  8
0
  6
ByBlock
100
AcDbPolyline
 90
        4
 70
     1
 43
0.0
 10
34900.00000000001
 20
5908.171916406253
 10
35500.00000000001
 20
5908.171916406253
 10
35500.00000000001
 20
8431.1719164063
 10
34900.00000000001
 20
8431.1719164063
  0
LWPOLYLINE
  5
A9963
330
B43A5
100
AcDbEntity
  8
0
  6
ByBlock
100
AcDbPolyline
 90
        4
 70
     1
 43
0.0
 10
34899.99999999999
 20
5908.171916406253
 10
34300.00000000001
 20
5908.171916406253
 10
34300.00000000001
 20
8431.1719164063
 10
34899.99999999999
 20
8431.1719164063
  0
LWPOLYLINE
  5
A9964
330
B43A5
100
AcDbEntity
  8
0
  6
ByBlock
100
AcDbPolyline
 90
        4
 70
     1
 43
0.0
 10
33700.00000000001
 20
2175.036426392789
 10
34300.00000000001
 20
2175.036426392789
 10
34300.00000000001
 20
4298.036435929559
 10
33700.00000000001
 20
4298.036435929559
  0
LWPOLYLINE
  5
A9966
330
B43A5
100
AcDbEntity
  8
0
  6
ByBlock
100
AcDbPolyline
 90
        4
 70
     1
 43
0.0
 10
33700.00000000001
 20
5908.171916406253
 10
34300.00000000001
 20
5908.171916406253
 10
34300.00000000001
 20
8431.1719164063
 10
33700.00000000001
 20
8431.1719164063
  0
LWPOLYLINE
  5
A996D
330
B43A5
100
AcDbEntity
  8
0
  6
ByBlock
100
AcDbPolyline
 90
        4
 70
     1
 43
0.0
 10
33699.99999999999
 20
5908.171916406253
 10
33100.00000000001
 20
5908.171916406253
 10
33100.00000000001
 20
8431.1719164063
 10
33699.99999999999
 20
8431.1719164063
  0
LWPOLYLINE
  5
A996F
330
B43A5
100
AcDbEntity
  8
0
  6
ByBlock
100
AcDbPolyline
 90
        4
 70
     1
 43
0.0
 10
33699.99999999999
 20
2175.036426392789
 10
33100.00000000001
 20
2175.036426392789
 10
33100.00000000001
 20
4298.036435929559
 10
33699.99999999999
 20
4298.036435929559
  0
LWPOLYLINE
  5
A9970
330
B43A5
100
AcDbEntity
  8
0
  6
ByBlock
100
AcDbPolyline
 90
        4
 70
     1
 43
0.0
 10
32300.00000000001
 20
2175.036426392789
 10
31700.00000000001
 20
2175.036426392789
 10
31700.00000000001
 20
4298.036435929559
 10
32300.00000000001
 20
4298.036435929559
  0
LWPOLYLINE
  5
A9972
330
B43A5
100
AcDbEntity
  8
0
  6
ByBlock
100
AcDbPolyline
 90
        4
 70
     1
 43
0.0
 10
32300.00000000001
 20
5908.171916406253
 10
31700.00000000001
 20
5908.171916406253
 10
31700.00000000001
 20
8431.1719164063
 10
32300.00000000001
 20
8431.1719164063
  0
LWPOLYLINE
  5
A9977
330
B43A5
100
AcDbEntity
  8
0
  6
ByBlock
100
AcDbPolyline
 90
        2
 70
     0
 43
0.0
 10
35698.2067135577
 20
5891.171916406291
 10
31501.7932864423
 20
5891.171916406291
  0
LWPOLYLINE
  5
A9978
330
B43A5
100
AcDbEntity
  8
0
  6
ByBlock
100
AcDbPolyline
 90
        2
 70
     0
 43
0.0
 10
35698.2067135577
 20
2158.036426392829
 10
31501.7932864423
 20
2158.036426392829
  0
LWPOLYLINE
  5
A997C
330
B43A5
100
AcDbEntity
  8
0
  6
ByBlock
100
AcDbPolyline
 90
        4
 70
     1
 43
0.0
 10
19099.58639094051
 20
4298.036435929563
 10
19099.58639094051
 20
2175.036426392791
 10
19069.58639094051
 20
2175.036426392791
 10
19069.58639094051
 20
4298.036435929563
  0
LWPOLYLINE
  5
A997E
330
B43A5
100
AcDbEntity
  8
0
  6
ByBlock
100
AcDbPolyline
 90
        4
 70
     1
 43
0.0
 10
14463.52986539044
 20
4298.036435929563
 10
14463.52986539044
 20
2175.036426392791
 10
14433.52986539045
 20
2175.036426392791
 10
14433.52986539045
 20
4298.036435929563
  0
LWPOLYLINE
  5
A997F
330
B43A5
100
AcDbEntity
  8
0
  6
ByBlock
100
AcDbPolyline
 90
        4
 70
     1
 43
0.0
 10
19099.58639094058
 20
8031.171925943024
 10
19099.58639094058
 20
5908.171916406253
 10
19069.58639094058
 20
5908.171916406253
 10
19069.58639094058
 20
8031.171925943024
  0
LWPOLYLINE
  5
A9980
330
B43A5
100
AcDbEntity
  8
0
  6
ByBlock
100
AcDbPolyline
 90
        4
 70
     1
 43
0.0
 10
14463.52986539045
 20
8031.171925943024
 10
14463.52986539045
 20
5908.171916406249
 10
14433.52986539045
 20
5908.171916406249
 10
14433.52986539045
 20
8031.171925943024
  0
LWPOLYLINE
  5
A998C
330
B43A5
100
AcDbEntity
  8
0
  6
ByBlock
100
AcDbPolyline
 90
        4
 70
     1
 43
0.0
 10
15301.12986539054
 20
2180.036426392792
 10
15301.12986539054
 20
4298.03643592957
 10
15266.12986539054
 20
4298.03643592957
 10
15266.12986539054
 20
2180.036426392792
  0
LWPOLYLINE
  5
A998D
330
B43A5
100
AcDbEntity
  8
0
  6
ByBlock
100
AcDbPolyline
 90
        6
 70
     1
 43
0.0
 10
14530.12986539054
 20
2175.036426392791
 10
14493.52986539044
 20
2175.036426392791
 10
14493.52986539044
 20
4298.03643592957
 10
14529.12986539054
 20
4298.03643592957
 10
14529.12986539054
 20
4258.036426392761
 10
14530.12986539054
 20
4258.036426392761
  0
LWPOLYLINE
  5
A998E
330
B43A5
100
AcDbEntity
  8
0
  6
ByBlock
100
AcDbPolyline
 90
        4
 70
     1
 43
0.0
 10
15266.12986539054
 20
2198.536426392791
 10
15266.12986539054
 20
2258.036426392791
 10
14530.12986539054
 20
2258.036426392791
 10
14530.12986539054
 20
2198.536426392791
  0
LWPOLYLINE
  5
A998F
330
B43A5
100
AcDbEntity
  8
0
  6
ByBlock
100
AcDbPolyline
 90
        4
 70
     1
 43
0.0
 10
14530.12986539054
 20
2258.036426392791
 10
14530.12986539054
 20
2288.036426392791
 10
15266.12986539054
 20
2288.036426392791
 10
15266.12986539054
 20
2258.036426392791
  0
LWPOLYLINE
  5
A9990
330
B43A5
100
AcDbEntity
  8
0
  6
ByBlock
100
AcDbPolyline
 90
        4
 70
     1
 43
0.0
 10
15266.12986539054
 20
4185.536426392761
 10
15266.12986539054
 20
4210.536426392763
 10
14530.12986539054
 20
4210.536426392763
 10
14530.12986539054
 20
4185.536426392761
  0
LWPOLYLINE
  5
A9991
330
B43A5
100
AcDbEntity
  8
0
  6
ByBlock
100
AcDbPolyline
 90
        4
 70
     1
 43
0.0
 10
14529.12986539054
 20
4258.036426392761
 10
14529.12986539054
 20
4298.03643592957
 10
15266.12986539054
 20
4298.03643592957
 10
15266.12986539054
 20
4258.036426392761
  0
LWPOLYLINE
  5
A9992
330
B43A5
100
AcDbEntity
  8
0
  6
ByBlock
100
AcDbPolyline
 90
        9
 70
     1
 43
0.0
 10
15212.12986539054
 20
2198.536426392791
 10
15212.12986539054
 20
2171.636426393001
 10
15211.12986539054
 20
2170.636426392871
 10
15207.12986539054
 20
2170.636426392871
 10
15206.12986539054
 20
2171.636426393001
 10
15206.12986539054
 20
2178.136426392871
 10
15179.1476305474
 20
2178.607403054005
 10
15178.12986539054
 20
2179.625168210944
 10
15178.12986539054
 20
2198.536426392791
  0
LWPOLYLINE
  5
A9993
330
B43A5
100
AcDbEntity
  8
0
  6
ByBlock
100
AcDbPolyline
 90
        9
 70
     1
 43
0.0
 10
14584.1298653906
 20
2198.536426392791
 10
14584.1298653906
 20
2171.636426393001
 10
14585.12986539054
 20
2170.636426392871
 10
14589.12986539059
 20
2170.636426392871
 10
14590.12986539054
 20
2171.636426393001
 10
14590.12986539054
 20
2178.136426392871
 10
14617.11210023366
 20
2178.607403054005
 10
14618.12986539054
 20
2179.625168210944
 10
14618.12986539054
 20
2198.536426392791
  0
LWPOLYLINE
  5
A9994
330
B43A5
100
AcDbEntity
  8
0
  6
ByBlock
100
AcDbPolyline
 90
        4
 70
     1
 43
0.0
 10
15205.62986539054
 20
2178.036426392842
 10
15205.62986539054
 20
2158.036426392841
 10
14590.62986539054
 20
2158.036426392841
 10
14590.62986539054
 20
2178.036426392842
  0
LWPOLYLINE
  5
A9995
330
B43A5
100
AcDbEntity
  8
0
  6
ByBlock
100
AcDbPolyline
 90
        4
 70
     1
 43
0.0
 10
14610.62986539054
 20
2158.036426392841
 10
14610.62986539054
 20
2178.036426392842
 10
14590.62986539054
 20
2178.036426392842
 10
14590.62986539054
 20
2158.036426392841
  0
LWPOLYLINE
  5
A9996
330
B43A5
100
AcDbEntity
  8
0
  6
ByBlock
100
AcDbPolyline
 90
        4
 70
     1
 43
0.0
 10
15185.62986539054
 20
2158.036426392841
 10
15185.62986539054
 20
2178.036426392842
 10
15205.62986539054
 20
2178.036426392842
 10
15205.62986539054
 20
2158.036426392841
  0
LWPOLYLINE
  5
A9997
330
B43A5
100
AcDbEntity
  8
0
  6
ByBlock
100
AcDbPolyline
 90
        4
 70
     1
 43
0.0
 10
15266.12986539054
 20
3288.036426392784
 10
15266.12986539054
 20
3258.036426392783
 10
14530.12986539054
 20
3258.036426392783
 10
14530.12986539054
 20
3288.036426392784
  0
LWPOLYLINE
  5
A9998
330
B43A5
100
AcDbEntity
  8
0
  6
ByBlock
100
AcDbPolyline
 90
        4
 70
     1
 43
0.0
 10
15266.12986539054
 20
3210.536426392791
 10
15266.12986539054
 20
3185.536426392785
 10
14530.12986539054
 20
3185.536426392785
 10
14530.12986539054
 20
3210.536426392791
  0
LWPOLYLINE
  5
A99AF
330
B43A5
100
AcDbEntity
  8
0
  6
ByBlock
100
AcDbPolyline
 90
        4
 70
     1
 43
0.0
 10
19902.1863909406
 20
7741.171916406253
 10
19902.1863909406
 20
7771.171916406245
 10
19166.1863909406
 20
7771.171916406245
 10
19166.1863909406
 20
7741.171916406253
  0
LWPOLYLINE
  5
A99B0
330
B43A5
100
AcDbEntity
  8
0
  6
ByBlock
100
AcDbPolyline
 90
        4
 70
     1
 43
0.0
 10
19902.1863909406
 20
7491.171916406253
 10
19902.1863909406
 20
7521.171916406245
 10
19166.1863909406
 20
7521.171916406245
 10
19166.1863909406
 20
7491.171916406253
  0
LWPOLYLINE
  5
A99B1
330
B43A5
100
AcDbEntity
  8
0
  6
ByBlock
100
AcDbPolyline
 90
        4
 70
     1
 43
0.0
 10
19902.1863909406
 20
7241.171916406253
 10
19902.1863909406
 20
7271.171916406245
 10
19166.1863909406
 20
7271.171916406245
 10
19166.1863909406
 20
7241.171916406253
  0
LWPOLYLINE
  5
A99B2
330
B43A5
100
AcDbEntity
  8
0
  6
ByBlock
100
AcDbPolyline
 90
        4
 70
     1
 43
0.0
 10
19902.1863909406
 20
6991.171916406253
 10
19902.1863909406
 20
7021.171916406245
 10
19166.1863909406
 20
7021.171916406245
 10
19166.1863909406
 20
6991.171916406253
  0
LWPOLYLINE
  5
A99B3
330
B43A5
100
AcDbEntity
  8
0
  6
ByBlock
100
AcDbPolyline
 90
        4
 70
     1
 43
0.0
 10
19902.1863909406
 20
6741.171916406253
 10
19902.1863909406
 20
6771.171916406252
 10
19166.1863909406
 20
6771.171916406252
 10
19166.1863909406
 20
6741.171916406253
  0
LWPOLYLINE
  5
A99B4
330
B43A5
100
AcDbEntity
  8
0
  6
ByBlock
100
AcDbPolyline
 90
        4
 70
     1
 43
0.0
 10
19902.1863909406
 20
6491.171916406253
 10
19902.1863909406
 20
6521.171916406252
 10
19166.1863909406
 20
6521.171916406252
 10
19166.1863909406
 20
6491.171916406253
  0
LWPOLYLINE
  5
A99B5
330
B43A5
100
AcDbEntity
  8
0
  6
ByBlock
100
AcDbPolyline
 90
        4
 70
     1
 43
0.0
 10
19902.1863909406
 20
6241.17191640625
 10
19902.1863909406
 20
6271.171916406252
 10
19166.1863909406
 20
6271.171916406252
 10
19166.1863909406
 20
6241.17191640625
  0
LWPOLYLINE
  5
A99B6
330
B43A5
100
AcDbEntity
  8
0
  6
ByBlock
100
AcDbPolyline
 90
        4
 70
     1
 43
0.0
 10
19821.6863909406
 20
5891.171916406296
 10
19821.6863909406
 20
5911.171916406296
 10
19841.6863909406
 20
5911.171916406296
 10
19841.6863909406
 20
5891.171916406296
  0
LWPOLYLINE
  5
A99B7
330
B43A5
100
AcDbEntity
  8
0
  6
ByBlock
100
AcDbPolyline
 90
        4
 70
     1
 43
0.0
 10
19246.6863909406
 20
5891.171916406296
 10
19246.6863909406
 20
5911.171916406296
 10
19226.6863909406
 20
5911.171916406296
 10
19226.6863909406
 20
5891.171916406296
  0
LWPOLYLINE
  5
A99B8
330
B43A5
100
AcDbEntity
  8
0
  6
ByBlock
100
AcDbPolyline
 90
        4
 70
     1
 43
0.0
 10
19841.6863909406
 20
5911.171916406296
 10
19841.6863909406
 20
5891.171916406296
 10
19226.6863909406
 20
5891.171916406296
 10
19226.6863909406
 20
5911.171916406296
  0
LWPOLYLINE
  5
A99B9
330
B43A5
100
AcDbEntity
  8
0
  6
ByBlock
100
AcDbPolyline
 90
        9
 70
     1
 43
0.0
 10
19220.1863909406
 20
5931.67191640625
 10
19220.1863909406
 20
5904.771916406456
 10
19221.1863909406
 20
5903.771916406328
 10
19225.18639094059
 20
5903.771916406328
 10
19226.1863909406
 20
5904.771916406456
 10
19226.1863909406
 20
5911.271916406331
 10
19253.16862578373
 20
5911.742893067463
 10
19254.1863909406
 20
5912.760658224396
 10
19254.1863909406
 20
5931.67191640625
  0
LWPOLYLINE
  5
A99BA
330
B43A5
100
AcDbEntity
  8
0
  6
ByBlock
100
AcDbPolyline
 90
        9
 70
     1
 43
0.0
 10
19848.18639094052
 20
5931.67191640625
 10
19848.18639094052
 20
5904.771916406456
 10
19847.1863909406
 20
5903.771916406328
 10
19843.18639094052
 20
5903.771916406328
 10
19842.1863909406
 20
5904.771916406456
 10
19842.1863909406
 20
5911.271916406331
 10
19815.20415609748
 20
5911.742893067463
 10
19814.1863909406
 20
5912.760658224396
 10
19814.1863909406
 20
5931.67191640625
  0
LWPOLYLINE
  5
A99BB
330
B43A5
100
AcDbEntity
  8
0
  6
ByBlock
100
AcDbPolyline
 90
        4
 70
     1
 43
0.0
 10
19165.1863909406
 20
7991.171916406222
 10
19165.1863909406
 20
8031.171925943024
 10
19902.1863909406
 20
8031.171925943024
 10
19902.1863909406
 20
7991.171916406222
  0
LWPOLYLINE
  5
A99BC
330
B43A5
100
AcDbEntity
  8
0
  6
ByBlock
100
AcDbPolyline
 90
        4
 70
     1
 43
0.0
 10
19166.1863909406
 20
5991.17191640625
 10
19166.1863909406
 20
6021.171916406252
 10
19902.1863909406
 20
6021.171916406252
 10
19902.1863909406
 20
5991.17191640625
  0
LWPOLYLINE
  5
A99BD
330
B43A5
100
AcDbEntity
  8
0
  6
ByBlock
100
AcDbPolyline
 90
        4
 70
     1
 43
0.0
 10
19902.1863909406
 20
5931.67191640625
 10
19902.1863909406
 20
5991.17191640625
 10
19166.1863909406
 20
5991.17191640625
 10
19166.1863909406
 20
5931.67191640625
  0
LWPOLYLINE
  5
A99BE
330
B43A5
100
AcDbEntity
  8
0
  6
ByBlock
100
AcDbPolyline
 90
        6
 70
     1
 43
0.0
 10
19166.1863909406
 20
5908.171916406253
 10
19129.58639094039
 20
5908.171916406253
 10
19129.58639094039
 20
8031.171925943024
 10
19165.1863909406
 20
8031.171925943024
 10
19165.1863909406
 20
7991.171916406222
 10
19166.1863909406
 20
7991.171916406222
  0
LWPOLYLINE
  5
A99BF
330
B43A5
100
AcDbEntity
  8
0
  6
ByBlock
100
AcDbPolyline
 90
        4
 70
     1
 43
0.0
 10
19937.1863909406
 20
5913.171916406252
 10
19937.1863909406
 20
8031.171925943024
 10
19902.1863909406
 20
8031.171925943024
 10
19902.1863909406
 20
5913.171916406252
  0
LWPOLYLINE
  5
A99C0
330
B43A5
100
AcDbEntity
  8
0
  6
ByBlock
100
AcDbPolyline
 90
        4
 70
     1
 43
0.0
 10
14530.1298653905
 20
7591.171916406245
 10
14530.1298653905
 20
7621.171916406246
 10
15266.1298653905
 20
7621.171916406246
 10
15266.1298653905
 20
7591.171916406245
  0
LWPOLYLINE
  5
A99C1
330
B43A5
100
AcDbEntity
  8
0
  6
ByBlock
100
AcDbPolyline
 90
        4
 70
     1
 43
0.0
 10
15266.1298653905
 20
6391.17191640625
 10
15266.1298653905
 20
6421.17191640625
 10
14530.1298653905
 20
6421.17191640625
 10
14530.1298653905
 20
6391.17191640625
  0
LWPOLYLINE
  5
A99C2
330
B43A5
100
AcDbEntity
  8
0
  6
ByBlock
100
AcDbPolyline
 90
        4
 70
     1
 43
0.0
 10
15266.1298653905
 20
7191.171916406244
 10
15266.1298653905
 20
7221.171916406246
 10
14530.1298653905
 20
7221.171916406246
 10
14530.1298653905
 20
7191.171916406244
  0
LWPOLYLINE
  5
A99C3
330
B43A5
100
AcDbEntity
  8
0
  6
ByBlock
100
AcDbPolyline
 90
        4
 70
     1
 43
0.0
 10
14530.1298653905
 20
6791.171916406253
 10
14530.1298653905
 20
6821.171916406253
 10
15266.1298653905
 20
6821.171916406253
 10
15266.1298653905
 20
6791.171916406253
  0
LWPOLYLINE
  5
A99C4
330
B43A5
100
AcDbEntity
  8
0
  6
ByBlock
100
AcDbPolyline
 90
        4
 70
     1
 43
0.0
 10
15185.6298653905
 20
5891.171916406295
 10
15185.6298653905
 20
5911.171916406296
 10
15205.6298653905
 20
5911.171916406296
 10
15205.6298653905
 20
5891.171916406295
  0
LWPOLYLINE
  5
A99C5
330
B43A5
100
AcDbEntity
  8
0
  6
ByBlock
100
AcDbPolyline
 90
        4
 70
     1
 43
0.0
 10
14610.6298653905
 20
5891.171916406295
 10
14610.6298653905
 20
5911.171916406296
 10
14590.6298653905
 20
5911.171916406296
 10
14590.6298653905
 20
5891.171916406295
  0
LWPOLYLINE
  5
A99C6
330
B43A5
100
AcDbEntity
  8
0
  6
ByBlock
100
AcDbPolyline
 90
        4
 70
     1
 43
0.0
 10
15205.6298653905
 20
5911.171916406296
 10
15205.6298653905
 20
5891.171916406295
 10
14590.6298653905
 20
5891.171916406295
 10
14590.6298653905
 20
5911.171916406296
  0
LWPOLYLINE
  5
A99C7
330
B43A5
100
AcDbEntity
  8
0
  6
ByBlock
100
AcDbPolyline
 90
        9
 70
     1
 43
0.0
 10
14584.12986539058
 20
5931.67191640625
 10
14584.12986539058
 20
5904.771916406454
 10
14585.1298653905
 20
5903.771916406328
 10
14589.12986539061
 20
5903.771916406328
 10
14590.1298653905
 20
5904.771916406454
 10
14590.1298653905
 20
5911.271916406331
 10
14617.11210023374
 20
5911.742893067462
 10
14618.1298653905
 20
5912.760658224396
 10
14618.1298653905
 20
5931.67191640625
  0
LWPOLYLINE
  5
A99C8
330
B43A5
100
AcDbEntity
  8
0
  6
ByBlock
100
AcDbPolyline
 90
        9
 70
     1
 43
0.0
 10
15212.1298653905
 20
5931.67191640625
 10
15212.1298653905
 20
5904.771916406454
 10
15211.1298653905
 20
5903.771916406328
 10
15207.1298653905
 20
5903.771916406328
 10
15206.1298653905
 20
5904.771916406454
 10
15206.1298653905
 20
5911.271916406331
 10
15179.14763054741
 20
5911.742893067462
 10
15178.1298653905
 20
5912.760658224396
 10
15178.1298653905
 20
5931.67191640625
  0
LWPOLYLINE
  5
A99C9
330
B43A5
100
AcDbEntity
  8
0
  6
ByBlock
100
AcDbPolyline
 90
        4
 70
     1
 43
0.0
 10
14529.1298653905
 20
7991.17191640622
 10
14529.1298653905
 20
8031.171925943024
 10
15266.1298653905
 20
8031.171925943024
 10
15266.1298653905
 20
7991.17191640622
  0
LWPOLYLINE
  5
A99CA
330
B43A5
100
AcDbEntity
  8
0
  6
ByBlock
100
AcDbPolyline
 90
        4
 70
     1
 43
0.0
 10
14530.1298653905
 20
5991.17191640625
 10
14530.1298653905
 20
6021.17191640625
 10
15266.1298653905
 20
6021.17191640625
 10
15266.1298653905
 20
5991.17191640625
  0
LWPOLYLINE
  5
A99CB
330
B43A5
100
AcDbEntity
  8
0
  6
ByBlock
100
AcDbPolyline
 90
        4
 70
     1
 43
0.0
 10
15266.1298653905
 20
5931.67191640625
 10
15266.1298653905
 20
5991.17191640625
 10
14530.1298653905
 20
5991.17191640625
 10
14530.1298653905
 20
5931.67191640625
  0
LWPOLYLINE
  5
A99CC
330
B43A5
100
AcDbEntity
  8
0
  6
ByBlock
100
AcDbPolyline
 90
        6
 70
     1
 43
0.0
 10
14530.1298653905
 20
5908.171916406249
 10
14493.52986539045
 20
5908.171916406249
 10
14493.52986539045
 20
8031.171925943024
 10
14529.1298653905
 20
8031.171925943024
 10
14529.1298653905
 20
7991.17191640622
 10
14530.1298653905
 20
7991.17191640622
  0
LWPOLYLINE
  5
A99CD
330
B43A5
100
AcDbEntity
  8
0
  6
ByBlock
100
AcDbPolyline
 90
        4
 70
     1
 43
0.0
 10
15301.12986539051
 20
5913.171916406248
 10
15301.12986539051
 20
8031.171925943024
 10
15266.1298653905
 20
8031.171925943024
 10
15266.1298653905
 20
5913.171916406248
  0
LWPOLYLINE
  5
A99DB
330
B43A5
100
AcDbEntity
  8
0
  6
ByBlock
100
AcDbPolyline
 90
        4
 70
     1
 43
0.0
 10
19937.18639094052
 20
2180.036426392792
 10
19937.18639094052
 20
4298.036435929563
 10
19902.18639094052
 20
4298.036435929563
 10
19902.18639094052
 20
2180.036426392792
  0
LWPOLYLINE
  5
A99DC
330
B43A5
100
AcDbEntity
  8
0
  6
ByBlock
100
AcDbPolyline
 90
        6
 70
     1
 43
0.0
 10
19166.18639094054
 20
2175.036426392791
 10
19129.58639094035
 20
2175.036426392791
 10
19129.58639094035
 20
4298.036435929563
 10
19165.18639094054
 20
4298.036435929563
 10
19165.18639094054
 20
4258.036426392761
 10
19166.18639094054
 20
4258.036426392761
  0
LWPOLYLINE
  5
A99DD
330
B43A5
100
AcDbEntity
  8
0
  6
ByBlock
100
AcDbPolyline
 90
        4
 70
     1
 43
0.0
 10
19165.18639094054
 20
4258.036426392761
 10
19165.18639094054
 20
4298.036435929563
 10
19902.18639094052
 20
4298.036435929563
 10
19902.18639094052
 20
4258.036426392761
  0
LWPOLYLINE
  5
A99DE
330
B43A5
100
AcDbEntity
  8
0
  6
ByBlock
100
AcDbPolyline
 90
        9
 70
     1
 43
0.0
 10
19848.18639094049
 20
2198.536426392791
 10
19848.18639094049
 20
2171.636426392994
 10
19847.18639094052
 20
2170.636426392871
 10
19843.18639094049
 20
2170.636426392871
 10
19842.18639094054
 20
2171.636426392994
 10
19842.18639094054
 20
2178.136426392871
 10
19815.2041560974
 20
2178.607403054005
 10
19814.18639094052
 20
2179.625168210938
 10
19814.18639094052
 20
2198.536426392791
  0
LWPOLYLINE
  5
A99DF
330
B43A5
100
AcDbEntity
  8
0
  6
ByBlock
100
AcDbPolyline
 90
        9
 70
     1
 43
0.0
 10
19220.18639094052
 20
2198.536426392791
 10
19220.18639094052
 20
2171.636426392994
 10
19221.18639094052
 20
2170.636426392871
 10
19225.18639094054
 20
2170.636426392871
 10
19226.18639094054
 20
2171.636426392994
 10
19226.18639094054
 20
2178.136426392871
 10
19253.16862578368
 20
2178.607403054005
 10
19254.18639094052
 20
2179.625168210938
 10
19254.18639094052
 20
2198.536426392791
  0
LWPOLYLINE
  5
A99E0
330
B43A5
100
AcDbEntity
  8
0
  6
ByBlock
100
AcDbPolyline
 90
        4
 70
     1
 43
0.0
 10
19841.68639094054
 20
2178.036426392835
 10
19841.68639094054
 20
2158.036426392835
 10
19226.68639094052
 20
2158.036426392835
 10
19226.68639094052
 20
2178.036426392835
  0
LWPOLYLINE
  5
A99E1
330
B43A5
100
AcDbEntity
  8
0
  6
ByBlock
100
AcDbPolyline
 90
        4
 70
     1
 43
0.0
 10
19246.68639094052
 20
2158.036426392835
 10
19246.68639094052
 20
2178.036426392835
 10
19226.68639094052
 20
2178.036426392835
 10
19226.68639094052
 20
2158.036426392835
  0
LWPOLYLINE
  5
A99E2
330
B43A5
100
AcDbEntity
  8
0
  6
ByBlock
100
AcDbPolyline
 90
        4
 70
     1
 43
0.0
 10
19821.68639094054
 20
2158.036426392835
 10
19821.68639094054
 20
2178.036426392835
 10
19841.68639094054
 20
2178.036426392835
 10
19841.68639094054
 20
2158.036426392835
  0
LWPOLYLINE
  5
A99FC
330
B43A5
100
AcDbEntity
  8
0
  6
ByBlock
100
AcDbPolyline
 90
        4
 70
     1
 43
0.0
 10
19902.18639094049
 20
2198.536426392791
 10
19902.18639094049
 20
2258.036426392791
 10
19166.1863909405
 20
2258.036426392791
 10
19166.1863909405
 20
2198.536426392791
  0
LWPOLYLINE
  5
A99FE
330
B43A5
100
AcDbEntity
  8
0
  6
ByBlock
100
AcDbPolyline
 90
        2
 70
     0
 43
0.0
 10
14197.12986539054
 20
5891.171916406296
 10
22554.48951026663
 20
5891.171916406308
  0
LWPOLYLINE
  5
A99FF
330
B43A5
100
AcDbEntity
  8
0
  6
ByBlock
100
AcDbPolyline
 90
        2
 70
     0
 43
0.0
 10
14197.12986539054
 20
2158.036426392835
 10
22554.48951026663
 20
2158.036426392834
  0
LWPOLYLINE
  5
A9A1E
330
B43A5
100
AcDbEntity
  8
0
  6
ByBlock
100
AcDbPolyline
 90
        2
 70
     0
 43
0.0
 10
25109.50129716488
 20
2158.036426392835
 10
24113.08787004944
 20
2158.036426392835
  0
LWPOLYLINE
  5
A9A23
330
B43A5
100
AcDbEntity
  8
0
  6
ByBlock
100
AcDbPolyline
 90
        2
 70
     0
 43
0.0
 10
25109.50129716488
 20
5891.171916406296
 10
24113.08787004944
 20
5891.171916406296
  0
LWPOLYLINE
  5
A9A24
330
B43A5
100
AcDbEntity
  8
0
  6
ByBlock
100
AcDbPolyline
 90
        4
 70
     1
 43
0.0
 10
24911.29458360715
 20
5908.171916406253
 10
24311.29458360716
 20
5908.171916406253
 10
24311.29458360716
 20
8031.171925943024
 10
24911.29458360715
 20
8031.171925943024
  0
LWPOLYLINE
  5
A9A25
330
B43A5
100
AcDbEntity
  8
0
  6
ByBlock
100
AcDbPolyline
 90
        4
 70
     1
 43
0.0
 10
24911.29458360715
 20
2175.036426392791
 10
24311.29458360716
 20
2175.036426392791
 10
24311.29458360716
 20
4298.036435929563
 10
24911.29458360715
 20
4298.036435929563
  0
LWPOLYLINE
  5
A9A32
330
B43A5
100
AcDbEntity
  8
0
  6
ByBlock
100
AcDbPolyline
 90
        2
 70
     0
 43
0.0
 10
3402.630686210061
 20
2158.036426392835
 10
2406.217259094658
 20
2158.036426392835
  0
LWPOLYLINE
  5
A9A33
330
B43A5
100
AcDbEntity
  8
0
  6
ByBlock
100
AcDbPolyline
 90
        4
 70
     1
 43
0.0
 10
3054.423972652367
 20
2175.036426392791
 10
2754.423972652367
 20
2175.036426392791
 10
2754.423972652367
 20
4298.036435929563
 10
3054.423972652367
 20
4298.036435929563
  0
LWPOLYLINE
  5
A9A38
330
B43A5
100
AcDbEntity
  8
0
  6
ByBlock
100
AcDbPolyline
 90
        4
 70
     1
 43
0.0
 10
3054.423972652367
 20
4908.171916406238
 10
2754.423972652367
 20
4908.171916406238
 10
2754.423972652367
 20
7431.171925943011
 10
3054.423972652367
 20
7431.171925943011
  0
LWPOLYLINE
  5
A9A39
330
B43A5
100
AcDbEntity
  8
0
  6
ByBlock
100
AcDbPolyline
 90
        2
 70
     0
 43
0.0
 10
3402.630686210061
 20
4891.171916406282
 10
2406.217259094658
 20
4891.171916406282
  0
LWPOLYLINE
  5
AAE23
330
B43A5
100
AcDbEntity
  8
0
  6
ByBlock
100
AcDbPolyline
 90
        4
 70
     1
 43
0.0
 10
13550.0
 20
9015.002619770916
 10
26550.0
 20
9015.002619770916
 10
26550.0
 20
1537.657647026935
 10
13550.0
 20
1537.657647026935
  0
LWPOLYLINE
  5
AAE44
330
B43A5
100
AcDbEntity
  8
0
  6
ByBlock
100
AcDbPolyline
 90
        4
 70
     1
 43
0.0
 10
17301.1298653905
 20
5913.171916406248
 10
17301.1298653905
 20
8431.171916406302
 10
17266.1298653905
 20
8431.171916406302
 10
17266.1298653905
 20
5913.171916406248
  0
LWPOLYLINE
  5
AAE45
330
B43A5
100
AcDbEntity
  8
0
  6
ByBlock
100
AcDbPolyline
 90
        6
 70
     1
 43
0.0
 10
16530.1298653905
 20
5908.171916406249
 10
16493.52986539045
 20
5908.171916406249
 10
16493.52986539045
 20
8431.171916406302
 10
16529.1298653905
 20
8431.171916406302
 10
16529.1298653905
 20
8391.171906869497
 10
16530.1298653905
 20
8391.171906869497
  0
LWPOLYLINE
  5
AAE46
330
B43A5
100
AcDbEntity
  8
0
  6
ByBlock
100
AcDbPolyline
 90
        4
 70
     1
 43
0.0
 10
17266.1298653905
 20
5931.67191640625
 10
17266.1298653905
 20
5991.17191640625
 10
16530.1298653905
 20
5991.17191640625
 10
16530.1298653905
 20
5931.67191640625
  0
LWPOLYLINE
  5
AAE47
330
B43A5
100
AcDbEntity
  8
0
  6
ByBlock
100
AcDbPolyline
 90
        4
 70
     1
 43
0.0
 10
16530.1298653905
 20
5991.17191640625
 10
16530.1298653905
 20
6021.17191640625
 10
17266.1298653905
 20
6021.17191640625
 10
17266.1298653905
 20
5991.17191640625
  0
LWPOLYLINE
  5
AAE48
330
B43A5
100
AcDbEntity
  8
0
  6
ByBlock
100
AcDbPolyline
 90
        4
 70
     1
 43
0.0
 10
16529.1298653905
 20
8391.171906869497
 10
16529.1298653905
 20
8431.171916406302
 10
17266.1298653905
 20
8431.171916406302
 10
17266.1298653905
 20
8391.171906869497
  0
LWPOLYLINE
  5
AAE49
330
B43A5
100
AcDbEntity
  8
0
  6
ByBlock
100
AcDbPolyline
 90
        9
 70
     1
 43
0.0
 10
17212.1298653905
 20
5931.67191640625
 10
17212.1298653905
 20
5904.771916406454
 10
17211.1298653905
 20
5903.771916406328
 10
17207.1298653905
 20
5903.771916406328
 10
17206.1298653905
 20
5904.771916406454
 10
17206.1298653905
 20
5911.271916406331
 10
17179.14763054741
 20
5911.742893067462
 10
17178.1298653905
 20
5912.760658224396
 10
17178.1298653905
 20
5931.67191640625
  0
LWPOLYLINE
  5
AAE4A
330
B43A5
100
AcDbEntity
  8
0
  6
ByBlock
100
AcDbPolyline
 90
        9
 70
     1
 43
0.0
 10
16584.12986539058
 20
5931.67191640625
 10
16584.12986539058
 20
5904.771916406454
 10
16585.1298653905
 20
5903.771916406328
 10
16589.12986539061
 20
5903.771916406328
 10
16590.1298653905
 20
5904.771916406454
 10
16590.1298653905
 20
5911.271916406331
 10
16617.11210023374
 20
5911.742893067462
 10
16618.1298653905
 20
5912.760658224396
 10
16618.1298653905
 20
5931.67191640625
  0
LWPOLYLINE
  5
AAE4B
330
B43A5
100
AcDbEntity
  8
0
  6
ByBlock
100
AcDbPolyline
 90
        4
 70
     1
 43
0.0
 10
17205.6298653905
 20
5911.171916406296
 10
17205.6298653905
 20
5891.171916406295
 10
16590.6298653905
 20
5891.171916406295
 10
16590.6298653905
 20
5911.171916406296
  0
LWPOLYLINE
  5
AAE4C
330
B43A5
100
AcDbEntity
  8
0
  6
ByBlock
100
AcDbPolyline
 90
        4
 70
     1
 43
0.0
 10
16610.6298653905
 20
5891.171916406295
 10
16610.6298653905
 20
5911.171916406296
 10
16590.6298653905
 20
5911.171916406296
 10
16590.6298653905
 20
5891.171916406295
  0
LWPOLYLINE
  5
AAE4D
330
B43A5
100
AcDbEntity
  8
0
  6
ByBlock
100
AcDbPolyline
 90
        4
 70
     1
 43
0.0
 10
17185.6298653905
 20
5891.171916406295
 10
17185.6298653905
 20
5911.171916406296
 10
17205.6298653905
 20
5911.171916406296
 10
17205.6298653905
 20
5891.171916406295
  0
LWPOLYLINE
  5
AAE4E
330
B43A5
100
AcDbEntity
  8
0
  6
ByBlock
100
AcDbPolyline
 90
        4
 70
     1
 43
0.0
 10
16530.1298653905
 20
6791.171916406253
 10
16530.1298653905
 20
6821.171916406253
 10
17266.1298653905
 20
6821.171916406253
 10
17266.1298653905
 20
6791.171916406253
  0
LWPOLYLINE
  5
AAE4F
330
B43A5
100
AcDbEntity
  8
0
  6
ByBlock
100
AcDbPolyline
 90
        4
 70
     1
 43
0.0
 10
17266.1298653905
 20
7191.171916406244
 10
17266.1298653905
 20
7221.171916406246
 10
16530.1298653905
 20
7221.171916406246
 10
16530.1298653905
 20
7191.171916406244
  0
LWPOLYLINE
  5
AAE50
330
B43A5
100
AcDbEntity
  8
0
  6
ByBlock
100
AcDbPolyline
 90
        4
 70
     1
 43
0.0
 10
17266.1298653905
 20
6391.17191640625
 10
17266.1298653905
 20
6421.17191640625
 10
16530.1298653905
 20
6421.17191640625
 10
16530.1298653905
 20
6391.17191640625
  0
LWPOLYLINE
  5
AAE51
330
B43A5
100
AcDbEntity
  8
0
  6
ByBlock
100
AcDbPolyline
 90
        4
 70
     1
 43
0.0
 10
16530.1298653905
 20
7591.171916406245
 10
16530.1298653905
 20
7621.171916406246
 10
17266.1298653905
 20
7621.171916406246
 10
17266.1298653905
 20
7591.171916406245
  0
LWPOLYLINE
  5
AAE52
330
B43A5
100
AcDbEntity
  8
0
  6
ByBlock
100
AcDbPolyline
 90
        4
 70
     1
 43
0.0
 10
17266.12986539054
 20
3210.536426392791
 10
17266.12986539054
 20
3185.536426392785
 10
16530.12986539054
 20
3185.536426392785
 10
16530.12986539054
 20
3210.536426392791
  0
LWPOLYLINE
  5
AAE53
330
B43A5
100
AcDbEntity
  8
0
  6
ByBlock
100
AcDbPolyline
 90
        4
 70
     1
 43
0.0
 10
17266.12986539054
 20
3288.036426392784
 10
17266.12986539054
 20
3258.036426392783
 10
16530.12986539054
 20
3258.036426392783
 10
16530.12986539054
 20
3288.036426392784
  0
LWPOLYLINE
  5
AAE54
330
B43A5
100
AcDbEntity
  8
0
  6
ByBlock
100
AcDbPolyline
 90
        4
 70
     1
 43
0.0
 10
17185.62986539054
 20
2158.036426392841
 10
17185.62986539054
 20
2178.036426392842
 10
17205.62986539054
 20
2178.036426392842
 10
17205.62986539054
 20
2158.036426392841
  0
LWPOLYLINE
  5
AAE55
330
B43A5
100
AcDbEntity
  8
0
  6
ByBlock
100
AcDbPolyline
 90
        4
 70
     1
 43
0.0
 10
16610.62986539054
 20
2158.036426392841
 10
16610.62986539054
 20
2178.036426392842
 10
16590.62986539054
 20
2178.036426392842
 10
16590.62986539054
 20
2158.036426392841
  0
LWPOLYLINE
  5
AAE56
330
B43A5
100
AcDbEntity
  8
0
  6
ByBlock
100
AcDbPolyline
 90
        4
 70
     1
 43
0.0
 10
17205.62986539054
 20
2178.036426392842
 10
17205.62986539054
 20
2158.036426392841
 10
16590.62986539054
 20
2158.036426392841
 10
16590.62986539054
 20
2178.036426392842
  0
LWPOLYLINE
  5
AAE57
330
B43A5
100
AcDbEntity
  8
0
  6
ByBlock
100
AcDbPolyline
 90
        9
 70
     1
 43
0.0
 10
16584.1298653906
 20
2198.536426392791
 10
16584.1298653906
 20
2171.636426393001
 10
16585.12986539054
 20
2170.636426392871
 10
16589.12986539059
 20
2170.636426392871
 10
16590.12986539054
 20
2171.636426393001
 10
16590.12986539054
 20
2178.136426392871
 10
16617.11210023366
 20
2178.607403054005
 10
16618.12986539054
 20
2179.625168210944
 10
16618.12986539054
 20
2198.536426392791
  0
LWPOLYLINE
  5
AAE58
330
B43A5
100
AcDbEntity
  8
0
  6
ByBlock
100
AcDbPolyline
 90
        9
 70
     1
 43
0.0
 10
17212.12986539054
 20
2198.536426392791
 10
17212.12986539054
 20
2171.636426393001
 10
17211.12986539054
 20
2170.636426392871
 10
17207.12986539054
 20
2170.636426392871
 10
17206.12986539054
 20
2171.636426393001
 10
17206.12986539054
 20
2178.136426392871
 10
17179.1476305474
 20
2178.607403054005
 10
17178.12986539054
 20
2179.625168210944
 10
17178.12986539054
 20
2198.536426392791
  0
LWPOLYLINE
  5
AAE59
330
B43A5
100
AcDbEntity
  8
0
  6
ByBlock
100
AcDbPolyline
 90
        4
 70
     1
 43
0.0
 10
16529.12986539054
 20
4658.036416856027
 10
16529.12986539054
 20
4698.036426392834
 10
17266.12986539054
 20
4698.036426392834
 10
17266.12986539054
 20
4658.036416856027
  0
LWPOLYLINE
  5
AAE5A
330
B43A5
100
AcDbEntity
  8
0
  6
ByBlock
100
AcDbPolyline
 90
        4
 70
     1
 43
0.0
 10
17266.12986539054
 20
4185.536426392761
 10
17266.12986539054
 20
4210.536426392763
 10
16530.12986539054
 20
4210.536426392763
 10
16530.12986539054
 20
4185.536426392761
  0
LWPOLYLINE
  5
AAE5B
330
B43A5
100
AcDbEntity
  8
0
  6
ByBlock
100
AcDbPolyline
 90
        4
 70
     1
 43
0.0
 10
16530.12986539054
 20
2258.036426392791
 10
16530.12986539054
 20
2288.036426392791
 10
17266.12986539054
 20
2288.036426392791
 10
17266.12986539054
 20
2258.036426392791
  0
LWPOLYLINE
  5
AAE5C
330
B43A5
100
AcDbEntity
  8
0
  6
ByBlock
100
AcDbPolyline
 90
        4
 70
     1
 43
0.0
 10
17266.12986539054
 20
2198.536426392791
 10
17266.12986539054
 20
2258.036426392791
 10
16530.12986539054
 20
2258.036426392791
 10
16530.12986539054
 20
2198.536426392791
  0
LWPOLYLINE
  5
AAE5D
330
B43A5
100
AcDbEntity
  8
0
  6
ByBlock
100
AcDbPolyline
 90
        6
 70
     1
 43
0.0
 10
16530.12986539054
 20
2175.036426392791
 10
16493.52986539044
 20
2175.036426392791
 10
16493.52986539044
 20
4698.036426392834
 10
16529.12986539054
 20
4698.036426392834
 10
16529.12986539054
 20
4658.036416856027
 10
16530.12986539054
 20
4658.036416856027
  0
LWPOLYLINE
  5
AAE5E
330
B43A5
100
AcDbEntity
  8
0
  6
ByBlock
100
AcDbPolyline
 90
        4
 70
     1
 43
0.0
 10
17301.12986539054
 20
2180.036426392792
 10
17301.12986539054
 20
4698.036426392834
 10
17266.12986539054
 20
4698.036426392834
 10
17266.12986539054
 20
2180.036426392792
  0
LWPOLYLINE
  5
AAE5F
330
B43A5
100
AcDbEntity
  8
0
  6
ByBlock
100
AcDbPolyline
 90
        4
 70
     1
 43
0.0
 10
16463.52986539044
 20
8431.171916406302
 10
16463.52986539044
 20
5908.171916406249
 10
16433.52986539045
 20
5908.171916406249
 10
16433.52986539045
 20
8431.171916406302
  0
LWPOLYLINE
  5
AAE60
330
B43A5
100
AcDbEntity
  8
0
  6
ByBlock
100
AcDbPolyline
 90
        4
 70
     1
 43
0.0
 10
16463.52986539044
 20
4698.036426392826
 10
16463.52986539044
 20
2175.036426392791
 10
16433.52986539045
 20
2175.036426392791
 10
16433.52986539045
 20
4698.036426392826
  0
LWPOLYLINE
  5
AAE67
330
B43A5
100
AcDbEntity
  8
0
  6
ByBlock
100
AcDbPolyline
 90
        4
 70
     1
 43
0.0
 10
21902.1863909405
 20
2198.536426392791
 10
21902.1863909405
 20
2258.036426392791
 10
21166.1863909405
 20
2258.036426392791
 10
21166.1863909405
 20
2198.536426392791
  0
LWPOLYLINE
  5
AAE6A
330
B43A5
100
AcDbEntity
  8
0
  6
ByBlock
100
AcDbPolyline
 90
        4
 70
     1
 43
0.0
 10
21821.68639094054
 20
2158.036426392835
 10
21821.68639094054
 20
2178.036426392835
 10
21841.68639094054
 20
2178.036426392835
 10
21841.68639094054
 20
2158.036426392835
  0
LWPOLYLINE
  5
AAE6B
330
B43A5
100
AcDbEntity
  8
0
  6
ByBlock
100
AcDbPolyline
 90
        4
 70
     1
 43
0.0
 10
21246.68639094054
 20
2158.036426392835
 10
21246.68639094054
 20
2178.036426392835
 10
21226.68639094054
 20
2178.036426392835
 10
21226.68639094054
 20
2158.036426392835
  0
LWPOLYLINE
  5
AAE6C
330
B43A5
100
AcDbEntity
  8
0
  6
ByBlock
100
AcDbPolyline
 90
        4
 70
     1
 43
0.0
 10
21841.68639094054
 20
2178.036426392835
 10
21841.68639094054
 20
2158.036426392835
 10
21226.68639094054
 20
2158.036426392835
 10
21226.68639094054
 20
2178.036426392835
  0
LWPOLYLINE
  5
AAE6D
330
B43A5
100
AcDbEntity
  8
0
  6
ByBlock
100
AcDbPolyline
 90
        9
 70
     1
 43
0.0
 10
21220.18639094054
 20
2198.536426392791
 10
21220.18639094054
 20
2171.636426392994
 10
21221.18639094054
 20
2170.636426392871
 10
21225.18639094054
 20
2170.636426392871
 10
21226.18639094054
 20
2171.636426392994
 10
21226.18639094054
 20
2178.136426392871
 10
21253.16862578368
 20
2178.607403054005
 10
21254.18639094054
 20
2179.625168210938
 10
21254.18639094054
 20
2198.536426392791
  0
LWPOLYLINE
  5
AAE6E
330
B43A5
100
AcDbEntity
  8
0
  6
ByBlock
100
AcDbPolyline
 90
        9
 70
     1
 43
0.0
 10
21848.1863909405
 20
2198.536426392791
 10
21848.1863909405
 20
2171.636426392994
 10
21847.18639094054
 20
2170.636426392871
 10
21843.1863909405
 20
2170.636426392871
 10
21842.18639094054
 20
2171.636426392994
 10
21842.18639094054
 20
2178.136426392871
 10
21815.2041560974
 20
2178.607403054005
 10
21814.18639094053
 20
2179.625168210938
 10
21814.18639094053
 20
2198.536426392791
  0
LWPOLYLINE
  5
AAE6F
330
B43A5
100
AcDbEntity
  8
0
  6
ByBlock
100
AcDbPolyline
 90
        4
 70
     1
 43
0.0
 10
21165.18639094054
 20
4658.036416856034
 10
21165.18639094054
 20
4698.036426392834
 10
21902.18639094054
 20
4698.036426392834
 10
21902.18639094054
 20
4658.036416856034
  0
LWPOLYLINE
  5
AAE70
330
B43A5
100
AcDbEntity
  8
0
  6
ByBlock
100
AcDbPolyline
 90
        6
 70
     1
 43
0.0
 10
21166.18639094054
 20
2175.036426392791
 10
21129.58639094035
 20
2175.036426392791
 10
21129.58639094035
 20
4698.036426392834
 10
21165.18639094054
 20
4698.036426392834
 10
21165.18639094054
 20
4658.036416856034
 10
21166.18639094054
 20
4658.036416856034
  0
LWPOLYLINE
  5
AAE71
330
B43A5
100
AcDbEntity
  8
0
  6
ByBlock
100
AcDbPolyline
 90
        4
 70
     1
 43
0.0
 10
21937.18639094054
 20
2180.036426392792
 10
21937.18639094054
 20
4698.036426392834
 10
21902.18639094054
 20
4698.036426392834
 10
21902.18639094054
 20
2180.036426392792
  0
LWPOLYLINE
  5
AAE72
330
B43A5
100
AcDbEntity
  8
0
  6
ByBlock
100
AcDbPolyline
 90
        4
 70
     1
 43
0.0
 10
21937.1863909406
 20
5913.171916406252
 10
21937.1863909406
 20
8431.171916406303
 10
21902.1863909406
 20
8431.171916406303
 10
21902.1863909406
 20
5913.171916406252
  0
LWPOLYLINE
  5
AAE73
330
B43A5
100
AcDbEntity
  8
0
  6
ByBlock
100
AcDbPolyline
 90
        6
 70
     1
 43
0.0
 10
21166.1863909406
 20
5908.171916406253
 10
21129.58639094039
 20
5908.171916406253
 10
21129.58639094039
 20
8431.171916406303
 10
21165.1863909406
 20
8431.171916406303
 10
21165.1863909406
 20
8391.171906869498
 10
21166.1863909406
 20
8391.171906869498
  0
LWPOLYLINE
  5
AAE74
330
B43A5
100
AcDbEntity
  8
0
  6
ByBlock
100
AcDbPolyline
 90
        4
 70
     1
 43
0.0
 10
21902.1863909406
 20
5931.67191640625
 10
21902.1863909406
 20
5991.17191640625
 10
21166.1863909406
 20
5991.17191640625
 10
21166.1863909406
 20
5931.67191640625
  0
LWPOLYLINE
  5
AAE75
330
B43A5
100
AcDbEntity
  8
0
  6
ByBlock
100
AcDbPolyline
 90
        4
 70
     1
 43
0.0
 10
21166.1863909406
 20
5991.17191640625
 10
21166.1863909406
 20
6021.171916406252
 10
21902.1863909406
 20
6021.171916406252
 10
21902.1863909406
 20
5991.17191640625
  0
LWPOLYLINE
  5
AAE76
330
B43A5
100
AcDbEntity
  8
0
  6
ByBlock
100
AcDbPolyline
 90
        4
 70
     1
 43
0.0
 10
21165.1863909406
 20
8391.171906869498
 10
21165.1863909406
 20
8431.171916406303
 10
21902.1863909406
 20
8431.171916406303
 10
21902.1863909406
 20
8391.171906869498
  0
LWPOLYLINE
  5
AAE77
330
B43A5
100
AcDbEntity
  8
0
  6
ByBlock
100
AcDbPolyline
 90
        9
 70
     1
 43
0.0
 10
21848.18639094054
 20
5931.67191640625
 10
21848.18639094054
 20
5904.771916406456
 10
21847.1863909406
 20
5903.771916406328
 10
21843.18639094054
 20
5903.771916406328
 10
21842.1863909406
 20
5904.771916406456
 10
21842.1863909406
 20
5911.271916406331
 10
21815.20415609748
 20
5911.742893067463
 10
21814.1863909406
 20
5912.760658224396
 10
21814.1863909406
 20
5931.67191640625
  0
LWPOLYLINE
  5
AAE78
330
B43A5
100
AcDbEntity
  8
0
  6
ByBlock
100
AcDbPolyline
 90
        9
 70
     1
 43
0.0
 10
21220.1863909406
 20
5931.67191640625
 10
21220.1863909406
 20
5904.771916406456
 10
21221.1863909406
 20
5903.771916406328
 10
21225.1863909406
 20
5903.771916406328
 10
21226.1863909406
 20
5904.771916406456
 10
21226.1863909406
 20
5911.271916406331
 10
21253.16862578373
 20
5911.742893067463
 10
21254.1863909406
 20
5912.760658224396
 10
21254.1863909406
 20
5931.67191640625
  0
LWPOLYLINE
  5
AAE79
330
B43A5
100
AcDbEntity
  8
0
  6
ByBlock
100
AcDbPolyline
 90
        4
 70
     1
 43
0.0
 10
21841.6863909406
 20
5911.171916406296
 10
21841.6863909406
 20
5891.171916406296
 10
21226.6863909406
 20
5891.171916406296
 10
21226.6863909406
 20
5911.171916406296
  0
LWPOLYLINE
  5
AAE7A
330
B43A5
100
AcDbEntity
  8
0
  6
ByBlock
100
AcDbPolyline
 90
        4
 70
     1
 43
0.0
 10
21246.6863909406
 20
5891.171916406296
 10
21246.6863909406
 20
5911.171916406296
 10
21226.6863909406
 20
5911.171916406296
 10
21226.6863909406
 20
5891.171916406296
  0
LWPOLYLINE
  5
AAE7B
330
B43A5
100
AcDbEntity
  8
0
  6
ByBlock
100
AcDbPolyline
 90
        4
 70
     1
 43
0.0
 10
21821.6863909406
 20
5891.171916406296
 10
21821.6863909406
 20
5911.171916406296
 10
21841.6863909406
 20
5911.171916406296
 10
21841.6863909406
 20
5891.171916406296
  0
LWPOLYLINE
  5
AAE7C
330
B43A5
100
AcDbEntity
  8
0
  6
ByBlock
100
AcDbPolyline
 90
        4
 70
     1
 43
0.0
 10
21901.6863909406
 20
6391.171906869502
 10
21901.6863909406
 20
6421.171906869506
 10
21165.6863909406
 20
6421.171906869506
 10
21165.6863909406
 20
6391.171906869502
  0
LWPOLYLINE
  5
AAE7D
330
B43A5
100
AcDbEntity
  8
0
  6
ByBlock
100
AcDbPolyline
 90
        4
 70
     1
 43
0.0
 10
21901.6863909406
 20
6641.171906869506
 10
21901.6863909406
 20
6671.171906869506
 10
21165.6863909406
 20
6671.171906869506
 10
21165.6863909406
 20
6641.171906869506
  0
LWPOLYLINE
  5
AAE7E
330
B43A5
100
AcDbEntity
  8
0
  6
ByBlock
100
AcDbPolyline
 90
        4
 70
     1
 43
0.0
 10
21901.6863909406
 20
6891.171906869506
 10
21901.6863909406
 20
6921.171906869506
 10
21165.6863909406
 20
6921.171906869506
 10
21165.6863909406
 20
6891.171906869506
  0
LWPOLYLINE
  5
AAE7F
330
B43A5
100
AcDbEntity
  8
0
  6
ByBlock
100
AcDbPolyline
 90
        4
 70
     1
 43
0.0
 10
21901.6863909406
 20
7141.171906869506
 10
21901.6863909406
 20
7171.171906869499
 10
21165.6863909406
 20
7171.171906869499
 10
21165.6863909406
 20
7141.171906869506
  0
LWPOLYLINE
  5
AAE80
330
B43A5
100
AcDbEntity
  8
0
  6
ByBlock
100
AcDbPolyline
 90
        4
 70
     1
 43
0.0
 10
21901.6863909406
 20
7391.171906869506
 10
21901.6863909406
 20
7421.171906869499
 10
21165.6863909406
 20
7421.171906869499
 10
21165.6863909406
 20
7391.171906869506
  0
LWPOLYLINE
  5
AAE81
330
B43A5
100
AcDbEntity
  8
0
  6
ByBlock
100
AcDbPolyline
 90
        4
 70
     1
 43
0.0
 10
21901.6863909406
 20
7641.171906869506
 10
21901.6863909406
 20
7671.171906869499
 10
21165.6863909406
 20
7671.171906869499
 10
21165.6863909406
 20
7641.171906869506
  0
LWPOLYLINE
  5
AAE82
330
B43A5
100
AcDbEntity
  8
0
  6
ByBlock
100
AcDbPolyline
 90
        4
 70
     1
 43
0.0
 10
21901.6863909406
 20
7891.171906869506
 10
21901.6863909406
 20
7921.171906869499
 10
21165.6863909406
 20
7921.171906869499
 10
21165.6863909406
 20
7891.171906869506
  0
LWPOLYLINE
  5
AAE83
330
B43A5
100
AcDbEntity
  8
0
  6
ByBlock
100
AcDbPolyline
 90
        4
 70
     1
 43
0.0
 10
21099.58639094059
 20
8431.171916406303
 10
21099.58639094059
 20
5908.171916406253
 10
21069.58639094059
 20
5908.171916406253
 10
21069.58639094059
 20
8431.171916406303
  0
LWPOLYLINE
  5
AAE84
330
B43A5
100
AcDbEntity
  8
0
  6
ByBlock
100
AcDbPolyline
 90
        4
 70
     1
 43
0.0
 10
21099.58639094052
 20
4698.036426392834
 10
21099.58639094052
 20
2175.036426392791
 10
21069.58639094052
 20
2175.036426392791
 10
21069.58639094052
 20
4698.036426392834
  0
LWPOLYLINE
  5
AAE9E
330
B43A5
100
AcDbEntity
  8
0
  6
ByBlock
100
AcDbPolyline
 90
        4
 70
     1
 43
0.0
 10
25307.7080107226
 20
2175.036426392791
 10
25907.70801072259
 20
2175.036426392791
 10
25907.70801072259
 20
4698.036426392834
 10
25307.7080107226
 20
4698.036426392834
  0
LWPOLYLINE
  5
AAE9F
330
B43A5
100
AcDbEntity
  8
0
  6
ByBlock
100
AcDbPolyline
 90
        4
 70
     1
 43
0.0
 10
25307.7080107226
 20
5908.171916406253
 10
25907.70801072259
 20
5908.171916406253
 10
25907.70801072259
 20
8431.171916406303
 10
25307.7080107226
 20
8431.171916406303
  0
LWPOLYLINE
  5
AAEA0
330
B43A5
100
AcDbEntity
  8
0
  6
ByBlock
100
AcDbPolyline
 90
        2
 70
     0
 43
0.0
 10
25109.50129716488
 20
5891.171916406296
 10
26105.91472428031
 20
5891.171916406296
  0
LWPOLYLINE
  5
AAEA3
330
B43A5
100
AcDbEntity
  8
0
  6
ByBlock
100
AcDbPolyline
 90
        2
 70
     0
 43
0.0
 10
25109.50129716488
 20
2158.036426392835
 10
26105.91472428031
 20
2158.036426392835
  0
LWPOLYLINE
  5
AAEA9
330
B43A5
100
AcDbEntity
  8
0
  6
ByBlock
100
AcDbPolyline
 90
        4
 70
     1
 43
0.0
 10
21901.6863909406
 20
8141.171906869507
 10
21901.6863909406
 20
8171.171906869499
 10
21165.6863909406
 20
8171.171906869499
 10
21165.6863909406
 20
8141.171906869507
  0
LWPOLYLINE
  5
AAEAB
330
B43A5
100
AcDbEntity
  8
0
  6
ByBlock
100
AcDbPolyline
 90
        4
 70
     1
 43
0.0
 10
17266.1298653905
 20
7991.171916406237
 10
17266.1298653905
 20
8021.171916406238
 10
16530.1298653905
 20
8021.171916406238
 10
16530.1298653905
 20
7991.171916406237
  0
LWPOLYLINE
  5
AAEAD
330
B43A5
100
AcDbEntity
  8
0
  6
ByBlock
100
AcDbPolyline
 90
        4
 70
     1
 43
0.0
 10
17266.12986539054
 20
4288.036426392761
 10
17266.12986539054
 20
4258.036426392761
 10
16530.12986539054
 20
4258.036426392761
 10
16530.12986539054
 20
4288.036426392761
  0
LWPOLYLINE
  5
AAEB3
330
B43A5
100
AcDbEntity
  8
0
  6
ByBlock
100
AcDbPolyline
 90
        4
 70
     1
 43
0.0
 10
17466.12986539054
 20
12315.38139913674
 10
17466.12986539054
 20
12285.38139913674
 10
16530.12986539054
 20
12285.38139913674
 10
16530.12986539054
 20
12315.38139913674
  0
LWPOLYLINE
  5
AAEB4
330
B43A5
100
AcDbEntity
  8
0
  6
ByBlock
100
AcDbPolyline
 90
        4
 70
     1
 43
0.0
 10
17466.1298653905
 20
16018.51688915022
 10
17466.1298653905
 20
16048.51688915022
 10
16530.1298653905
 20
16048.51688915022
 10
16530.1298653905
 20
16018.51688915022
  0
LWPOLYLINE
  5
AAEB5
330
B43A5
100
AcDbEntity
  8
0
  6
ByBlock
100
AcDbPolyline
 90
        4
 70
     1
 43
0.0
 10
22102.1863909406
 20
16168.51687961349
 10
22102.1863909406
 20
16198.51687961348
 10
21166.1863909406
 20
16198.51687961348
 10
21166.1863909406
 20
16168.51687961349
  0
LWPOLYLINE
  5
AAEB6
330
B43A5
100
AcDbEntity
  8
0
  6
ByBlock
100
AcDbPolyline
 90
        2
 70
     0
 43
0.0
 10
25109.50129716488
 20
10185.38139913681
 10
26105.91472428031
 20
10185.38139913681
  0
LWPOLYLINE
  5
AAEB9
330
B43A5
100
AcDbEntity
  8
0
  6
ByBlock
100
AcDbPolyline
 90
        2
 70
     0
 43
0.0
 10
25109.50129716488
 20
13918.51688915027
 10
26105.91472428031
 20
13918.51688915027
  0
LWPOLYLINE
  5
AAEBA
330
B43A5
100
AcDbEntity
  8
0
  6
ByBlock
100
AcDbPolyline
 90
        4
 70
     1
 43
0.0
 10
25307.7080107226
 20
13935.51688915023
 10
25907.70801072259
 20
13935.51688915023
 10
25907.70801072259
 20
16458.51688915028
 10
25307.7080107226
 20
16458.51688915028
  0
LWPOLYLINE
  5
AAEBB
330
B43A5
100
AcDbEntity
  8
0
  6
ByBlock
100
AcDbPolyline
 90
        4
 70
     1
 43
0.0
 10
25307.7080107226
 20
10202.38139913677
 10
25907.70801072259
 20
10202.38139913677
 10
25907.70801072259
 20
12725.38139913681
 10
25307.7080107226
 20
12725.38139913681
  0
LWPOLYLINE
  5
AAEBD
330
B43A5
100
AcDbEntity
  8
0
  6
ByBlock
100
AcDbPolyline
 90
        4
 70
     1
 43
0.0
 10
21099.58639094052
 20
12725.38139913681
 10
21099.58639094052
 20
10202.38139913677
 10
21069.58639094052
 20
10202.38139913677
 10
21069.58639094052
 20
12725.38139913681
  0
LWPOLYLINE
  5
AAEBE
330
B43A5
100
AcDbEntity
  8
0
  6
ByBlock
100
AcDbPolyline
 90
        4
 70
     1
 43
0.0
 10
21099.58639094059
 20
16458.51688915028
 10
21099.58639094059
 20
13935.51688915023
 10
21069.58639094059
 20
13935.51688915023
 10
21069.58639094059
 20
16458.51688915028
  0
LWPOLYLINE
  5
AAEBF
330
B43A5
100
AcDbEntity
  8
0
  6
ByBlock
100
AcDbPolyline
 90
        4
 70
     1
 43
0.0
 10
22102.1863909406
 20
15918.51687961349
 10
22102.1863909406
 20
15948.51687961348
 10
21166.1863909406
 20
15948.51687961348
 10
21166.1863909406
 20
15918.51687961349
  0
LWPOLYLINE
  5
AAEC0
330
B43A5
100
AcDbEntity
  8
0
  6
ByBlock
100
AcDbPolyline
 90
        4
 70
     1
 43
0.0
 10
22102.1863909406
 20
15668.51687961349
 10
22102.1863909406
 20
15698.51687961348
 10
21166.1863909406
 20
15698.51687961348
 10
21166.1863909406
 20
15668.51687961349
  0
LWPOLYLINE
  5
AAEC1
330
B43A5
100
AcDbEntity
  8
0
  6
ByBlock
100
AcDbPolyline
 90
        4
 70
     1
 43
0.0
 10
22102.1863909406
 20
15418.51687961349
 10
22102.1863909406
 20
15448.51687961348
 10
21166.1863909406
 20
15448.51687961348
 10
21166.1863909406
 20
15418.51687961349
  0
LWPOLYLINE
  5
AAEC2
330
B43A5
100
AcDbEntity
  8
0
  6
ByBlock
100
AcDbPolyline
 90
        4
 70
     1
 43
0.0
 10
22102.1863909406
 20
15168.51687961349
 10
22102.1863909406
 20
15198.51687961348
 10
21166.1863909406
 20
15198.51687961348
 10
21166.1863909406
 20
15168.51687961349
  0
LWPOLYLINE
  5
AAEC3
330
B43A5
100
AcDbEntity
  8
0
  6
ByBlock
100
AcDbPolyline
 90
        4
 70
     1
 43
0.0
 10
22102.1863909406
 20
14918.51687961349
 10
22102.1863909406
 20
14948.51687961349
 10
21166.1863909406
 20
14948.51687961349
 10
21166.1863909406
 20
14918.51687961349
  0
LWPOLYLINE
  5
AAEC4
330
B43A5
100
AcDbEntity
  8
0
  6
ByBlock
100
AcDbPolyline
 90
        4
 70
     1
 43
0.0
 10
22102.1863909406
 20
14668.51687961349
 10
22102.1863909406
 20
14698.51687961349
 10
21166.1863909406
 20
14698.51687961349
 10
21166.1863909406
 20
14668.51687961349
  0
LWPOLYLINE
  5
AAEC5
330
B43A5
100
AcDbEntity
  8
0
  6
ByBlock
100
AcDbPolyline
 90
        4
 70
     1
 43
0.0
 10
22102.1863909406
 20
14418.51687961349
 10
22102.1863909406
 20
14448.51687961349
 10
21166.1863909406
 20
14448.51687961349
 10
21166.1863909406
 20
14418.51687961349
  0
LWPOLYLINE
  5
AAEC6
330
B43A5
100
AcDbEntity
  8
0
  6
ByBlock
100
AcDbPolyline
 90
        4
 70
     1
 43
0.0
 10
22021.6863909406
 20
13918.51688915027
 10
22021.6863909406
 20
13938.51688915027
 10
22041.6863909406
 20
13938.51688915027
 10
22041.6863909406
 20
13918.51688915027
  0
LWPOLYLINE
  5
AAEC7
330
B43A5
100
AcDbEntity
  8
0
  6
ByBlock
100
AcDbPolyline
 90
        4
 70
     1
 43
0.0
 10
21246.6863909406
 20
13918.51688915027
 10
21246.6863909406
 20
13938.51688915027
 10
21226.6863909406
 20
13938.51688915027
 10
21226.6863909406
 20
13918.51688915027
  0
LWPOLYLINE
  5
AAEC8
330
B43A5
100
AcDbEntity
  8
0
  6
ByBlock
100
AcDbPolyline
 90
        4
 70
     1
 43
0.0
 10
22041.6863909406
 20
13938.51688915027
 10
22041.6863909406
 20
13918.51688915027
 10
21226.6863909406
 20
13918.51688915027
 10
21226.6863909406
 20
13938.51688915027
  0
LWPOLYLINE
  5
AAEC9
330
B43A5
100
AcDbEntity
  8
0
  6
ByBlock
100
AcDbPolyline
 90
        9
 70
     1
 43
0.0
 10
21220.1863909406
 20
13959.01688915023
 10
21220.1863909406
 20
13932.11688915042
 10
21221.1863909406
 20
13931.11688915031
 10
21225.1863909406
 20
13931.11688915031
 10
21226.1863909406
 20
13932.11688915042
 10
21226.1863909406
 20
13938.61688915031
 10
21253.16862578373
 20
13939.08786581144
 10
21254.1863909406
 20
13940.10563096838
 10
21254.1863909406
 20
13959.01688915023
  0
LWPOLYLINE
  5
AAECA
330
B43A5
100
AcDbEntity
  8
0
  6
ByBlock
100
AcDbPolyline
 90
        9
 70
     1
 43
0.0
 10
22048.18639094054
 20
13959.01688915023
 10
22048.18639094054
 20
13932.11688915042
 10
22047.1863909406
 20
13931.11688915031
 10
22043.18639094054
 20
13931.11688915031
 10
22042.1863909406
 20
13932.11688915042
 10
22042.1863909406
 20
13938.61688915031
 10
22015.20415609748
 20
13939.08786581144
 10
22014.1863909406
 20
13940.10563096838
 10
22014.1863909406
 20
13959.01688915023
  0
LWPOLYLINE
  5
AAECB
330
B43A5
100
AcDbEntity
  8
0
  6
ByBlock
100
AcDbPolyline
 90
        4
 70
     1
 43
0.0
 10
21165.1863909406
 20
16418.51687961348
 10
21165.1863909406
 20
16458.51688915028
 10
22102.1863909406
 20
16458.51688915028
 10
22102.1863909406
 20
16418.51687961348
  0
LWPOLYLINE
  5
AAECC
330
B43A5
100
AcDbEntity
  8
0
  6
ByBlock
100
AcDbPolyline
 90
        4
 70
     1
 43
0.0
 10
21166.1863909406
 20
14018.51688915023
 10
21166.1863909406
 20
14048.51688915023
 10
22102.1863909406
 20
14048.51688915023
 10
22102.1863909406
 20
14018.51688915023
  0
LWPOLYLINE
  5
AAECD
330
B43A5
100
AcDbEntity
  8
0
  6
ByBlock
100
AcDbPolyline
 90
        4
 70
     1
 43
0.0
 10
22102.1863909406
 20
13959.01688915023
 10
22102.1863909406
 20
14018.51688915023
 10
21166.1863909406
 20
14018.51688915023
 10
21166.1863909406
 20
13959.01688915023
  0
LWPOLYLINE
  5
AAECE
330
B43A5
100
AcDbEntity
  8
0
  6
ByBlock
100
AcDbPolyline
 90
        6
 70
     1
 43
0.0
 10
21166.1863909406
 20
13935.51688915023
 10
21129.58639094039
 20
13935.51688915023
 10
21129.58639094039
 20
16458.51688915028
 10
21165.1863909406
 20
16458.51688915028
 10
21165.1863909406
 20
16418.51687961348
 10
21166.1863909406
 20
16418.51687961348
  0
LWPOLYLINE
  5
AAECF
330
B43A5
100
AcDbEntity
  8
0
  6
ByBlock
100
AcDbPolyline
 90
        4
 70
     1
 43
0.0
 10
22137.1863909406
 20
13940.51688915023
 10
22137.1863909406
 20
16458.51688915028
 10
22102.1863909406
 20
16458.51688915028
 10
22102.1863909406
 20
13940.51688915023
  0
LWPOLYLINE
  5
AAED0
330
B43A5
100
AcDbEntity
  8
0
  6
ByBlock
100
AcDbPolyline
 90
        4
 70
     1
 43
0.0
 10
22137.18639094055
 20
10207.38139913677
 10
22137.18639094055
 20
12725.38139913681
 10
22102.18639094054
 20
12725.38139913681
 10
22102.18639094054
 20
10207.38139913677
  0
LWPOLYLINE
  5
AAED1
330
B43A5
100
AcDbEntity
  8
0
  6
ByBlock
100
AcDbPolyline
 90
        6
 70
     1
 43
0.0
 10
21166.18639094054
 20
10202.38139913677
 10
21129.58639094035
 20
10202.38139913677
 10
21129.58639094035
 20
12725.38139913681
 10
21165.18639094054
 20
12725.38139913681
 10
21165.18639094054
 20
12685.38138960001
 10
21166.18639094054
 20
12685.38138960001
  0
LWPOLYLINE
  5
AAED2
330
B43A5
100
AcDbEntity
  8
0
  6
ByBlock
100
AcDbPolyline
 90
        4
 70
     1
 43
0.0
 10
21165.18639094054
 20
12685.38138960001
 10
21165.18639094054
 20
12725.38139913681
 10
22102.18639094054
 20
12725.38139913681
 10
22102.18639094054
 20
12685.38138960001
  0
LWPOLYLINE
  5
AAED3
330
B43A5
100
AcDbEntity
  8
0
  6
ByBlock
100
AcDbPolyline
 90
        9
 70
     1
 43
0.0
 10
22048.1863909405
 20
10225.88139913677
 10
22048.1863909405
 20
10198.98139913697
 10
22047.18639094054
 20
10197.98139913685
 10
22043.1863909405
 20
10197.98139913685
 10
22042.18639094055
 20
10198.98139913697
 10
22042.18639094055
 20
10205.48139913685
 10
22015.2041560974
 20
10205.95237579798
 10
22014.18639094053
 20
10206.97014095492
 10
22014.18639094053
 20
10225.88139913677
  0
LWPOLYLINE
  5
AAED4
330
B43A5
100
AcDbEntity
  8
0
  6
ByBlock
100
AcDbPolyline
 90
        9
 70
     1
 43
0.0
 10
21220.18639094054
 20
10225.88139913677
 10
21220.18639094054
 20
10198.98139913697
 10
21221.18639094054
 20
10197.98139913685
 10
21225.18639094054
 20
10197.98139913685
 10
21226.18639094054
 20
10198.98139913697
 10
21226.18639094054
 20
10205.48139913685
 10
21253.16862578368
 20
10205.95237579798
 10
21254.18639094054
 20
10206.97014095492
 10
21254.18639094054
 20
10225.88139913677
  0
LWPOLYLINE
  5
AAED5
330
B43A5
100
AcDbEntity
  8
0
  6
ByBlock
100
AcDbPolyline
 90
        4
 70
     1
 43
0.0
 10
22041.68639094055
 20
10205.38139913681
 10
22041.68639094055
 20
10185.38139913681
 10
21226.68639094054
 20
10185.38139913681
 10
21226.68639094054
 20
10205.38139913681
  0
LWPOLYLINE
  5
AAED6
330
B43A5
100
AcDbEntity
  8
0
  6
ByBlock
100
AcDbPolyline
 90
        4
 70
     1
 43
0.0
 10
21246.68639094054
 20
10185.38139913681
 10
21246.68639094054
 20
10205.38139913681
 10
21226.68639094054
 20
10205.38139913681
 10
21226.68639094054
 20
10185.38139913681
  0
LWPOLYLINE
  5
AAED7
330
B43A5
100
AcDbEntity
  8
0
  6
ByBlock
100
AcDbPolyline
 90
        4
 70
     1
 43
0.0
 10
22021.68639094054
 20
10185.38139913681
 10
22021.68639094054
 20
10205.38139913681
 10
22041.68639094055
 20
10205.38139913681
 10
22041.68639094055
 20
10185.38139913681
  0
LWPOLYLINE
  5
AAEDA
330
B43A5
100
AcDbEntity
  8
0
  6
ByBlock
100
AcDbPolyline
 90
        4
 70
     1
 43
0.0
 10
22102.1863909405
 20
10225.88139913677
 10
22102.1863909405
 20
10285.38139913677
 10
21166.1863909405
 20
10285.38139913677
 10
21166.1863909405
 20
10225.88139913677
  0
LWPOLYLINE
  5
AAEE1
330
B43A5
100
AcDbEntity
  8
0
  6
ByBlock
100
AcDbPolyline
 90
        4
 70
     1
 43
0.0
 10
16463.52986539044
 20
12725.38139913681
 10
16463.52986539044
 20
10202.38139913677
 10
16433.52986539045
 20
10202.38139913677
 10
16433.52986539045
 20
12725.38139913681
  0
LWPOLYLINE
  5
AAEE2
330
B43A5
100
AcDbEntity
  8
0
  6
ByBlock
100
AcDbPolyline
 90
        4
 70
     1
 43
0.0
 10
16463.52986539044
 20
16458.51688915028
 10
16463.52986539044
 20
13935.51688915023
 10
16433.52986539045
 20
13935.51688915023
 10
16433.52986539045
 20
16458.51688915028
  0
LWPOLYLINE
  5
AAEE3
330
B43A5
100
AcDbEntity
  8
0
  6
ByBlock
100
AcDbPolyline
 90
        4
 70
     1
 43
0.0
 10
17501.12986539054
 20
10207.38139913677
 10
17501.12986539054
 20
12725.38139913681
 10
17466.12986539054
 20
12725.38139913681
 10
17466.12986539054
 20
10207.38139913677
  0
LWPOLYLINE
  5
AAEE4
330
B43A5
100
AcDbEntity
  8
0
  6
ByBlock
100
AcDbPolyline
 90
        6
 70
     1
 43
0.0
 10
16530.12986539054
 20
10202.38139913677
 10
16493.52986539044
 20
10202.38139913677
 10
16493.52986539044
 20
12725.38139913681
 10
16529.12986539054
 20
12725.38139913681
 10
16529.12986539054
 20
12685.38138960001
 10
16530.12986539054
 20
12685.38138960001
  0
LWPOLYLINE
  5
AAEE5
330
B43A5
100
AcDbEntity
  8
0
  6
ByBlock
100
AcDbPolyline
 90
        4
 70
     1
 43
0.0
 10
17466.12986539054
 20
10225.88139913677
 10
17466.12986539054
 20
10285.38139913677
 10
16530.12986539054
 20
10285.38139913677
 10
16530.12986539054
 20
10225.88139913677
  0
LWPOLYLINE
  5
AAEE6
330
B43A5
100
AcDbEntity
  8
0
  6
ByBlock
100
AcDbPolyline
 90
        4
 70
     1
 43
0.0
 10
16530.12986539054
 20
10285.38139913677
 10
16530.12986539054
 20
10315.38139913677
 10
17466.12986539054
 20
10315.38139913677
 10
17466.12986539054
 20
10285.38139913677
  0
LWPOLYLINE
  5
AAEE7
330
B43A5
100
AcDbEntity
  8
0
  6
ByBlock
100
AcDbPolyline
 90
        4
 70
     1
 43
0.0
 10
17466.12986539054
 20
12212.88139913674
 10
17466.12986539054
 20
12237.88139913674
 10
16530.12986539054
 20
12237.88139913674
 10
16530.12986539054
 20
12212.88139913674
  0
LWPOLYLINE
  5
AAEE8
330
B43A5
100
AcDbEntity
  8
0
  6
ByBlock
100
AcDbPolyline
 90
        4
 70
     1
 43
0.0
 10
16529.12986539054
 20
12685.38138960001
 10
16529.12986539054
 20
12725.38139913681
 10
17466.12986539054
 20
12725.38139913681
 10
17466.12986539054
 20
12685.38138960001
  0
LWPOLYLINE
  5
AAEE9
330
B43A5
100
AcDbEntity
  8
0
  6
ByBlock
100
AcDbPolyline
 90
        9
 70
     1
 43
0.0
 10
17412.12986539054
 20
10225.88139913677
 10
17412.12986539054
 20
10198.98139913698
 10
17411.12986539054
 20
10197.98139913685
 10
17407.12986539054
 20
10197.98139913685
 10
17406.12986539054
 20
10198.98139913698
 10
17406.12986539054
 20
10205.48139913685
 10
17379.1476305474
 20
10205.95237579798
 10
17378.12986539054
 20
10206.97014095492
 10
17378.12986539054
 20
10225.88139913677
  0
LWPOLYLINE
  5
AAEEA
330
B43A5
100
AcDbEntity
  8
0
  6
ByBlock
100
AcDbPolyline
 90
        9
 70
     1
 43
0.0
 10
16584.1298653906
 20
10225.88139913677
 10
16584.1298653906
 20
10198.98139913698
 10
16585.12986539054
 20
10197.98139913685
 10
16589.12986539059
 20
10197.98139913685
 10
16590.12986539054
 20
10198.98139913698
 10
16590.12986539054
 20
10205.48139913685
 10
16617.11210023366
 20
10205.95237579798
 10
16618.12986539054
 20
10206.97014095492
 10
16618.12986539054
 20
10225.88139913677
  0
LWPOLYLINE
  5
AAEEB
330
B43A5
100
AcDbEntity
  8
0
  6
ByBlock
100
AcDbPolyline
 90
        4
 70
     1
 43
0.0
 10
17405.62986539054
 20
10205.38139913682
 10
17405.62986539054
 20
10185.38139913682
 10
16590.62986539054
 20
10185.38139913682
 10
16590.62986539054
 20
10205.38139913682
  0
LWPOLYLINE
  5
AAEEC
330
B43A5
100
AcDbEntity
  8
0
  6
ByBlock
100
AcDbPolyline
 90
        4
 70
     1
 43
0.0
 10
16610.62986539054
 20
10185.38139913682
 10
16610.62986539054
 20
10205.38139913682
 10
16590.62986539054
 20
10205.38139913682
 10
16590.62986539054
 20
10185.38139913682
  0
LWPOLYLINE
  5
AAEED
330
B43A5
100
AcDbEntity
  8
0
  6
ByBlock
100
AcDbPolyline
 90
        4
 70
     1
 43
0.0
 10
17385.62986539054
 20
10185.38139913682
 10
17385.62986539054
 20
10205.38139913682
 10
17405.62986539054
 20
10205.38139913682
 10
17405.62986539054
 20
10185.38139913682
  0
LWPOLYLINE
  5
AAEEE
330
B43A5
100
AcDbEntity
  8
0
  6
ByBlock
100
AcDbPolyline
 90
        4
 70
     1
 43
0.0
 10
17466.12986539054
 20
11315.38139913676
 10
17466.12986539054
 20
11285.38139913676
 10
16530.12986539054
 20
11285.38139913676
 10
16530.12986539054
 20
11315.38139913676
  0
LWPOLYLINE
  5
AAEEF
330
B43A5
100
AcDbEntity
  8
0
  6
ByBlock
100
AcDbPolyline
 90
        4
 70
     1
 43
0.0
 10
17466.12986539054
 20
11237.88139913677
 10
17466.12986539054
 20
11212.88139913676
 10
16530.12986539054
 20
11212.88139913676
 10
16530.12986539054
 20
11237.88139913677
  0
LWPOLYLINE
  5
AAEF0
330
B43A5
100
AcDbEntity
  8
0
  6
ByBlock
100
AcDbPolyline
 90
        4
 70
     1
 43
0.0
 10
16530.1298653905
 20
15618.51688915022
 10
16530.1298653905
 20
15648.51688915022
 10
17466.1298653905
 20
15648.51688915022
 10
17466.1298653905
 20
15618.51688915022
  0
LWPOLYLINE
  5
AAEF1
330
B43A5
100
AcDbEntity
  8
0
  6
ByBlock
100
AcDbPolyline
 90
        4
 70
     1
 43
0.0
 10
17466.1298653905
 20
14418.51688915023
 10
17466.1298653905
 20
14448.51688915023
 10
16530.1298653905
 20
14448.51688915023
 10
16530.1298653905
 20
14418.51688915023
  0
LWPOLYLINE
  5
AAEF2
330
B43A5
100
AcDbEntity
  8
0
  6
ByBlock
100
AcDbPolyline
 90
        4
 70
     1
 43
0.0
 10
17466.1298653905
 20
15218.51688915022
 10
17466.1298653905
 20
15248.51688915022
 10
16530.1298653905
 20
15248.51688915022
 10
16530.1298653905
 20
15218.51688915022
  0
LWPOLYLINE
  5
AAEF3
330
B43A5
100
AcDbEntity
  8
0
  6
ByBlock
100
AcDbPolyline
 90
        4
 70
     1
 43
0.0
 10
16530.1298653905
 20
14818.51688915023
 10
16530.1298653905
 20
14848.51688915023
 10
17466.1298653905
 20
14848.51688915023
 10
17466.1298653905
 20
14818.51688915023
  0
LWPOLYLINE
  5
AAEF4
330
B43A5
100
AcDbEntity
  8
0
  6
ByBlock
100
AcDbPolyline
 90
        4
 70
     1
 43
0.0
 10
17385.6298653905
 20
13918.51688915027
 10
17385.6298653905
 20
13938.51688915027
 10
17405.6298653905
 20
13938.51688915027
 10
17405.6298653905
 20
13918.51688915027
  0
LWPOLYLINE
  5
AAEF5
330
B43A5
100
AcDbEntity
  8
0
  6
ByBlock
100
AcDbPolyline
 90
        4
 70
     1
 43
0.0
 10
16610.6298653905
 20
13918.51688915027
 10
16610.6298653905
 20
13938.51688915027
 10
16590.6298653905
 20
13938.51688915027
 10
16590.6298653905
 20
13918.51688915027
  0
LWPOLYLINE
  5
AAEF6
330
B43A5
100
AcDbEntity
  8
0
  6
ByBlock
100
AcDbPolyline
 90
        4
 70
     1
 43
0.0
 10
17405.6298653905
 20
13938.51688915027
 10
17405.6298653905
 20
13918.51688915027
 10
16590.6298653905
 20
13918.51688915027
 10
16590.6298653905
 20
13938.51688915027
  0
LWPOLYLINE
  5
AAEF7
330
B43A5
100
AcDbEntity
  8
0
  6
ByBlock
100
AcDbPolyline
 90
        9
 70
     1
 43
0.0
 10
16584.12986539058
 20
13959.01688915023
 10
16584.12986539058
 20
13932.11688915042
 10
16585.1298653905
 20
13931.11688915031
 10
16589.12986539061
 20
13931.11688915031
 10
16590.1298653905
 20
13932.11688915042
 10
16590.1298653905
 20
13938.61688915031
 10
16617.11210023374
 20
13939.08786581144
 10
16618.1298653905
 20
13940.10563096838
 10
16618.1298653905
 20
13959.01688915023
  0
LWPOLYLINE
  5
AAEF8
330
B43A5
100
AcDbEntity
  8
0
  6
ByBlock
100
AcDbPolyline
 90
        9
 70
     1
 43
0.0
 10
17412.1298653905
 20
13959.01688915023
 10
17412.1298653905
 20
13932.11688915042
 10
17411.1298653905
 20
13931.11688915031
 10
17407.1298653905
 20
13931.11688915031
 10
17406.1298653905
 20
13932.11688915042
 10
17406.1298653905
 20
13938.61688915031
 10
17379.14763054741
 20
13939.08786581144
 10
17378.1298653905
 20
13940.10563096838
 10
17378.1298653905
 20
13959.01688915023
  0
LWPOLYLINE
  5
AAEF9
330
B43A5
100
AcDbEntity
  8
0
  6
ByBlock
100
AcDbPolyline
 90
        4
 70
     1
 43
0.0
 10
16529.1298653905
 20
16418.51687961348
 10
16529.1298653905
 20
16458.51688915028
 10
17466.1298653905
 20
16458.51688915028
 10
17466.1298653905
 20
16418.51687961348
  0
LWPOLYLINE
  5
AAEFA
330
B43A5
100
AcDbEntity
  8
0
  6
ByBlock
100
AcDbPolyline
 90
        4
 70
     1
 43
0.0
 10
16530.1298653905
 20
14018.51688915023
 10
16530.1298653905
 20
14048.51688915023
 10
17466.1298653905
 20
14048.51688915023
 10
17466.1298653905
 20
14018.51688915023
  0
LWPOLYLINE
  5
AAEFB
330
B43A5
100
AcDbEntity
  8
0
  6
ByBlock
100
AcDbPolyline
 90
        4
 70
     1
 43
0.0
 10
17466.1298653905
 20
13959.01688915023
 10
17466.1298653905
 20
14018.51688915023
 10
16530.1298653905
 20
14018.51688915023
 10
16530.1298653905
 20
13959.01688915023
  0
LWPOLYLINE
  5
AAEFC
330
B43A5
100
AcDbEntity
  8
0
  6
ByBlock
100
AcDbPolyline
 90
        6
 70
     1
 43
0.0
 10
16530.1298653905
 20
13935.51688915023
 10
16493.52986539045
 20
13935.51688915023
 10
16493.52986539045
 20
16458.51688915028
 10
16529.1298653905
 20
16458.51688915028
 10
16529.1298653905
 20
16418.51687961348
 10
16530.1298653905
 20
16418.51687961348
  0
LWPOLYLINE
  5
AAEFD
330
B43A5
100
AcDbEntity
  8
0
  6
ByBlock
100
AcDbPolyline
 90
        4
 70
     1
 43
0.0
 10
17501.12986539051
 20
13940.51688915023
 10
17501.12986539051
 20
16458.51688915028
 10
17466.1298653905
 20
16458.51688915028
 10
17466.1298653905
 20
13940.51688915023
  0
LWPOLYLINE
  5
AAEFE
330
B43A5
100
AcDbEntity
  8
0
  6
ByBlock
100
AcDbPolyline
 90
        4
 70
     1
 43
0.0
 10
13550.0
 20
17042.34759251489
 10
26550.0
 20
17042.34759251489
 10
26550.0
 20
9565.002619770918
 10
13550.0
 20
9565.002619770918
  0
LWPOLYLINE
  5
AAEFF
330
B43A5
100
AcDbEntity
  8
0
  6
ByBlock
100
AcDbPolyline
 90
        4
 70
     1
 43
0.0
 10
24911.29458360715
 20
10202.38139913677
 10
24311.29458360716
 20
10202.38139913677
 10
24311.29458360716
 20
12325.38140867354
 10
24911.29458360715
 20
12325.38140867354
  0
LWPOLYLINE
  5
AAF00
330
B43A5
100
AcDbEntity
  8
0
  6
ByBlock
100
AcDbPolyline
 90
        4
 70
     1
 43
0.0
 10
24911.29458360715
 20
13935.51688915023
 10
24311.29458360716
 20
13935.51688915023
 10
24311.29458360716
 20
16058.51689868701
 10
24911.29458360715
 20
16058.51689868701
  0
LWPOLYLINE
  5
AAF01
330
B43A5
100
AcDbEntity
  8
0
  6
ByBlock
100
AcDbPolyline
 90
        2
 70
     0
 43
0.0
 10
25109.50129716488
 20
13918.51688915027
 10
24113.08787004944
 20
13918.51688915027
  0
LWPOLYLINE
  5
AAF04
330
B43A5
100
AcDbEntity
  8
0
  6
ByBlock
100
AcDbPolyline
 90
        2
 70
     0
 43
0.0
 10
25109.50129716488
 20
10185.38139913681
 10
24113.08787004944
 20
10185.38139913681
  0
LWPOLYLINE
  5
AAF0A
330
B43A5
100
AcDbEntity
  8
0
  6
ByBlock
100
AcDbPolyline
 90
        2
 70
     0
 43
0.0
 10
14197.12986539054
 20
10185.38139913681
 10
22554.48951026663
 20
10185.38139913681
  0
LWPOLYLINE
  5
AAF0B
330
B43A5
100
AcDbEntity
  8
0
  6
ByBlock
100
AcDbPolyline
 90
        2
 70
     0
 43
0.0
 10
14197.12986539054
 20
13918.51688915027
 10
22554.48951026663
 20
13918.51688915029
  0
LWPOLYLINE
  5
AAF0D
330
B43A5
100
AcDbEntity
  8
0
  6
ByBlock
100
AcDbPolyline
 90
        4
 70
     1
 43
0.0
 10
20102.1863909405
 20
10225.88139913677
 10
20102.1863909405
 20
10285.38139913677
 10
19166.1863909405
 20
10285.38139913677
 10
19166.1863909405
 20
10225.88139913677
  0
LWPOLYLINE
  5
AAF10
330
B43A5
100
AcDbEntity
  8
0
  6
ByBlock
100
AcDbPolyline
 90
        4
 70
     1
 43
0.0
 10
20021.68639094054
 20
10185.38139913681
 10
20021.68639094054
 20
10205.38139913681
 10
20041.68639094054
 20
10205.38139913681
 10
20041.68639094054
 20
10185.38139913681
  0
LWPOLYLINE
  5
AAF11
330
B43A5
100
AcDbEntity
  8
0
  6
ByBlock
100
AcDbPolyline
 90
        4
 70
     1
 43
0.0
 10
19246.68639094052
 20
10185.38139913681
 10
19246.68639094052
 20
10205.38139913681
 10
19226.68639094052
 20
10205.38139913681
 10
19226.68639094052
 20
10185.38139913681
  0
LWPOLYLINE
  5
AAF12
330
B43A5
100
AcDbEntity
  8
0
  6
ByBlock
100
AcDbPolyline
 90
        4
 70
     1
 43
0.0
 10
20041.68639094054
 20
10205.38139913681
 10
20041.68639094054
 20
10185.38139913681
 10
19226.68639094052
 20
10185.38139913681
 10
19226.68639094052
 20
10205.38139913681
  0
LWPOLYLINE
  5
AAF13
330
B43A5
100
AcDbEntity
  8
0
  6
ByBlock
100
AcDbPolyline
 90
        9
 70
     1
 43
0.0
 10
19220.18639094052
 20
10225.88139913677
 10
19220.18639094052
 20
10198.98139913697
 10
19221.18639094052
 20
10197.98139913685
 10
19225.18639094054
 20
10197.98139913685
 10
19226.18639094054
 20
10198.98139913697
 10
19226.18639094054
 20
10205.48139913685
 10
19253.16862578368
 20
10205.95237579798
 10
19254.18639094052
 20
10206.97014095492
 10
19254.18639094052
 20
10225.88139913677
  0
LWPOLYLINE
  5
AAF14
330
B43A5
100
AcDbEntity
  8
0
  6
ByBlock
100
AcDbPolyline
 90
        9
 70
     1
 43
0.0
 10
20048.1863909405
 20
10225.88139913677
 10
20048.1863909405
 20
10198.98139913697
 10
20047.18639094054
 20
10197.98139913685
 10
20043.1863909405
 20
10197.98139913685
 10
20042.18639094054
 20
10198.98139913697
 10
20042.18639094054
 20
10205.48139913685
 10
20015.2041560974
 20
10205.95237579798
 10
20014.18639094054
 20
10206.97014095492
 10
20014.18639094054
 20
10225.88139913677
  0
LWPOLYLINE
  5
AAF15
330
B43A5
100
AcDbEntity
  8
0
  6
ByBlock
100
AcDbPolyline
 90
        4
 70
     1
 43
0.0
 10
19165.18639094054
 20
12285.38139913674
 10
19165.18639094054
 20
12325.38140867354
 10
20102.18639094054
 20
12325.38140867354
 10
20102.18639094054
 20
12285.38139913674
  0
LWPOLYLINE
  5
AAF16
330
B43A5
100
AcDbEntity
  8
0
  6
ByBlock
100
AcDbPolyline
 90
        6
 70
     1
 43
0.0
 10
19166.18639094054
 20
10202.38139913677
 10
19129.58639094035
 20
10202.38139913677
 10
19129.58639094035
 20
12325.38140867354
 10
19165.18639094054
 20
12325.38140867354
 10
19165.18639094054
 20
12285.38139913674
 10
19166.18639094054
 20
12285.38139913674
  0
LWPOLYLINE
  5
AAF17
330
B43A5
100
AcDbEntity
  8
0
  6
ByBlock
100
AcDbPolyline
 90
        4
 70
     1
 43
0.0
 10
20137.18639094054
 20
10207.38139913677
 10
20137.18639094054
 20
12325.38140867354
 10
20102.18639094054
 20
12325.38140867354
 10
20102.18639094054
 20
10207.38139913677
  0
LWPOLYLINE
  5
AAF18
330
B43A5
100
AcDbEntity
  8
0
  6
ByBlock
100
AcDbPolyline
 90
        4
 70
     1
 43
0.0
 10
15501.12986539051
 20
13940.51688915023
 10
15501.12986539051
 20
16058.516898687
 10
15466.1298653905
 20
16058.516898687
 10
15466.1298653905
 20
13940.51688915023
  0
LWPOLYLINE
  5
AAF19
330
B43A5
100
AcDbEntity
  8
0
  6
ByBlock
100
AcDbPolyline
 90
        6
 70
     1
 43
0.0
 10
14530.1298653905
 20
13935.51688915023
 10
14493.52986539045
 20
13935.51688915023
 10
14493.52986539045
 20
16058.516898687
 10
14529.1298653905
 20
16058.516898687
 10
14529.1298653905
 20
16018.5168891502
 10
14530.1298653905
 20
16018.5168891502
  0
LWPOLYLINE
  5
AAF1A
330
B43A5
100
AcDbEntity
  8
0
  6
ByBlock
100
AcDbPolyline
 90
        4
 70
     1
 43
0.0
 10
15466.1298653905
 20
13959.01688915023
 10
15466.1298653905
 20
14018.51688915023
 10
14530.1298653905
 20
14018.51688915023
 10
14530.1298653905
 20
13959.01688915023
  0
LWPOLYLINE
  5
AAF1B
330
B43A5
100
AcDbEntity
  8
0
  6
ByBlock
100
AcDbPolyline
 90
        4
 70
     1
 43
0.0
 10
14530.1298653905
 20
14018.51688915023
 10
14530.1298653905
 20
14048.51688915023
 10
15466.1298653905
 20
14048.51688915023
 10
15466.1298653905
 20
14018.51688915023
  0
LWPOLYLINE
  5
AAF1C
330
B43A5
100
AcDbEntity
  8
0
  6
ByBlock
100
AcDbPolyline
 90
        4
 70
     1
 43
0.0
 10
14529.1298653905
 20
16018.5168891502
 10
14529.1298653905
 20
16058.516898687
 10
15466.1298653905
 20
16058.516898687
 10
15466.1298653905
 20
16018.5168891502
  0
LWPOLYLINE
  5
AAF1D
330
B43A5
100
AcDbEntity
  8
0
  6
ByBlock
100
AcDbPolyline
 90
        9
 70
     1
 43
0.0
 10
15412.1298653905
 20
13959.01688915023
 10
15412.1298653905
 20
13932.11688915042
 10
15411.1298653905
 20
13931.11688915031
 10
15407.1298653905
 20
13931.11688915031
 10
15406.1298653905
 20
13932.11688915042
 10
15406.1298653905
 20
13938.61688915031
 10
15379.14763054741
 20
13939.08786581144
 10
15378.1298653905
 20
13940.10563096838
 10
15378.1298653905
 20
13959.01688915023
  0
LWPOLYLINE
  5
AAF1E
330
B43A5
100
AcDbEntity
  8
0
  6
ByBlock
100
AcDbPolyline
 90
        9
 70
     1
 43
0.0
 10
14584.12986539058
 20
13959.01688915023
 10
14584.12986539058
 20
13932.11688915042
 10
14585.1298653905
 20
13931.11688915031
 10
14589.12986539061
 20
13931.11688915031
 10
14590.1298653905
 20
13932.11688915042
 10
14590.1298653905
 20
13938.61688915031
 10
14617.11210023374
 20
13939.08786581144
 10
14618.1298653905
 20
13940.10563096838
 10
14618.1298653905
 20
13959.01688915023
  0
LWPOLYLINE
  5
AAF1F
330
B43A5
100
AcDbEntity
  8
0
  6
ByBlock
100
AcDbPolyline
 90
        4
 70
     1
 43
0.0
 10
15405.6298653905
 20
13938.51688915027
 10
15405.6298653905
 20
13918.51688915027
 10
14590.6298653905
 20
13918.51688915027
 10
14590.6298653905
 20
13938.51688915027
  0
LWPOLYLINE
  5
AAF20
330
B43A5
100
AcDbEntity
  8
0
  6
ByBlock
100
AcDbPolyline
 90
        4
 70
     1
 43
0.0
 10
14610.6298653905
 20
13918.51688915027
 10
14610.6298653905
 20
13938.51688915027
 10
14590.6298653905
 20
13938.51688915027
 10
14590.6298653905
 20
13918.51688915027
  0
LWPOLYLINE
  5
AAF21
330
B43A5
100
AcDbEntity
  8
0
  6
ByBlock
100
AcDbPolyline
 90
        4
 70
     1
 43
0.0
 10
15385.6298653905
 20
13918.51688915027
 10
15385.6298653905
 20
13938.51688915027
 10
15405.6298653905
 20
13938.51688915027
 10
15405.6298653905
 20
13918.51688915027
  0
LWPOLYLINE
  5
AAF22
330
B43A5
100
AcDbEntity
  8
0
  6
ByBlock
100
AcDbPolyline
 90
        4
 70
     1
 43
0.0
 10
14530.1298653905
 20
14818.51688915023
 10
14530.1298653905
 20
14848.51688915023
 10
15466.1298653905
 20
14848.51688915023
 10
15466.1298653905
 20
14818.51688915023
  0
LWPOLYLINE
  5
AAF23
330
B43A5
100
AcDbEntity
  8
0
  6
ByBlock
100
AcDbPolyline
 90
        4
 70
     1
 43
0.0
 10
15466.1298653905
 20
15218.51688915022
 10
15466.1298653905
 20
15248.51688915022
 10
14530.1298653905
 20
15248.51688915022
 10
14530.1298653905
 20
15218.51688915022
  0
LWPOLYLINE
  5
AAF24
330
B43A5
100
AcDbEntity
  8
0
  6
ByBlock
100
AcDbPolyline
 90
        4
 70
     1
 43
0.0
 10
15466.1298653905
 20
14418.51688915023
 10
15466.1298653905
 20
14448.51688915023
 10
14530.1298653905
 20
14448.51688915023
 10
14530.1298653905
 20
14418.51688915023
  0
LWPOLYLINE
  5
AAF25
330
B43A5
100
AcDbEntity
  8
0
  6
ByBlock
100
AcDbPolyline
 90
        4
 70
     1
 43
0.0
 10
14530.1298653905
 20
15618.51688915022
 10
14530.1298653905
 20
15648.51688915022
 10
15466.1298653905
 20
15648.51688915022
 10
15466.1298653905
 20
15618.51688915022
  0
LWPOLYLINE
  5
AAF26
330
B43A5
100
AcDbEntity
  8
0
  6
ByBlock
100
AcDbPolyline
 90
        4
 70
     1
 43
0.0
 10
20137.1863909406
 20
13940.51688915023
 10
20137.1863909406
 20
16058.51689868701
 10
20102.1863909406
 20
16058.51689868701
 10
20102.1863909406
 20
13940.51688915023
  0
LWPOLYLINE
  5
AAF27
330
B43A5
100
AcDbEntity
  8
0
  6
ByBlock
100
AcDbPolyline
 90
        6
 70
     1
 43
0.0
 10
19166.1863909406
 20
13935.51688915023
 10
19129.58639094039
 20
13935.51688915023
 10
19129.58639094039
 20
16058.51689868701
 10
19165.1863909406
 20
16058.51689868701
 10
19165.1863909406
 20
16018.5168891502
 10
19166.1863909406
 20
16018.5168891502
  0
LWPOLYLINE
  5
AAF28
330
B43A5
100
AcDbEntity
  8
0
  6
ByBlock
100
AcDbPolyline
 90
        4
 70
     1
 43
0.0
 10
20102.1863909406
 20
13959.01688915023
 10
20102.1863909406
 20
14018.51688915023
 10
19166.1863909406
 20
14018.51688915023
 10
19166.1863909406
 20
13959.01688915023
  0
LWPOLYLINE
  5
AAF29
330
B43A5
100
AcDbEntity
  8
0
  6
ByBlock
100
AcDbPolyline
 90
        4
 70
     1
 43
0.0
 10
19166.1863909406
 20
14018.51688915023
 10
19166.1863909406
 20
14048.51688915023
 10
20102.1863909406
 20
14048.51688915023
 10
20102.1863909406
 20
14018.51688915023
  0
LWPOLYLINE
  5
AAF2A
330
B43A5
100
AcDbEntity
  8
0
  6
ByBlock
100
AcDbPolyline
 90
        4
 70
     1
 43
0.0
 10
19165.1863909406
 20
16018.5168891502
 10
19165.1863909406
 20
16058.51689868701
 10
20102.1863909406
 20
16058.51689868701
 10
20102.1863909406
 20
16018.5168891502
  0
LWPOLYLINE
  5
AAF2B
330
B43A5
100
AcDbEntity
  8
0
  6
ByBlock
100
AcDbPolyline
 90
        9
 70
     1
 43
0.0
 10
20048.18639094054
 20
13959.01688915023
 10
20048.18639094054
 20
13932.11688915042
 10
20047.1863909406
 20
13931.11688915031
 10
20043.18639094054
 20
13931.11688915031
 10
20042.1863909406
 20
13932.11688915042
 10
20042.1863909406
 20
13938.61688915031
 10
20015.20415609748
 20
13939.08786581144
 10
20014.1863909406
 20
13940.10563096838
 10
20014.1863909406
 20
13959.01688915023
  0
LWPOLYLINE
  5
AAF2C
330
B43A5
100
AcDbEntity
  8
0
  6
ByBlock
100
AcDbPolyline
 90
        9
 70
     1
 43
0.0
 10
19220.1863909406
 20
13959.01688915023
 10
19220.1863909406
 20
13932.11688915042
 10
19221.1863909406
 20
13931.11688915031
 10
19225.18639094059
 20
13931.11688915031
 10
19226.1863909406
 20
13932.11688915042
 10
19226.1863909406
 20
13938.61688915031
 10
19253.16862578373
 20
13939.08786581144
 10
19254.1863909406
 20
13940.10563096838
 10
19254.1863909406
 20
13959.01688915023
  0
LWPOLYLINE
  5
AAF2D
330
B43A5
100
AcDbEntity
  8
0
  6
ByBlock
100
AcDbPolyline
 90
        4
 70
     1
 43
0.0
 10
20041.6863909406
 20
13938.51688915027
 10
20041.6863909406
 20
13918.51688915027
 10
19226.6863909406
 20
13918.51688915027
 10
19226.6863909406
 20
13938.51688915027
  0
LWPOLYLINE
  5
AAF2E
330
B43A5
100
AcDbEntity
  8
0
  6
ByBlock
100
AcDbPolyline
 90
        4
 70
     1
 43
0.0
 10
19246.6863909406
 20
13918.51688915027
 10
19246.6863909406
 20
13938.51688915027
 10
19226.6863909406
 20
13938.51688915027
 10
19226.6863909406
 20
13918.51688915027
  0
LWPOLYLINE
  5
AAF2F
330
B43A5
100
AcDbEntity
  8
0
  6
ByBlock
100
AcDbPolyline
 90
        4
 70
     1
 43
0.0
 10
20021.6863909406
 20
13918.51688915027
 10
20021.6863909406
 20
13938.51688915027
 10
20041.6863909406
 20
13938.51688915027
 10
20041.6863909406
 20
13918.51688915027
  0
LWPOLYLINE
  5
AAF30
330
B43A5
100
AcDbEntity
  8
0
  6
ByBlock
100
AcDbPolyline
 90
        4
 70
     1
 43
0.0
 10
20102.1863909406
 20
14268.51688915023
 10
20102.1863909406
 20
14298.51688915023
 10
19166.1863909406
 20
14298.51688915023
 10
19166.1863909406
 20
14268.51688915023
  0
LWPOLYLINE
  5
AAF31
330
B43A5
100
AcDbEntity
  8
0
  6
ByBlock
100
AcDbPolyline
 90
        4
 70
     1
 43
0.0
 10
20102.1863909406
 20
14518.51688915023
 10
20102.1863909406
 20
14548.51688915023
 10
19166.1863909406
 20
14548.51688915023
 10
19166.1863909406
 20
14518.51688915023
  0
LWPOLYLINE
  5
AAF32
330
B43A5
100
AcDbEntity
  8
0
  6
ByBlock
100
AcDbPolyline
 90
        4
 70
     1
 43
0.0
 10
20102.1863909406
 20
14768.51688915023
 10
20102.1863909406
 20
14798.51688915023
 10
19166.1863909406
 20
14798.51688915023
 10
19166.1863909406
 20
14768.51688915023
  0
LWPOLYLINE
  5
AAF33
330
B43A5
100
AcDbEntity
  8
0
  6
ByBlock
100
AcDbPolyline
 90
        4
 70
     1
 43
0.0
 10
20102.1863909406
 20
15018.51688915023
 10
20102.1863909406
 20
15048.51688915022
 10
19166.1863909406
 20
15048.51688915022
 10
19166.1863909406
 20
15018.51688915023
  0
LWPOLYLINE
  5
AAF34
330
B43A5
100
AcDbEntity
  8
0
  6
ByBlock
100
AcDbPolyline
 90
        4
 70
     1
 43
0.0
 10
20102.1863909406
 20
15268.51688915023
 10
20102.1863909406
 20
15298.51688915022
 10
19166.1863909406
 20
15298.51688915022
 10
19166.1863909406
 20
15268.51688915023
  0
LWPOLYLINE
  5
AAF35
330
B43A5
100
AcDbEntity
  8
0
  6
ByBlock
100
AcDbPolyline
 90
        4
 70
     1
 43
0.0
 10
20102.1863909406
 20
15518.51688915023
 10
20102.1863909406
 20
15548.51688915022
 10
19166.1863909406
 20
15548.51688915022
 10
19166.1863909406
 20
15518.51688915023
  0
LWPOLYLINE
  5
AAF36
330
B43A5
100
AcDbEntity
  8
0
  6
ByBlock
100
AcDbPolyline
 90
        4
 70
     1
 43
0.0
 10
20102.1863909406
 20
15768.51688915023
 10
20102.1863909406
 20
15798.51688915022
 10
19166.1863909406
 20
15798.51688915022
 10
19166.1863909406
 20
15768.51688915023
  0
LWPOLYLINE
  5
AAF37
330
B43A5
100
AcDbEntity
  8
0
  6
ByBlock
100
AcDbPolyline
 90
        4
 70
     1
 43
0.0
 10
15466.12986539054
 20
11237.88139913677
 10
15466.12986539054
 20
11212.88139913676
 10
14530.12986539054
 20
11212.88139913676
 10
14530.12986539054
 20
11237.88139913677
  0
LWPOLYLINE
  5
AAF38
330
B43A5
100
AcDbEntity
  8
0
  6
ByBlock
100
AcDbPolyline
 90
        4
 70
     1
 43
0.0
 10
15466.12986539054
 20
11315.38139913676
 10
15466.12986539054
 20
11285.38139913676
 10
14530.12986539054
 20
11285.38139913676
 10
14530.12986539054
 20
11315.38139913676
  0
LWPOLYLINE
  5
AAF39
330
B43A5
100
AcDbEntity
  8
0
  6
ByBlock
100
AcDbPolyline
 90
        4
 70
     1
 43
0.0
 10
15385.62986539054
 20
10185.38139913682
 10
15385.62986539054
 20
10205.38139913682
 10
15405.62986539054
 20
10205.38139913682
 10
15405.62986539054
 20
10185.38139913682
  0
LWPOLYLINE
  5
AAF3A
330
B43A5
100
AcDbEntity
  8
0
  6
ByBlock
100
AcDbPolyline
 90
        4
 70
     1
 43
0.0
 10
14610.62986539054
 20
10185.38139913682
 10
14610.62986539054
 20
10205.38139913682
 10
14590.62986539054
 20
10205.38139913682
 10
14590.62986539054
 20
10185.38139913682
  0
LWPOLYLINE
  5
AAF3B
330
B43A5
100
AcDbEntity
  8
0
  6
ByBlock
100
AcDbPolyline
 90
        4
 70
     1
 43
0.0
 10
15405.62986539054
 20
10205.38139913682
 10
15405.62986539054
 20
10185.38139913682
 10
14590.62986539054
 20
10185.38139913682
 10
14590.62986539054
 20
10205.38139913682
  0
LWPOLYLINE
  5
AAF3C
330
B43A5
100
AcDbEntity
  8
0
  6
ByBlock
100
AcDbPolyline
 90
        9
 70
     1
 43
0.0
 10
14584.1298653906
 20
10225.88139913677
 10
14584.1298653906
 20
10198.98139913698
 10
14585.12986539054
 20
10197.98139913685
 10
14589.12986539059
 20
10197.98139913685
 10
14590.12986539054
 20
10198.98139913698
 10
14590.12986539054
 20
10205.48139913685
 10
14617.11210023366
 20
10205.95237579798
 10
14618.12986539054
 20
10206.97014095492
 10
14618.12986539054
 20
10225.88139913677
  0
LWPOLYLINE
  5
AAF3D
330
B43A5
100
AcDbEntity
  8
0
  6
ByBlock
100
AcDbPolyline
 90
        9
 70
     1
 43
0.0
 10
15412.12986539054
 20
10225.88139913677
 10
15412.12986539054
 20
10198.98139913698
 10
15411.12986539054
 20
10197.98139913685
 10
15407.12986539054
 20
10197.98139913685
 10
15406.12986539054
 20
10198.98139913698
 10
15406.12986539054
 20
10205.48139913685
 10
15379.1476305474
 20
10205.95237579798
 10
15378.12986539054
 20
10206.97014095492
 10
15378.12986539054
 20
10225.88139913677
  0
LWPOLYLINE
  5
AAF3E
330
B43A5
100
AcDbEntity
  8
0
  6
ByBlock
100
AcDbPolyline
 90
        4
 70
     1
 43
0.0
 10
14529.12986539054
 20
12285.38139913674
 10
14529.12986539054
 20
12325.38140867355
 10
15466.12986539054
 20
12325.38140867355
 10
15466.12986539054
 20
12285.38139913674
  0
LWPOLYLINE
  5
AAF3F
330
B43A5
100
AcDbEntity
  8
0
  6
ByBlock
100
AcDbPolyline
 90
        4
 70
     1
 43
0.0
 10
15466.12986539054
 20
12212.88139913674
 10
15466.12986539054
 20
12237.88139913674
 10
14530.12986539054
 20
12237.88139913674
 10
14530.12986539054
 20
12212.88139913674
  0
LWPOLYLINE
  5
AAF40
330
B43A5
100
AcDbEntity
  8
0
  6
ByBlock
100
AcDbPolyline
 90
        4
 70
     1
 43
0.0
 10
14530.12986539054
 20
10285.38139913677
 10
14530.12986539054
 20
10315.38139913677
 10
15466.12986539054
 20
10315.38139913677
 10
15466.12986539054
 20
10285.38139913677
  0
LWPOLYLINE
  5
AAF41
330
B43A5
100
AcDbEntity
  8
0
  6
ByBlock
100
AcDbPolyline
 90
        4
 70
     1
 43
0.0
 10
15466.12986539054
 20
10225.88139913677
 10
15466.12986539054
 20
10285.38139913677
 10
14530.12986539054
 20
10285.38139913677
 10
14530.12986539054
 20
10225.88139913677
  0
LWPOLYLINE
  5
AAF42
330
B43A5
100
AcDbEntity
  8
0
  6
ByBlock
100
AcDbPolyline
 90
        6
 70
     1
 43
0.0
 10
14530.12986539054
 20
10202.38139913677
 10
14493.52986539044
 20
10202.38139913677
 10
14493.52986539044
 20
12325.38140867355
 10
14529.12986539054
 20
12325.38140867355
 10
14529.12986539054
 20
12285.38139913674
 10
14530.12986539054
 20
12285.38139913674
  0
LWPOLYLINE
  5
AAF43
330
B43A5
100
AcDbEntity
  8
0
  6
ByBlock
100
AcDbPolyline
 90
        4
 70
     1
 43
0.0
 10
15501.12986539054
 20
10207.38139913677
 10
15501.12986539054
 20
12325.38140867355
 10
15466.12986539054
 20
12325.38140867355
 10
15466.12986539054
 20
10207.38139913677
  0
LWPOLYLINE
  5
AAF44
330
B43A5
100
AcDbEntity
  8
0
  6
ByBlock
100
AcDbPolyline
 90
        4
 70
     1
 43
0.0
 10
14463.52986539045
 20
16058.516898687
 10
14463.52986539045
 20
13935.51688915023
 10
14433.52986539045
 20
13935.51688915023
 10
14433.52986539045
 20
16058.516898687
  0
LWPOLYLINE
  5
AAF45
330
B43A5
100
AcDbEntity
  8
0
  6
ByBlock
100
AcDbPolyline
 90
        4
 70
     1
 43
0.0
 10
19099.58639094058
 20
16058.51689868701
 10
19099.58639094058
 20
13935.51688915023
 10
19069.58639094058
 20
13935.51688915023
 10
19069.58639094058
 20
16058.51689868701
  0
LWPOLYLINE
  5
AAF46
330
B43A5
100
AcDbEntity
  8
0
  6
ByBlock
100
AcDbPolyline
 90
        4
 70
     1
 43
0.0
 10
14463.52986539044
 20
12325.38140867354
 10
14463.52986539044
 20
10202.38139913677
 10
14433.52986539045
 20
10202.38139913677
 10
14433.52986539045
 20
12325.38140867354
  0
LWPOLYLINE
  5
AAF47
330
B43A5
100
AcDbEntity
  8
0
  6
ByBlock
100
AcDbPolyline
 90
        4
 70
     1
 43
0.0
 10
19099.58639094051
 20
12325.38140867354
 10
19099.58639094051
 20
10202.38139913677
 10
19069.58639094051
 20
10202.38139913677
 10
19069.58639094051
 20
12325.38140867354
  0
TEXT
  5
AAF48
330
B43A5
100
AcDbEntity
  8
0
  6
ByBlock
100
AcDbText
 10
14147.61208006504
 20
9662.812398013786
 30
0.0
 40
125.0
  1
Modular Combinations (L=100 cm) / Componibilità moduli (L=100 cm) / Zusammensetzbarkeit Module (L=100 cm)
  7
STILE1
 72
     1
 11
19939.27874673171
 21
9662.812398013786
 31
0.0
100
AcDbText
  0
LWPOLYLINE
  5
AAF49
330
B43A5
100
AcDbEntity
  8
0
  6
ByBlock
100
AcDbPolyline
 90
        4
 70
     1
 43
0.0
 10
13550.0
 20
9565.002619770918
 10
26550.0
 20
9565.002619770918
 10
26550.0
 20
9865.002619770918
 10
13550.0
 20
9865.002619770918
  0
LWPOLYLINE
  5
AAF4A
330
B43A5
100
AcDbEntity
  8
0
  6
ByBlock
100
AcDbPolyline
 90
        4
 70
     1
 43
0.0
 10
13550.0
 20
17592.34759251489
 10
26550.0
 20
17592.34759251489
 10
26550.0
 20
17892.34759251489
 10
13550.0
 20
17892.34759251489
  0
TEXT
  5
AAF4B
330
B43A5
100
AcDbEntity
  8
0
  6
ByBlock
100
AcDbText
 10
14179.85348037868
 20
17690.15737075776
 30
0.0
 40
125.0
  1
Modular Combinations (L=120 cm) / Componibilità moduli (L=120 cm) / Zusammensetzbarkeit Module (L=120 cm)
  7
STILE1
 72
     1
 11
19971.52014704535
 21
17690.15737075776
 31
0.0
100
AcDbText
  0
LWPOLYLINE
  5
AAF4C
330
B43A5
100
AcDbEntity
  8
0
  6
ByBlock
100
AcDbPolyline
 90
        4
 70
     1
 43
0.0
 10
19099.58639094051
 20
20352.72638141752
 10
19099.58639094051
 20
18229.72637188075
 10
19069.58639094051
 20
18229.72637188075
 10
19069.58639094051
 20
20352.72638141752
  0
LWPOLYLINE
  5
AAF4D
330
B43A5
100
AcDbEntity
  8
0
  6
ByBlock
100
AcDbPolyline
 90
        4
 70
     1
 43
0.0
 10
14463.52986539044
 20
20352.72638141752
 10
14463.52986539044
 20
18229.72637188075
 10
14433.52986539045
 20
18229.72637188075
 10
14433.52986539045
 20
20352.72638141752
  0
LWPOLYLINE
  5
AAF4E
330
B43A5
100
AcDbEntity
  8
0
  6
ByBlock
100
AcDbPolyline
 90
        4
 70
     1
 43
0.0
 10
19099.58639094058
 20
24085.86187143098
 10
19099.58639094058
 20
21962.86186189421
 10
19069.58639094058
 20
21962.86186189421
 10
19069.58639094058
 20
24085.86187143098
  0
LWPOLYLINE
  5
AAF4F
330
B43A5
100
AcDbEntity
  8
0
  6
ByBlock
100
AcDbPolyline
 90
        4
 70
     1
 43
0.0
 10
14463.52986539045
 20
24085.86187143098
 10
14463.52986539045
 20
21962.86186189421
 10
14433.52986539045
 20
21962.86186189421
 10
14433.52986539045
 20
24085.86187143098
  0
LWPOLYLINE
  5
AAF50
330
B43A5
100
AcDbEntity
  8
0
  6
ByBlock
100
AcDbPolyline
 90
        4
 70
     1
 43
0.0
 10
15701.12986539054
 20
18234.72637188075
 10
15701.12986539054
 20
20352.72638141753
 10
15666.12986539054
 20
20352.72638141753
 10
15666.12986539054
 20
18234.72637188075
  0
LWPOLYLINE
  5
AAF51
330
B43A5
100
AcDbEntity
  8
0
  6
ByBlock
100
AcDbPolyline
 90
        6
 70
     1
 43
0.0
 10
14530.12986539054
 20
18229.72637188075
 10
14493.52986539044
 20
18229.72637188075
 10
14493.52986539044
 20
20352.72638141753
 10
14529.12986539054
 20
20352.72638141753
 10
14529.12986539054
 20
20312.72637188072
 10
14530.12986539054
 20
20312.72637188072
  0
LWPOLYLINE
  5
AAF52
330
B43A5
100
AcDbEntity
  8
0
  6
ByBlock
100
AcDbPolyline
 90
        4
 70
     1
 43
0.0
 10
15666.12986539054
 20
18253.22637188075
 10
15666.12986539054
 20
18312.72637188075
 10
14530.12986539054
 20
18312.72637188075
 10
14530.12986539054
 20
18253.22637188075
  0
LWPOLYLINE
  5
AAF53
330
B43A5
100
AcDbEntity
  8
0
  6
ByBlock
100
AcDbPolyline
 90
        4
 70
     1
 43
0.0
 10
14530.12986539054
 20
18312.72637188075
 10
14530.12986539054
 20
18342.72637188075
 10
15666.12986539054
 20
18342.72637188075
 10
15666.12986539054
 20
18312.72637188075
  0
LWPOLYLINE
  5
AAF54
330
B43A5
100
AcDbEntity
  8
0
  6
ByBlock
100
AcDbPolyline
 90
        4
 70
     1
 43
0.0
 10
15666.12986539054
 20
20240.22637188072
 10
15666.12986539054
 20
20265.22637188072
 10
14530.12986539054
 20
20265.22637188072
 10
14530.12986539054
 20
20240.22637188072
  0
LWPOLYLINE
  5
AAF55
330
B43A5
100
AcDbEntity
  8
0
  6
ByBlock
100
AcDbPolyline
 90
        4
 70
     1
 43
0.0
 10
14529.12986539054
 20
20312.72637188072
 10
14529.12986539054
 20
20352.72638141753
 10
15666.12986539054
 20
20352.72638141753
 10
15666.12986539054
 20
20312.72637188072
  0
LWPOLYLINE
  5
AAF56
330
B43A5
100
AcDbEntity
  8
0
  6
ByBlock
100
AcDbPolyline
 90
        9
 70
     1
 43
0.0
 10
15612.12986539054
 20
18253.22637188075
 10
15612.12986539054
 20
18226.32637188096
 10
15611.12986539054
 20
18225.32637188083
 10
15607.12986539054
 20
18225.32637188083
 10
15606.12986539054
 20
18226.32637188096
 10
15606.12986539054
 20
18232.82637188083
 10
15579.1476305474
 20
18233.29734854196
 10
15578.12986539054
 20
18234.3151136989
 10
15578.12986539054
 20
18253.22637188075
  0
LWPOLYLINE
  5
AAF57
330
B43A5
100
AcDbEntity
  8
0
  6
ByBlock
100
AcDbPolyline
 90
        9
 70
     1
 43
0.0
 10
14584.1298653906
 20
18253.22637188075
 10
14584.1298653906
 20
18226.32637188096
 10
14585.12986539054
 20
18225.32637188083
 10
14589.12986539059
 20
18225.32637188083
 10
14590.12986539054
 20
18226.32637188096
 10
14590.12986539054
 20
18232.82637188083
 10
14617.11210023366
 20
18233.29734854196
 10
14618.12986539054
 20
18234.3151136989
 10
14618.12986539054
 20
18253.22637188075
  0
LWPOLYLINE
  5
AAF58
330
B43A5
100
AcDbEntity
  8
0
  6
ByBlock
100
AcDbPolyline
 90
        4
 70
     1
 43
0.0
 10
15605.62986539054
 20
18232.7263718808
 10
15605.62986539054
 20
18212.7263718808
 10
14590.62986539054
 20
18212.7263718808
 10
14590.62986539054
 20
18232.7263718808
  0
LWPOLYLINE
  5
AAF59
330
B43A5
100
AcDbEntity
  8
0
  6
ByBlock
100
AcDbPolyline
 90
        4
 70
     1
 43
0.0
 10
14610.62986539054
 20
18212.7263718808
 10
14610.62986539054
 20
18232.7263718808
 10
14590.62986539054
 20
18232.7263718808
 10
14590.62986539054
 20
18212.7263718808
  0
LWPOLYLINE
  5
AAF5A
330
B43A5
100
AcDbEntity
  8
0
  6
ByBlock
100
AcDbPolyline
 90
        4
 70
     1
 43
0.0
 10
15585.62986539054
 20
18212.7263718808
 10
15585.62986539054
 20
18232.7263718808
 10
15605.62986539054
 20
18232.7263718808
 10
15605.62986539054
 20
18212.7263718808
  0
LWPOLYLINE
  5
AAF5B
330
B43A5
100
AcDbEntity
  8
0
  6
ByBlock
100
AcDbPolyline
 90
        4
 70
     1
 43
0.0
 10
15666.12986539054
 20
19342.72637188074
 10
15666.12986539054
 20
19312.72637188074
 10
14530.12986539054
 20
19312.72637188074
 10
14530.12986539054
 20
19342.72637188074
  0
LWPOLYLINE
  5
AAF5C
330
B43A5
100
AcDbEntity
  8
0
  6
ByBlock
100
AcDbPolyline
 90
        4
 70
     1
 43
0.0
 10
15666.12986539054
 20
19265.22637188075
 10
15666.12986539054
 20
19240.22637188074
 10
14530.12986539054
 20
19240.22637188074
 10
14530.12986539054
 20
19265.22637188075
  0
LWPOLYLINE
  5
AAF5D
330
B43A5
100
AcDbEntity
  8
0
  6
ByBlock
100
AcDbPolyline
 90
        4
 70
     1
 43
0.0
 10
20302.1863909406
 20
23795.86186189421
 10
20302.1863909406
 20
23825.86186189421
 10
19166.1863909406
 20
23825.86186189421
 10
19166.1863909406
 20
23795.86186189421
  0
LWPOLYLINE
  5
AAF5E
330
B43A5
100
AcDbEntity
  8
0
  6
ByBlock
100
AcDbPolyline
 90
        4
 70
     1
 43
0.0
 10
20302.1863909406
 20
23545.86186189421
 10
20302.1863909406
 20
23575.86186189421
 10
19166.1863909406
 20
23575.86186189421
 10
19166.1863909406
 20
23545.86186189421
  0
LWPOLYLINE
  5
AAF5F
330
B43A5
100
AcDbEntity
  8
0
  6
ByBlock
100
AcDbPolyline
 90
        4
 70
     1
 43
0.0
 10
20302.1863909406
 20
23295.86186189422
 10
20302.1863909406
 20
23325.86186189421
 10
19166.1863909406
 20
23325.86186189421
 10
19166.1863909406
 20
23295.86186189422
  0
LWPOLYLINE
  5
AAF60
330
B43A5
100
AcDbEntity
  8
0
  6
ByBlock
100
AcDbPolyline
 90
        4
 70
     1
 43
0.0
 10
20302.1863909406
 20
23045.86186189421
 10
20302.1863909406
 20
23075.8618618942
 10
19166.1863909406
 20
23075.8618618942
 10
19166.1863909406
 20
23045.86186189421
  0
LWPOLYLINE
  5
AAF61
330
B43A5
100
AcDbEntity
  8
0
  6
ByBlock
100
AcDbPolyline
 90
        4
 70
     1
 43
0.0
 10
20302.1863909406
 20
22795.86186189421
 10
20302.1863909406
 20
22825.86186189421
 10
19166.1863909406
 20
22825.86186189421
 10
19166.1863909406
 20
22795.86186189421
  0
LWPOLYLINE
  5
AAF62
330
B43A5
100
AcDbEntity
  8
0
  6
ByBlock
100
AcDbPolyline
 90
        4
 70
     1
 43
0.0
 10
20302.1863909406
 20
22545.86186189421
 10
20302.1863909406
 20
22575.86186189421
 10
19166.1863909406
 20
22575.86186189421
 10
19166.1863909406
 20
22545.86186189421
  0
LWPOLYLINE
  5
AAF63
330
B43A5
100
AcDbEntity
  8
0
  6
ByBlock
100
AcDbPolyline
 90
        4
 70
     1
 43
0.0
 10
20302.1863909406
 20
22295.86186189421
 10
20302.1863909406
 20
22325.86186189421
 10
19166.1863909406
 20
22325.86186189421
 10
19166.1863909406
 20
22295.86186189421
  0
LWPOLYLINE
  5
AAF64
330
B43A5
100
AcDbEntity
  8
0
  6
ByBlock
100
AcDbPolyline
 90
        4
 70
     1
 43
0.0
 10
20221.6863909406
 20
21945.86186189426
 10
20221.6863909406
 20
21965.86186189426
 10
20241.6863909406
 20
21965.86186189426
 10
20241.6863909406
 20
21945.86186189426
  0
LWPOLYLINE
  5
AAF65
330
B43A5
100
AcDbEntity
  8
0
  6
ByBlock
100
AcDbPolyline
 90
        4
 70
     1
 43
0.0
 10
19246.6863909406
 20
21945.86186189426
 10
19246.6863909406
 20
21965.86186189426
 10
19226.6863909406
 20
21965.86186189426
 10
19226.6863909406
 20
21945.86186189426
  0
LWPOLYLINE
  5
AAF66
330
B43A5
100
AcDbEntity
  8
0
  6
ByBlock
100
AcDbPolyline
 90
        4
 70
     1
 43
0.0
 10
20241.6863909406
 20
21965.86186189426
 10
20241.6863909406
 20
21945.86186189426
 10
19226.6863909406
 20
21945.86186189426
 10
19226.6863909406
 20
21965.86186189426
  0
LWPOLYLINE
  5
AAF67
330
B43A5
100
AcDbEntity
  8
0
  6
ByBlock
100
AcDbPolyline
 90
        9
 70
     1
 43
0.0
 10
19220.1863909406
 20
21986.36186189421
 10
19220.1863909406
 20
21959.46186189442
 10
19221.1863909406
 20
21958.46186189429
 10
19225.18639094059
 20
21958.46186189429
 10
19226.1863909406
 20
21959.46186189442
 10
19226.1863909406
 20
21965.96186189429
 10
19253.16862578373
 20
21966.43283855542
 10
19254.1863909406
 20
21967.45060371236
 10
19254.1863909406
 20
21986.36186189421
  0
LWPOLYLINE
  5
AAF68
330
B43A5
100
AcDbEntity
  8
0
  6
ByBlock
100
AcDbPolyline
 90
        9
 70
     1
 43
0.0
 10
20248.18639094054
 20
21986.36186189421
 10
20248.18639094054
 20
21959.46186189442
 10
20247.1863909406
 20
21958.46186189429
 10
20243.18639094054
 20
21958.46186189429
 10
20242.1863909406
 20
21959.46186189442
 10
20242.1863909406
 20
21965.96186189429
 10
20215.20415609748
 20
21966.43283855542
 10
20214.1863909406
 20
21967.45060371236
 10
20214.1863909406
 20
21986.36186189421
  0
LWPOLYLINE
  5
AAF69
330
B43A5
100
AcDbEntity
  8
0
  6
ByBlock
100
AcDbPolyline
 90
        4
 70
     1
 43
0.0
 10
19165.1863909406
 20
24045.86186189419
 10
19165.1863909406
 20
24085.86187143098
 10
20302.1863909406
 20
24085.86187143098
 10
20302.1863909406
 20
24045.86186189419
  0
LWPOLYLINE
  5
AAF6A
330
B43A5
100
AcDbEntity
  8
0
  6
ByBlock
100
AcDbPolyline
 90
        4
 70
     1
 43
0.0
 10
19166.1863909406
 20
22045.86186189422
 10
19166.1863909406
 20
22075.86186189421
 10
20302.1863909406
 20
22075.86186189421
 10
20302.1863909406
 20
22045.86186189422
  0
LWPOLYLINE
  5
AAF6B
330
B43A5
100
AcDbEntity
  8
0
  6
ByBlock
100
AcDbPolyline
 90
        4
 70
     1
 43
0.0
 10
20302.1863909406
 20
21986.36186189421
 10
20302.1863909406
 20
22045.86186189422
 10
19166.1863909406
 20
22045.86186189422
 10
19166.1863909406
 20
21986.36186189421
  0
LWPOLYLINE
  5
AAF6C
330
B43A5
100
AcDbEntity
  8
0
  6
ByBlock
100
AcDbPolyline
 90
        6
 70
     1
 43
0.0
 10
19166.1863909406
 20
21962.86186189421
 10
19129.58639094039
 20
21962.86186189421
 10
19129.58639094039
 20
24085.86187143098
 10
19165.1863909406
 20
24085.86187143098
 10
19165.1863909406
 20
24045.86186189419
 10
19166.1863909406
 20
24045.86186189419
  0
LWPOLYLINE
  5
AAF6D
330
B43A5
100
AcDbEntity
  8
0
  6
ByBlock
100
AcDbPolyline
 90
        4
 70
     1
 43
0.0
 10
20337.1863909406
 20
21967.86186189422
 10
20337.1863909406
 20
24085.86187143098
 10
20302.1863909406
 20
24085.86187143098
 10
20302.1863909406
 20
21967.86186189422
  0
LWPOLYLINE
  5
AAF6E
330
B43A5
100
AcDbEntity
  8
0
  6
ByBlock
100
AcDbPolyline
 90
        4
 70
     1
 43
0.0
 10
14530.1298653905
 20
23645.86186189421
 10
14530.1298653905
 20
23675.8618618942
 10
15666.1298653905
 20
23675.8618618942
 10
15666.1298653905
 20
23645.86186189421
  0
LWPOLYLINE
  5
AAF6F
330
B43A5
100
AcDbEntity
  8
0
  6
ByBlock
100
AcDbPolyline
 90
        4
 70
     1
 43
0.0
 10
15666.1298653905
 20
22445.86186189421
 10
15666.1298653905
 20
22475.86186189421
 10
14530.1298653905
 20
22475.86186189421
 10
14530.1298653905
 20
22445.86186189421
  0
LWPOLYLINE
  5
AAF70
330
B43A5
100
AcDbEntity
  8
0
  6
ByBlock
100
AcDbPolyline
 90
        4
 70
     1
 43
0.0
 10
15666.1298653905
 20
23245.86186189421
 10
15666.1298653905
 20
23275.8618618942
 10
14530.1298653905
 20
23275.8618618942
 10
14530.1298653905
 20
23245.86186189421
  0
LWPOLYLINE
  5
AAF71
330
B43A5
100
AcDbEntity
  8
0
  6
ByBlock
100
AcDbPolyline
 90
        4
 70
     1
 43
0.0
 10
14530.1298653905
 20
22845.86186189421
 10
14530.1298653905
 20
22875.86186189421
 10
15666.1298653905
 20
22875.86186189421
 10
15666.1298653905
 20
22845.86186189421
  0
LWPOLYLINE
  5
AAF72
330
B43A5
100
AcDbEntity
  8
0
  6
ByBlock
100
AcDbPolyline
 90
        4
 70
     1
 43
0.0
 10
15585.6298653905
 20
21945.86186189426
 10
15585.6298653905
 20
21965.86186189426
 10
15605.6298653905
 20
21965.86186189426
 10
15605.6298653905
 20
21945.86186189426
  0
LWPOLYLINE
  5
AAF73
330
B43A5
100
AcDbEntity
  8
0
  6
ByBlock
100
AcDbPolyline
 90
        4
 70
     1
 43
0.0
 10
14610.6298653905
 20
21945.86186189426
 10
14610.6298653905
 20
21965.86186189426
 10
14590.6298653905
 20
21965.86186189426
 10
14590.6298653905
 20
21945.86186189426
  0
LWPOLYLINE
  5
AAF74
330
B43A5
100
AcDbEntity
  8
0
  6
ByBlock
100
AcDbPolyline
 90
        4
 70
     1
 43
0.0
 10
15605.6298653905
 20
21965.86186189426
 10
15605.6298653905
 20
21945.86186189426
 10
14590.6298653905
 20
21945.86186189426
 10
14590.6298653905
 20
21965.86186189426
  0
LWPOLYLINE
  5
AAF75
330
B43A5
100
AcDbEntity
  8
0
  6
ByBlock
100
AcDbPolyline
 90
        9
 70
     1
 43
0.0
 10
14584.12986539058
 20
21986.36186189421
 10
14584.12986539058
 20
21959.46186189442
 10
14585.1298653905
 20
21958.46186189429
 10
14589.12986539061
 20
21958.46186189429
 10
14590.1298653905
 20
21959.46186189442
 10
14590.1298653905
 20
21965.96186189429
 10
14617.11210023374
 20
21966.43283855542
 10
14618.1298653905
 20
21967.45060371236
 10
14618.1298653905
 20
21986.36186189421
  0
LWPOLYLINE
  5
AAF76
330
B43A5
100
AcDbEntity
  8
0
  6
ByBlock
100
AcDbPolyline
 90
        9
 70
     1
 43
0.0
 10
15612.1298653905
 20
21986.36186189421
 10
15612.1298653905
 20
21959.46186189442
 10
15611.1298653905
 20
21958.46186189429
 10
15607.1298653905
 20
21958.46186189429
 10
15606.1298653905
 20
21959.46186189442
 10
15606.1298653905
 20
21965.96186189429
 10
15579.14763054741
 20
21966.43283855542
 10
15578.1298653905
 20
21967.45060371236
 10
15578.1298653905
 20
21986.36186189421
  0
LWPOLYLINE
  5
AAF77
330
B43A5
100
AcDbEntity
  8
0
  6
ByBlock
100
AcDbPolyline
 90
        4
 70
     1
 43
0.0
 10
14529.1298653905
 20
24045.86186189418
 10
14529.1298653905
 20
24085.86187143098
 10
15666.1298653905
 20
24085.86187143098
 10
15666.1298653905
 20
24045.86186189418
  0
LWPOLYLINE
  5
AAF78
330
B43A5
100
AcDbEntity
  8
0
  6
ByBlock
100
AcDbPolyline
 90
        4
 70
     1
 43
0.0
 10
14530.1298653905
 20
22045.86186189422
 10
14530.1298653905
 20
22075.86186189421
 10
15666.1298653905
 20
22075.86186189421
 10
15666.1298653905
 20
22045.86186189422
  0
LWPOLYLINE
  5
AAF79
330
B43A5
100
AcDbEntity
  8
0
  6
ByBlock
100
AcDbPolyline
 90
        4
 70
     1
 43
0.0
 10
15666.1298653905
 20
21986.36186189421
 10
15666.1298653905
 20
22045.86186189422
 10
14530.1298653905
 20
22045.86186189422
 10
14530.1298653905
 20
21986.36186189421
  0
LWPOLYLINE
  5
AAF7A
330
B43A5
100
AcDbEntity
  8
0
  6
ByBlock
100
AcDbPolyline
 90
        6
 70
     1
 43
0.0
 10
14530.1298653905
 20
21962.86186189421
 10
14493.52986539045
 20
21962.86186189421
 10
14493.52986539045
 20
24085.86187143098
 10
14529.1298653905
 20
24085.86187143098
 10
14529.1298653905
 20
24045.86186189418
 10
14530.1298653905
 20
24045.86186189418
  0
LWPOLYLINE
  5
AAF7B
330
B43A5
100
AcDbEntity
  8
0
  6
ByBlock
100
AcDbPolyline
 90
        4
 70
     1
 43
0.0
 10
15701.12986539051
 20
21967.86186189422
 10
15701.12986539051
 20
24085.86187143098
 10
15666.1298653905
 20
24085.86187143098
 10
15666.1298653905
 20
21967.86186189422
  0
LWPOLYLINE
  5
AAF7C
330
B43A5
100
AcDbEntity
  8
0
  6
ByBlock
100
AcDbPolyline
 90
        4
 70
     1
 43
0.0
 10
20337.18639094054
 20
18234.72637188075
 10
20337.18639094054
 20
20352.72638141752
 10
20302.18639094054
 20
20352.72638141752
 10
20302.18639094054
 20
18234.72637188075
  0
LWPOLYLINE
  5
AAF7D
330
B43A5
100
AcDbEntity
  8
0
  6
ByBlock
100
AcDbPolyline
 90
        6
 70
     1
 43
0.0
 10
19166.18639094054
 20
18229.72637188075
 10
19129.58639094035
 20
18229.72637188075
 10
19129.58639094035
 20
20352.72638141752
 10
19165.18639094054
 20
20352.72638141752
 10
19165.18639094054
 20
20312.72637188072
 10
19166.18639094054
 20
20312.72637188072
  0
LWPOLYLINE
  5
AAF7E
330
B43A5
100
AcDbEntity
  8
0
  6
ByBlock
100
AcDbPolyline
 90
        4
 70
     1
 43
0.0
 10
19165.18639094054
 20
20312.72637188072
 10
19165.18639094054
 20
20352.72638141752
 10
20302.18639094054
 20
20352.72638141752
 10
20302.18639094054
 20
20312.72637188072
  0
LWPOLYLINE
  5
AAF7F
330
B43A5
100
AcDbEntity
  8
0
  6
ByBlock
100
AcDbPolyline
 90
        9
 70
     1
 43
0.0
 10
20248.1863909405
 20
18253.22637188075
 10
20248.1863909405
 20
18226.32637188095
 10
20247.18639094054
 20
18225.32637188083
 10
20243.1863909405
 20
18225.32637188083
 10
20242.18639094053
 20
18226.32637188095
 10
20242.18639094053
 20
18232.82637188083
 10
20215.2041560974
 20
18233.29734854196
 10
20214.18639094054
 20
18234.3151136989
 10
20214.18639094054
 20
18253.22637188075
  0
LWPOLYLINE
  5
AAF80
330
B43A5
100
AcDbEntity
  8
0
  6
ByBlock
100
AcDbPolyline
 90
        9
 70
     1
 43
0.0
 10
19220.18639094052
 20
18253.22637188075
 10
19220.18639094052
 20
18226.32637188095
 10
19221.18639094052
 20
18225.32637188083
 10
19225.18639094054
 20
18225.32637188083
 10
19226.18639094054
 20
18226.32637188095
 10
19226.18639094054
 20
18232.82637188083
 10
19253.16862578368
 20
18233.29734854196
 10
19254.18639094052
 20
18234.3151136989
 10
19254.18639094052
 20
18253.22637188075
  0
LWPOLYLINE
  5
AAF81
330
B43A5
100
AcDbEntity
  8
0
  6
ByBlock
100
AcDbPolyline
 90
        4
 70
     1
 43
0.0
 10
20241.68639094054
 20
18232.72637188079
 10
20241.68639094054
 20
18212.72637188079
 10
19226.68639094052
 20
18212.72637188079
 10
19226.68639094052
 20
18232.72637188079
  0
LWPOLYLINE
  5
AAF82
330
B43A5
100
AcDbEntity
  8
0
  6
ByBlock
100
AcDbPolyline
 90
        4
 70
     1
 43
0.0
 10
19246.68639094052
 20
18212.72637188079
 10
19246.68639094052
 20
18232.72637188079
 10
19226.68639094052
 20
18232.72637188079
 10
19226.68639094052
 20
18212.72637188079
  0
LWPOLYLINE
  5
AAF83
330
B43A5
100
AcDbEntity
  8
0
  6
ByBlock
100
AcDbPolyline
 90
        4
 70
     1
 43
0.0
 10
20221.68639094054
 20
18212.72637188079
 10
20221.68639094054
 20
18232.72637188079
 10
20241.68639094054
 20
18232.72637188079
 10
20241.68639094054
 20
18212.72637188079
  0
LWPOLYLINE
  5
AAF86
330
B43A5
100
AcDbEntity
  8
0
  6
ByBlock
100
AcDbPolyline
 90
        4
 70
     1
 43
0.0
 10
20302.1863909405
 20
18253.22637188075
 10
20302.1863909405
 20
18312.72637188075
 10
19166.1863909405
 20
18312.72637188075
 10
19166.1863909405
 20
18253.22637188075
  0
LWPOLYLINE
  5
AAF88
330
B43A5
100
AcDbEntity
  8
0
  6
ByBlock
100
AcDbPolyline
 90
        2
 70
     0
 43
0.0
 10
14197.12986539054
 20
21945.86186189426
 10
22554.48951026663
 20
21945.86186189427
  0
LWPOLYLINE
  5
AAF89
330
B43A5
100
AcDbEntity
  8
0
  6
ByBlock
100
AcDbPolyline
 90
        2
 70
     0
 43
0.0
 10
14197.12986539054
 20
18212.72637188079
 10
22554.48951026663
 20
18212.72637188079
  0
LWPOLYLINE
  5
AAF8F
330
B43A5
100
AcDbEntity
  8
0
  6
ByBlock
100
AcDbPolyline
 90
        2
 70
     0
 43
0.0
 10
25109.50129716488
 20
18212.72637188079
 10
24113.08787004944
 20
18212.72637188079
  0
LWPOLYLINE
  5
AAF92
330
B43A5
100
AcDbEntity
  8
0
  6
ByBlock
100
AcDbPolyline
 90
        2
 70
     0
 43
0.0
 10
25109.50129716488
 20
21945.86186189426
 10
24113.08787004944
 20
21945.86186189426
  0
LWPOLYLINE
  5
AAF93
330
B43A5
100
AcDbEntity
  8
0
  6
ByBlock
100
AcDbPolyline
 90
        4
 70
     1
 43
0.0
 10
24911.29458360715
 20
21962.86186189421
 10
24311.29458360716
 20
21962.86186189421
 10
24311.29458360716
 20
24085.86187143098
 10
24911.29458360715
 20
24085.86187143098
  0
LWPOLYLINE
  5
AAF94
330
B43A5
100
AcDbEntity
  8
0
  6
ByBlock
100
AcDbPolyline
 90
        4
 70
     1
 43
0.0
 10
24911.29458360715
 20
18229.72637188075
 10
24311.29458360716
 20
18229.72637188075
 10
24311.29458360716
 20
20352.72638141752
 10
24911.29458360715
 20
20352.72638141752
  0
LWPOLYLINE
  5
AAF95
330
B43A5
100
AcDbEntity
  8
0
  6
ByBlock
100
AcDbPolyline
 90
        4
 70
     1
 43
0.0
 10
13550.0
 20
25069.69256525888
 10
26550.0
 20
25069.69256525888
 10
26550.0
 20
17592.34759251489
 10
13550.0
 20
17592.34759251489
  0
LWPOLYLINE
  5
AAF96
330
B43A5
100
AcDbEntity
  8
0
  6
ByBlock
100
AcDbPolyline
 90
        4
 70
     1
 43
0.0
 10
17701.12986539051
 20
21967.86186189422
 10
17701.12986539051
 20
24485.86186189427
 10
17666.1298653905
 20
24485.86186189427
 10
17666.1298653905
 20
21967.86186189422
  0
LWPOLYLINE
  5
AAF97
330
B43A5
100
AcDbEntity
  8
0
  6
ByBlock
100
AcDbPolyline
 90
        6
 70
     1
 43
0.0
 10
16530.1298653905
 20
21962.86186189421
 10
16493.52986539045
 20
21962.86186189421
 10
16493.52986539045
 20
24485.86186189427
 10
16529.1298653905
 20
24485.86186189427
 10
16529.1298653905
 20
24445.86185235746
 10
16530.1298653905
 20
24445.86185235746
  0
LWPOLYLINE
  5
AAF98
330
B43A5
100
AcDbEntity
  8
0
  6
ByBlock
100
AcDbPolyline
 90
        4
 70
     1
 43
0.0
 10
17666.1298653905
 20
21986.36186189421
 10
17666.1298653905
 20
22045.86186189422
 10
16530.1298653905
 20
22045.86186189422
 10
16530.1298653905
 20
21986.36186189421
  0
LWPOLYLINE
  5
AAF99
330
B43A5
100
AcDbEntity
  8
0
  6
ByBlock
100
AcDbPolyline
 90
        4
 70
     1
 43
0.0
 10
16530.1298653905
 20
22045.86186189422
 10
16530.1298653905
 20
22075.86186189421
 10
17666.1298653905
 20
22075.86186189421
 10
17666.1298653905
 20
22045.86186189422
  0
LWPOLYLINE
  5
AAF9A
330
B43A5
100
AcDbEntity
  8
0
  6
ByBlock
100
AcDbPolyline
 90
        4
 70
     1
 43
0.0
 10
16529.1298653905
 20
24445.86185235746
 10
16529.1298653905
 20
24485.86186189427
 10
17666.1298653905
 20
24485.86186189427
 10
17666.1298653905
 20
24445.86185235746
  0
LWPOLYLINE
  5
AAF9B
330
B43A5
100
AcDbEntity
  8
0
  6
ByBlock
100
AcDbPolyline
 90
        9
 70
     1
 43
0.0
 10
17612.1298653905
 20
21986.36186189421
 10
17612.1298653905
 20
21959.46186189442
 10
17611.1298653905
 20
21958.46186189429
 10
17607.1298653905
 20
21958.46186189429
 10
17606.1298653905
 20
21959.46186189442
 10
17606.1298653905
 20
21965.96186189429
 10
17579.14763054741
 20
21966.43283855542
 10
17578.1298653905
 20
21967.45060371236
 10
17578.1298653905
 20
21986.36186189421
  0
LWPOLYLINE
  5
AAF9C
330
B43A5
100
AcDbEntity
  8
0
  6
ByBlock
100
AcDbPolyline
 90
        9
 70
     1
 43
0.0
 10
16584.12986539058
 20
21986.36186189421
 10
16584.12986539058
 20
21959.46186189442
 10
16585.1298653905
 20
21958.46186189429
 10
16589.12986539061
 20
21958.46186189429
 10
16590.1298653905
 20
21959.46186189442
 10
16590.1298653905
 20
21965.96186189429
 10
16617.11210023374
 20
21966.43283855542
 10
16618.1298653905
 20
21967.45060371236
 10
16618.1298653905
 20
21986.36186189421
  0
LWPOLYLINE
  5
AAF9D
330
B43A5
100
AcDbEntity
  8
0
  6
ByBlock
100
AcDbPolyline
 90
        4
 70
     1
 43
0.0
 10
17605.6298653905
 20
21965.86186189426
 10
17605.6298653905
 20
21945.86186189426
 10
16590.6298653905
 20
21945.86186189426
 10
16590.6298653905
 20
21965.86186189426
  0
LWPOLYLINE
  5
AAF9E
330
B43A5
100
AcDbEntity
  8
0
  6
ByBlock
100
AcDbPolyline
 90
        4
 70
     1
 43
0.0
 10
16610.6298653905
 20
21945.86186189426
 10
16610.6298653905
 20
21965.86186189426
 10
16590.6298653905
 20
21965.86186189426
 10
16590.6298653905
 20
21945.86186189426
  0
LWPOLYLINE
  5
AAF9F
330
B43A5
100
AcDbEntity
  8
0
  6
ByBlock
100
AcDbPolyline
 90
        4
 70
     1
 43
0.0
 10
17585.6298653905
 20
21945.86186189426
 10
17585.6298653905
 20
21965.86186189426
 10
17605.6298653905
 20
21965.86186189426
 10
17605.6298653905
 20
21945.86186189426
  0
LWPOLYLINE
  5
AAFA0
330
B43A5
100
AcDbEntity
  8
0
  6
ByBlock
100
AcDbPolyline
 90
        4
 70
     1
 43
0.0
 10
16530.1298653905
 20
22845.86186189421
 10
16530.1298653905
 20
22875.86186189421
 10
17666.1298653905
 20
22875.86186189421
 10
17666.1298653905
 20
22845.86186189421
  0
LWPOLYLINE
  5
AAFA1
330
B43A5
100
AcDbEntity
  8
0
  6
ByBlock
100
AcDbPolyline
 90
        4
 70
     1
 43
0.0
 10
17666.1298653905
 20
23245.86186189421
 10
17666.1298653905
 20
23275.8618618942
 10
16530.1298653905
 20
23275.8618618942
 10
16530.1298653905
 20
23245.86186189421
  0
LWPOLYLINE
  5
AAFA2
330
B43A5
100
AcDbEntity
  8
0
  6
ByBlock
100
AcDbPolyline
 90
        4
 70
     1
 43
0.0
 10
17666.1298653905
 20
22445.86186189421
 10
17666.1298653905
 20
22475.86186189421
 10
16530.1298653905
 20
22475.86186189421
 10
16530.1298653905
 20
22445.86186189421
  0
LWPOLYLINE
  5
AAFA3
330
B43A5
100
AcDbEntity
  8
0
  6
ByBlock
100
AcDbPolyline
 90
        4
 70
     1
 43
0.0
 10
16530.1298653905
 20
23645.86186189421
 10
16530.1298653905
 20
23675.8618618942
 10
17666.1298653905
 20
23675.8618618942
 10
17666.1298653905
 20
23645.86186189421
  0
LWPOLYLINE
  5
AAFA4
330
B43A5
100
AcDbEntity
  8
0
  6
ByBlock
100
AcDbPolyline
 90
        4
 70
     1
 43
0.0
 10
17666.12986539054
 20
19265.22637188075
 10
17666.12986539054
 20
19240.22637188074
 10
16530.12986539054
 20
19240.22637188074
 10
16530.12986539054
 20
19265.22637188075
  0
LWPOLYLINE
  5
AAFA5
330
B43A5
100
AcDbEntity
  8
0
  6
ByBlock
100
AcDbPolyline
 90
        4
 70
     1
 43
0.0
 10
17666.12986539054
 20
19342.72637188074
 10
17666.12986539054
 20
19312.72637188074
 10
16530.12986539054
 20
19312.72637188074
 10
16530.12986539054
 20
19342.72637188074
  0
LWPOLYLINE
  5
AAFA6
330
B43A5
100
AcDbEntity
  8
0
  6
ByBlock
100
AcDbPolyline
 90
        4
 70
     1
 43
0.0
 10
17585.62986539054
 20
18212.7263718808
 10
17585.62986539054
 20
18232.7263718808
 10
17605.62986539054
 20
18232.7263718808
 10
17605.62986539054
 20
18212.7263718808
  0
LWPOLYLINE
  5
AAFA7
330
B43A5
100
AcDbEntity
  8
0
  6
ByBlock
100
AcDbPolyline
 90
        4
 70
     1
 43
0.0
 10
16610.62986539054
 20
18212.7263718808
 10
16610.62986539054
 20
18232.7263718808
 10
16590.62986539054
 20
18232.7263718808
 10
16590.62986539054
 20
18212.7263718808
  0
LWPOLYLINE
  5
AAFA8
330
B43A5
100
AcDbEntity
  8
0
  6
ByBlock
100
AcDbPolyline
 90
        4
 70
     1
 43
0.0
 10
17605.62986539054
 20
18232.7263718808
 10
17605.62986539054
 20
18212.7263718808
 10
16590.62986539054
 20
18212.7263718808
 10
16590.62986539054
 20
18232.7263718808
  0
LWPOLYLINE
  5
AAFA9
330
B43A5
100
AcDbEntity
  8
0
  6
ByBlock
100
AcDbPolyline
 90
        9
 70
     1
 43
0.0
 10
16584.1298653906
 20
18253.22637188075
 10
16584.1298653906
 20
18226.32637188096
 10
16585.12986539054
 20
18225.32637188083
 10
16589.12986539059
 20
18225.32637188083
 10
16590.12986539054
 20
18226.32637188096
 10
16590.12986539054
 20
18232.82637188083
 10
16617.11210023366
 20
18233.29734854196
 10
16618.12986539054
 20
18234.3151136989
 10
16618.12986539054
 20
18253.22637188075
  0
LWPOLYLINE
  5
AAFAA
330
B43A5
100
AcDbEntity
  8
0
  6
ByBlock
100
AcDbPolyline
 90
        9
 70
     1
 43
0.0
 10
17612.12986539054
 20
18253.22637188075
 10
17612.12986539054
 20
18226.32637188096
 10
17611.12986539054
 20
18225.32637188083
 10
17607.12986539054
 20
18225.32637188083
 10
17606.12986539054
 20
18226.32637188096
 10
17606.12986539054
 20
18232.82637188083
 10
17579.1476305474
 20
18233.29734854196
 10
17578.12986539054
 20
18234.3151136989
 10
17578.12986539054
 20
18253.22637188075
  0
LWPOLYLINE
  5
AAFAB
330
B43A5
100
AcDbEntity
  8
0
  6
ByBlock
100
AcDbPolyline
 90
        4
 70
     1
 43
0.0
 10
16529.12986539054
 20
20712.72636234399
 10
16529.12986539054
 20
20752.7263718808
 10
17666.12986539054
 20
20752.7263718808
 10
17666.12986539054
 20
20712.72636234399
  0
LWPOLYLINE
  5
AAFAC
330
B43A5
100
AcDbEntity
  8
0
  6
ByBlock
100
AcDbPolyline
 90
        4
 70
     1
 43
0.0
 10
17666.12986539054
 20
20240.22637188072
 10
17666.12986539054
 20
20265.22637188072
 10
16530.12986539054
 20
20265.22637188072
 10
16530.12986539054
 20
20240.22637188072
  0
LWPOLYLINE
  5
AAFAD
330
B43A5
100
AcDbEntity
  8
0
  6
ByBlock
100
AcDbPolyline
 90
        4
 70
     1
 43
0.0
 10
16530.12986539054
 20
18312.72637188075
 10
16530.12986539054
 20
18342.72637188075
 10
17666.12986539054
 20
18342.72637188075
 10
17666.12986539054
 20
18312.72637188075
  0
LWPOLYLINE
  5
AAFAE
330
B43A5
100
AcDbEntity
  8
0
  6
ByBlock
100
AcDbPolyline
 90
        4
 70
     1
 43
0.0
 10
17666.12986539054
 20
18253.22637188075
 10
17666.12986539054
 20
18312.72637188075
 10
16530.12986539054
 20
18312.72637188075
 10
16530.12986539054
 20
18253.22637188075
  0
LWPOLYLINE
  5
AAFAF
330
B43A5
100
AcDbEntity
  8
0
  6
ByBlock
100
AcDbPolyline
 90
        6
 70
     1
 43
0.0
 10
16530.12986539054
 20
18229.72637188075
 10
16493.52986539044
 20
18229.72637188075
 10
16493.52986539044
 20
20752.7263718808
 10
16529.12986539054
 20
20752.7263718808
 10
16529.12986539054
 20
20712.72636234399
 10
16530.12986539054
 20
20712.72636234399
  0
LWPOLYLINE
  5
AAFB0
330
B43A5
100
AcDbEntity
  8
0
  6
ByBlock
100
AcDbPolyline
 90
        4
 70
     1
 43
0.0
 10
17701.12986539054
 20
18234.72637188075
 10
17701.12986539054
 20
20752.7263718808
 10
17666.12986539054
 20
20752.7263718808
 10
17666.12986539054
 20
18234.72637188075
  0
LWPOLYLINE
  5
AAFB1
330
B43A5
100
AcDbEntity
  8
0
  6
ByBlock
100
AcDbPolyline
 90
        4
 70
     1
 43
0.0
 10
16463.52986539044
 20
24485.86186189427
 10
16463.52986539044
 20
21962.86186189421
 10
16433.52986539045
 20
21962.86186189421
 10
16433.52986539045
 20
24485.86186189427
  0
LWPOLYLINE
  5
AAFB2
330
B43A5
100
AcDbEntity
  8
0
  6
ByBlock
100
AcDbPolyline
 90
        4
 70
     1
 43
0.0
 10
16463.52986539044
 20
20752.72637188079
 10
16463.52986539044
 20
18229.72637188075
 10
16433.52986539045
 20
18229.72637188075
 10
16433.52986539045
 20
20752.72637188079
  0
LWPOLYLINE
  5
AAFB9
330
B43A5
100
AcDbEntity
  8
0
  6
ByBlock
100
AcDbPolyline
 90
        4
 70
     1
 43
0.0
 10
22302.1863909405
 20
18253.22637188075
 10
22302.1863909405
 20
18312.72637188075
 10
21166.1863909405
 20
18312.72637188075
 10
21166.1863909405
 20
18253.22637188075
  0
LWPOLYLINE
  5
AAFBC
330
B43A5
100
AcDbEntity
  8
0
  6
ByBlock
100
AcDbPolyline
 90
        4
 70
     1
 43
0.0
 10
22221.68639094054
 20
18212.72637188079
 10
22221.68639094054
 20
18232.72637188079
 10
22241.68639094054
 20
18232.72637188079
 10
22241.68639094054
 20
18212.72637188079
  0
LWPOLYLINE
  5
AAFBD
330
B43A5
100
AcDbEntity
  8
0
  6
ByBlock
100
AcDbPolyline
 90
        4
 70
     1
 43
0.0
 10
21246.68639094054
 20
18212.72637188079
 10
21246.68639094054
 20
18232.72637188079
 10
21226.68639094054
 20
18232.72637188079
 10
21226.68639094054
 20
18212.72637188079
  0
LWPOLYLINE
  5
AAFBE
330
B43A5
100
AcDbEntity
  8
0
  6
ByBlock
100
AcDbPolyline
 90
        4
 70
     1
 43
0.0
 10
22241.68639094054
 20
18232.72637188079
 10
22241.68639094054
 20
18212.72637188079
 10
21226.68639094054
 20
18212.72637188079
 10
21226.68639094054
 20
18232.72637188079
  0
LWPOLYLINE
  5
AAFBF
330
B43A5
100
AcDbEntity
  8
0
  6
ByBlock
100
AcDbPolyline
 90
        9
 70
     1
 43
0.0
 10
21220.18639094054
 20
18253.22637188075
 10
21220.18639094054
 20
18226.32637188095
 10
21221.18639094054
 20
18225.32637188083
 10
21225.18639094054
 20
18225.32637188083
 10
21226.18639094054
 20
18226.32637188095
 10
21226.18639094054
 20
18232.82637188083
 10
21253.16862578368
 20
18233.29734854196
 10
21254.18639094054
 20
18234.3151136989
 10
21254.18639094054
 20
18253.22637188075
  0
LWPOLYLINE
  5
AAFC0
330
B43A5
100
AcDbEntity
  8
0
  6
ByBlock
100
AcDbPolyline
 90
        9
 70
     1
 43
0.0
 10
22248.1863909405
 20
18253.22637188075
 10
22248.1863909405
 20
18226.32637188095
 10
22247.18639094054
 20
18225.32637188083
 10
22243.1863909405
 20
18225.32637188083
 10
22242.18639094055
 20
18226.32637188095
 10
22242.18639094055
 20
18232.82637188083
 10
22215.2041560974
 20
18233.29734854196
 10
22214.18639094054
 20
18234.3151136989
 10
22214.18639094054
 20
18253.22637188075
  0
LWPOLYLINE
  5
AAFC1
330
B43A5
100
AcDbEntity
  8
0
  6
ByBlock
100
AcDbPolyline
 90
        4
 70
     1
 43
0.0
 10
21165.18639094054
 20
20712.72636234399
 10
21165.18639094054
 20
20752.7263718808
 10
22302.18639094054
 20
20752.7263718808
 10
22302.18639094054
 20
20712.72636234399
  0
LWPOLYLINE
  5
AAFC2
330
B43A5
100
AcDbEntity
  8
0
  6
ByBlock
100
AcDbPolyline
 90
        6
 70
     1
 43
0.0
 10
21166.18639094054
 20
18229.72637188075
 10
21129.58639094035
 20
18229.72637188075
 10
21129.58639094035
 20
20752.7263718808
 10
21165.18639094054
 20
20752.7263718808
 10
21165.18639094054
 20
20712.72636234399
 10
21166.18639094054
 20
20712.72636234399
  0
LWPOLYLINE
  5
AAFC3
330
B43A5
100
AcDbEntity
  8
0
  6
ByBlock
100
AcDbPolyline
 90
        4
 70
     1
 43
0.0
 10
22337.18639094055
 20
18234.72637188075
 10
22337.18639094055
 20
20752.7263718808
 10
22302.18639094054
 20
20752.7263718808
 10
22302.18639094054
 20
18234.72637188075
  0
LWPOLYLINE
  5
AAFC4
330
B43A5
100
AcDbEntity
  8
0
  6
ByBlock
100
AcDbPolyline
 90
        4
 70
     1
 43
0.0
 10
22337.1863909406
 20
21967.86186189422
 10
22337.1863909406
 20
24485.86186189427
 10
22302.1863909406
 20
24485.86186189427
 10
22302.1863909406
 20
21967.86186189422
  0
LWPOLYLINE
  5
AAFC5
330
B43A5
100
AcDbEntity
  8
0
  6
ByBlock
100
AcDbPolyline
 90
        6
 70
     1
 43
0.0
 10
21166.1863909406
 20
21962.86186189421
 10
21129.58639094039
 20
21962.86186189421
 10
21129.58639094039
 20
24485.86186189427
 10
21165.1863909406
 20
24485.86186189427
 10
21165.1863909406
 20
24445.86185235746
 10
21166.1863909406
 20
24445.86185235746
  0
LWPOLYLINE
  5
AAFC6
330
B43A5
100
AcDbEntity
  8
0
  6
ByBlock
100
AcDbPolyline
 90
        4
 70
     1
 43
0.0
 10
22302.1863909406
 20
21986.36186189421
 10
22302.1863909406
 20
22045.86186189422
 10
21166.1863909406
 20
22045.86186189422
 10
21166.1863909406
 20
21986.36186189421
  0
LWPOLYLINE
  5
AAFC7
330
B43A5
100
AcDbEntity
  8
0
  6
ByBlock
100
AcDbPolyline
 90
        4
 70
     1
 43
0.0
 10
21166.1863909406
 20
22045.86186189422
 10
21166.1863909406
 20
22075.86186189421
 10
22302.1863909406
 20
22075.86186189421
 10
22302.1863909406
 20
22045.86186189422
  0
LWPOLYLINE
  5
AAFC8
330
B43A5
100
AcDbEntity
  8
0
  6
ByBlock
100
AcDbPolyline
 90
        4
 70
     1
 43
0.0
 10
21165.1863909406
 20
24445.86185235746
 10
21165.1863909406
 20
24485.86186189427
 10
22302.1863909406
 20
24485.86186189427
 10
22302.1863909406
 20
24445.86185235746
  0
LWPOLYLINE
  5
AAFC9
330
B43A5
100
AcDbEntity
  8
0
  6
ByBlock
100
AcDbPolyline
 90
        9
 70
     1
 43
0.0
 10
22248.18639094054
 20
21986.36186189421
 10
22248.18639094054
 20
21959.46186189442
 10
22247.1863909406
 20
21958.46186189429
 10
22243.18639094054
 20
21958.46186189429
 10
22242.1863909406
 20
21959.46186189442
 10
22242.1863909406
 20
21965.96186189429
 10
22215.20415609748
 20
21966.43283855542
 10
22214.1863909406
 20
21967.45060371236
 10
22214.1863909406
 20
21986.36186189421
  0
LWPOLYLINE
  5
AAFCA
330
B43A5
100
AcDbEntity
  8
0
  6
ByBlock
100
AcDbPolyline
 90
        9
 70
     1
 43
0.0
 10
21220.1863909406
 20
21986.36186189421
 10
21220.1863909406
 20
21959.46186189442
 10
21221.1863909406
 20
21958.46186189429
 10
21225.1863909406
 20
21958.46186189429
 10
21226.1863909406
 20
21959.46186189442
 10
21226.1863909406
 20
21965.96186189429
 10
21253.16862578373
 20
21966.43283855542
 10
21254.1863909406
 20
21967.45060371236
 10
21254.1863909406
 20
21986.36186189421
  0
LWPOLYLINE
  5
AAFCB
330
B43A5
100
AcDbEntity
  8
0
  6
ByBlock
100
AcDbPolyline
 90
        4
 70
     1
 43
0.0
 10
22241.6863909406
 20
21965.86186189426
 10
22241.6863909406
 20
21945.86186189426
 10
21226.6863909406
 20
21945.86186189426
 10
21226.6863909406
 20
21965.86186189426
  0
LWPOLYLINE
  5
AAFCC
330
B43A5
100
AcDbEntity
  8
0
  6
ByBlock
100
AcDbPolyline
 90
        4
 70
     1
 43
0.0
 10
21246.6863909406
 20
21945.86186189426
 10
21246.6863909406
 20
21965.86186189426
 10
21226.6863909406
 20
21965.86186189426
 10
21226.6863909406
 20
21945.86186189426
  0
LWPOLYLINE
  5
AAFCD
330
B43A5
100
AcDbEntity
  8
0
  6
ByBlock
100
AcDbPolyline
 90
        4
 70
     1
 43
0.0
 10
22221.6863909406
 20
21945.86186189426
 10
22221.6863909406
 20
21965.86186189426
 10
22241.6863909406
 20
21965.86186189426
 10
22241.6863909406
 20
21945.86186189426
  0
LWPOLYLINE
  5
AAFCE
330
B43A5
100
AcDbEntity
  8
0
  6
ByBlock
100
AcDbPolyline
 90
        4
 70
     1
 43
0.0
 10
22301.6863909406
 20
22445.86185235747
 10
22301.6863909406
 20
22475.86185235747
 10
21165.6863909406
 20
22475.86185235747
 10
21165.6863909406
 20
22445.86185235747
  0
LWPOLYLINE
  5
AAFCF
330
B43A5
100
AcDbEntity
  8
0
  6
ByBlock
100
AcDbPolyline
 90
        4
 70
     1
 43
0.0
 10
22301.6863909406
 20
22695.86185235747
 10
22301.6863909406
 20
22725.86185235747
 10
21165.6863909406
 20
22725.86185235747
 10
21165.6863909406
 20
22695.86185235747
  0
LWPOLYLINE
  5
AAFD0
330
B43A5
100
AcDbEntity
  8
0
  6
ByBlock
100
AcDbPolyline
 90
        4
 70
     1
 43
0.0
 10
22301.6863909406
 20
22945.86185235746
 10
22301.6863909406
 20
22975.86185235747
 10
21165.6863909406
 20
22975.86185235747
 10
21165.6863909406
 20
22945.86185235746
  0
LWPOLYLINE
  5
AAFD1
330
B43A5
100
AcDbEntity
  8
0
  6
ByBlock
100
AcDbPolyline
 90
        4
 70
     1
 43
0.0
 10
22301.6863909406
 20
23195.86185235747
 10
22301.6863909406
 20
23225.86185235746
 10
21165.6863909406
 20
23225.86185235746
 10
21165.6863909406
 20
23195.86185235747
  0
LWPOLYLINE
  5
AAFD2
330
B43A5
100
AcDbEntity
  8
0
  6
ByBlock
100
AcDbPolyline
 90
        4
 70
     1
 43
0.0
 10
22301.6863909406
 20
23445.86185235748
 10
22301.6863909406
 20
23475.86185235747
 10
21165.6863909406
 20
23475.86185235747
 10
21165.6863909406
 20
23445.86185235748
  0
LWPOLYLINE
  5
AAFD3
330
B43A5
100
AcDbEntity
  8
0
  6
ByBlock
100
AcDbPolyline
 90
        4
 70
     1
 43
0.0
 10
22301.6863909406
 20
23695.86185235747
 10
22301.6863909406
 20
23725.86185235747
 10
21165.6863909406
 20
23725.86185235747
 10
21165.6863909406
 20
23695.86185235747
  0
LWPOLYLINE
  5
AAFD4
330
B43A5
100
AcDbEntity
  8
0
  6
ByBlock
100
AcDbPolyline
 90
        4
 70
     1
 43
0.0
 10
22301.6863909406
 20
23945.86185235747
 10
22301.6863909406
 20
23975.86185235747
 10
21165.6863909406
 20
23975.86185235747
 10
21165.6863909406
 20
23945.86185235747
  0
LWPOLYLINE
  5
AAFD5
330
B43A5
100
AcDbEntity
  8
0
  6
ByBlock
100
AcDbPolyline
 90
        4
 70
     1
 43
0.0
 10
21099.58639094059
 20
24485.86186189427
 10
21099.58639094059
 20
21962.86186189421
 10
21069.58639094059
 20
21962.86186189421
 10
21069.58639094059
 20
24485.86186189427
  0
LWPOLYLINE
  5
AAFD6
330
B43A5
100
AcDbEntity
  8
0
  6
ByBlock
100
AcDbPolyline
 90
        4
 70
     1
 43
0.0
 10
21099.58639094052
 20
20752.7263718808
 10
21099.58639094052
 20
18229.72637188075
 10
21069.58639094052
 20
18229.72637188075
 10
21069.58639094052
 20
20752.7263718808
  0
LWPOLYLINE
  5
AAFD8
330
B43A5
100
AcDbEntity
  8
0
  6
ByBlock
100
AcDbPolyline
 90
        4
 70
     1
 43
0.0
 10
25307.7080107226
 20
18229.72637188075
 10
25907.70801072259
 20
18229.72637188075
 10
25907.70801072259
 20
20752.7263718808
 10
25307.7080107226
 20
20752.7263718808
  0
LWPOLYLINE
  5
AAFD9
330
B43A5
100
AcDbEntity
  8
0
  6
ByBlock
100
AcDbPolyline
 90
        4
 70
     1
 43
0.0
 10
25307.7080107226
 20
21962.86186189421
 10
25907.70801072259
 20
21962.86186189421
 10
25907.70801072259
 20
24485.86186189427
 10
25307.7080107226
 20
24485.86186189427
  0
LWPOLYLINE
  5
AAFDA
330
B43A5
100
AcDbEntity
  8
0
  6
ByBlock
100
AcDbPolyline
 90
        2
 70
     0
 43
0.0
 10
25109.50129716488
 20
21945.86186189426
 10
26105.91472428031
 20
21945.86186189426
  0
LWPOLYLINE
  5
AAFDD
330
B43A5
100
AcDbEntity
  8
0
  6
ByBlock
100
AcDbPolyline
 90
        2
 70
     0
 43
0.0
 10
25109.50129716488
 20
18212.72637188079
 10
26105.91472428031
 20
18212.72637188079
  0
LWPOLYLINE
  5
AAFDE
330
B43A5
100
AcDbEntity
  8
0
  6
ByBlock
100
AcDbPolyline
 90
        4
 70
     1
 43
0.0
 10
22301.6863909406
 20
24195.86185235746
 10
22301.6863909406
 20
24225.86185235746
 10
21165.6863909406
 20
24225.86185235746
 10
21165.6863909406
 20
24195.86185235746
  0
LWPOLYLINE
  5
AAFDF
330
B43A5
100
AcDbEntity
  8
0
  6
ByBlock
100
AcDbPolyline
 90
        4
 70
     1
 43
0.0
 10
17666.1298653905
 20
24045.8618618942
 10
17666.1298653905
 20
24075.8618618942
 10
16530.1298653905
 20
24075.8618618942
 10
16530.1298653905
 20
24045.8618618942
  0
LWPOLYLINE
  5
AAFE0
330
B43A5
100
AcDbEntity
  8
0
  6
ByBlock
100
AcDbPolyline
 90
        4
 70
     1
 43
0.0
 10
17666.12986539054
 20
20342.72637188072
 10
17666.12986539054
 20
20312.72637188072
 10
16530.12986539054
 20
20312.72637188072
 10
16530.12986539054
 20
20342.72637188072
  0
LWPOLYLINE
  5
ABC0B
330
B43A5
100
AcDbEntity
  8
0
  6
ByBlock
100
AcDbPolyline
 90
        4
 70
     1
 43
0.0
 10
9251.813258470216
 20
4908.171916406232
 10
8651.813258470218
 20
4908.171916406232
 10
8651.813258470218
 20
7431.171925943011
 10
9251.813258470216
 20
7431.171925943011
  0
LWPOLYLINE
  5
ABC0C
330
B43A5
100
AcDbEntity
  8
0
  6
ByBlock
100
AcDbPolyline
 90
        4
 70
     1
 43
0.0
 10
8936.813258470218
 20
7431.171925943011
 10
8936.813258470218
 20
4908.171916406232
 10
8966.813258470216
 20
4908.171916406232
 10
8966.813258470216
 20
7431.171925943011
  0
LWPOLYLINE
  5
ABC0D
330
B43A5
100
AcDbEntity
  8
0
  6
ByBlock
100
AcDbPolyline
 90
        2
 70
     0
 43
0.0
 10
9450.019972027914
 20
4891.171916406282
 10
8453.606544912507
 20
4891.171916406282
  0
LWPOLYLINE
  5
ABC0E
330
B43A5
100
AcDbEntity
  8
0
  6
ByBlock
100
AcDbPolyline
 90
        2
 70
     0
 43
0.0
 10
9450.019972027914
 20
2158.036426392835
 10
8453.606544912507
 20
2158.036426392835
  0
LWPOLYLINE
  5
ABC0F
330
B43A5
100
AcDbEntity
  8
0
  6
ByBlock
100
AcDbPolyline
 90
        4
 70
     1
 43
0.0
 10
8936.813258470218
 20
4298.036435929563
 10
8936.813258470218
 20
2175.036426392791
 10
8966.813258470216
 20
2175.036426392791
 10
8966.813258470216
 20
4298.036435929563
  0
LWPOLYLINE
  5
ABC10
330
B43A5
100
AcDbEntity
  8
0
  6
ByBlock
100
AcDbPolyline
 90
        4
 70
     1
 43
0.0
 10
9251.813258470216
 20
2175.036426392791
 10
8651.813258470218
 20
2175.036426392791
 10
8651.813258470218
 20
4298.036435929563
 10
9251.813258470216
 20
4298.036435929563
  0
LWPOLYLINE
  5
ABC11
330
B43A5
100
AcDbEntity
  8
0
  6
ByBlock
100
AcDbPolyline
 90
        4
 70
     1
 43
0.0
 10
31985.00000000001
 20
4298.036435929559
 10
31985.00000000001
 20
2175.036426392789
 10
32015.00000000001
 20
2175.036426392789
 10
32015.00000000001
 20
4298.036435929559
  0
LWPOLYLINE
  5
ABC12
330
B43A5
100
AcDbEntity
  8
0
  6
ByBlock
100
AcDbPolyline
 90
        4
 70
     1
 43
0.0
 10
33385.00000000001
 20
4298.036435929559
 10
33385.00000000001
 20
2175.036426392789
 10
33415.00000000001
 20
2175.036426392789
 10
33415.00000000001
 20
4298.036435929559
  0
LWPOLYLINE
  5
ABC13
330
B43A5
100
AcDbEntity
  8
0
  6
ByBlock
100
AcDbPolyline
 90
        4
 70
     1
 43
0.0
 10
33984.99999999999
 20
4298.036435929559
 10
33984.99999999999
 20
2175.036426392789
 10
34014.99999999999
 20
2175.036426392789
 10
34014.99999999999
 20
4298.036435929559
  0
LWPOLYLINE
  5
ABC14
330
B43A5
100
AcDbEntity
  8
0
  6
ByBlock
100
AcDbPolyline
 90
        4
 70
     1
 43
0.0
 10
34584.99999999999
 20
4298.036435929559
 10
34584.99999999999
 20
2175.036426392789
 10
34615.0
 20
2175.036426392789
 10
34615.0
 20
4298.036435929559
  0
LWPOLYLINE
  5
ABC15
330
B43A5
100
AcDbEntity
  8
0
  6
ByBlock
100
AcDbPolyline
 90
        4
 70
     1
 43
0.0
 10
35185.00000000001
 20
8431.1719164063
 10
35185.00000000001
 20
5908.171916406253
 10
35215.00000000001
 20
5908.171916406253
 10
35215.00000000001
 20
8431.1719164063
  0
LWPOLYLINE
  5
ABC18
330
B43A5
100
AcDbEntity
  8
0
  6
ByBlock
100
AcDbPolyline
 90
        4
 70
     1
 43
0.0
 10
34585.00000000001
 20
8431.1719164063
 10
34585.00000000001
 20
5908.171916406253
 10
34615.00000000001
 20
5908.171916406253
 10
34615.00000000001
 20
8431.1719164063
  0
LWPOLYLINE
  5
ABC19
330
B43A5
100
AcDbEntity
  8
0
  6
ByBlock
100
AcDbPolyline
 90
        4
 70
     1
 43
0.0
 10
33985.00000000001
 20
8431.1719164063
 10
33985.00000000001
 20
5908.171916406253
 10
34015.00000000001
 20
5908.171916406253
 10
34015.00000000001
 20
8431.1719164063
  0
LWPOLYLINE
  5
ABC1A
330
B43A5
100
AcDbEntity
  8
0
  6
ByBlock
100
AcDbPolyline
 90
        4
 70
     1
 43
0.0
 10
33385.00000000001
 20
8431.1719164063
 10
33385.00000000001
 20
5908.171916406253
 10
33415.00000000001
 20
5908.171916406253
 10
33415.00000000001
 20
8431.1719164063
  0
LWPOLYLINE
  5
ABC1B
330
B43A5
100
AcDbEntity
  8
0
  6
ByBlock
100
AcDbPolyline
 90
        4
 70
     1
 43
0.0
 10
31985.00000000001
 20
8431.1719164063
 10
31985.00000000001
 20
5908.171916406253
 10
32015.00000000001
 20
5908.171916406253
 10
32015.00000000001
 20
8431.1719164063
  0
LWPOLYLINE
  5
ABC1C
330
B43A5
100
AcDbEntity
  8
0
  6
ByBlock
100
AcDbPolyline
 90
        4
 70
     1
 43
0.0
 10
25592.70801072259
 20
24485.86186189427
 10
25592.70801072259
 20
21962.86186189421
 10
25622.70801072259
 20
21962.86186189421
 10
25622.70801072259
 20
24485.86186189427
  0
LWPOLYLINE
  5
ABC1D
330
B43A5
100
AcDbEntity
  8
0
  6
ByBlock
100
AcDbPolyline
 90
        4
 70
     1
 43
0.0
 10
24596.29458360716
 20
24085.86187143098
 10
24596.29458360716
 20
21962.86186189422
 10
24626.29458360716
 20
21962.86186189422
 10
24626.29458360716
 20
24085.86187143098
  0
LWPOLYLINE
  5
ABC1E
330
B43A5
100
AcDbEntity
  8
0
  6
ByBlock
100
AcDbPolyline
 90
        4
 70
     1
 43
0.0
 10
25592.70801072259
 20
20752.7263718808
 10
25592.70801072259
 20
18229.72637188074
 10
25622.70801072259
 20
18229.72637188074
 10
25622.70801072259
 20
20752.7263718808
  0
LWPOLYLINE
  5
ABC1F
330
B43A5
100
AcDbEntity
  8
0
  6
ByBlock
100
AcDbPolyline
 90
        4
 70
     1
 43
0.0
 10
24596.29458360716
 20
20352.72638141752
 10
24596.29458360716
 20
18229.72637188075
 10
24626.29458360716
 20
18229.72637188075
 10
24626.29458360716
 20
20352.72638141752
  0
LWPOLYLINE
  5
ABC20
330
B43A5
100
AcDbEntity
  8
0
  6
ByBlock
100
AcDbPolyline
 90
        4
 70
     1
 43
0.0
 10
25592.70801072259
 20
12725.38139913682
 10
25592.70801072259
 20
10202.38139913677
 10
25622.70801072259
 20
10202.38139913677
 10
25622.70801072259
 20
12725.38139913682
  0
LWPOLYLINE
  5
ABC21
330
B43A5
100
AcDbEntity
  8
0
  6
ByBlock
100
AcDbPolyline
 90
        4
 70
     1
 43
0.0
 10
24596.29458360716
 20
12325.38140867354
 10
24596.29458360716
 20
10202.38139913677
 10
24626.29458360716
 20
10202.38139913677
 10
24626.29458360716
 20
12325.38140867354
  0
LWPOLYLINE
  5
ABC22
330
B43A5
100
AcDbEntity
  8
0
  6
ByBlock
100
AcDbPolyline
 90
        4
 70
     1
 43
0.0
 10
24596.29458360716
 20
16058.51689868701
 10
24596.29458360716
 20
13935.51688915023
 10
24626.29458360716
 20
13935.51688915023
 10
24626.29458360716
 20
16058.51689868701
  0
LWPOLYLINE
  5
ABC23
330
B43A5
100
AcDbEntity
  8
0
  6
ByBlock
100
AcDbPolyline
 90
        4
 70
     1
 43
0.0
 10
25592.70801072259
 20
16458.51688915028
 10
25592.70801072259
 20
13935.51688915023
 10
25622.70801072259
 20
13935.51688915023
 10
25622.70801072259
 20
16458.51688915028
  0
LWPOLYLINE
  5
ABC24
330
B43A5
100
AcDbEntity
  8
0
  6
ByBlock
100
AcDbPolyline
 90
        4
 70
     1
 43
0.0
 10
24596.29458360716
 20
8031.171925943024
 10
24596.29458360716
 20
5908.171916406253
 10
24626.29458360716
 20
5908.171916406253
 10
24626.29458360716
 20
8031.171925943024
  0
LWPOLYLINE
  5
ABC25
330
B43A5
100
AcDbEntity
  8
0
  6
ByBlock
100
AcDbPolyline
 90
        4
 70
     1
 43
0.0
 10
25592.70801072259
 20
8431.171916406302
 10
25592.70801072259
 20
5908.171916406249
 10
25622.70801072259
 20
5908.171916406249
 10
25622.70801072259
 20
8431.171916406302
  0
LWPOLYLINE
  5
ABC26
330
B43A5
100
AcDbEntity
  8
0
  6
ByBlock
100
AcDbPolyline
 90
        4
 70
     1
 43
0.0
 10
24596.29458360716
 20
4298.036435929562
 10
24596.29458360716
 20
2175.036426392789
 10
24626.29458360716
 20
2175.036426392789
 10
24626.29458360716
 20
4298.036435929562
  0
LWPOLYLINE
  5
ABC27
330
B43A5
100
AcDbEntity
  8
0
  6
ByBlock
100
AcDbPolyline
 90
        4
 70
     1
 43
0.0
 10
25592.70801072259
 20
4698.036426392837
 10
25592.70801072259
 20
2175.036426392786
 10
25622.70801072259
 20
2175.036426392786
 10
25622.70801072259
 20
4698.036426392837
  0
LWPOLYLINE
  5
ABC37
330
B43A5
100
AcDbEntity
  8
0
  6
ByBlock
100
AcDbPolyline
 90
        5
 70
     0
 43
0.0
 10
14463.52986539045
 20
24085.86187143098
 10
14493.52986539045
 20
24085.86187143098
 10
14493.52986539045
 20
24075.86187143099
 10
14463.52986539045
 20
24075.86187143099
 10
14463.52986539045
 20
24085.86187143098
  0
LWPOLYLINE
  5
ABC38
330
B43A5
100
AcDbEntity
  8
0
  6
ByBlock
100
AcDbPolyline
 90
        5
 70
     0
 43
0.0
 10
14463.52986539045
 20
21962.86186189421
 10
14493.52986539045
 20
21962.86186189421
 10
14493.52986539045
 20
21972.86186189421
 10
14463.52986539045
 20
21972.86186189421
 10
14463.52986539045
 20
21962.86186189421
  0
LWPOLYLINE
  5
ABC48
330
B43A5
100
AcDbEntity
  8
0
  6
ByBlock
100
AcDbPolyline
 90
        5
 70
     0
 43
0.0
 10
16463.52986539044
 20
24485.86186189427
 10
16493.52986539045
 20
24485.86186189427
 10
16493.52986539045
 20
24475.86186189426
 10
16463.52986539044
 20
24475.86186189426
 10
16463.52986539044
 20
24485.86186189427
  0
LWPOLYLINE
  5
ABC49
330
B43A5
100
AcDbEntity
  8
0
  6
ByBlock
100
AcDbPolyline
 90
        5
 70
     0
 43
0.0
 10
16463.52986539044
 20
21962.86186189421
 10
16493.52986539045
 20
21962.86186189421
 10
16493.52986539045
 20
21972.86186189421
 10
16463.52986539044
 20
21972.86186189421
 10
16463.52986539044
 20
21962.86186189421
  0
LWPOLYLINE
  5
ABC4A
330
B43A5
100
AcDbEntity
  8
0
  6
ByBlock
100
AcDbPolyline
 90
        5
 70
     0
 43
0.0
 10
21099.58639094055
 20
24485.86186189427
 10
21129.58639094054
 20
24485.86186189427
 10
21129.58639094054
 20
24475.86186189426
 10
21099.58639094055
 20
24475.86186189426
 10
21099.58639094055
 20
24485.86186189427
  0
LWPOLYLINE
  5
ABC4B
330
B43A5
100
AcDbEntity
  8
0
  6
ByBlock
100
AcDbPolyline
 90
        5
 70
     0
 43
0.0
 10
19099.58639094054
 20
24085.86187143098
 10
19129.58639094054
 20
24085.86187143098
 10
19129.58639094054
 20
24075.86187143099
 10
19099.58639094054
 20
24075.86187143099
 10
19099.58639094054
 20
24085.86187143098
  0
LWPOLYLINE
  5
ABC4C
330
B43A5
100
AcDbEntity
  8
0
  6
ByBlock
100
AcDbPolyline
 90
        5
 70
     0
 43
0.0
 10
19099.58639094054
 20
21962.86186189421
 10
19129.58639094054
 20
21962.86186189421
 10
19129.58639094054
 20
21972.86186189421
 10
19099.58639094054
 20
21972.86186189421
 10
19099.58639094054
 20
21962.86186189421
  0
LWPOLYLINE
  5
ABC4D
330
B43A5
100
AcDbEntity
  8
0
  6
ByBlock
100
AcDbPolyline
 90
        5
 70
     0
 43
0.0
 10
21099.58639094055
 20
21962.86186189421
 10
21129.58639094054
 20
21962.86186189421
 10
21129.58639094054
 20
21972.86186189421
 10
21099.58639094055
 20
21972.86186189421
 10
21099.58639094055
 20
21962.86186189421
  0
LWPOLYLINE
  5
ABC4E
330
B43A5
100
AcDbEntity
  8
0
  6
ByBlock
100
AcDbPolyline
 90
        5
 70
     0
 43
0.0
 10
14463.52986539045
 20
20352.72638141752
 10
14493.52986539045
 20
20352.72638141752
 10
14493.52986539045
 20
20342.72638141752
 10
14463.52986539045
 20
20342.72638141752
 10
14463.52986539045
 20
20352.72638141752
  0
LWPOLYLINE
  5
ABC4F
330
B43A5
100
AcDbEntity
  8
0
  6
ByBlock
100
AcDbPolyline
 90
        5
 70
     0
 43
0.0
 10
16463.52986539044
 20
20752.7263718808
 10
16493.52986539045
 20
20752.7263718808
 10
16493.52986539045
 20
20742.7263718808
 10
16463.52986539044
 20
20742.7263718808
 10
16463.52986539044
 20
20752.7263718808
  0
LWPOLYLINE
  5
ABC50
330
B43A5
100
AcDbEntity
  8
0
  6
ByBlock
100
AcDbPolyline
 90
        5
 70
     0
 43
0.0
 10
19099.58639094054
 20
20352.72638141752
 10
19129.58639094054
 20
20352.72638141752
 10
19129.58639094054
 20
20342.72638141752
 10
19099.58639094054
 20
20342.72638141752
 10
19099.58639094054
 20
20352.72638141752
  0
LWPOLYLINE
  5
ABC51
330
B43A5
100
AcDbEntity
  8
0
  6
ByBlock
100
AcDbPolyline
 90
        5
 70
     0
 43
0.0
 10
21099.58639094055
 20
20752.7263718808
 10
21129.58639094054
 20
20752.7263718808
 10
21129.58639094054
 20
20742.7263718808
 10
21099.58639094055
 20
20742.7263718808
 10
21099.58639094055
 20
20752.7263718808
  0
LWPOLYLINE
  5
ABC52
330
B43A5
100
AcDbEntity
  8
0
  6
ByBlock
100
AcDbPolyline
 90
        5
 70
     0
 43
0.0
 10
21099.58639094055
 20
18229.72637188074
 10
21129.58639094054
 20
18229.72637188074
 10
21129.58639094054
 20
18239.72637188074
 10
21099.58639094055
 20
18239.72637188074
 10
21099.58639094055
 20
18229.72637188074
  0
LWPOLYLINE
  5
ABC53
330
B43A5
100
AcDbEntity
  8
0
  6
ByBlock
100
AcDbPolyline
 90
        5
 70
     0
 43
0.0
 10
19099.58639094054
 20
18229.72637188074
 10
19129.58639094054
 20
18229.72637188074
 10
19129.58639094054
 20
18239.72637188075
 10
19099.58639094054
 20
18239.72637188075
 10
19099.58639094054
 20
18229.72637188074
  0
LWPOLYLINE
  5
ABC54
330
B43A5
100
AcDbEntity
  8
0
  6
ByBlock
100
AcDbPolyline
 90
        5
 70
     0
 43
0.0
 10
16463.52986539044
 20
18229.72637188074
 10
16493.52986539045
 20
18229.72637188074
 10
16493.52986539045
 20
18239.72637188074
 10
16463.52986539044
 20
18239.72637188074
 10
16463.52986539044
 20
18229.72637188074
  0
LWPOLYLINE
  5
ABC55
330
B43A5
100
AcDbEntity
  8
0
  6
ByBlock
100
AcDbPolyline
 90
        5
 70
     0
 43
0.0
 10
14463.52986539045
 20
18229.72637188074
 10
14493.52986539045
 20
18229.72637188074
 10
14493.52986539045
 20
18239.72637188075
 10
14463.52986539045
 20
18239.72637188075
 10
14463.52986539045
 20
18229.72637188074
  0
LWPOLYLINE
  5
ABC5B
330
B43A5
100
AcDbEntity
  8
0
  6
ByBlock
100
AcDbPolyline
 90
        5
 70
     0
 43
0.0
 10
21099.58639094055
 20
17668.65237916369
 10
21129.58639094054
 20
17668.65237916369
 10
21129.58639094054
 20
17678.65237916369
 10
21099.58639094055
 20
17678.65237916369
 10
21099.58639094055
 20
17668.65237916369
  0
LWPOLYLINE
  5
ABC5C
330
B43A5
100
AcDbEntity
  8
0
  6
ByBlock
100
AcDbPolyline
 90
        5
 70
     0
 43
0.0
 10
19099.58639094054
 20
17668.6523791637
 10
19129.58639094054
 20
17668.6523791637
 10
19129.58639094054
 20
17678.65237916369
 10
19099.58639094054
 20
17678.65237916369
 10
19099.58639094054
 20
17668.6523791637
  0
LWPOLYLINE
  5
ABC5D
330
B43A5
100
AcDbEntity
  8
0
  6
ByBlock
100
AcDbPolyline
 90
        5
 70
     0
 43
0.0
 10
16463.52986539044
 20
17668.65237916369
 10
16493.52986539045
 20
17668.65237916369
 10
16493.52986539045
 20
17678.65237916369
 10
16463.52986539044
 20
17678.65237916369
 10
16463.52986539044
 20
17668.65237916369
  0
LWPOLYLINE
  5
ABC5E
330
B43A5
100
AcDbEntity
  8
0
  6
ByBlock
100
AcDbPolyline
 90
        5
 70
     0
 43
0.0
 10
14463.52986539045
 20
17668.6523791637
 10
14493.52986539045
 20
17668.6523791637
 10
14493.52986539045
 20
17678.65237916369
 10
14463.52986539045
 20
17678.65237916369
 10
14463.52986539045
 20
17668.6523791637
  0
LWPOLYLINE
  5
ABC5F
330
B43A5
100
AcDbEntity
  8
0
  6
ByBlock
100
AcDbPolyline
 90
        5
 70
     0
 43
0.0
 10
14463.52986539045
 20
16058.516898687
 10
14493.52986539045
 20
16058.516898687
 10
14493.52986539045
 20
16048.516898687
 10
14463.52986539045
 20
16048.516898687
 10
14463.52986539045
 20
16058.516898687
  0
LWPOLYLINE
  5
ABC60
330
B43A5
100
AcDbEntity
  8
0
  6
ByBlock
100
AcDbPolyline
 90
        5
 70
     0
 43
0.0
 10
16463.52986539044
 20
16458.51688915028
 10
16493.52986539045
 20
16458.51688915028
 10
16493.52986539045
 20
16448.51688915028
 10
16463.52986539044
 20
16448.51688915028
 10
16463.52986539044
 20
16458.51688915028
  0
LWPOLYLINE
  5
ABC61
330
B43A5
100
AcDbEntity
  8
0
  6
ByBlock
100
AcDbPolyline
 90
        5
 70
     0
 43
0.0
 10
19099.58639094054
 20
16058.516898687
 10
19129.58639094054
 20
16058.516898687
 10
19129.58639094054
 20
16048.516898687
 10
19099.58639094054
 20
16048.516898687
 10
19099.58639094054
 20
16058.516898687
  0
LWPOLYLINE
  5
ABC62
330
B43A5
100
AcDbEntity
  8
0
  6
ByBlock
100
AcDbPolyline
 90
        5
 70
     0
 43
0.0
 10
21099.58639094055
 20
16458.51688915028
 10
21129.58639094054
 20
16458.51688915028
 10
21129.58639094054
 20
16448.51688915028
 10
21099.58639094055
 20
16448.51688915028
 10
21099.58639094055
 20
16458.51688915028
  0
LWPOLYLINE
  5
ABC63
330
B43A5
100
AcDbEntity
  8
0
  6
ByBlock
100
AcDbPolyline
 90
        5
 70
     0
 43
0.0
 10
21099.58639094055
 20
13935.51688915023
 10
21129.58639094054
 20
13935.51688915023
 10
21129.58639094054
 20
13945.51688915023
 10
21099.58639094055
 20
13945.51688915023
 10
21099.58639094055
 20
13935.51688915023
  0
LWPOLYLINE
  5
ABC64
330
B43A5
100
AcDbEntity
  8
0
  6
ByBlock
100
AcDbPolyline
 90
        5
 70
     0
 43
0.0
 10
19099.58639094054
 20
13935.51688915023
 10
19129.58639094054
 20
13935.51688915023
 10
19129.58639094054
 20
13945.51688915023
 10
19099.58639094054
 20
13945.51688915023
 10
19099.58639094054
 20
13935.51688915023
  0
LWPOLYLINE
  5
ABC65
330
B43A5
100
AcDbEntity
  8
0
  6
ByBlock
100
AcDbPolyline
 90
        5
 70
     0
 43
0.0
 10
16463.52986539044
 20
13935.51688915023
 10
16493.52986539045
 20
13935.51688915023
 10
16493.52986539045
 20
13945.51688915023
 10
16463.52986539044
 20
13945.51688915023
 10
16463.52986539044
 20
13935.51688915023
  0
LWPOLYLINE
  5
ABC66
330
B43A5
100
AcDbEntity
  8
0
  6
ByBlock
100
AcDbPolyline
 90
        5
 70
     0
 43
0.0
 10
14463.52986539045
 20
13935.51688915023
 10
14493.52986539045
 20
13935.51688915023
 10
14493.52986539045
 20
13945.51688915023
 10
14463.52986539045
 20
13945.51688915023
 10
14463.52986539045
 20
13935.51688915023
  0
LWPOLYLINE
  5
ABC6B
330
B43A5
100
AcDbEntity
  8
0
  6
ByBlock
100
AcDbPolyline
 90
        5
 70
     0
 43
0.0
 10
14463.52986539045
 20
12325.38140867354
 10
14493.52986539045
 20
12325.38140867354
 10
14493.52986539045
 20
12315.38140867354
 10
14463.52986539045
 20
12315.38140867354
 10
14463.52986539045
 20
12325.38140867354
  0
LWPOLYLINE
  5
ABC6C
330
B43A5
100
AcDbEntity
  8
0
  6
ByBlock
100
AcDbPolyline
 90
        5
 70
     0
 43
0.0
 10
16463.52986539044
 20
12725.38139913682
 10
16493.52986539045
 20
12725.38139913682
 10
16493.52986539045
 20
12715.38139913682
 10
16463.52986539044
 20
12715.38139913682
 10
16463.52986539044
 20
12725.38139913682
  0
LWPOLYLINE
  5
ABC6D
330
B43A5
100
AcDbEntity
  8
0
  6
ByBlock
100
AcDbPolyline
 90
        5
 70
     0
 43
0.0
 10
19099.58639094054
 20
12325.38140867354
 10
19129.58639094054
 20
12325.38140867354
 10
19129.58639094054
 20
12315.38140867354
 10
19099.58639094054
 20
12315.38140867354
 10
19099.58639094054
 20
12325.38140867354
  0
LWPOLYLINE
  5
ABC6E
330
B43A5
100
AcDbEntity
  8
0
  6
ByBlock
100
AcDbPolyline
 90
        5
 70
     0
 43
0.0
 10
21099.58639094055
 20
12725.38139913682
 10
21129.58639094054
 20
12725.38139913682
 10
21129.58639094054
 20
12715.38139913682
 10
21099.58639094055
 20
12715.38139913682
 10
21099.58639094055
 20
12725.38139913682
  0
LWPOLYLINE
  5
ABC6F
330
B43A5
100
AcDbEntity
  8
0
  6
ByBlock
100
AcDbPolyline
 90
        5
 70
     0
 43
0.0
 10
14463.52986539045
 20
10202.38139913677
 10
14493.52986539045
 20
10202.38139913677
 10
14493.52986539045
 20
10212.38139913676
 10
14463.52986539045
 20
10212.38139913676
 10
14463.52986539045
 20
10202.38139913677
  0
LWPOLYLINE
  5
ABC70
330
B43A5
100
AcDbEntity
  8
0
  6
ByBlock
100
AcDbPolyline
 90
        5
 70
     0
 43
0.0
 10
16463.52986539044
 20
10202.38139913676
 10
16493.52986539045
 20
10202.38139913676
 10
16493.52986539045
 20
10212.38139913676
 10
16463.52986539044
 20
10212.38139913676
 10
16463.52986539044
 20
10202.38139913676
  0
LWPOLYLINE
  5
ABC71
330
B43A5
100
AcDbEntity
  8
0
  6
ByBlock
100
AcDbPolyline
 90
        5
 70
     0
 43
0.0
 10
19099.58639094054
 20
10202.38139913677
 10
19129.58639094054
 20
10202.38139913677
 10
19129.58639094054
 20
10212.38139913676
 10
19099.58639094054
 20
10212.38139913676
 10
19099.58639094054
 20
10202.38139913677
  0
LWPOLYLINE
  5
ABC72
330
B43A5
100
AcDbEntity
  8
0
  6
ByBlock
100
AcDbPolyline
 90
        5
 70
     0
 43
0.0
 10
21099.58639094055
 20
10202.38139913676
 10
21129.58639094054
 20
10202.38139913676
 10
21129.58639094054
 20
10212.38139913676
 10
21099.58639094055
 20
10212.38139913676
 10
21099.58639094055
 20
10202.38139913676
  0
LWPOLYLINE
  5
ABC73
330
B43A5
100
AcDbEntity
  8
0
  6
ByBlock
100
AcDbPolyline
 90
        5
 70
     0
 43
0.0
 10
14463.52986539045
 20
8031.171925943024
 10
14493.52986539045
 20
8031.171925943024
 10
14493.52986539045
 20
8021.171925943022
 10
14463.52986539045
 20
8021.171925943022
 10
14463.52986539045
 20
8031.171925943024
  0
LWPOLYLINE
  5
ABC74
330
B43A5
100
AcDbEntity
  8
0
  6
ByBlock
100
AcDbPolyline
 90
        5
 70
     0
 43
0.0
 10
16463.52986539044
 20
8431.171916406302
 10
16493.52986539045
 20
8431.171916406302
 10
16493.52986539045
 20
8421.171916406302
 10
16463.52986539044
 20
8421.171916406302
 10
16463.52986539044
 20
8431.171916406302
  0
LWPOLYLINE
  5
ABC75
330
B43A5
100
AcDbEntity
  8
0
  6
ByBlock
100
AcDbPolyline
 90
        5
 70
     0
 43
0.0
 10
19099.58639094054
 20
8031.171925943024
 10
19129.58639094054
 20
8031.171925943024
 10
19129.58639094054
 20
8021.171925943022
 10
19099.58639094054
 20
8021.171925943022
 10
19099.58639094054
 20
8031.171925943024
  0
LWPOLYLINE
  5
ABC76
330
B43A5
100
AcDbEntity
  8
0
  6
ByBlock
100
AcDbPolyline
 90
        5
 70
     0
 43
0.0
 10
21099.58639094055
 20
8431.171916406302
 10
21129.58639094054
 20
8431.171916406302
 10
21129.58639094054
 20
8421.171916406302
 10
21099.58639094055
 20
8421.171916406302
 10
21099.58639094055
 20
8431.171916406302
  0
LWPOLYLINE
  5
ABC77
330
B43A5
100
AcDbEntity
  8
0
  6
ByBlock
100
AcDbPolyline
 90
        5
 70
     0
 43
0.0
 10
14463.52986539045
 20
5908.171916406249
 10
14493.52986539045
 20
5908.171916406249
 10
14493.52986539045
 20
5918.17191640625
 10
14463.52986539045
 20
5918.17191640625
 10
14463.52986539045
 20
5908.171916406249
  0
LWPOLYLINE
  5
ABC78
330
B43A5
100
AcDbEntity
  8
0
  6
ByBlock
100
AcDbPolyline
 90
        5
 70
     0
 43
0.0
 10
16463.52986539044
 20
5908.171916406248
 10
16493.52986539045
 20
5908.171916406248
 10
16493.52986539045
 20
5918.171916406247
 10
16463.52986539044
 20
5918.171916406247
 10
16463.52986539044
 20
5908.171916406248
  0
LWPOLYLINE
  5
ABC79
330
B43A5
100
AcDbEntity
  8
0
  6
ByBlock
100
AcDbPolyline
 90
        5
 70
     0
 43
0.0
 10
19099.58639094054
 20
5908.171916406249
 10
19129.58639094054
 20
5908.171916406249
 10
19129.58639094054
 20
5918.17191640625
 10
19099.58639094054
 20
5918.17191640625
 10
19099.58639094054
 20
5908.171916406249
  0
LWPOLYLINE
  5
ABC7A
330
B43A5
100
AcDbEntity
  8
0
  6
ByBlock
100
AcDbPolyline
 90
        5
 70
     0
 43
0.0
 10
21099.58639094055
 20
5908.171916406248
 10
21129.58639094054
 20
5908.171916406248
 10
21129.58639094054
 20
5918.171916406247
 10
21099.58639094055
 20
5918.171916406247
 10
21099.58639094055
 20
5908.171916406248
  0
LWPOLYLINE
  5
ABC7B
330
B43A5
100
AcDbEntity
  8
0
  6
ByBlock
100
AcDbPolyline
 90
        5
 70
     0
 43
0.0
 10
14463.52986539045
 20
4298.036435929559
 10
14493.52986539045
 20
4298.036435929559
 10
14493.52986539045
 20
4288.036435929559
 10
14463.52986539045
 20
4288.036435929559
 10
14463.52986539045
 20
4298.036435929559
  0
LWPOLYLINE
  5
ABC7C
330
B43A5
100
AcDbEntity
  8
0
  6
ByBlock
100
AcDbPolyline
 90
        5
 70
     0
 43
0.0
 10
16463.52986539044
 20
4698.036426392838
 10
16493.52986539045
 20
4698.036426392838
 10
16493.52986539045
 20
4688.036426392836
 10
16463.52986539044
 20
4688.036426392836
 10
16463.52986539044
 20
4698.036426392838
  0
LWPOLYLINE
  5
ABC7D
330
B43A5
100
AcDbEntity
  8
0
  6
ByBlock
100
AcDbPolyline
 90
        5
 70
     0
 43
0.0
 10
19099.58639094054
 20
4298.036435929559
 10
19129.58639094054
 20
4298.036435929559
 10
19129.58639094054
 20
4288.036435929559
 10
19099.58639094054
 20
4288.036435929559
 10
19099.58639094054
 20
4298.036435929559
  0
LWPOLYLINE
  5
ABC7E
330
B43A5
100
AcDbEntity
  8
0
  6
ByBlock
100
AcDbPolyline
 90
        5
 70
     0
 43
0.0
 10
21099.58639094055
 20
4698.036426392838
 10
21129.58639094054
 20
4698.036426392838
 10
21129.58639094054
 20
4688.036426392836
 10
21099.58639094055
 20
4688.036426392836
 10
21099.58639094055
 20
4698.036426392838
  0
LWPOLYLINE
  5
ABC7F
330
B43A5
100
AcDbEntity
  8
0
  6
ByBlock
100
AcDbPolyline
 90
        5
 70
     0
 43
0.0
 10
14463.52986539045
 20
2175.036426392788
 10
14493.52986539045
 20
2175.036426392788
 10
14493.52986539045
 20
2185.036426392787
 10
14463.52986539045
 20
2185.036426392787
 10
14463.52986539045
 20
2175.036426392788
  0
LWPOLYLINE
  5
ABC80
330
B43A5
100
AcDbEntity
  8
0
  6
ByBlock
100
AcDbPolyline
 90
        5
 70
     0
 43
0.0
 10
16463.52986539044
 20
2175.036426392784
 10
16493.52986539045
 20
2175.036426392784
 10
16493.52986539045
 20
2185.036426392784
 10
16463.52986539044
 20
2185.036426392784
 10
16463.52986539044
 20
2175.036426392784
  0
LWPOLYLINE
  5
ABC81
330
B43A5
100
AcDbEntity
  8
0
  6
ByBlock
100
AcDbPolyline
 90
        5
 70
     0
 43
0.0
 10
19099.58639094054
 20
2175.036426392788
 10
19129.58639094054
 20
2175.036426392788
 10
19129.58639094054
 20
2185.036426392787
 10
19099.58639094054
 20
2185.036426392787
 10
19099.58639094054
 20
2175.036426392788
  0
LWPOLYLINE
  5
ABC82
330
B43A5
100
AcDbEntity
  8
0
  6
ByBlock
100
AcDbPolyline
 90
        5
 70
     0
 43
0.0
 10
21099.58639094055
 20
2175.036426392784
 10
21129.58639094054
 20
2175.036426392784
 10
21129.58639094054
 20
2185.036426392784
 10
21099.58639094055
 20
2185.036426392784
 10
21099.58639094055
 20
2175.036426392784
  0
LWPOLYLINE
  5
AE5CF
330
B43A5
100
AcDbEntity
  8
0
  6
ByBlock
100
AcDbPolyline
 90
        4
 70
     1
 43
0.0
 10
19166.1863909405
 20
2258.036426392791
 10
19166.1863909405
 20
2288.036426392791
 10
19902.18639094052
 20
2288.036426392791
 10
19902.18639094052
 20
2258.036426392791
  0
LWPOLYLINE
  5
AE5D0
330
B43A5
100
AcDbEntity
  8
0
  6
ByBlock
100
AcDbPolyline
 90
        4
 70
     1
 43
0.0
 10
19902.18639094051
 20
2508.036426392792
 10
19902.18639094051
 20
2538.036426392791
 10
19166.18639094049
 20
2538.036426392791
 10
19166.18639094049
 20
2508.036426392792
  0
LWPOLYLINE
  5
AE5D1
330
B43A5
100
AcDbEntity
  8
0
  6
ByBlock
100
AcDbPolyline
 90
        4
 70
     1
 43
0.0
 10
19902.18639094056
 20
3008.036426392783
 10
19902.18639094056
 20
3038.036426392781
 10
19166.18639094054
 20
3038.036426392781
 10
19166.18639094054
 20
3008.036426392783
  0
LWPOLYLINE
  5
AE5D2
330
B43A5
100
AcDbEntity
  8
0
  6
ByBlock
100
AcDbPolyline
 90
        4
 70
     1
 43
0.0
 10
19902.18639094056
 20
3960.536426392783
 10
19902.18639094056
 20
3935.536426392783
 10
19166.18639094054
 20
3935.536426392783
 10
19166.18639094054
 20
3960.536426392783
  0
LWPOLYLINE
  5
AE5D3
330
B43A5
100
AcDbEntity
  8
0
  6
ByBlock
100
AcDbPolyline
 90
        4
 70
     1
 43
0.0
 10
19902.18639094056
 20
4038.036426392781
 10
19902.18639094056
 20
4008.036426392783
 10
19166.18639094054
 20
4008.036426392783
 10
19166.18639094054
 20
4038.036426392781
  0
LWPOLYLINE
  5
AE5D4
330
B43A5
100
AcDbEntity
  8
0
  6
ByBlock
100
AcDbPolyline
 90
        4
 70
     1
 43
0.0
 10
19902.18639094056
 20
2758.036426392792
 10
19902.18639094056
 20
2788.036426392791
 10
19166.18639094054
 20
2788.036426392791
 10
19166.18639094054
 20
2758.036426392792
  0
LWPOLYLINE
  5
AE5D5
330
B43A5
100
AcDbEntity
  8
0
  6
ByBlock
100
AcDbPolyline
 90
        4
 70
     1
 43
0.0
 10
21902.18639094055
 20
4038.036426392781
 10
21902.18639094055
 20
4008.036426392783
 10
21166.18639094054
 20
4008.036426392783
 10
21166.18639094054
 20
4038.036426392781
  0
LWPOLYLINE
  5
AE5D6
330
B43A5
100
AcDbEntity
  8
0
  6
ByBlock
100
AcDbPolyline
 90
        4
 70
     1
 43
0.0
 10
21166.1863909405
 20
2258.036426392791
 10
21166.1863909405
 20
2288.036426392791
 10
21902.1863909405
 20
2288.036426392791
 10
21902.1863909405
 20
2258.036426392791
  0
LWPOLYLINE
  5
AE5D7
330
B43A5
100
AcDbEntity
  8
0
  6
ByBlock
100
AcDbPolyline
 90
        4
 70
     1
 43
0.0
 10
21902.18639094049
 20
2508.036426392792
 10
21902.18639094049
 20
2538.036426392791
 10
21166.18639094049
 20
2538.036426392791
 10
21166.18639094049
 20
2508.036426392792
  0
LWPOLYLINE
  5
AE5D8
330
B43A5
100
AcDbEntity
  8
0
  6
ByBlock
100
AcDbPolyline
 90
        4
 70
     1
 43
0.0
 10
21902.18639094055
 20
3008.036426392783
 10
21902.18639094055
 20
3038.036426392781
 10
21166.18639094054
 20
3038.036426392781
 10
21166.18639094054
 20
3008.036426392783
  0
LWPOLYLINE
  5
AE5D9
330
B43A5
100
AcDbEntity
  8
0
  6
ByBlock
100
AcDbPolyline
 90
        4
 70
     1
 43
0.0
 10
21902.18639094055
 20
3960.536426392783
 10
21902.18639094055
 20
3935.536426392783
 10
21166.18639094054
 20
3935.536426392783
 10
21166.18639094054
 20
3960.536426392783
  0
LWPOLYLINE
  5
AE5DA
330
B43A5
100
AcDbEntity
  8
0
  6
ByBlock
100
AcDbPolyline
 90
        4
 70
     1
 43
0.0
 10
21902.18639094055
 20
2758.036426392792
 10
21902.18639094055
 20
2788.036426392791
 10
21166.18639094054
 20
2788.036426392791
 10
21166.18639094054
 20
2758.036426392792
  0
LWPOLYLINE
  5
AE5DB
330
B43A5
100
AcDbEntity
  8
0
  6
ByBlock
100
AcDbPolyline
 90
        4
 70
     1
 43
0.0
 10
21902.18639094055
 20
4258.036426392771
 10
21902.18639094055
 20
4288.036426392782
 10
21166.18639094054
 20
4288.036426392782
 10
21166.18639094054
 20
4258.036426392771
  0
LWPOLYLINE
  5
AE5DC
330
B43A5
100
AcDbEntity
  8
0
  6
ByBlock
100
AcDbPolyline
 90
        4
 70
     1
 43
0.0
 10
19166.1863909405
 20
10285.38139913677
 10
19166.1863909405
 20
10315.38139913677
 10
20102.1863909405
 20
10315.38139913677
 10
20102.1863909405
 20
10285.38139913677
  0
LWPOLYLINE
  5
AE5DD
330
B43A5
100
AcDbEntity
  8
0
  6
ByBlock
100
AcDbPolyline
 90
        4
 70
     1
 43
0.0
 10
20102.18639094049
 20
10535.38139913677
 10
20102.18639094049
 20
10565.38139913677
 10
19166.18639094049
 20
10565.38139913677
 10
19166.18639094049
 20
10535.38139913677
  0
LWPOLYLINE
  5
AE5DE
330
B43A5
100
AcDbEntity
  8
0
  6
ByBlock
100
AcDbPolyline
 90
        4
 70
     1
 43
0.0
 10
20102.18639094054
 20
11035.38139913676
 10
20102.18639094054
 20
11065.38139913676
 10
19166.18639094054
 20
11065.38139913676
 10
19166.18639094054
 20
11035.38139913676
  0
LWPOLYLINE
  5
AE5DF
330
B43A5
100
AcDbEntity
  8
0
  6
ByBlock
100
AcDbPolyline
 90
        4
 70
     1
 43
0.0
 10
20102.18639094054
 20
11987.88139913676
 10
20102.18639094054
 20
11962.88139913676
 10
19166.18639094054
 20
11962.88139913676
 10
19166.18639094054
 20
11987.88139913676
  0
LWPOLYLINE
  5
AE5E0
330
B43A5
100
AcDbEntity
  8
0
  6
ByBlock
100
AcDbPolyline
 90
        4
 70
     1
 43
0.0
 10
20102.18639094054
 20
12065.38139913676
 10
20102.18639094054
 20
12035.38139913676
 10
19166.18639094054
 20
12035.38139913676
 10
19166.18639094054
 20
12065.38139913676
  0
LWPOLYLINE
  5
AE5E1
330
B43A5
100
AcDbEntity
  8
0
  6
ByBlock
100
AcDbPolyline
 90
        4
 70
     1
 43
0.0
 10
20102.18639094054
 20
10785.38139913677
 10
20102.18639094054
 20
10815.38139913677
 10
19166.18639094054
 20
10815.38139913677
 10
19166.18639094054
 20
10785.38139913677
  0
LWPOLYLINE
  5
AE5E2
330
B43A5
100
AcDbEntity
  8
0
  6
ByBlock
100
AcDbPolyline
 90
        4
 70
     1
 43
0.0
 10
22102.18639094054
 20
12065.38139913676
 10
22102.18639094054
 20
12035.38139913676
 10
21166.18639094054
 20
12035.38139913676
 10
21166.18639094054
 20
12065.38139913676
  0
LWPOLYLINE
  5
AE5E3
330
B43A5
100
AcDbEntity
  8
0
  6
ByBlock
100
AcDbPolyline
 90
        4
 70
     1
 43
0.0
 10
21166.1863909405
 20
10285.38139913677
 10
21166.1863909405
 20
10315.38139913677
 10
22102.1863909405
 20
10315.38139913677
 10
22102.1863909405
 20
10285.38139913677
  0
LWPOLYLINE
  5
AE5E4
330
B43A5
100
AcDbEntity
  8
0
  6
ByBlock
100
AcDbPolyline
 90
        4
 70
     1
 43
0.0
 10
22102.18639094049
 20
10535.38139913677
 10
22102.18639094049
 20
10565.38139913677
 10
21166.18639094049
 20
10565.38139913677
 10
21166.18639094049
 20
10535.38139913677
  0
LWPOLYLINE
  5
AE5E5
330
B43A5
100
AcDbEntity
  8
0
  6
ByBlock
100
AcDbPolyline
 90
        4
 70
     1
 43
0.0
 10
22102.18639094054
 20
11035.38139913676
 10
22102.18639094054
 20
11065.38139913676
 10
21166.18639094054
 20
11065.38139913676
 10
21166.18639094054
 20
11035.38139913676
  0
LWPOLYLINE
  5
AE5E6
330
B43A5
100
AcDbEntity
  8
0
  6
ByBlock
100
AcDbPolyline
 90
        4
 70
     1
 43
0.0
 10
22102.18639094054
 20
11987.88139913676
 10
22102.18639094054
 20
11962.88139913676
 10
21166.18639094054
 20
11962.88139913676
 10
21166.18639094054
 20
11987.88139913676
  0
LWPOLYLINE
  5
AE5E7
330
B43A5
100
AcDbEntity
  8
0
  6
ByBlock
100
AcDbPolyline
 90
        4
 70
     1
 43
0.0
 10
22102.18639094054
 20
10785.38139913677
 10
22102.18639094054
 20
10815.38139913677
 10
21166.18639094054
 20
10815.38139913677
 10
21166.18639094054
 20
10785.38139913677
  0
LWPOLYLINE
  5
AE5E8
330
B43A5
100
AcDbEntity
  8
0
  6
ByBlock
100
AcDbPolyline
 90
        4
 70
     1
 43
0.0
 10
22102.18639094054
 20
12285.38139913675
 10
22102.18639094054
 20
12315.38139913676
 10
21166.18639094054
 20
12315.38139913676
 10
21166.18639094054
 20
12285.38139913675
  0
LWPOLYLINE
  5
AE5E9
330
B43A5
100
AcDbEntity
  8
0
  6
ByBlock
100
AcDbPolyline
 90
        4
 70
     1
 43
0.0
 10
19166.1863909405
 20
18312.72637188075
 10
19166.1863909405
 20
18342.72637188075
 10
20302.1863909405
 20
18342.72637188075
 10
20302.1863909405
 20
18312.72637188075
  0
LWPOLYLINE
  5
AE5EA
330
B43A5
100
AcDbEntity
  8
0
  6
ByBlock
100
AcDbPolyline
 90
        4
 70
     1
 43
0.0
 10
20302.18639094049
 20
18562.72637188075
 10
20302.18639094049
 20
18592.72637188075
 10
19166.18639094049
 20
18592.72637188075
 10
19166.18639094049
 20
18562.72637188075
  0
LWPOLYLINE
  5
AE5EB
330
B43A5
100
AcDbEntity
  8
0
  6
ByBlock
100
AcDbPolyline
 90
        4
 70
     1
 43
0.0
 10
20302.18639094054
 20
19062.72637188074
 10
20302.18639094054
 20
19092.72637188074
 10
19166.18639094054
 20
19092.72637188074
 10
19166.18639094054
 20
19062.72637188074
  0
LWPOLYLINE
  5
AE5EC
330
B43A5
100
AcDbEntity
  8
0
  6
ByBlock
100
AcDbPolyline
 90
        4
 70
     1
 43
0.0
 10
20302.18639094054
 20
20015.22637188074
 10
20302.18639094054
 20
19990.22637188074
 10
19166.18639094054
 20
19990.22637188074
 10
19166.18639094054
 20
20015.22637188074
  0
LWPOLYLINE
  5
AE5ED
330
B43A5
100
AcDbEntity
  8
0
  6
ByBlock
100
AcDbPolyline
 90
        4
 70
     1
 43
0.0
 10
20302.18639094054
 20
20092.72637188074
 10
20302.18639094054
 20
20062.72637188074
 10
19166.18639094054
 20
20062.72637188074
 10
19166.18639094054
 20
20092.72637188074
  0
LWPOLYLINE
  5
AE5EE
330
B43A5
100
AcDbEntity
  8
0
  6
ByBlock
100
AcDbPolyline
 90
        4
 70
     1
 43
0.0
 10
20302.18639094054
 20
18812.72637188075
 10
20302.18639094054
 20
18842.72637188075
 10
19166.18639094054
 20
18842.72637188075
 10
19166.18639094054
 20
18812.72637188075
  0
LWPOLYLINE
  5
AE5EF
330
B43A5
100
AcDbEntity
  8
0
  6
ByBlock
100
AcDbPolyline
 90
        4
 70
     1
 43
0.0
 10
22302.18639094054
 20
20092.72637188074
 10
22302.18639094054
 20
20062.72637188074
 10
21166.18639094054
 20
20062.72637188074
 10
21166.18639094054
 20
20092.72637188074
  0
LWPOLYLINE
  5
AE5F0
330
B43A5
100
AcDbEntity
  8
0
  6
ByBlock
100
AcDbPolyline
 90
        4
 70
     1
 43
0.0
 10
21166.1863909405
 20
18312.72637188075
 10
21166.1863909405
 20
18342.72637188075
 10
22302.1863909405
 20
18342.72637188075
 10
22302.1863909405
 20
18312.72637188075
  0
LWPOLYLINE
  5
AE5F1
330
B43A5
100
AcDbEntity
  8
0
  6
ByBlock
100
AcDbPolyline
 90
        4
 70
     1
 43
0.0
 10
22302.18639094049
 20
18562.72637188075
 10
22302.18639094049
 20
18592.72637188075
 10
21166.18639094049
 20
18592.72637188075
 10
21166.18639094049
 20
18562.72637188075
  0
LWPOLYLINE
  5
AE5F2
330
B43A5
100
AcDbEntity
  8
0
  6
ByBlock
100
AcDbPolyline
 90
        4
 70
     1
 43
0.0
 10
22302.18639094054
 20
19062.72637188074
 10
22302.18639094054
 20
19092.72637188074
 10
21166.18639094054
 20
19092.72637188074
 10
21166.18639094054
 20
19062.72637188074
  0
LWPOLYLINE
  5
AE5F3
330
B43A5
100
AcDbEntity
  8
0
  6
ByBlock
100
AcDbPolyline
 90
        4
 70
     1
 43
0.0
 10
22302.18639094054
 20
20015.22637188074
 10
22302.18639094054
 20
19990.22637188074
 10
21166.18639094054
 20
19990.22637188074
 10
21166.18639094054
 20
20015.22637188074
  0
LWPOLYLINE
  5
AE5F4
330
B43A5
100
AcDbEntity
  8
0
  6
ByBlock
100
AcDbPolyline
 90
        4
 70
     1
 43
0.0
 10
22302.18639094054
 20
18812.72637188075
 10
22302.18639094054
 20
18842.72637188075
 10
21166.18639094054
 20
18842.72637188075
 10
21166.18639094054
 20
18812.72637188075
  0
LWPOLYLINE
  5
AE5F5
330
B43A5
100
AcDbEntity
  8
0
  6
ByBlock
100
AcDbPolyline
 90
        4
 70
     1
 43
0.0
 10
22302.18639094054
 20
20312.72637188073
 10
22302.18639094054
 20
20342.72637188074
 10
21166.18639094054
 20
20342.72637188074
 10
21166.18639094054
 20
20312.72637188073
  0
VIEWPORT
  5
4E
330
B43A3
100
AcDbEntity
 67
     1
  8
0
100
AcDbViewport
 10
0.0
 20
0.0
 30
0.0
 40
851.2853464419466
 41
428.7008504942788
 68
     1
 69
     1
 12
5438.728388405139
 22
103.0511397757678
 13
0.0
 23
0.0
 14
1.0
 24
1.0
 15
0.0
 25
0.0
 16
0.0
 26
0.0
 36
1.0
 17
0.0
 27
0.0
 37
0.0
 42
50.0
 43
0.0
 44
0.0
 45
428.7008504942788
 50
0.0
 51
0.0
 72
   100
 90
   557232
  1

281
     0
 71
     0
 74
     0
110
0.0
120
0.0
130
0.0
111
1.0
121
0.0
131
0.0
112
0.0
122
1.0
132
0.0
 79
     0
146
0.0
170
     0
 61
     5
348
B43F1
292
     1
282
     1
141
0.0
142
0.0
 63
   256
  0
TEXT
  5
6A0D
330
B43A3
100
AcDbEntity
 67
     1
  8
CLOTHES_RAIL
100
AcDbText
 10
1166.029996061232
 20
36.51875448083099
 30
0.0
 40
1.6
  1

  7
STILE1
 72
     1
 11
1166.029996061232
 21
36.51875448083099
 31
0.0
100
AcDbText
  0
TEXT
  5
220D4
330
B43A3
100
AcDbEntity
 67
     1
  8
CLOTHES_RAIL
100
AcDbText
 10
1075.854083628048
 20
54.2187253812249
 30
0.0
 40
1.504
  1

  7
STILE4
100
AcDbText
  0
TEXT
  5
220D5
330
B43A3
100
AcDbEntity
 67
     1
  8
0
100
AcDbText
 10
1099.486943584454
 20
54.27519572975143
 30
0.0
 40
1.296
  1

  7
STILE1
 72
     1
 11
1099.486943584454
 21
54.27519572975143
 31
0.0
100
AcDbText
  0
TEXT
  5
220D7
330
B43A3
100
AcDbEntity
 67
     1
  8
0
100
AcDbText
 10
1163.382376406764
 20
54.27519572975143
 30
0.0
 40
1.296
  1

  7
STILE1
 72
     1
 11
1163.382376406764
 21
54.27519572975143
 31
0.0
100
AcDbText
  0
VIEWPORT
  5
7996C
330
B43A3
100
AcDbEntity
 67
     1
  8
RETE
100
AcDbViewport
 10
5724.75813952323
 20
94.80832444904343
 30
0.0
 40
191.5
 41
236.132465228796
 68
     2
 69
     2
 12
215823.6079317253
 22
34568.76605440148
 13
0.0
 23
0.0
 14
1.0
 24
1.0
 15
0.0
 25
0.0
 16
0.0
 26
0.0
 36
1.0
 17
167108.1207671265
 27
-11328.71929700901
 37
0.0
 42
50.0
 43
0.0
 44
0.0
 45
5903.311630719954
 50
0.0
 51
0.0
 72
   100
 90
   557232
  1

281
     0
 71
     0
 74
     0
110
0.0
120
0.0
130
0.0
111
1.0
121
0.0
131
0.0
112
0.0
122
1.0
132
0.0
 79
     0
146
0.0
170
     0
 61
     5
348
B43F1
292
     1
282
     1
141
0.0
142
0.0
 63
   256
  0
LINE
  5
97E00
330
B43A3
100
AcDbEntity
 67
     1
  8
RIPIANI
100
AcDbLine
 10
5820.50813952323
 20
24.42642567457204
 30
0.0
 11
5820.50813952323
 21
-45.57357432542768
 31
0.0
  0
LINE
  5
97E05
330
B43A3
100
AcDbEntity
 67
     1
  8
0
100
AcDbLine
 10
5650.50813952323
 20
-38.07357432542761
 30
0.0
 11
5673.88152325309
 21
-38.07357432542762
 31
0.0
  0
LINE
  5
97E06
330
B43A3
100
AcDbEntity
 67
     1
  8
RIPIANI
100
AcDbLine
 10
5650.50813952323
 20
-45.57357432542761
 30
0.0
 11
5820.50813952323
 21
-45.57357432542768
 31
0.0
  0
TEXT
  5
97E0E
330
B43A3
100
AcDbEntity
 67
     1
  8
0
100
AcDbText
 10
5660.24129088937
 20
-44.53779677976007
 30
0.0
 40
1.689599999999999
  1
.DWG
  7
STILE4
100
AcDbText
  0
LINE
  5
97E3C
330
B43A3
100
AcDbEntity
 67
     1
  8
RIPIANI
100
AcDbLine
 10
5628.50813952323
 20
-41.82357432542767
 30
0.0
 11
5673.88152325309
 21
-41.82357432542771
 31
0.0
  0
TEXT
  5
97E47
330
B43A3
100
AcDbEntity
 67
     1
  8
CLOTHES_RAIL
100
AcDbText
 10
5702.521198378377
 20
-33.21312498230677
 30
0.0
 40
2.5
  1
MOBILE SHELVING SYSTEM MODEL "VELA/BINARIA"
  7
STILE1
 72
     1
 11
5750.257433497425
 21
-33.21312498230677
 31
0.0
100
AcDbText
  0
TEXT
  5
97E48
330
B43A3
100
AcDbEntity
 67
     1
  8
CLOTHES_RAIL
100
AcDbText
 10
5723.58890671171
 20
-40.71312498230677
 30
0.0
 40
2.5
  1
WARDROBE CONFIGURATIONS
  7
STILE1
 72
     1
 11
5750.257433497425
 21
-40.71312498230677
 31
0.0
100
AcDbText
  0
TEXT
  5
97E56
330
B43A3
100
AcDbEntity
 67
     1
  8
0
100
AcDbText
 10
5635.619679721409
 20
-44.53779677976007
 30
0.0
 40
1.689599999999999
  1
BINARIA-VELA-WR
  7
STILE4
100
AcDbText
  0
LWPOLYLINE
  5
97E5B
330
B43A3
100
AcDbEntity
 67
     1
  8
CLOTHES_RAIL
  6
Continuous
100
AcDbPolyline
 90
       15
 70
   128
 43
0.0
 10
5664.319098491812
 20
-36.22039648048771
 10
5664.319098491812
 20
-28.46717463803993
 10
5666.346089322976
 20
-28.46717463803993
 42
-0.316444976687396
 10
5667.365045214904
 20
-29.03206694489745
 10
5669.380908387647
 20
-32.43244509159917
 10
5669.436271072108
 20
-32.43244509159917
 10
5669.436271072108
 20
-28.46717463803993
 10
5671.684747092073
 20
-28.46717463803993
 10
5671.684747092073
 20
-36.22039648048771
 10
5670.034305197542
 20
-36.22039648048771
 42
-0.312959769389874
 10
5669.015349305614
 20
-35.65553862458513
 10
5666.62293719624
 20
-31.7900036853489
 10
5666.567643413688
 20
-31.7900036853489
 10
5666.567643413688
 20
-36.22039648048771
 10
5664.319098491812
 20
-36.22039648048771
  0
LWPOLYLINE
  5
97E5C
330
B43A3
100
AcDbEntity
 67
     1
  8
CLOTHES_RAIL
  6
Continuous
100
AcDbPolyline
 90
       15
 70
   128
 43
0.0
 10
5644.791849414121
 20
-36.22039648048771
 10
5644.791849414121
 20
-28.46717463803993
 10
5646.818840245284
 20
-28.46717463803993
 42
-0.316444976687396
 10
5647.837796137212
 20
-29.03206694489745
 10
5649.853659309954
 20
-32.43244509159917
 10
5649.909021994417
 20
-32.43244509159917
 10
5649.909021994417
 20
-28.46717463803993
 10
5652.157498014382
 20
-28.46717463803993
 10
5652.157498014382
 20
-36.22039648048771
 10
5650.50705611985
 20
-36.22039648048771
 42
-0.312959769389874
 10
5649.488100227923
 20
-35.65553862458513
 10
5647.095688118549
 20
-31.7900036853489
 10
5647.040394335996
 20
-31.7900036853489
 10
5647.040394335996
 20
-36.22039648048771
 10
5644.791849414121
 20
-36.22039648048771
  0
LWPOLYLINE
  5
97E5D
330
B43A3
100
AcDbEntity
 67
     1
  8
CLOTHES_RAIL
  6
Continuous
100
AcDbPolyline
 90
        9
 70
   128
 43
0.0
 10
5659.844332866811
 20
-28.46720908899488
 10
5659.844332866811
 20
-30.28367013500196
 10
5657.518411100318
 20
-30.28367013500196
 10
5657.518411100318
 20
-36.22039648048771
 10
5655.1370232965
 20
-36.22039648048771
 10
5655.1370232965
 20
-30.28367013500196
 10
5652.866360861604
 20
-30.28367013500196
 10
5652.866360861604
 20
-28.46720908899488
 10
5659.844332866811
 20
-28.46720908899488
  0
LWPOLYLINE
  5
97E5E
330
B43A3
100
AcDbEntity
 67
     1
  8
CLOTHES_RAIL
  6
Continuous
100
AcDbPolyline
 90
        4
 70
     1
 43
0.0
 10
5660.586406434521
 20
-28.46720908899488
 10
5662.967794238341
 20
-28.46720908899488
 10
5662.967794238341
 20
-36.22039648048771
 10
5660.586406434521
 20
-36.22039648048771
  0
LWPOLYLINE
  5
97E5F
330
B43A3
100
AcDbEntity
 67
     1
  8
CLOTHES_RAIL
  6
Continuous
100
AcDbPolyline
 90
       11
 70
   128
 43
0.0
 10
5636.28518518886
 20
-28.46724353994973
 10
5636.28518518886
 20
-30.25045941451572
 10
5632.563655240943
 20
-30.25045941451572
 10
5632.563655240943
 20
-31.78996923439411
 10
5635.166528233565
 20
-31.78996923439411
 10
5635.166528233565
 20
-33.45143543448086
 10
5632.563655240943
 20
-33.45143543448086
 10
5632.563655240943
 20
-36.22039648048771
 10
5630.182267437125
 20
-36.22039648048771
 10
5630.182267437125
 20
-28.46724353994973
 10
5636.28518518886
 20
-28.46724353994973
  0
LWPOLYLINE
  5
97E60
330
B43A3
100
AcDbEntity
 67
     1
  8
CLOTHES_RAIL
  6
Continuous
100
AcDbPolyline
 90
        5
 70
   128
 43
0.0
 10
5640.006887391551
 20
-30.60482193621716
 10
5640.671446310823
 20
-32.88657757857812
 10
5639.220475444938
 20
-32.88657757857812
 10
5639.885034364208
 20
-30.60482193621716
 10
5640.006887391551
 20
-30.60482193621716
  0
LWPOLYLINE
  5
97E61
330
B43A3
100
AcDbEntity
 67
     1
  8
CLOTHES_RAIL
  6
Continuous
100
AcDbPolyline
 90
       16
 70
   129
 43
0.0
 10
5641.136720660441
 20
-34.54794042580057
 10
5641.136720660441
 20
-34.54794042580057
 10
5641.623946310821
 20
-36.22039648048771
 10
5644.13828034945
 20
-36.22039648048771
 10
5641.790103266118
 20
-29.16490982684213
 42
0.1089385125692126
 10
5641.535266069767
 20
-28.61148707243616
 42
0.1589313772246072
 10
5641.295349565985
 20
-28.46578963330632
 42
0.058673645385263
 10
5640.970446148061
 20
-28.43396391755392
 10
5640.970446148061
 20
-28.43396391755392
 10
5639.065480599017
 20
-28.43396391755392
 42
0.058673645385263
 10
5638.740577181096
 20
-28.46578963330632
 42
0.1589313772246072
 10
5638.500660677312
 20
-28.61148707243616
 42
0.1089385125692126
 10
5638.245823480962
 20
-29.16490982684213
 10
5635.89764639763
 20
-36.22039648048771
 10
5638.278965299539
 20
-36.22039648048771
 10
5638.755215299539
 20
-34.54794042580057
  0
LWPOLYLINE
  5
9F317
330
B43A3
100
AcDbEntity
 67
     1
  8
RIPIANI
100
AcDbPolyline
 90
        4
 70
     1
 43
0.0
 10
5628.50813952323
 20
-45.57357432542768
 10
5628.50813952323
 20
216.4264256745723
 10
5820.50813952323
 20
216.4264256745723
 10
5820.50813952323
 20
-45.57357432542768
  0
LINE
  5
9F31B
330
B43A3
100
AcDbEntity
 67
     1
  8
0
100
AcDbLine
 10
5628.50813952323
 20
-38.07357432542767
 30
0.0
 11
5670.588191806098
 21
-38.07357432542771
 31
0.0
  0
TEXT
  5
9F31D
330
B43A3
100
AcDbEntity
 67
     1
  8
0
100
AcDbText
 10
5643.254368161313
 20
-40.82492040620856
 30
0.0
 40
2.0
  1
02.03.2015
  7
STILE4
100
AcDbText
  0
LINE
  5
9F31E
330
B43A3
100
AcDbEntity
 67
     1
  8
0
100
AcDbLine
 10
5628.50813952323
 20
-26.25196840229718
 30
0.0
 11
5670.588191806098
 21
-26.25196840229721
 31
0.0
  0
LWPOLYLINE
  5
9F320
330
B43A3
100
AcDbEntity
 67
     1
  8
RIPIANI
100
AcDbPolyline
 90
        4
 70
     1
 43
0.0
 10
5628.50813952323
 20
-26.25196840229718
 10
5628.50813952323
 20
-38.07357432542761
 10
5673.88152325309
 20
-38.07357432542761
 10
5673.88152325309
 20
-26.25196840229718
  0
LWPOLYLINE
  5
9F321
330
B43A3
100
AcDbEntity
 67
     1
  8
RIPIANI
100
AcDbPolyline
 90
        4
 70
     1
 43
0.0
 10
5628.50813952323
 20
-38.07357432542761
 10
5628.50813952323
 20
-45.57357432542768
 10
5673.88152325309
 20
-45.57357432542768
 10
5673.88152325309
 20
-38.07357432542761
  0
LINE
  5
9F322
330
B43A3
100
AcDbEntity
 67
     1
  8
RIPIANI
100
AcDbLine
 10
5673.88152325309
 20
-26.25196840229718
 30
0.0
 11
5820.50813952323
 21
-26.25196840229718
 31
0.0
  0
VIEWPORT
  5
A0224
330
B43A3
100
AcDbEntity
 67
     1
  8
RETE
100
AcDbViewport
 10
5526.66357023484
 20
94.80832444904343
 30
0.0
 40
191.5
 41
236.132465228796
 68
     3
 69
     3
 12
215823.6079317253
 22
34568.76605440148
 13
0.0
 23
0.0
 14
1.0
 24
1.0
 15
0.0
 25
0.0
 16
0.0
 26
0.0
 36
1.0
 17
176664.735461242
 27
-9778.968366194693
 37
0.0
 42
50.0
 43
0.0
 44
0.0
 45
5274.119454668937
 50
0.0
 51
0.0
 72
   100
 90
   557232
  1

281
     0
 71
     0
 74
     0
110
0.0
120
0.0
130
0.0
111
1.0
121
0.0
131
0.0
112
0.0
122
1.0
132
0.0
 79
     0
146
0.0
170
     0
 61
     5
348
B43F1
292
     1
282
     1
141
0.0
142
0.0
 63
   256
  0
LINE
  5
A0226
330
B43A3
100
AcDbEntity
 67
     1
  8
RIPIANI
100
AcDbLine
 10
5622.41357023484
 20
24.42642567457204
 30
0.0
 11
5622.41357023484
 21
-45.57357432542768
 31
0.0
  0
LWPOLYLINE
  5
A0235
330
B43A3
100
AcDbEntity
 67
     1
  8
RIPIANI
100
AcDbPolyline
 90
        4
 70
     1
 43
0.0
 10
5430.41357023484
 20
-45.57357432542768
 10
5430.41357023484
 20
216.4264256745723
 10
5622.41357023484
 20
216.4264256745723
 10
5622.41357023484
 20
-45.57357432542768
  0
LINE
  5
A0552
330
B43A3
100
AcDbEntity
 67
     1
  8
0
100
AcDbLine
 10
5452.41357023484
 20
-38.07357432542761
 30
0.0
 11
5475.786953964698
 21
-38.07357432542762
 31
0.0
  0
LINE
  5
A0553
330
B43A3
100
AcDbEntity
 67
     1
  8
RIPIANI
100
AcDbLine
 10
5452.41357023484
 20
-45.57357432542761
 30
0.0
 11
5622.41357023484
 21
-45.57357432542768
 31
0.0
  0
TEXT
  5
A0554
330
B43A3
100
AcDbEntity
 67
     1
  8
0
100
AcDbText
 10
5462.14672160098
 20
-44.53779677976007
 30
0.0
 40
1.689599999999999
  1
.DWG
  7
STILE4
100
AcDbText
  0
LINE
  5
A0555
330
B43A3
100
AcDbEntity
 67
     1
  8
RIPIANI
100
AcDbLine
 10
5430.41357023484
 20
-41.82357432542767
 30
0.0
 11
5475.786953964698
 21
-41.82357432542771
 31
0.0
  0
TEXT
  5
A0556
330
B43A3
100
AcDbEntity
 67
     1
  8
CLOTHES_RAIL
100
AcDbText
 10
5504.426629089988
 20
-33.21312498230677
 30
0.0
 40
2.5
  1
MOBILE SHELVING SYSTEM MODEL "VELA/BINARIA"
  7
STILE1
 72
     1
 11
5552.162864209035
 21
-33.21312498230677
 31
0.0
100
AcDbText
  0
TEXT
  5
A0557
330
B43A3
100
AcDbEntity
 67
     1
  8
CLOTHES_RAIL
100
AcDbText
 10
5525.494337423321
 20
-40.71312498230677
 30
0.0
 40
2.5
  1
WARDROBE CONFIGURATIONS
  7
STILE1
 72
     1
 11
5552.162864209035
 21
-40.71312498230677
 31
0.0
100
AcDbText
  0
TEXT
  5
A0558
330
B43A3
100
AcDbEntity
 67
     1
  8
0
100
AcDbText
 10
5437.525110433019
 20
-44.53779677976007
 30
0.0
 40
1.689599999999999
  1
BINARIA-VELA-WR
  7
STILE4
100
AcDbText
  0
LWPOLYLINE
  5
A0559
330
B43A3
100
AcDbEntity
 67
     1
  8
CLOTHES_RAIL
  6
Continuous
100
AcDbPolyline
 90
       15
 70
   128
 43
0.0
 10
5466.224529203422
 20
-36.22039648048771
 10
5466.224529203422
 20
-28.46717463803993
 10
5468.251520034586
 20
-28.46717463803993
 42
-0.316444976687396
 10
5469.270475926514
 20
-29.03206694489745
 10
5471.286339099256
 20
-32.43244509159917
 10
5471.341701783718
 20
-32.43244509159917
 10
5471.341701783718
 20
-28.46717463803993
 10
5473.590177803683
 20
-28.46717463803993
 10
5473.590177803683
 20
-36.22039648048771
 10
5471.939735909153
 20
-36.22039648048771
 42
-0.312959769389874
 10
5470.920780017224
 20
-35.65553862458513
 10
5468.52836790785
 20
-31.7900036853489
 10
5468.473074125298
 20
-31.7900036853489
 10
5468.473074125298
 20
-36.22039648048771
 10
5466.224529203422
 20
-36.22039648048771
  0
LWPOLYLINE
  5
A055A
330
B43A3
100
AcDbEntity
 67
     1
  8
CLOTHES_RAIL
  6
Continuous
100
AcDbPolyline
 90
       15
 70
   128
 43
0.0
 10
5446.697280125732
 20
-36.22039648048771
 10
5446.697280125732
 20
-28.46717463803993
 10
5448.724270956895
 20
-28.46717463803993
 42
-0.316444976687396
 10
5449.743226848822
 20
-29.03206694489745
 10
5451.759090021564
 20
-32.43244509159917
 10
5451.814452706026
 20
-32.43244509159917
 10
5451.814452706026
 20
-28.46717463803993
 10
5454.062928725992
 20
-28.46717463803993
 10
5454.062928725992
 20
-36.22039648048771
 10
5452.412486831462
 20
-36.22039648048771
 42
-0.312959769389874
 10
5451.393530939535
 20
-35.65553862458513
 10
5449.001118830159
 20
-31.7900036853489
 10
5448.945825047606
 20
-31.7900036853489
 10
5448.945825047606
 20
-36.22039648048771
 10
5446.697280125732
 20
-36.22039648048771
  0
LWPOLYLINE
  5
A055B
330
B43A3
100
AcDbEntity
 67
     1
  8
CLOTHES_RAIL
  6
Continuous
100
AcDbPolyline
 90
        9
 70
   128
 43
0.0
 10
5461.749763578423
 20
-28.46720908899488
 10
5461.749763578423
 20
-30.28367013500196
 10
5459.42384181193
 20
-30.28367013500196
 10
5459.42384181193
 20
-36.22039648048771
 10
5457.042454008109
 20
-36.22039648048771
 10
5457.042454008109
 20
-30.28367013500196
 10
5454.771791573215
 20
-30.28367013500196
 10
5454.771791573215
 20
-28.46720908899488
 10
5461.749763578423
 20
-28.46720908899488
  0
LWPOLYLINE
  5
A055C
330
B43A3
100
AcDbEntity
 67
     1
  8
CLOTHES_RAIL
  6
Continuous
100
AcDbPolyline
 90
        4
 70
     1
 43
0.0
 10
5462.49183714613
 20
-28.46720908899488
 10
5464.87322494995
 20
-28.46720908899488
 10
5464.87322494995
 20
-36.22039648048771
 10
5462.49183714613
 20
-36.22039648048771
  0
LWPOLYLINE
  5
A055D
330
B43A3
100
AcDbEntity
 67
     1
  8
CLOTHES_RAIL
  6
Continuous
100
AcDbPolyline
 90
       11
 70
   128
 43
0.0
 10
5438.190615900471
 20
-28.46724353994973
 10
5438.190615900471
 20
-30.25045941451572
 10
5434.469085952553
 20
-30.25045941451572
 10
5434.469085952553
 20
-31.78996923439411
 10
5437.071958945176
 20
-31.78996923439411
 10
5437.071958945176
 20
-33.45143543448086
 10
5434.469085952553
 20
-33.45143543448086
 10
5434.469085952553
 20
-36.22039648048771
 10
5432.087698148734
 20
-36.22039648048771
 10
5432.087698148734
 20
-28.46724353994973
 10
5438.190615900471
 20
-28.46724353994973
  0
LWPOLYLINE
  5
A055E
330
B43A3
100
AcDbEntity
 67
     1
  8
CLOTHES_RAIL
  6
Continuous
100
AcDbPolyline
 90
        5
 70
   128
 43
0.0
 10
5441.912318103162
 20
-30.60482193621716
 10
5442.576877022433
 20
-32.88657757857812
 10
5441.125906156548
 20
-32.88657757857812
 10
5441.790465075818
 20
-30.60482193621716
 10
5441.912318103162
 20
-30.60482193621716
  0
LWPOLYLINE
  5
A055F
330
B43A3
100
AcDbEntity
 67
     1
  8
CLOTHES_RAIL
  6
Continuous
100
AcDbPolyline
 90
       16
 70
   129
 43
0.0
 10
5443.042151372053
 20
-34.54794042580057
 10
5443.042151372053
 20
-34.54794042580057
 10
5443.529377022432
 20
-36.22039648048771
 10
5446.043711061061
 20
-36.22039648048771
 10
5443.695533977728
 20
-29.16490982684213
 42
0.1089385125692126
 10
5443.440696781376
 20
-28.61148707243616
 42
0.1589313772246072
 10
5443.200780277596
 20
-28.46578963330632
 42
0.058673645385263
 10
5442.875876859673
 20
-28.43396391755392
 10
5442.875876859673
 20
-28.43396391755392
 10
5440.970911310627
 20
-28.43396391755392
 42
0.058673645385263
 10
5440.646007892707
 20
-28.46578963330632
 42
0.1589313772246072
 10
5440.406091388922
 20
-28.61148707243616
 42
0.1089385125692126
 10
5440.151254192572
 20
-29.16490982684213
 10
5437.803077109239
 20
-36.22039648048771
 10
5440.184396011148
 20
-36.22039648048771
 10
5440.660646011148
 20
-34.54794042580057
  0
LINE
  5
A0560
330
B43A3
100
AcDbEntity
 67
     1
  8
0
100
AcDbLine
 10
5430.41357023484
 20
-38.07357432542767
 30
0.0
 11
5472.493622517709
 21
-38.07357432542771
 31
0.0
  0
TEXT
  5
A0561
330
B43A3
100
AcDbEntity
 67
     1
  8
0
100
AcDbText
 10
5445.159798872925
 20
-40.82492040620856
 30
0.0
 40
2.0
  1
02.03.2015
  7
STILE4
100
AcDbText
  0
LINE
  5
A0562
330
B43A3
100
AcDbEntity
 67
     1
  8
0
100
AcDbLine
 10
5430.41357023484
 20
-26.25196840229718
 30
0.0
 11
5472.493622517709
 21
-26.25196840229721
 31
0.0
  0
LWPOLYLINE
  5
A0563
330
B43A3
100
AcDbEntity
 67
     1
  8
RIPIANI
100
AcDbPolyline
 90
        4
 70
     1
 43
0.0
 10
5430.41357023484
 20
-26.25196840229718
 10
5430.41357023484
 20
-38.07357432542761
 10
5475.786953964698
 20
-38.07357432542761
 10
5475.786953964698
 20
-26.25196840229718
  0
LWPOLYLINE
  5
A0564
330
B43A3
100
AcDbEntity
 67
     1
  8
RIPIANI
100
AcDbPolyline
 90
        4
 70
     1
 43
0.0
 10
5430.41357023484
 20
-38.07357432542761
 10
5430.41357023484
 20
-45.57357432542768
 10
5475.786953964698
 20
-45.57357432542768
 10
5475.786953964698
 20
-38.07357432542761
  0
LINE
  5
A0565
330
B43A3
100
AcDbEntity
 67
     1
  8
RIPIANI
100
AcDbLine
 10
5475.786953964698
 20
-26.25196840229718
 30
0.0
 11
5622.41357023484
 21
-26.25196840229718
 31
0.0
  0
LINE
  5
A05D1
330
B43A3
100
AcDbEntity
 67
     1
  8
RIPIANI
100
AcDbLine
 10
5403.971933088409
 20
23.52456288579168
 30
0.0
 11
5403.971933088409
 21
-46.47543711420802
 31
0.0
  0
LWPOLYLINE
  5
A05D2
330
B43A3
100
AcDbEntity
 67
     1
  8
RIPIANI
100
AcDbPolyline
 90
        4
 70
     1
 43
0.0
 10
5211.97193308841
 20
-46.47543711420802
 10
5211.97193308841
 20
215.524562885792
 10
5403.971933088409
 20
215.524562885792
 10
5403.971933088409
 20
-46.47543711420802
  0
LINE
  5
A05D3
330
B43A3
100
AcDbEntity
 67
     1
  8
0
100
AcDbLine
 10
5233.971933088409
 20
-38.97543711420798
 30
0.0
 11
5257.345316818266
 21
-38.97543711420798
 31
0.0
  0
LINE
  5
A05D4
330
B43A3
100
AcDbEntity
 67
     1
  8
RIPIANI
100
AcDbLine
 10
5233.971933088409
 20
-46.47543711420797
 30
0.0
 11
5403.971933088409
 21
-46.47543711420802
 31
0.0
  0
TEXT
  5
A05D5
330
B43A3
100
AcDbEntity
 67
     1
  8
0
100
AcDbText
 10
5243.70508445455
 20
-45.43965956854042
 30
0.0
 40
1.689599999999999
  1
.DWG
  7
STILE4
100
AcDbText
  0
LINE
  5
A05D6
330
B43A3
100
AcDbEntity
 67
     1
  8
RIPIANI
100
AcDbLine
 10
5211.97193308841
 20
-42.72543711420802
 30
0.0
 11
5257.345316818266
 21
-42.72543711420806
 31
0.0
  0
TEXT
  5
A05D7
330
B43A3
100
AcDbEntity
 67
     1
  8
CLOTHES_RAIL
100
AcDbText
 10
5285.984991943557
 20
-34.11498777108713
 30
0.0
 40
2.5
  1
MOBILE SHELVING SYSTEM MODEL "VELA/BINARIA"
  7
STILE1
 72
     1
 11
5333.721227062605
 21
-34.11498777108713
 31
0.0
100
AcDbText
  0
TEXT
  5
A05D8
330
B43A3
100
AcDbEntity
 67
     1
  8
CLOTHES_RAIL
100
AcDbText
 10
5307.05270027689
 20
-41.61498777108713
 30
0.0
 40
2.5
  1
WARDROBE CONFIGURATIONS
  7
STILE1
 72
     1
 11
5333.721227062605
 21
-41.61498777108713
 31
0.0
100
AcDbText
  0
TEXT
  5
A05D9
330
B43A3
100
AcDbEntity
 67
     1
  8
0
100
AcDbText
 10
5219.083473286588
 20
-45.43965956854042
 30
0.0
 40
1.689599999999999
  1
BINARIA-VELA-WR
  7
STILE4
100
AcDbText
  0
LWPOLYLINE
  5
A05DA
330
B43A3
100
AcDbEntity
 67
     1
  8
CLOTHES_RAIL
  6
Continuous
100
AcDbPolyline
 90
       15
 70
   128
 43
0.0
 10
5247.782892056991
 20
-37.12225926926806
 10
5247.782892056991
 20
-29.36903742682029
 10
5249.809882888154
 20
-29.36903742682029
 42
-0.316444976687396
 10
5250.828838780082
 20
-29.93392973367783
 10
5252.844701952825
 20
-33.33430788037953
 10
5252.900064637286
 20
-33.33430788037953
 10
5252.900064637286
 20
-29.36903742682029
 10
5255.148540657252
 20
-29.36903742682029
 10
5255.148540657252
 20
-37.12225926926806
 10
5253.498098762722
 20
-37.12225926926806
 42
-0.312959769389874
 10
5252.479142870793
 20
-36.55740141336549
 10
5250.086730761418
 20
-32.69186647412927
 10
5250.031436978869
 20
-32.69186647412927
 10
5250.031436978869
 20
-37.12225926926806
 10
5247.782892056991
 20
-37.12225926926806
  0
LWPOLYLINE
  5
A05DB
330
B43A3
100
AcDbEntity
 67
     1
  8
CLOTHES_RAIL
  6
Continuous
100
AcDbPolyline
 90
       15
 70
   128
 43
0.0
 10
5228.2556429793
 20
-37.12225926926806
 10
5228.2556429793
 20
-29.36903742682029
 10
5230.282633810464
 20
-29.36903742682029
 42
-0.316444976687396
 10
5231.301589702391
 20
-29.93392973367783
 10
5233.317452875134
 20
-33.33430788037953
 10
5233.372815559595
 20
-33.33430788037953
 10
5233.372815559595
 20
-29.36903742682029
 10
5235.621291579558
 20
-29.36903742682029
 10
5235.621291579558
 20
-37.12225926926806
 10
5233.97084968503
 20
-37.12225926926806
 42
-0.312959769389874
 10
5232.951893793102
 20
-36.55740141336549
 10
5230.559481683728
 20
-32.69186647412927
 10
5230.504187901175
 20
-32.69186647412927
 10
5230.504187901175
 20
-37.12225926926806
 10
5228.2556429793
 20
-37.12225926926806
  0
LWPOLYLINE
  5
A05DC
330
B43A3
100
AcDbEntity
 67
     1
  8
CLOTHES_RAIL
  6
Continuous
100
AcDbPolyline
 90
        9
 70
   128
 43
0.0
 10
5243.308126431992
 20
-29.36907187777525
 10
5243.308126431992
 20
-31.18553292378233
 10
5240.982204665498
 20
-31.18553292378233
 10
5240.982204665498
 20
-37.12225926926806
 10
5238.600816861679
 20
-37.12225926926806
 10
5238.600816861679
 20
-31.18553292378233
 10
5236.330154426783
 20
-31.18553292378233
 10
5236.330154426783
 20
-29.36907187777525
 10
5243.308126431992
 20
-29.36907187777525
  0
LWPOLYLINE
  5
A05DD
330
B43A3
100
AcDbEntity
 67
     1
  8
CLOTHES_RAIL
  6
Continuous
100
AcDbPolyline
 90
        4
 70
     1
 43
0.0
 10
5244.050199999701
 20
-29.36907187777525
 10
5246.431587803519
 20
-29.36907187777525
 10
5246.431587803519
 20
-37.12225926926806
 10
5244.050199999701
 20
-37.12225926926806
  0
LWPOLYLINE
  5
A05DE
330
B43A3
100
AcDbEntity
 67
     1
  8
CLOTHES_RAIL
  6
Continuous
100
AcDbPolyline
 90
       11
 70
   128
 43
0.0
 10
5219.74897875404
 20
-29.36910632873009
 10
5219.74897875404
 20
-31.15232220329609
 10
5216.027448806123
 20
-31.15232220329609
 10
5216.027448806123
 20
-32.69183202317448
 10
5218.630321798745
 20
-32.69183202317448
 10
5218.630321798745
 20
-34.35329822326123
 10
5216.027448806123
 20
-34.35329822326123
 10
5216.027448806123
 20
-37.12225926926806
 10
5213.646061002304
 20
-37.12225926926806
 10
5213.646061002304
 20
-29.36910632873009
 10
5219.74897875404
 20
-29.36910632873009
  0
LWPOLYLINE
  5
A05DF
330
B43A3
100
AcDbEntity
 67
     1
  8
CLOTHES_RAIL
  6
Continuous
100
AcDbPolyline
 90
        5
 70
   128
 43
0.0
 10
5223.470680956729
 20
-31.50668472499752
 10
5224.135239876002
 20
-33.78844036735848
 10
5222.684269010118
 20
-33.78844036735848
 10
5223.348827929387
 20
-31.50668472499752
 10
5223.470680956729
 20
-31.50668472499752
  0
LWPOLYLINE
  5
A05E0
330
B43A3
100
AcDbEntity
 67
     1
  8
CLOTHES_RAIL
  6
Continuous
100
AcDbPolyline
 90
       16
 70
   129
 43
0.0
 10
5224.60051422562
 20
-35.44980321458093
 10
5224.60051422562
 20
-35.44980321458093
 10
5225.087739876001
 20
-37.12225926926806
 10
5227.60207391463
 20
-37.12225926926806
 10
5225.253896831298
 20
-30.06677261562249
 42
0.1089385125692126
 10
5224.999059634946
 20
-29.51334986121652
 42
0.1589313772246072
 10
5224.759143131164
 20
-29.36765242208669
 42
0.058673645385263
 10
5224.434239713242
 20
-29.33582670633428
 10
5224.434239713242
 20
-29.33582670633428
 10
5222.529274164196
 20
-29.33582670633428
 42
0.058673645385263
 10
5222.204370746274
 20
-29.36765242208669
 42
0.1589313772246072
 10
5221.964454242492
 20
-29.51334986121652
 42
0.1089385125692126
 10
5221.709617046141
 20
-30.06677261562249
 10
5219.361439962809
 20
-37.12225926926806
 10
5221.742758864717
 20
-37.12225926926806
 10
5222.219008864716
 20
-35.44980321458093
  0
LINE
  5
A05E1
330
B43A3
100
AcDbEntity
 67
     1
  8
0
100
AcDbLine
 10
5211.97193308841
 20
-38.97543711420802
 30
0.0
 11
5254.051985371278
 21
-38.97543711420806
 31
0.0
  0
TEXT
  5
A05E2
330
B43A3
100
AcDbEntity
 67
     1
  8
0
100
AcDbText
 10
5226.718161726491
 20
-41.72678319498892
 30
0.0
 40
2.0
  1
02.03.2015
  7
STILE4
100
AcDbText
  0
LINE
  5
A05E3
330
B43A3
100
AcDbEntity
 67
     1
  8
0
100
AcDbLine
 10
5211.97193308841
 20
-27.15383119107754
 30
0.0
 11
5254.051985371278
 21
-27.15383119107757
 31
0.0
  0
LWPOLYLINE
  5
A05E4
330
B43A3
100
AcDbEntity
 67
     1
  8
RIPIANI
100
AcDbPolyline
 90
        4
 70
     1
 43
0.0
 10
5211.97193308841
 20
-27.15383119107754
 10
5211.97193308841
 20
-38.97543711420798
 10
5257.345316818266
 20
-38.97543711420798
 10
5257.345316818266
 20
-27.15383119107754
  0
LWPOLYLINE
  5
A05E5
330
B43A3
100
AcDbEntity
 67
     1
  8
RIPIANI
100
AcDbPolyline
 90
        4
 70
     1
 43
0.0
 10
5211.97193308841
 20
-38.97543711420798
 10
5211.97193308841
 20
-46.47543711420804
 10
5257.345316818266
 20
-46.47543711420804
 10
5257.345316818266
 20
-38.97543711420798
  0
LINE
  5
A05E6
330
B43A3
100
AcDbEntity
 67
     1
  8
RIPIANI
100
AcDbLine
 10
5257.345316818266
 20
-27.15383119107754
 30
0.0
 11
5403.971933088409
 21
-27.15383119107754
 31
0.0
  0
VIEWPORT
  5
A05EA
330
B43A3
100
AcDbEntity
 67
     1
  8
RETE
100
AcDbViewport
 10
5308.221933088409
 20
93.90646166026305
 30
0.0
 40
191.5
 41
236.132465228796
 68
     4
 69
     4
 12
215823.6079317253
 22
34568.76605440148
 13
0.0
 23
0.0
 14
1.0
 24
1.0
 15
0.0
 25
0.0
 16
0.0
 26
0.0
 36
1.0
 17
183262.9885359334
 27
-9667.563718929574
 37
0.0
 42
50.0
 43
0.0
 44
0.0
 45
5700.595139329438
 50
0.0
 51
0.0
 72
   100
 90
   557232
  1

281
     0
 71
     0
 74
     0
110
0.0
120
0.0
130
0.0
111
1.0
121
0.0
131
0.0
112
0.0
122
1.0
132
0.0
 79
     0
146
0.0
170
     0
 61
     5
348
B43F1
292
     1
282
     1
141
0.0
142
0.0
 63
   256
  0
ENDSEC
  0
SECTION
  2
OBJECTS
  0
DICTIONARY
  5
B4395
330
0
100
AcDbDictionary
281
     1
  3
ACAD_DETAILVIEWSTYLE
350
B4412
  3
ACAD_GROUP
350
B4396
  3
ACAD_LAYOUT
350
B43A2
  3
ACAD_MATERIAL
350
B43AB
  3
ACAD_MLEADERSTYLE
350
B4407
  3
ACAD_MLINESTYLE
350
B439F
  3
ACAD_PLOTSETTINGS
350
B43A1
  3
ACAD_PLOTSTYLENAME
350
B4397
  3
ACAD_SCALELIST
350
B43CA
  3
ACAD_SECTIONVIEWSTYLE
350
B4413
  3
ACAD_TABLESTYLE
350
B4405
  3
ACAD_VISUALSTYLE
350
B43EC
  3
ACDB_RECOMPOSE_DATA
350
B4418
  3
AcDbVariableDictionary
350
B440D
  3
APPDATA
350
B4409
  3
PRINTCONFIG
350
B4415
  0
SUN
  5
B4414
330
B43A8
100
AcDbSun
 90
        1
290
     0
 63
     7
421
 16777215
 40
1.0
291
     1
 91
  2455826
 92
 54000000
292
     0
 70
     2
 71
   256
280
     1
  0
DICTIONARY
  5
B440B
330
B43A5
100
AcDbDictionary
280
     1
281
     1
  3
DIM_BOUNDING_BOXES_V1
360
B440C
  0
DICTIONARY
  5
B4412
102
{ACAD_REACTORS
330
B4395
102
}
330
B4395
100
AcDbDictionary
281
     1
  0
DICTIONARY
  5
B4396
102
{ACAD_REACTORS
330
B4395
102
}
330
B4395
100
AcDbDictionary
281
     1
  0
DICTIONARY
  5
B43A2
102
{ACAD_REACTORS
330
B4395
102
}
330
B4395
100
AcDbDictionary
281
     1
  3
Foglio1
350
B43A4
  3
Model
350
B43A6
  0
DICTIONARY
  5
B43AB
102
{ACAD_REACTORS
330
B4395
102
}
330
B4395
100
AcDbDictionary
281
     1
  3
ByBlock
350
B43AD
  3
ByLayer
350
B43AC
  3
Global
350
B43AE
  0
DICTIONARY
  5
B4407
102
{ACAD_REACTORS
330
B4395
102
}
330
B4395
100
AcDbDictionary
281
     1
  3
Standard
350
B4408
  0
DICTIONARY
  5
B439F
102
{ACAD_REACTORS
330
B4395
102
}
330
B4395
100
AcDbDictionary
281
     1
  3
Standard
350
B43A0
  0
DICTIONARY
  5
B43A1
102
{ACAD_REACTORS
330
B4395
102
}
330
B4395
100
AcDbDictionary
281
     1
  0
ACDBDICTIONARYWDFLT
  5
B4397
102
{ACAD_REACTORS
330
B4395
102
}
330
B4395
100
AcDbDictionary
281
     1
  3
Normal
350
B4398
100
AcDbDictionaryWithDefault
340
B4398
  0
DICTIONARY
  5
B43CA
102
{ACAD_REACTORS
330
B4395
102
}
330
B4395
100
AcDbDictionary
281
     1
  3
A0
350
B43CB
  3
A1
350
B43CC
  3
A2
350
B43CD
  3
A3
350
B43CE
  3
A4
350
B43CF
  3
A5
350
B43D0
  3
A6
350
B43D1
  3
A7
350
B43D2
  3
A8
350
B43D3
  3
A9
350
B43D4
  3
B0
350
B43D5
  3
B1
350
B43D6
  3
B2
350
B43D7
  3
B3
350
B43D8
  3
B4
350
B43D9
  3
B5
350
B43DA
  3
B6
350
B43DB
  3
B7
350
B43DC
  3
B8
350
B43DD
  3
B9
350
B43DE
  3
C0
350
B43DF
  3
C1
350
B43E0
  3
C2
350
B43E1
  3
C3
350
B43E2
  3
C4
350
B43E3
  3
C5
350
B43E4
  3
C6
350
B43E5
  3
C7
350
B43E6
  3
C8
350
B43E7
  3
C9
350
B43E8
  3
D0
350
B43E9
  3
D1
350
B43EA
  3
D2
350
B43EB
  0
DICTIONARY
  5
B4413
102
{ACAD_REACTORS
330
B4395
102
}
330
B4395
100
AcDbDictionary
281
     1
  0
DICTIONARY
  5
B4405
102
{ACAD_REACTORS
330
B4395
102
}
330
B4395
100
AcDbDictionary
281
     1
  3
Standard
350
B4406
  0
DICTIONARY
  5
B43EC
102
{ACAD_REACTORS
330
B4395
102
}
330
B4395
100
AcDbDictionary
281
     1
  3
2dWireframe
350
B43F1
  3
Basic
350
B43F4
  3
Brighten
350
B43F8
  3
ColorChange
350
B43FC
  3
Conceptual
350
B43F6
  3
Dim
350
B43F7
  3
EdgeColorOff
350
B43FF
  3
Facepattern
350
B43FB
  3
Flat
350
B43ED
  3
FlatWithEdges
350
B43EE
  3
Gouraud
350
B43EF
  3
GouraudWithEdges
350
B43F0
  3
Hidden
350
B43F3
  3
JitterOff
350
B43FD
  3
Linepattern
350
B43FA
  3
OverhangOff
350
B43FE
  3
Realistic
350
B43F5
  3
Shaded
350
B4404
  3
Shaded with edges
350
B4403
  3
Shades of Gray
350
B4400
  3
Sketchy
350
B4401
  3
Thicken
350
B43F9
  3
Wireframe
350
B43F2
  3
X-Ray
350
B4402
  0
XRECORD
  5
B4418
102
{ACAD_REACTORS
330
B4395
102
}
330
B4395
100
AcDbXrecord
280
     1
 90
        1
330
B4406
  0
DICTIONARY
  5
B440D
102
{ACAD_REACTORS
330
B4395
102
}
330
B4395
100
AcDbDictionary
281
     1
  3
CANNOSCALE
350
B440E
  3
CMLEADERSTYLE
350
B4410
  3
CTABLESTYLE
350
B440F
  3
MSLTSCALE
350
B4411
  0
DICTIONARY
  5
B4409
102
{ACAD_REACTORS
330
B4395
102
}
330
B4395
100
AcDbDictionary
281
     1
  0
DICTIONARYVAR
  5
B4415
102
{ACAD_REACTORS
330
B4395
102
}
330
B4395
100
DictionaryVariables
280
     0
  1
0
  0
DICTIONARY
  5
B440C
102
{ACAD_REACTORS
330
B440B
102
}
330
B440B
100
AcDbDictionary
281
     1
  0
LAYOUT
  5
B43A4
102
{ACAD_REACTORS
330
B43A2
102
}
330
B43A2
100
AcDbPlotSettings
  1

  2
none_device
  4

  6

 40
0.0
 41
0.0
 42
0.0
 43
0.0
 44
0.0
 45
0.0
 46
0.0
 47
0.0
 48
0.0
 49
0.0
140
0.0
141
0.0
142
1.0
143
1.0
 70
   688
 72
     0
 73
     0
 74
     5
  7

 75
    16
 76
     0
 77
     2
 78
   300
147
1.0
148
0.0
149
0.0
100
AcDbLayout
  1
Foglio1
 70
     1
 71
     1
 10
0.0
 20
0.0
 11
0.0
 21
0.0
 12
0.0
 22
0.0
 32
0.0
 14
5211.97193308841
 24
-46.47543711420804
 34
0.0
 15
5820.50813952323
 25
216.4264256745723
 35
0.0
146
0.0
 13
0.0
 23
0.0
 33
0.0
 16
1.0
 26
0.0
 36
0.0
 17
0.0
 27
1.0
 37
0.0
 76
     0
330
B43A3
331
4E
  0
LAYOUT
  5
B43A6
102
{ACAD_REACTORS
330
B43A2
102
}
330
B43A2
100
AcDbPlotSettings
  1

  2
none_device
  4
Letter_(8.50_x_11.00_Inches)
  6

 40
6.35
 41
6.35
 42
6.35
 43
6.35
 44
215.9
 45
279.4
 46
0.0
 47
0.0
 48
0.0
 49
0.0
140
0.0
141
0.0
142
1.0
143
1.0
 70
  1712
 72
     0
 73
     0
 74
     0
  7

 75
     0
 76
     0
 77
     2
 78
   300
147
1.0
148
0.0
149
0.0
100
AcDbLayout
  1
Model
 70
     1
 71
     0
 10
0.0
 20
0.0
 11
12.0
 21
9.0
 12
0.0
 22
0.0
 32
0.0
 14
-0.000000000007276
 24
0.0
 34
0.0
 15
40100.0
 25
25069.69256525888
 35
0.0
146
0.0
 13
0.0
 23
0.0
 33
0.0
 16
1.0
 26
0.0
 36
0.0
 17
0.0
 27
1.0
 37
0.0
 76
     0
330
B43A5
331
B43A8
  0
MATERIAL
  5
B43AD
102
{ACAD_REACTORS
330
B43AB
102
}
330
B43AB
100
AcDbMaterial
  1
ByBlock
 72
     1
 94
      127
  0
MATERIAL
  5
B43AC
102
{ACAD_REACTORS
330
B43AB
102
}
330
B43AB
100
AcDbMaterial
  1
ByLayer
 72
     1
 94
      127
  0
MATERIAL
  5
B43AE
102
{ACAD_REACTORS
330
B43AB
102
}
330
B43AB
100
AcDbMaterial
  1
Global
 72
     1
 94
      127
  0
MLEADERSTYLE
  5
B4408
102
{ACAD_REACTORS
330
B4407
102
}
330
B4407
100
AcDbMLeaderStyle
179
     2
170
     2
171
     1
172
     0
 90
        2
 40
0.0
 41
0.0
173
     1
 91
-1056964608
340
B439C
 92
       -2
290
     1
 42
0.09
291
     1
 43
0.36
  3
Standard
341
0
 44
0.18
300

342
B439A
174
     1
178
     1
175
     1
176
     0
 93
-1056964608
 45
0.18
292
     0
297
     0
 46
0.18
343
0
 94
-1056964608
 47
1.0
 49
1.0
140
1.0
293
     1
141
0.0
294
     1
177
     0
142
1.0
295
     0
296
     0
143
0.125
271
     0
272
     9
273
     9
298
     0
  0
MLINESTYLE
  5
B43A0
102
{ACAD_REACTORS
330
B439F
102
}
330
B439F
100
AcDbMlineStyle
  2
Standard
 70
     0
  3

 62
   256
 51
90.0
 52
90.0
 71
     2
 49
0.5
 62
   256
  6
BYLAYER
 49
-0.5
 62
   256
  6
BYLAYER
  0
ACDBPLACEHOLDER
  5
B4398
102
{ACAD_REACTORS
330
B4397
102
}
330
B4397
  0
SCALE
  5
B43CB
102
{ACAD_REACTORS
330
B43CA
102
}
330
B43CA
100
AcDbScale
 70
     0
300
1:1
140
1.0
141
1.0
290
     1
  0
SCALE
  5
B43CC
102
{ACAD_REACTORS
330
B43CA
102
}
330
B43CA
100
AcDbScale
 70
     0
300
1:2
140
1.0
141
2.0
290
     0
  0
SCALE
  5
B43CD
102
{ACAD_REACTORS
330
B43CA
102
}
330
B43CA
100
AcDbScale
 70
     0
300
1:4
140
1.0
141
4.0
290
     0
  0
SCALE
  5
B43CE
102
{ACAD_REACTORS
330
B43CA
102
}
330
B43CA
100
AcDbScale
 70
     0
300
1:5
140
1.0
141
5.0
290
     0
  0
SCALE
  5
B43CF
102
{ACAD_REACTORS
330
B43CA
102
}
330
B43CA
100
AcDbScale
 70
     0
300
1:8
140
1.0
141
8.0
290
     0
  0
SCALE
  5
B43D0
102
{ACAD_REACTORS
330
B43CA
102
}
330
B43CA
100
AcDbScale
 70
     0
300
1:10
140
1.0
141
10.0
290
     0
  0
SCALE
  5
B43D1
102
{ACAD_REACTORS
330
B43CA
102
}
330
B43CA
100
AcDbScale
 70
     0
300
1:16
140
1.0
141
16.0
290
     0
  0
SCALE
  5
B43D2
102
{ACAD_REACTORS
330
B43CA
102
}
330
B43CA
100
AcDbScale
 70
     0
300
1:20
140
1.0
141
20.0
290
     0
  0
SCALE
  5
B43D3
102
{ACAD_REACTORS
330
B43CA
102
}
330
B43CA
100
AcDbScale
 70
     0
300
1:30
140
1.0
141
30.0
290
     0
  0
SCALE
  5
B43D4
102
{ACAD_REACTORS
330
B43CA
102
}
330
B43CA
100
AcDbScale
 70
     0
300
1:40
140
1.0
141
40.0
290
     0
  0
SCALE
  5
B43D5
102
{ACAD_REACTORS
330
B43CA
102
}
330
B43CA
100
AcDbScale
 70
     0
300
1:50
140
1.0
141
50.0
290
     0
  0
SCALE
  5
B43D6
102
{ACAD_REACTORS
330
B43CA
102
}
330
B43CA
100
AcDbScale
 70
     0
300
1:100
140
1.0
141
100.0
290
     0
  0
SCALE
  5
B43D7
102
{ACAD_REACTORS
330
B43CA
102
}
330
B43CA
100
AcDbScale
 70
     0
300
2:1
140
2.0
141
1.0
290
     0
  0
SCALE
  5
B43D8
102
{ACAD_REACTORS
330
B43CA
102
}
330
B43CA
100
AcDbScale
 70
     0
300
4:1
140
4.0
141
1.0
290
     0
  0
SCALE
  5
B43D9
102
{ACAD_REACTORS
330
B43CA
102
}
330
B43CA
100
AcDbScale
 70
     0
300
8:1
140
8.0
141
1.0
290
     0
  0
SCALE
  5
B43DA
102
{ACAD_REACTORS
330
B43CA
102
}
330
B43CA
100
AcDbScale
 70
     0
300
10:1
140
10.0
141
1.0
290
     0
  0
SCALE
  5
B43DB
102
{ACAD_REACTORS
330
B43CA
102
}
330
B43CA
100
AcDbScale
 70
     0
300
100:1
140
100.0
141
1.0
290
     0
  0
SCALE
  5
B43DC
102
{ACAD_REACTORS
330
B43CA
102
}
330
B43CA
100
AcDbScale
 70
     0
300
1/128" = 1'-0"
140
0.0078125
141
12.0
290
     0
  0
SCALE
  5
B43DD
102
{ACAD_REACTORS
330
B43CA
102
}
330
B43CA
100
AcDbScale
 70
     0
300
1/64" = 1'-0"
140
0.015625
141
12.0
290
     0
  0
SCALE
  5
B43DE
102
{ACAD_REACTORS
330
B43CA
102
}
330
B43CA
100
AcDbScale
 70
     0
300
1/32" = 1'-0"
140
0.03125
141
12.0
290
     0
  0
SCALE
  5
B43DF
102
{ACAD_REACTORS
330
B43CA
102
}
330
B43CA
100
AcDbScale
 70
     0
300
1/16" = 1'-0"
140
0.0625
141
12.0
290
     0
  0
SCALE
  5
B43E0
102
{ACAD_REACTORS
330
B43CA
102
}
330
B43CA
100
AcDbScale
 70
     0
300
3/32" = 1'-0"
140
0.09375
141
12.0
290
     0
  0
SCALE
  5
B43E1
102
{ACAD_REACTORS
330
B43CA
102
}
330
B43CA
100
AcDbScale
 70
     0
300
1/8" = 1'-0"
140
0.125
141
12.0
290
     0
  0
SCALE
  5
B43E2
102
{ACAD_REACTORS
330
B43CA
102
}
330
B43CA
100
AcDbScale
 70
     0
300
3/16" = 1'-0"
140
0.1875
141
12.0
290
     0
  0
SCALE
  5
B43E3
102
{ACAD_REACTORS
330
B43CA
102
}
330
B43CA
100
AcDbScale
 70
     0
300
1/4" = 1'-0"
140
0.25
141
12.0
290
     0
  0
SCALE
  5
B43E4
102
{ACAD_REACTORS
330
B43CA
102
}
330
B43CA
100
AcDbScale
 70
     0
300
3/8" = 1'-0"
140
0.375
141
12.0
290
     0
  0
SCALE
  5
B43E5
102
{ACAD_REACTORS
330
B43CA
102
}
330
B43CA
100
AcDbScale
 70
     0
300
1/2" = 1'-0"
140
0.5
141
12.0
290
     0
  0
SCALE
  5
B43E6
102
{ACAD_REACTORS
330
B43CA
102
}
330
B43CA
100
AcDbScale
 70
     0
300
3/4" = 1'-0"
140
0.75
141
12.0
290
     0
  0
SCALE
  5
B43E7
102
{ACAD_REACTORS
330
B43CA
102
}
330
B43CA
100
AcDbScale
 70
     0
300
1" = 1'-0"
140
1.0
141
12.0
290
     0
  0
SCALE
  5
B43E8
102
{ACAD_REACTORS
330
B43CA
102
}
330
B43CA
100
AcDbScale
 70
     0
300
1-1/2" = 1'-0"
140
1.5
141
12.0
290
     0
  0
SCALE
  5
B43E9
102
{ACAD_REACTORS
330
B43CA
102
}
330
B43CA
100
AcDbScale
 70
     0
300
3" = 1'-0"
140
3.0
141
12.0
290
     0
  0
SCALE
  5
B43EA
102
{ACAD_REACTORS
330
B43CA
102
}
330
B43CA
100
AcDbScale
 70
     0
300
6" = 1'-0"
140
6.0
141
12.0
290
     0
  0
SCALE
  5
B43EB
102
{ACAD_REACTORS
330
B43CA
102
}
330
B43CA
100
AcDbScale
 70
     0
300
1'-0" = 1'-0"
140
12.0
141
12.0
290
     0
  0
TABLESTYLE
  5
B4406
102
{ACAD_REACTORS
330
B4405
102
}
102
{ACAD_XDICTIONARY
360
B4416
102
}
330
B4405
100
AcDbTableStyle
  3
Standard
 70
     0
 71
     0
 40
0.06
 41
0.06
280
     0
281
     0
  7
STANDARD
140
0.18
170
     2
 62
     0
 63
   257
283
     0
 90
        4
 91
        0
  1

274
    -2
284
     1
 64
     0
275
    -2
285
     1
 65
     0
276
    -2
286
     1
 66
     0
277
    -2
287
     1
 67
     0
278
    -2
288
     1
 68
     0
279
    -2
289
     1
 69
     0
  7
STANDARD
140
0.25
170
     5
 62
     0
 63
   257
283
     0
 90
        4
 91
        0
  1

274
    -2
284
     1
 64
     0
275
    -2
285
     1
 65
     0
276
    -2
286
     1
 66
     0
277
    -2
287
     1
 67
     0
278
    -2
288
     1
 68
     0
279
    -2
289
     1
 69
     0
  7
STANDARD
140
0.18
170
     5
 62
     0
 63
   257
283
     0
 90
        4
 91
        0
  1

274
    -2
284
     1
 64
     0
275
    -2
285
     1
 65
     0
276
    -2
286
     1
 66
     0
277
    -2
287
     1
 67
     0
278
    -2
288
     1
 68
     0
279
    -2
289
     1
 69
     0
  0
VISUALSTYLE
  5
B43F1
102
{ACAD_REACTORS
330
B43EC
102
}
330
B43EC
100
AcDbVisualStyle
  2
2dWireframe
 70
     4
177
     3
291
     0
 70
    58
 90
        0
176
     1
 90
        2
176
     1
 90
        0
176
     1
 90
        0
176
     1
 40
0.6
176
     1
 40
30.0
176
     1
 62
     7
420
 16777215
176
     1
 90
        1
176
     1
 90
        4
176
     1
 62
     7
176
     1
 62
   257
176
     1
 90
        1
176
     1
 90
        1
176
     1
 40
1.0
176
     1
 90
        0
176
     1
 62
   257
176
     1
 40
1.0
176
     1
 90
        1
176
     1
 90
        6
176
     1
 90
        2
176
     1
 62
     7
176
     1
 90
        5
176
     1
 90
        0
176
     1
 90
        0
176
     1
290
     0
176
     1
 90
        1
176
     1
 40
0.0
176
     1
 90
        0
176
     1
290
     1
176
     1
290
     1
176
     1
290
     0
176
     1
290
     0
176
     1
290
     0
176
     1
290
     0
176
     1
290
     0
176
     1
290
     0
176
     1
290
     0
176
     1
 90
       50
176
     1
 40
0.0
176
     1
 40
1.0
176
     1
 90
        0
176
     1
 62
    18
420
        0
176
     1
 90
       50
176
     1
 90
        3
176
     1
 62
     5
420
      255
176
     1
290
     0
176
     1
 90
       50
176
     1
 90
       50
176
     1
 90
       50
176
     1
290
     0
176
     1
 90
       50
176
     1
 62
   256
176
     0
 40
1.0
176
     0
 90
        2
176
     1
  1
strokes_ogs.tif
176
     1
290
     0
176
     1
 40
1.0
176
     1
 40
1.0
176
     1
  0
VISUALSTYLE
  5
B43F4
102
{ACAD_REACTORS
330
B43EC
102
}
330
B43EC
100
AcDbVisualStyle
  2
Basic
 70
     7
177
     3
291
     1
 70
    58
 90
        1
176
     1
 90
        0
176
     1
 90
        1
176
     1
 90
        0
176
     1
 40
0.6
176
     1
 40
30.0
176
     1
 62
     7
420
 16777215
176
     1
 90
        0
176
     1
 90
        4
176
     1
 62
     7
176
     1
 62
   257
176
     1
 90
        1
176
     1
 90
        1
176
     1
 40
1.0
176
     1
 90
        8
176
     1
 62
     7
176
     1
 40
1.0
176
     1
 90
        1
176
     1
 90
        6
176
     1
 90
        2
176
     1
 62
     7
176
     1
 90
        5
176
     1
 90
        0
176
     1
 90
        0
176
     1
290
     0
176
     1
 90
        1
176
     1
 40
0.0
176
     1
 90
        0
176
     1
290
     0
176
     1
290
     1
176
     1
290
     1
176
     1
290
     0
176
     1
290
     0
176
     1
290
     0
176
     1
290
     0
176
     1
290
     0
176
     1
290
     0
176
     1
 90
       50
176
     1
 40
0.0
176
     1
 40
1.0
176
     1
 90
        0
176
     1
 62
    18
420
        0
176
     1
 90
       50
176
     1
 90
        3
176
     1
 62
     5
420
      255
176
     1
290
     0
176
     1
 90
       50
176
     1
 90
       50
176
     1
 90
       50
176
     1
290
     0
176
     1
 90
       50
176
     1
 62
   256
176
     0
 40
1.0
176
     0
 90
        2
176
     1
  1
strokes_ogs.tif
176
     1
290
     0
176
     1
 40
1.0
176
     1
 40
1.0
176
     1
  0
VISUALSTYLE
  5
B43F8
102
{ACAD_REACTORS
330
B43EC
102
}
330
B43EC
100
AcDbVisualStyle
  2
Brighten
 70
    12
177
     3
291
     1
 70
    58
 90
        2
176
     1
 90
        2
176
     1
 90
        0
176
     1
 90
        0
176
     1
 40
0.6
176
     1
 40
30.0
176
     1
 62
     7
420
 16777215
176
     1
 90
        1
176
     1
 90
        4
176
     1
 62
     7
176
     1
 62
   257
176
     1
 90
        1
176
     1
 90
        1
176
     1
 40
1.0
176
     1
 90
        8
176
     1
 62
     7
176
     1
 40
1.0
176
     1
 90
        1
176
     1
 90
        6
176
     1
 90
        2
176
     1
 62
     7
176
     1
 90
        5
176
     1
 90
        0
176
     1
 90
        0
176
     1
290
     0
176
     1
 90
        1
176
     1
 40
50.0
176
     1
 90
        0
176
     1
290
     0
176
     1
290
     1
176
     1
290
     1
176
     1
290
     0
176
     1
290
     0
176
     1
290
     0
176
     1
290
     0
176
     1
290
     0
176
     1
290
     0
176
     1
 90
       50
176
     1
 40
0.0
176
     1
 40
1.0
176
     1
 90
        0
176
     1
 62
    18
420
        0
176
     1
 90
       50
176
     1
 90
        3
176
     1
 62
     5
420
      255
176
     1
290
     0
176
     1
 90
       50
176
     1
 90
       50
176
     1
 90
       50
176
     1
290
     0
176
     1
 90
       50
176
     1
 62
   256
176
     0
 40
1.0
176
     0
 90
        2
176
     1
  1
strokes_ogs.tif
176
     1
290
     0
176
     1
 40
1.0
176
     1
 40
1.0
176
     1
  0
VISUALSTYLE
  5
B43FC
102
{ACAD_REACTORS
330
B43EC
102
}
330
B43EC
100
AcDbVisualStyle
  2
ColorChange
 70
    16
177
     3
291
     1
 70
    58
 90
        2
176
     1
 90
        2
176
     1
 90
        3
176
     1
 90
        0
176
     1
 40
0.6
176
     1
 40
30.0
176
     1
 62
     8
420
  8421504
176
     1
 90
        1
176
     1
 90
        4
176
     1
 62
     7
176
     1
 62
   257
176
     1
 90
        1
176
     1
 90
        1
176
     1
 40
1.0
176
     1
 90
        8
176
     1
 62
     8
420
  8421504
176
     1
 40
1.0
176
     1
 90
        1
176
     1
 90
        6
176
     1
 90
        2
176
     1
 62
     7
176
     1
 90
        5
176
     1
 90
        0
176
     1
 90
        0
176
     1
290
     0
176
     1
 90
        1
176
     1
 40
0.0
176
     1
 90
        0
176
     1
290
     0
176
     1
290
     1
176
     1
290
     1
176
     1
290
     0
176
     1
290
     0
176
     1
290
     0
176
     1
290
     0
176
     1
290
     0
176
     1
290
     0
176
     1
 90
       50
176
     1
 40
0.0
176
     1
 40
1.0
176
     1
 90
        0
176
     1
 62
    18
420
        0
176
     1
 90
       50
176
     1
 90
        3
176
     1
 62
     5
420
      255
176
     1
290
     0
176
     1
 90
       50
176
     1
 90
       50
176
     1
 90
       50
176
     1
290
     0
176
     1
 90
       50
176
     1
 62
   256
176
     0
 40
1.0
176
     0
 90
        2
176
     1
  1
strokes_ogs.tif
176
     1
290
     0
176
     1
 40
1.0
176
     1
 40
1.0
176
     1
  0
VISUALSTYLE
  5
B43F6
102
{ACAD_REACTORS
330
B43EC
102
}
330
B43EC
100
AcDbVisualStyle
  2
Conceptual
 70
     9
177
     3
291
     0
 70
    58
 90
        3
176
     1
 90
        2
176
     1
 90
        0
176
     1
 90
        0
176
     1
 40
0.6
176
     1
 40
30.0
176
     1
 62
     7
420
 16777215
176
     1
 90
        2
176
     1
 90
        2
176
     1
 62
     7
176
     1
 62
   257
176
     1
 90
        1
176
     1
 90
        1
176
     1
 40
179.0
176
     1
 90
        8
176
     1
 62
     7
176
     1
 40
1.0
176
     1
 90
        1
176
     1
 90
        6
176
     1
 90
        2
176
     1
 62
     7
176
     1
 90
        3
176
     1
 90
        0
176
     1
 90
        0
176
     1
290
     0
176
     1
 90
        1
176
     1
 40
0.0
176
     1
 90
        0
176
     1
290
     0
176
     1
290
     1
176
     1
290
     1
176
     1
290
     0
176
     1
290
     0
176
     1
290
     0
176
     1
290
     0
176
     1
290
     0
176
     1
290
     0
176
     1
 90
       50
176
     1
 40
0.0
176
     1
 40
1.0
176
     1
 90
        0
176
     1
 62
    18
420
        0
176
     1
 90
       50
176
     1
 90
        3
176
     1
 62
     5
420
      255
176
     1
290
     0
176
     1
 90
       50
176
     1
 90
       50
176
     1
 90
       50
176
     1
290
     0
176
     1
 90
       50
176
     1
 62
   256
176
     0
 40
1.0
176
     0
 90
        2
176
     1
  1
strokes_ogs.tif
176
     1
290
     0
176
     1
 40
1.0
176
     1
 40
1.0
176
     1
  0
VISUALSTYLE
  5
B43F7
102
{ACAD_REACTORS
330
B43EC
102
}
330
B43EC
100
AcDbVisualStyle
  2
Dim
 70
    11
177
     3
291
     1
 70
    58
 90
        2
176
     1
 90
        2
176
     1
 90
        0
176
     1
 90
        0
176
     1
 40
0.6
176
     1
 40
30.0
176
     1
 62
     7
420
 16777215
176
     1
 90
        1
176
     1
 90
        4
176
     1
 62
     7
176
     1
 62
   257
176
     1
 90
        1
176
     1
 90
        1
176
     1
 40
1.0
176
     1
 90
        8
176
     1
 62
     7
176
     1
 40
1.0
176
     1
 90
        1
176
     1
 90
        6
176
     1
 90
        2
176
     1
 62
     7
176
     1
 90
        5
176
     1
 90
        0
176
     1
 90
        0
176
     1
290
     0
176
     1
 90
        1
176
     1
 40
-50.0
176
     1
 90
        0
176
     1
290
     0
176
     1
290
     1
176
     1
290
     1
176
     1
290
     0
176
     1
290
     0
176
     1
290
     0
176
     1
290
     0
176
     1
290
     0
176
     1
290
     0
176
     1
 90
       50
176
     1
 40
0.0
176
     1
 40
1.0
176
     1
 90
        0
176
     1
 62
    18
420
        0
176
     1
 90
       50
176
     1
 90
        3
176
     1
 62
     5
420
      255
176
     1
290
     0
176
     1
 90
       50
176
     1
 90
       50
176
     1
 90
       50
176
     1
290
     0
176
     1
 90
       50
176
     1
 62
   256
176
     0
 40
1.0
176
     0
 90
        2
176
     1
  1
strokes_ogs.tif
176
     1
290
     0
176
     1
 40
1.0
176
     1
 40
1.0
176
     1
  0
VISUALSTYLE
  5
B43FF
102
{ACAD_REACTORS
330
B43EC
102
}
330
B43EC
100
AcDbVisualStyle
  2
EdgeColorOff
 70
    22
177
     3
291
     1
 70
    58
 90
        2
176
     0
 90
        2
176
     0
 90
        0
176
     0
 90
        0
176
     0
 40
0.6
176
     0
 40
30.0
176
     0
 62
     7
420
 16777215
176
     0
 90
        1
176
     0
 90
        4
176
     0
 62
     7
176
     0
 62
   257
176
     0
 90
        1
176
     0
 90
        1
176
     0
 40
1.0
176
     0
 90
        8
176
     2
 62
     7
176
     0
 40
1.0
176
     0
 90
        1
176
     0
 90
        6
176
     0
 90
        2
176
     0
 62
     7
176
     0
 90
        5
176
     0
 90
        0
176
     0
 90
        0
176
     0
290
     0
176
     0
 90
        1
176
     0
 40
0.0
176
     0
 90
        0
176
     0
290
     0
176
     0
290
     1
176
     0
290
     1
176
     0
290
     0
176
     0
290
     0
176
     0
290
     0
176
     0
290
     0
176
     0
290
     0
176
     0
290
     0
176
     0
 90
       50
176
     0
 40
0.0
176
     0
 40
1.0
176
     0
 90
        0
176
     0
 62
    18
420
        0
176
     0
 90
       50
176
     0
 90
        3
176
     0
 62
     5
420
      255
176
     0
290
     0
176
     0
 90
       50
176
     0
 90
       50
176
     0
 90
       50
176
     0
290
     0
176
     0
 90
       50
176
     0
 62
   256
176
     0
 40
1.0
176
     0
 90
        2
176
     0
  1
strokes_ogs.tif
176
     0
290
     0
176
     0
 40
1.0
176
     0
 40
1.0
176
     0
  0
VISUALSTYLE
  5
B43FB
102
{ACAD_REACTORS
330
B43EC
102
}
330
B43EC
100
AcDbVisualStyle
  2
Facepattern
 70
    15
177
     3
291
     1
 70
    58
 90
        2
176
     1
 90
        2
176
     1
 90
        0
176
     1
 90
        0
176
     1
 40
0.6
176
     1
 40
30.0
176
     1
 62
     7
420
 16777215
176
     1
 90
        1
176
     1
 90
        4
176
     1
 62
     7
176
     1
 62
   257
176
     1
 90
        1
176
     1
 90
        1
176
     1
 40
1.0
176
     1
 90
        8
176
     1
 62
     7
176
     1
 40
1.0
176
     1
 90
        1
176
     1
 90
        6
176
     1
 90
        2
176
     1
 62
     7
176
     1
 90
        5
176
     1
 90
        0
176
     1
 90
        0
176
     1
290
     0
176
     1
 90
        1
176
     1
 40
0.0
176
     1
 90
        0
176
     1
290
     0
176
     1
290
     1
176
     1
290
     1
176
     1
290
     0
176
     1
290
     0
176
     1
290
     0
176
     1
290
     0
176
     1
290
     0
176
     1
290
     0
176
     1
 90
       50
176
     1
 40
0.0
176
     1
 40
1.0
176
     1
 90
        0
176
     1
 62
    18
420
        0
176
     1
 90
       50
176
     1
 90
        3
176
     1
 62
     5
420
      255
176
     1
290
     0
176
     1
 90
       50
176
     1
 90
       50
176
     1
 90
       50
176
     1
290
     0
176
     1
 90
       50
176
     1
 62
   256
176
     0
 40
1.0
176
     0
 90
        2
176
     1
  1
strokes_ogs.tif
176
     1
290
     0
176
     1
 40
1.0
176
     1
 40
1.0
176
     1
  0
VISUALSTYLE
  5
B43ED
102
{ACAD_REACTORS
330
B43EC
102
}
330
B43EC
100
AcDbVisualStyle
  2
Flat
 70
     0
177
     3
291
     1
 70
    58
 90
        2
176
     1
 90
        1
176
     1
 90
        1
176
     1
 90
        2
176
     1
 40
0.6
176
     1
 40
30.0
176
     1
 62
     7
420
 16777215
176
     1
 90
        0
176
     1
 90
        0
176
     1
 62
     7
176
     1
 62
   257
176
     1
 90
        1
176
     1
 90
        1
176
     1
 40
1.0
176
     1
 90
        8
176
     1
 62
     7
176
     1
 40
1.0
176
     1
 90
        1
176
     1
 90
        6
176
     1
 90
        2
176
     1
 62
     7
176
     1
 90
        5
176
     1
 90
        0
176
     1
 90
        0
176
     1
290
     0
176
     1
 90
       13
176
     1
 40
0.0
176
     1
 90
        0
176
     1
290
     0
176
     1
290
     1
176
     1
290
     1
176
     1
290
     0
176
     1
290
     0
176
     1
290
     0
176
     1
290
     0
176
     1
290
     0
176
     1
290
     0
176
     1
 90
       50
176
     1
 40
0.0
176
     1
 40
1.0
176
     1
 90
        0
176
     1
 62
    18
420
        0
176
     1
 90
       50
176
     1
 90
        3
176
     1
 62
     5
420
      255
176
     1
290
     0
176
     1
 90
       50
176
     1
 90
       50
176
     1
 90
       50
176
     1
290
     0
176
     1
 90
       50
176
     1
 62
   256
176
     0
 40
1.0
176
     0
 90
        2
176
     1
  1
strokes_ogs.tif
176
     1
290
     0
176
     1
 40
1.0
176
     1
 40
1.0
176
     1
  0
VISUALSTYLE
  5
B43EE
102
{ACAD_REACTORS
330
B43EC
102
}
330
B43EC
100
AcDbVisualStyle
  2
FlatWithEdges
 70
     1
177
     3
291
     1
 70
    58
 90
        2
176
     1
 90
        1
176
     1
 90
        1
176
     1
 90
        2
176
     1
 40
0.6
176
     1
 40
30.0
176
     1
 62
     7
420
 16777215
176
     1
 90
        1
176
     1
 90
        0
176
     1
 62
     7
176
     1
 62
   257
176
     1
 90
        1
176
     1
 90
        1
176
     1
 40
1.0
176
     1
 90
        0
176
     1
 62
   257
176
     1
 40
1.0
176
     1
 90
        1
176
     1
 90
        6
176
     1
 90
        2
176
     1
 62
     7
176
     1
 90
        5
176
     1
 90
        0
176
     1
 90
        0
176
     1
290
     0
176
     1
 90
       13
176
     1
 40
0.0
176
     1
 90
        0
176
     1
290
     0
176
     1
290
     1
176
     1
290
     1
176
     1
290
     0
176
     1
290
     0
176
     1
290
     0
176
     1
290
     0
176
     1
290
     0
176
     1
290
     0
176
     1
 90
       50
176
     1
 40
0.0
176
     1
 40
1.0
176
     1
 90
        0
176
     1
 62
    18
420
        0
176
     1
 90
       50
176
     1
 90
        3
176
     1
 62
     5
420
      255
176
     1
290
     0
176
     1
 90
       50
176
     1
 90
       50
176
     1
 90
       50
176
     1
290
     0
176
     1
 90
       50
176
     1
 62
   256
176
     0
 40
1.0
176
     0
 90
        2
176
     1
  1
strokes_ogs.tif
176
     1
290
     0
176
     1
 40
1.0
176
     1
 40
1.0
176
     1
  0
VISUALSTYLE
  5
B43EF
102
{ACAD_REACTORS
330
B43EC
102
}
330
B43EC
100
AcDbVisualStyle
  2
Gouraud
 70
     2
177
     3
291
     1
 70
    58
 90
        2
176
     1
 90
        2
176
     1
 90
        1
176
     1
 90
        2
176
     1
 40
0.6
176
     1
 40
30.0
176
     1
 62
     7
420
 16777215
176
     1
 90
        0
176
     1
 90
        0
176
     1
 62
     7
176
     1
 62
   257
176
     1
 90
        1
176
     1
 90
        1
176
     1
 40
1.0
176
     1
 90
        0
176
     1
 62
     7
176
     1
 40
1.0
176
     1
 90
        1
176
     1
 90
        6
176
     1
 90
        2
176
     1
 62
     7
176
     1
 90
        5
176
     1
 90
        0
176
     1
 90
        0
176
     1
290
     0
176
     1
 90
       13
176
     1
 40
0.0
176
     1
 90
        0
176
     1
290
     0
176
     1
290
     1
176
     1
290
     1
176
     1
290
     0
176
     1
290
     0
176
     1
290
     0
176
     1
290
     0
176
     1
290
     0
176
     1
290
     0
176
     1
 90
       50
176
     1
 40
0.0
176
     1
 40
1.0
176
     1
 90
        0
176
     1
 62
    18
420
        0
176
     1
 90
       50
176
     1
 90
        3
176
     1
 62
     5
420
      255
176
     1
290
     0
176
     1
 90
       50
176
     1
 90
       50
176
     1
 90
       50
176
     1
290
     0
176
     1
 90
       50
176
     1
 62
   256
176
     0
 40
1.0
176
     0
 90
        2
176
     1
  1
strokes_ogs.tif
176
     1
290
     0
176
     1
 40
1.0
176
     1
 40
1.0
176
     1
  0
VISUALSTYLE
  5
B43F0
102
{ACAD_REACTORS
330
B43EC
102
}
330
B43EC
100
AcDbVisualStyle
  2
GouraudWithEdges
 70
     3
177
     3
291
     1
 70
    58
 90
        2
176
     1
 90
        2
176
     1
 90
        1
176
     1
 90
        2
176
     1
 40
0.6
176
     1
 40
30.0
176
     1
 62
     7
420
 16777215
176
     1
 90
        1
176
     1
 90
        0
176
     1
 62
     7
176
     1
 62
   257
176
     1
 90
        1
176
     1
 90
        1
176
     1
 40
1.0
176
     1
 90
        0
176
     1
 62
   257
176
     1
 40
1.0
176
     1
 90
        1
176
     1
 90
        6
176
     1
 90
        2
176
     1
 62
     7
176
     1
 90
        5
176
     1
 90
        0
176
     1
 90
        0
176
     1
290
     0
176
     1
 90
       13
176
     1
 40
0.0
176
     1
 90
        0
176
     1
290
     0
176
     1
290
     1
176
     1
290
     1
176
     1
290
     0
176
     1
290
     0
176
     1
290
     0
176
     1
290
     0
176
     1
290
     0
176
     1
290
     0
176
     1
 90
       50
176
     1
 40
0.0
176
     1
 40
1.0
176
     1
 90
        0
176
     1
 62
    18
420
        0
176
     1
 90
       50
176
     1
 90
        3
176
     1
 62
     5
420
      255
176
     1
290
     0
176
     1
 90
       50
176
     1
 90
       50
176
     1
 90
       50
176
     1
290
     0
176
     1
 90
       50
176
     1
 62
   256
176
     0
 40
1.0
176
     0
 90
        2
176
     1
  1
strokes_ogs.tif
176
     1
290
     0
176
     1
 40
1.0
176
     1
 40
1.0
176
     1
  0
VISUALSTYLE
  5
B43F3
102
{ACAD_REACTORS
330
B43EC
102
}
330
B43EC
100
AcDbVisualStyle
  2
Hidden
 70
     6
177
     3
291
     0
 70
    58
 90
        1
176
     1
 90
        2
176
     1
 90
        2
176
     1
 90
        0
176
     1
 40
0.6
176
     1
 40
30.0
176
     1
 62
     7
420
 16777215
176
     1
 90
        2
176
     1
 90
        2
176
     1
 62
     7
176
     1
 62
   257
176
     1
 90
        2
176
     1
 90
        1
176
     1
 40
40.0
176
     1
 90
        0
176
     1
 62
   257
176
     1
 40
1.0
176
     1
 90
        1
176
     1
 90
        6
176
     1
 90
        2
176
     1
 62
     7
176
     1
 90
        3
176
     1
 90
        0
176
     1
 90
        0
176
     1
290
     0
176
     1
 90
        1
176
     1
 40
0.0
176
     1
 90
        0
176
     1
290
     0
176
     1
290
     1
176
     1
290
     1
176
     1
290
     0
176
     1
290
     0
176
     1
290
     0
176
     1
290
     0
176
     1
290
     0
176
     1
290
     0
176
     1
 90
       50
176
     1
 40
0.0
176
     1
 40
1.0
176
     1
 90
        0
176
     1
 62
    18
420
        0
176
     1
 90
       50
176
     1
 90
        3
176
     1
 62
     5
420
      255
176
     1
290
     0
176
     1
 90
       50
176
     1
 90
       50
176
     1
 90
       50
176
     1
290
     0
176
     1
 90
       50
176
     1
 62
   256
176
     0
 40
1.0
176
     0
 90
        2
176
     1
  1
strokes_ogs.tif
176
     1
290
     0
176
     1
 40
1.0
176
     1
 40
1.0
176
     1
  0
VISUALSTYLE
  5
B43FD
102
{ACAD_REACTORS
330
B43EC
102
}
330
B43EC
100
AcDbVisualStyle
  2
JitterOff
 70
    20
177
     3
291
     1
 70
    58
 90
        2
176
     0
 90
        2
176
     0
 90
        0
176
     0
 90
        0
176
     0
 40
0.6
176
     0
 40
30.0
176
     0
 62
     7
420
 16777215
176
     0
 90
        1
176
     0
 90
        4
176
     0
 62
     7
176
     0
 62
   257
176
     0
 90
        1
176
     0
 90
        1
176
     0
 40
1.0
176
     0
 90
       10
176
     2
 62
     7
176
     0
 40
1.0
176
     0
 90
        1
176
     0
 90
        6
176
     0
 90
        2
176
     0
 62
     7
176
     0
 90
        5
176
     0
 90
        0
176
     0
 90
        0
176
     0
290
     0
176
     0
 90
        1
176
     0
 40
0.0
176
     0
 90
        0
176
     0
290
     0
176
     0
290
     1
176
     0
290
     1
176
     0
290
     0
176
     0
290
     0
176
     0
290
     0
176
     0
290
     0
176
     0
290
     0
176
     0
290
     0
176
     0
 90
       50
176
     0
 40
0.0
176
     0
 40
1.0
176
     0
 90
        0
176
     0
 62
    18
420
        0
176
     0
 90
       50
176
     0
 90
        3
176
     0
 62
     5
420
      255
176
     0
290
     0
176
     0
 90
       50
176
     0
 90
       50
176
     0
 90
       50
176
     0
290
     0
176
     0
 90
       50
176
     0
 62
   256
176
     0
 40
1.0
176
     0
 90
        2
176
     0
  1
strokes_ogs.tif
176
     0
290
     0
176
     0
 40
1.0
176
     0
 40
1.0
176
     0
  0
VISUALSTYLE
  5
B43FA
102
{ACAD_REACTORS
330
B43EC
102
}
330
B43EC
100
AcDbVisualStyle
  2
Linepattern
 70
    14
177
     3
291
     1
 70
    58
 90
        2
176
     1
 90
        2
176
     1
 90
        0
176
     1
 90
        0
176
     1
 40
0.6
176
     1
 40
30.0
176
     1
 62
     7
420
 16777215
176
     1
 90
        1
176
     1
 90
        4
176
     1
 62
     7
176
     1
 62
   257
176
     1
 90
        7
176
     1
 90
        7
176
     1
 40
1.0
176
     1
 90
        8
176
     1
 62
     7
176
     1
 40
1.0
176
     1
 90
        1
176
     1
 90
        6
176
     1
 90
        2
176
     1
 62
     7
176
     1
 90
        5
176
     1
 90
        0
176
     1
 90
        0
176
     1
290
     0
176
     1
 90
        1
176
     1
 40
0.0
176
     1
 90
        0
176
     1
290
     0
176
     1
290
     1
176
     1
290
     1
176
     1
290
     0
176
     1
290
     0
176
     1
290
     0
176
     1
290
     0
176
     1
290
     0
176
     1
290
     0
176
     1
 90
       50
176
     1
 40
0.0
176
     1
 40
1.0
176
     1
 90
        0
176
     1
 62
    18
420
        0
176
     1
 90
       50
176
     1
 90
        3
176
     1
 62
     5
420
      255
176
     1
290
     0
176
     1
 90
       50
176
     1
 90
       50
176
     1
 90
       50
176
     1
290
     0
176
     1
 90
       50
176
     1
 62
   256
176
     0
 40
1.0
176
     0
 90
        2
176
     1
  1
strokes_ogs.tif
176
     1
290
     0
176
     1
 40
1.0
176
     1
 40
1.0
176
     1
  0
VISUALSTYLE
  5
B43FE
102
{ACAD_REACTORS
330
B43EC
102
}
330
B43EC
100
AcDbVisualStyle
  2
OverhangOff
 70
    21
177
     3
291
     1
 70
    58
 90
        2
176
     0
 90
        2
176
     0
 90
        0
176
     0
 90
        0
176
     0
 40
0.6
176
     0
 40
30.0
176
     0
 62
     7
420
 16777215
176
     0
 90
        1
176
     0
 90
        4
176
     0
 62
     7
176
     0
 62
   257
176
     0
 90
        1
176
     0
 90
        1
176
     0
 40
1.0
176
     0
 90
        9
176
     2
 62
     7
176
     0
 40
1.0
176
     0
 90
        1
176
     0
 90
        6
176
     0
 90
        2
176
     0
 62
     7
176
     0
 90
        5
176
     0
 90
        0
176
     0
 90
        0
176
     0
290
     0
176
     0
 90
        1
176
     0
 40
0.0
176
     0
 90
        0
176
     0
290
     0
176
     0
290
     1
176
     0
290
     1
176
     0
290
     0
176
     0
290
     0
176
     0
290
     0
176
     0
290
     0
176
     0
290
     0
176
     0
290
     0
176
     0
 90
       50
176
     0
 40
0.0
176
     0
 40
1.0
176
     0
 90
        0
176
     0
 62
    18
420
        0
176
     0
 90
       50
176
     0
 90
        3
176
     0
 62
     5
420
      255
176
     0
290
     0
176
     0
 90
       50
176
     0
 90
       50
176
     0
 90
       50
176
     0
290
     0
176
     0
 90
       50
176
     0
 62
   256
176
     0
 40
1.0
176
     0
 90
        2
176
     0
  1
strokes_ogs.tif
176
     0
290
     0
176
     0
 40
1.0
176
     0
 40
1.0
176
     0
  0
VISUALSTYLE
  5
B43F5
102
{ACAD_REACTORS
330
B43EC
102
}
330
B43EC
100
AcDbVisualStyle
  2
Realistic
 70
     8
177
     3
291
     0
 70
    58
 90
        2
176
     1
 90
        3
176
     1
 90
        0
176
     1
 90
        2
176
     1
 40
0.6
176
     1
 40
30.0
176
     1
 62
     7
420
 16777215
176
     1
 90
        0
176
     1
 90
        0
176
     1
 62
     7
176
     1
 62
   257
176
     1
 90
        1
176
     1
 90
        1
176
     1
 40
1.0
176
     1
 90
        8
176
     1
 62
   257
176
     1
 40
1.0
176
     1
 90
        1
176
     1
 90
        6
176
     1
 90
        2
176
     1
 62
     7
176
     1
 90
        3
176
     1
 90
        0
176
     1
 90
        0
176
     1
290
     0
176
     1
 90
       13
176
     1
 40
0.0
176
     1
 90
        0
176
     1
290
     0
176
     1
290
     1
176
     1
290
     1
176
     1
290
     0
176
     1
290
     0
176
     1
290
     0
176
     1
290
     0
176
     1
290
     0
176
     1
290
     0
176
     1
 90
       50
176
     1
 40
0.0
176
     1
 40
1.0
176
     1
 90
        0
176
     1
 62
    18
420
        0
176
     1
 90
       50
176
     1
 90
        3
176
     1
 62
     5
420
      255
176
     1
290
     0
176
     1
 90
       50
176
     1
 90
       50
176
     1
 90
       50
176
     1
290
     0
176
     1
 90
       50
176
     1
 62
   256
176
     0
 40
1.0
176
     0
 90
        2
176
     1
  1
strokes_ogs.tif
176
     1
290
     0
176
     1
 40
1.0
176
     1
 40
1.0
176
     1
  0
VISUALSTYLE
  5
B4404
102
{ACAD_REACTORS
330
B43EC
102
}
330
B43EC
100
AcDbVisualStyle
  2
Shaded
 70
    27
177
     3
291
     0
 70
    58
 90
        2
176
     1
 90
        2
176
     1
 90
        1
176
     1
 90
        2
176
     1
 40
0.6
176
     1
 40
30.0
176
     1
 62
     7
420
 16777215
176
     1
 90
        0
176
     1
 90
        4
176
     1
 62
     7
176
     1
 62
   257
176
     1
 90
        1
176
     1
 90
        1
176
     1
 40
1.0
176
     1
 90
        8
176
     1
 62
   257
176
     1
 40
1.0
176
     1
 90
        1
176
     1
 90
        6
176
     1
 90
        2
176
     1
 62
     8
420
  7895160
176
     1
 90
        3
176
     1
 90
        0
176
     1
 90
        0
176
     1
290
     0
176
     1
 90
        5
176
     1
 40
0.0
176
     1
 90
        0
176
     1
290
     0
176
     1
290
     1
176
     1
290
     1
176
     1
290
     0
176
     1
290
     0
176
     1
290
     0
176
     1
290
     0
176
     1
290
     0
176
     1
290
     0
176
     1
 90
       50
176
     1
 40
0.0
176
     1
 40
1.0
176
     1
 90
        0
176
     1
 62
    18
420
        0
176
     1
 90
       50
176
     1
 90
        3
176
     1
 62
     5
420
      255
176
     1
290
     0
176
     1
 90
       50
176
     1
 90
       50
176
     1
 90
       50
176
     1
290
     0
176
     1
 90
       50
176
     1
 62
   256
176
     0
 40
1.0
176
     0
 90
        2
176
     1
  1
strokes_ogs.tif
176
     1
290
     0
176
     1
 40
1.0
176
     1
 40
1.0
176
     1
  0
VISUALSTYLE
  5
B4403
102
{ACAD_REACTORS
330
B43EC
102
}
330
B43EC
100
AcDbVisualStyle
  2
Shaded with edges
 70
    26
177
     3
291
     0
 70
    58
 90
        2
176
     1
 90
        2
176
     1
 90
        1
176
     1
 90
        2
176
     1
 40
0.6
176
     1
 40
30.0
176
     1
 62
     7
420
 16777215
176
     1
 90
        1
176
     1
 90
       10
176
     1
 62
     7
176
     1
 62
   257
176
     1
 90
        2
176
     1
 90
        1
176
     1
 40
1.0
176
     1
 90
        8
176
     1
 62
   257
176
     1
 40
1.0
176
     1
 90
        1
176
     1
 90
        6
176
     1
 90
        2
176
     1
 62
     7
176
     1
 90
        3
176
     1
 90
        0
176
     1
 90
        0
176
     1
290
     0
176
     1
 90
        5
176
     1
 40
0.0
176
     1
 90
        0
176
     1
290
     0
176
     1
290
     1
176
     1
290
     1
176
     1
290
     0
176
     1
290
     0
176
     1
290
     0
176
     1
290
     0
176
     1
290
     0
176
     1
290
     0
176
     1
 90
       50
176
     1
 40
0.0
176
     1
 40
1.0
176
     1
 90
        0
176
     1
 62
    18
420
        0
176
     1
 90
       50
176
     1
 90
        3
176
     1
 62
     5
420
      255
176
     1
290
     0
176
     1
 90
       50
176
     1
 90
       50
176
     1
 90
       50
176
     1
290
     0
176
     1
 90
       50
176
     1
 62
   256
176
     0
 40
1.0
176
     0
 90
        2
176
     1
  1
strokes_ogs.tif
176
     1
290
     0
176
     1
 40
1.0
176
     1
 40
1.0
176
     1
  0
VISUALSTYLE
  5
B4400
102
{ACAD_REACTORS
330
B43EC
102
}
330
B43EC
100
AcDbVisualStyle
  2
Shades of Gray
 70
    23
177
     3
291
     0
 70
    58
 90
        2
176
     1
 90
        2
176
     1
 90
        3
176
     1
 90
        0
176
     1
 40
0.6
176
     1
 40
30.0
176
     1
 62
     7
420
 16777215
176
     1
 90
        2
176
     1
 90
        2
176
     1
 62
     7
176
     1
 62
     7
176
     1
 90
        1
176
     1
 90
        1
176
     1
 40
40.0
176
     1
 90
        8
176
     1
 62
     7
176
     1
 40
1.0
176
     1
 90
        1
176
     1
 90
        6
176
     1
 90
        2
176
     1
 62
     7
176
     1
 90
        3
176
     1
 90
        0
176
     1
 90
        0
176
     1
290
     0
176
     1
 90
        1
176
     1
 40
0.0
176
     1
 90
        0
176
     1
290
     0
176
     1
290
     1
176
     1
290
     1
176
     1
290
     0
176
     1
290
     0
176
     1
290
     0
176
     1
290
     0
176
     1
290
     0
176
     1
290
     0
176
     1
 90
       50
176
     1
 40
0.0
176
     1
 40
1.0
176
     1
 90
        0
176
     1
 62
    18
420
        0
176
     1
 90
       50
176
     1
 90
        3
176
     1
 62
     5
420
      255
176
     1
290
     0
176
     1
 90
       50
176
     1
 90
       50
176
     1
 90
       50
176
     1
290
     0
176
     1
 90
       50
176
     1
 62
   256
176
     0
 40
1.0
176
     0
 90
        2
176
     1
  1
strokes_ogs.tif
176
     1
290
     0
176
     1
 40
1.0
176
     1
 40
1.0
176
     1
  0
VISUALSTYLE
  5
B4401
102
{ACAD_REACTORS
330
B43EC
102
}
330
B43EC
100
AcDbVisualStyle
  2
Sketchy
 70
    24
177
     3
291
     0
 70
    58
 90
        1
176
     1
 90
        2
176
     1
 90
        2
176
     1
 90
        0
176
     1
 40
0.6
176
     1
 40
30.0
176
     1
 62
     7
420
 16777215
176
     1
 90
        2
176
     1
 90
        2
176
     1
 62
     7
176
     1
 62
     7
176
     1
 90
        1
176
     1
 90
        1
176
     1
 40
40.0
176
     1
 90
       11
176
     1
 62
     7
176
     1
 40
1.0
176
     1
 90
        1
176
     1
 90
        6
176
     1
 90
        2
176
     1
 62
     7
176
     1
 90
        6
176
     1
 90
        0
176
     1
 90
        0
176
     1
290
     0
176
     1
 90
        1
176
     1
 40
0.0
176
     1
 90
        0
176
     1
290
     0
176
     1
290
     1
176
     1
290
     1
176
     1
290
     0
176
     1
290
     0
176
     1
290
     0
176
     1
290
     0
176
     1
290
     0
176
     1
290
     0
176
     1
 90
       50
176
     1
 40
0.0
176
     1
 40
1.0
176
     1
 90
        0
176
     1
 62
    18
420
        0
176
     1
 90
       50
176
     1
 90
        3
176
     1
 62
     5
420
      255
176
     1
290
     0
176
     1
 90
       50
176
     1
 90
       50
176
     1
 90
       50
176
     1
290
     0
176
     1
 90
       50
176
     1
 62
   256
176
     0
 40
1.0
176
     0
 90
        2
176
     1
  1
strokes_ogs.tif
176
     1
290
     0
176
     1
 40
1.0
176
     1
 40
1.0
176
     1
  0
VISUALSTYLE
  5
B43F9
102
{ACAD_REACTORS
330
B43EC
102
}
330
B43EC
100
AcDbVisualStyle
  2
Thicken
 70
    13
177
     3
291
     1
 70
    58
 90
        2
176
     1
 90
        2
176
     1
 90
        0
176
     1
 90
        0
176
     1
 40
0.6
176
     1
 40
30.0
176
     1
 62
     7
420
 16777215
176
     1
 90
        1
176
     1
 90
        4
176
     1
 62
     7
176
     1
 62
   257
176
     1
 90
        1
176
     1
 90
        1
176
     1
 40
1.0
176
     1
 90
       12
176
     1
 62
     7
176
     1
 40
1.0
176
     1
 90
        1
176
     1
 90
        6
176
     1
 90
        2
176
     1
 62
     7
176
     1
 90
        5
176
     1
 90
        0
176
     1
 90
        0
176
     1
290
     0
176
     1
 90
        1
176
     1
 40
0.0
176
     1
 90
        0
176
     1
290
     0
176
     1
290
     1
176
     1
290
     1
176
     1
290
     0
176
     1
290
     0
176
     1
290
     0
176
     1
290
     0
176
     1
290
     0
176
     1
290
     0
176
     1
 90
       50
176
     1
 40
0.0
176
     1
 40
1.0
176
     1
 90
        0
176
     1
 62
    18
420
        0
176
     1
 90
       50
176
     1
 90
        3
176
     1
 62
     5
420
      255
176
     1
290
     0
176
     1
 90
       50
176
     1
 90
       50
176
     1
 90
       50
176
     1
290
     0
176
     1
 90
       50
176
     1
 62
   256
176
     0
 40
1.0
176
     0
 90
        2
176
     1
  1
strokes_ogs.tif
176
     1
290
     0
176
     1
 40
1.0
176
     1
 40
1.0
176
     1
  0
VISUALSTYLE
  5
B43F2
102
{ACAD_REACTORS
330
B43EC
102
}
330
B43EC
100
AcDbVisualStyle
  2
Wireframe
 70
     5
177
     3
291
     0
 70
    58
 90
        0
176
     1
 90
        2
176
     1
 90
        0
176
     1
 90
        0
176
     1
 40
0.6
176
     1
 40
30.0
176
     1
 62
     7
420
 16777215
176
     1
 90
        1
176
     1
 90
        4
176
     1
 62
     7
176
     1
 62
   257
176
     1
 90
        1
176
     1
 90
        1
176
     1
 40
1.0
176
     1
 90
        0
176
     1
 62
   257
176
     1
 40
1.0
176
     1
 90
        1
176
     1
 90
        6
176
     1
 90
        2
176
     1
 62
     7
176
     1
 90
        3
176
     1
 90
        0
176
     1
 90
        0
176
     1
290
     0
176
     1
 90
        1
176
     1
 40
0.0
176
     1
 90
        0
176
     1
290
     0
176
     1
290
     1
176
     1
290
     1
176
     1
290
     0
176
     1
290
     0
176
     1
290
     0
176
     1
290
     0
176
     1
290
     0
176
     1
290
     0
176
     1
 90
       50
176
     1
 40
0.0
176
     1
 40
1.0
176
     1
 90
        0
176
     1
 62
    18
420
        0
176
     1
 90
       50
176
     1
 90
        3
176
     1
 62
     5
420
      255
176
     1
290
     0
176
     1
 90
       50
176
     1
 90
       50
176
     1
 90
       50
176
     1
290
     0
176
     1
 90
       50
176
     1
 62
   256
176
     0
 40
1.0
176
     0
 90
        2
176
     1
  1
strokes_ogs.tif
176
     1
290
     0
176
     1
 40
1.0
176
     1
 40
1.0
176
     1
  0
VISUALSTYLE
  5
B4402
102
{ACAD_REACTORS
330
B43EC
102
}
330
B43EC
100
AcDbVisualStyle
  2
X-Ray
 70
    25
177
     3
291
     0
 70
    58
 90
        2
176
     1
 90
        2
176
     1
 90
        1
176
     1
 90
        1
176
     1
 40
0.5
176
     1
 40
30.0
176
     1
 62
     7
420
 16777215
176
     1
 90
        1
176
     1
 90
        0
176
     1
 62
     7
176
     1
 62
   257
176
     1
 90
        1
176
     1
 90
        1
176
     1
 40
1.0
176
     1
 90
        8
176
     1
 62
     7
176
     1
 40
1.0
176
     1
 90
        1
176
     1
 90
        6
176
     1
 90
        2
176
     1
 62
     7
176
     1
 90
        3
176
     1
 90
        0
176
     1
 90
        0
176
     1
290
     0
176
     1
 90
       13
176
     1
 40
0.0
176
     1
 90
        0
176
     1
290
     0
176
     1
290
     1
176
     1
290
     1
176
     1
290
     0
176
     1
290
     0
176
     1
290
     0
176
     1
290
     0
176
     1
290
     0
176
     1
290
     0
176
     1
 90
       50
176
     1
 40
0.0
176
     1
 40
1.0
176
     1
 90
        0
176
     1
 62
    18
420
        0
176
     1
 90
       50
176
     1
 90
        3
176
     1
 62
     5
420
      255
176
     1
290
     0
176
     1
 90
       50
176
     1
 90
       50
176
     1
 90
       50
176
     1
290
     0
176
     1
 90
       50
176
     1
 62
   256
176
     0
 40
1.0
176
     0
 90
        2
176
     1
  1
strokes_ogs.tif
176
     1
290
     0
176
     1
 40
1.0
176
     1
 40
1.0
176
     1
  0
DICTIONARYVAR
  5
B440E
102
{ACAD_REACTORS
330
B440D
102
}
330
B440D
100
DictionaryVariables
280
     0
  1
1:1
  0
DICTIONARYVAR
  5
B4410
102
{ACAD_REACTORS
330
B440D
102
}
330
B440D
100
DictionaryVariables
280
     0
  1
Standard
  0
DICTIONARYVAR
  5
B440F
102
{ACAD_REACTORS
330
B440D
102
}
330
B440D
100
DictionaryVariables
280
     0
  1
Standard
  0
DICTIONARYVAR
  5
B4411
102
{ACAD_REACTORS
330
B440D
102
}
330
B440D
100
DictionaryVariables
280
     0
  1
0
  0
DICTIONARY
  5
B4416
330
B4406
100
AcDbDictionary
280
     1
281
     1
  3
ACAD_ROUNDTRIP_2008_TABLESTYLE_CELLSTYLEMAP
360
B4417
  0
CELLSTYLEMAP
  5
B4417
102
{ACAD_REACTORS
330
B4416
102
}
330
B4416
100
AcDbCellStyleMap
 90
        3
300
CELLSTYLE
  1
TABLEFORMAT_BEGIN
 90
        5
170
     1
 91
        0
 92
    32768
 62
   257
 93
        1
300
CONTENTFORMAT
  1
CONTENTFORMAT_BEGIN
 90
        0
 91
        0
 92
        4
 93
        0
300

 40
0.0
140
1.0
 94
        5
 62
     0
340
B439A
144
0.25
309
CONTENTFORMAT_END
171
     1
301
MARGIN
  1
CELLMARGIN_BEGIN
 40
0.06
 40
0.06
 40
0.06
 40
0.06
 40
0.06
 40
0.06
309
CELLMARGIN_END
 94
        6
 95
        1
302
GRIDFORMAT
  1
GRIDFORMAT_BEGIN
 90
        0
 91
        1
 62
     0
 92
       -2
340
B439C
 93
        0
 40
0.045
309
GRIDFORMAT_END
 95
        2
302
GRIDFORMAT
  1
GRIDFORMAT_BEGIN
 90
        0
 91
        1
 62
     0
 92
       -2
340
B439C
 93
        0
 40
0.045
309
GRIDFORMAT_END
 95
        4
302
GRIDFORMAT
  1
GRIDFORMAT_BEGIN
 90
        0
 91
        1
 62
     0
 92
       -2
340
B439C
 93
        0
 40
0.045
309
GRIDFORMAT_END
 95
        8
302
GRIDFORMAT
  1
GRIDFORMAT_BEGIN
 90
        0
 91
        1
 62
     0
 92
       -2
340
B439C
 93
        0
 40
0.045
309
GRIDFORMAT_END
 95
       16
302
GRIDFORMAT
  1
GRIDFORMAT_BEGIN
 90
        0
 91
        1
 62
     0
 92
       -2
340
B439C
 93
        0
 40
0.045
309
GRIDFORMAT_END
 95
       32
302
GRIDFORMAT
  1
GRIDFORMAT_BEGIN
 90
        0
 91
        1
 62
     0
 92
       -2
340
B439C
 93
        0
 40
0.045
309
GRIDFORMAT_END
309
TABLEFORMAT_END
  1
CELLSTYLE_BEGIN
 90
        1
 91
        1
300
_TITLE
309
CELLSTYLE_END
300
CELLSTYLE
  1
TABLEFORMAT_BEGIN
 90
        5
170
     1
 91
        0
 92
        0
 62
   257
 93
        1
300
CONTENTFORMAT
  1
CONTENTFORMAT_BEGIN
 90
        0
 91
        0
 92
        4
 93
        0
300

 40
0.0
140
1.0
 94
        5
 62
     0
340
B439A
144
0.18
309
CONTENTFORMAT_END
171
     1
301
MARGIN
  1
CELLMARGIN_BEGIN
 40
0.06
 40
0.06
 40
0.06
 40
0.06
 40
0.06
 40
0.06
309
CELLMARGIN_END
 94
        6
 95
        1
302
GRIDFORMAT
  1
GRIDFORMAT_BEGIN
 90
        0
 91
        1
 62
     0
 92
       -2
340
B439C
 93
        0
 40
0.045
309
GRIDFORMAT_END
 95
        2
302
GRIDFORMAT
  1
GRIDFORMAT_BEGIN
 90
        0
 91
        1
 62
     0
 92
       -2
340
B439C
 93
        0
 40
0.045
309
GRIDFORMAT_END
 95
        4
302
GRIDFORMAT
  1
GRIDFORMAT_BEGIN
 90
        0
 91
        1
 62
     0
 92
       -2
340
B439C
 93
        0
 40
0.045
309
GRIDFORMAT_END
 95
        8
302
GRIDFORMAT
  1
GRIDFORMAT_BEGIN
 90
        0
 91
        1
 62
     0
 92
       -2
340
B439C
 93
        0
 40
0.045
309
GRIDFORMAT_END
 95
       16
302
GRIDFORMAT
  1
GRIDFORMAT_BEGIN
 90
        0
 91
        1
 62
     0
 92
       -2
340
B439C
 93
        0
 40
0.045
309
GRIDFORMAT_END
 95
       32
302
GRIDFORMAT
  1
GRIDFORMAT_BEGIN
 90
        0
 91
        1
 62
     0
 92
       -2
340
B439C
 93
        0
 40
0.045
309
GRIDFORMAT_END
309
TABLEFORMAT_END
  1
CELLSTYLE_BEGIN
 90
        2
 91
        1
300
_HEADER
309
CELLSTYLE_END
300
CELLSTYLE
  1
TABLEFORMAT_BEGIN
 90
        5
170
     1
 91
        0
 92
        0
 62
   257
 93
        1
300
CONTENTFORMAT
  1
CONTENTFORMAT_BEGIN
 90
        0
 91
        0
 92
        4
 93
        0
300

 40
0.0
140
1.0
 94
        2
 62
     0
340
B439A
144
0.18
309
CONTENTFORMAT_END
171
     1
301
MARGIN
  1
CELLMARGIN_BEGIN
 40
0.06
 40
0.06
 40
0.06
 40
0.06
 40
0.06
 40
0.06
309
CELLMARGIN_END
 94
        6
 95
        1
302
GRIDFORMAT
  1
GRIDFORMAT_BEGIN
 90
        0
 91
        1
 62
     0
 92
       -2
340
B439C
 93
        0
 40
0.045
309
GRIDFORMAT_END
 95
        2
302
GRIDFORMAT
  1
GRIDFORMAT_BEGIN
 90
        0
 91
        1
 62
     0
 92
       -2
340
B439C
 93
        0
 40
0.045
309
GRIDFORMAT_END
 95
        4
302
GRIDFORMAT
  1
GRIDFORMAT_BEGIN
 90
        0
 91
        1
 62
     0
 92
       -2
340
B439C
 93
        0
 40
0.045
309
GRIDFORMAT_END
 95
        8
302
GRIDFORMAT
  1
GRIDFORMAT_BEGIN
 90
        0
 91
        1
 62
     0
 92
       -2
340
B439C
 93
        0
 40
0.045
309
GRIDFORMAT_END
 95
       16
302
GRIDFORMAT
  1
GRIDFORMAT_BEGIN
 90
        0
 91
        1
 62
     0
 92
       -2
340
B439C
 93
        0
 40
0.045
309
GRIDFORMAT_END
 95
       32
302
GRIDFORMAT
  1
GRIDFORMAT_BEGIN
 90
        0
 91
        1
 62
     0
 92
       -2
340
B439C
 93
        0
 40
0.045
309
GRIDFORMAT_END
309
TABLEFORMAT_END
  1
CELLSTYLE_BEGIN
 90
        3
 91
        2
300
_DATA
309
CELLSTYLE_END
  0
ENDSEC
  0
EOF
